  0
SECTION
  2
HEADER
  9
$ACADVER
  1
AC1015
  9
$DWGCODEPAGE
  3
ANSI_1252
  9
$EXTMAX
 10
297.0
 20
210.0
 30
0.0
  9
$EXTMIN
 10
0.0
 20
0.0
 30
0.0
  9
$LIMMIN
 10
0.0
 20
0.0
  9
$LIMMAX
 10
297.0
 20
210.0
  9
$VIEWCTR
 10
148.5
 20
105.0
  9
$VIEWSIZE
 40
210.0
  9
$CLAYER
  8
0
  9
$LTSCALE
 40
16.335
  9
$CELTYPE
  6
BYLAYER
  9
$DIMSCALE
 40
1.0
  9
$DIMASZ
 40
3.0
  9
$DIMEXO
 40
1.85625
  9
$DIMDLI
 40
11.286
  9
$DIMEXE
 40
5.346
  9
$DIMCEN
 40
2.673
  9
$DIMLFAC
 40
1.0
  9
$DIMBLK
  1
_FILLED
  9
$DIMTXT
 40
3.0
  9
$DIMTOL
 70
1
  9
$DIMLIM
 70
0
  9
$DIMTFAC
 40
1.0
  9
$DIMTP
 40
0.01
  9
$DIMTM
 40
0.01
  9
$PDMODE
 70
3
  9
$PDSIZE
 40
3.0
  9
$HANDSEED
  5
49C
  9
$TILEMODE
 70
1
  9
$MEASUREMENT
 70
1
  9
$INSUNITS
 70
4
  0
ENDSEC
  0
SECTION
  2
CLASSES
  0
CLASS
  1
ACDBDICTIONARYWDFLT
  2
AcDbDictionaryWithDefault
  3
AutoCAD 2000
 90
0
280
0
281
0
  0
CLASS
  1
ACDBPLACEHOLDER
  2
AcDbPlaceHolder
  3
AutoCAD 2000
 90
0
280
0
281
0
  0
CLASS
  1
LAYOUT
  2
AcDbLayout
  3
AutoCAD 2000
 90
0
280
0
281
0
  0
ENDSEC
  0
SECTION
  2
TABLES
  0
TABLE
  2
VPORT
  5
8
100
AcDbSymbolTable
 70
2
  0
VPORT
  5
1F4
100
AcDbSymbolTableRecord
100
AcDbViewportTableRecord
  2
*ACTIVE
 70
0
 10
0.0
 20
0.0
 11
1.0
 21
1.0
 12
148.5
 22
105.0
 13
0.0
 23
0.0
 14
1.0
 24
1.0
 15
0.0
 25
0.0
 16
0.0
 26
0.0
 36
1.0
 17
0.0
 27
0.0
 37
0.0
 40
210.0
 41
1.4142857143
 42
50.0
 43
0.0
 44
0.0
 50
0.0
 51
0.0
 71
0
 72
100
 73
1
 74
1
 75
0
 76
0
 77
0
 78
0
  0
ENDTAB
  0
TABLE
  2
LTYPE
  5
5
100
AcDbSymbolTable
 70
6
  0
LTYPE
  5
14
100
AcDbSymbolTableRecord
100
AcDbLinetypeTableRecord
  2
BYBLOCK
 70
0
  3

 72
65
 73
0
 40
0.0
  0
LTYPE
  5
15
100
AcDbSymbolTableRecord
100
AcDbLinetypeTableRecord
  2
BYLAYER
 70
0
  3

 72
65
 73
0
 40
0.0
  0
LTYPE
  5
16
100
AcDbSymbolTableRecord
100
AcDbLinetypeTableRecord
  2
CONTINUOUS
 70
64
  3
Solid line
 72
65
 73
0
 40
0.0
  0
LTYPE
  5
1F5
100
AcDbSymbolTableRecord
100
AcDbLinetypeTableRecord
  2
CENTER
 70
64
  3
____ _ ____ _ ____ _ ____ _ ____ _ ____ _ ____
 72
65
 73
4
 40
0.6
 49
0.375
 74
0
 49
-0.075
 74
0
 49
0.075
 74
0
 49
-0.075
 74
0
  0
LTYPE
  5
1F6
100
AcDbSymbolTableRecord
100
AcDbLinetypeTableRecord
  2
HIDDEN
 70
64
  3
- - - - - - - - - - - - - - - - - - - -
 72
65
 73
2
 40
0.2
 49
0.1
 74
0
 49
-0.1
 74
0
  0
LTYPE
  5
1F7
100
AcDbSymbolTableRecord
100
AcDbLinetypeTableRecord
  2
PHANTOM
 70
64
  3
_____ _ _ _____ _ _ _____ _ _ _____
 72
65
 73
6
 40
0.8
 49
0.45
 74
0
 49
-0.05
 74
0
 49
0.1
 74
0
 49
-0.05
 74
0
 49
0.1
 74
0
 49
-0.05
 74
0
  0
LTYPE
  5
1F8
100
AcDbSymbolTableRecord
100
AcDbLinetypeTableRecord
  2
DOT
 70
64
  3
. . . . . . . . . . . . . . . . . . . .
 72
65
 73
2
 40
0.2
 49
0.1
 74
0
 49
-0.1
 74
0
  0
LTYPE
  5
1F9
100
AcDbSymbolTableRecord
100
AcDbLinetypeTableRecord
  2
DASHED
 70
64
  3
- - - - - - - - - - - - - - - - - - - -
 72
65
 73
2
 40
0.2
 49
0.1
 74
0
 49
-0.1
 74
0
  0
ENDTAB
  0
TABLE
  2
LAYER
  5
2
100
AcDbSymbolTable
 70
36
  0
LAYER
  5
10
100
AcDbSymbolTableRecord
100
AcDbLayerTableRecord
  2
0
 70
0
 62
7
  6
CONTINUOUS
370
-3
390
F
  0
LAYER
  5
1FA
100
AcDbSymbolTableRecord
100
AcDbLayerTableRecord
  2
DEFAULT_1
 70
0
 62
7
  6
CENTER
370
-3
390
F
  0
LAYER
  5
1FB
100
AcDbSymbolTableRecord
100
AcDbLayerTableRecord
  2
DEFAULT_2
 70
0
 62
7
  6
HIDDEN
370
-3
390
F
  0
LAYER
  5
1FC
100
AcDbSymbolTableRecord
100
AcDbLayerTableRecord
  2
DEFAULT_3
 70
0
 62
7
  6
PHANTOM
370
-3
390
F
  0
LAYER
  5
1FD
100
AcDbSymbolTableRecord
100
AcDbLayerTableRecord
  2
ASSI
 70
0
 62
7
  6
CONTINUOUS
370
-3
390
F
  0
LAYER
  5
1FE
100
AcDbSymbolTableRecord
100
AcDbLayerTableRecord
  2
COORDINATE
 70
0
 62
7
  6
CONTINUOUS
370
-3
390
F
  0
LAYER
  5
1FF
100
AcDbSymbolTableRecord
100
AcDbLayerTableRecord
  2
COORD_ORIGINE
 70
0
 62
7
  6
CONTINUOUS
370
-3
390
F
  0
LAYER
  5
200
100
AcDbSymbolTableRecord
100
AcDbLayerTableRecord
  2
COPY_PUBLISH
 70
0
 62
7
  6
CONTINUOUS
370
-3
390
F
  0
LAYER
  5
201
100
AcDbSymbolTableRecord
100
AcDbLayerTableRecord
  2
COSMETIC
 70
0
 62
7
  6
CONTINUOUS
370
-3
390
F
  0
LAYER
  5
202
100
AcDbSymbolTableRecord
100
AcDbLayerTableRecord
  2
CURVE
 70
0
 62
7
  6
CONTINUOUS
370
-3
390
F
  0
LAYER
  5
203
100
AcDbSymbolTableRecord
100
AcDbLayerTableRecord
  2
DRAFT
 70
0
 62
7
  6
CONTINUOUS
370
-3
390
F
  0
LAYER
  5
204
100
AcDbSymbolTableRecord
100
AcDbLayerTableRecord
  2
IMPORT_IGES
 70
0
 62
7
  6
CONTINUOUS
370
-3
390
F
  0
LAYER
  5
205
100
AcDbSymbolTableRecord
100
AcDbLayerTableRecord
  2
INTFCLR_2
 70
0
 62
7
  6
CONTINUOUS
370
-3
390
F
  0
LAYER
  5
206
100
AcDbSymbolTableRecord
100
AcDbLayerTableRecord
  2
PIANI
 70
0
 62
7
  6
CONTINUOUS
370
-3
390
F
  0
LAYER
  5
207
100
AcDbSymbolTableRecord
100
AcDbLayerTableRecord
  2
PIANI_ORIGINE
 70
0
 62
7
  6
CONTINUOUS
370
-3
390
F
  0
LAYER
  5
208
100
AcDbSymbolTableRecord
100
AcDbLayerTableRecord
  2
PIANI_RIFERIMENTO
 70
0
 62
7
  6
CONTINUOUS
370
-3
390
F
  0
LAYER
  5
209
100
AcDbSymbolTableRecord
100
AcDbLayerTableRecord
  2
PUNTI
 70
0
 62
7
  6
CONTINUOUS
370
-3
390
F
  0
LAYER
  5
20A
100
AcDbSymbolTableRecord
100
AcDbLayerTableRecord
  2
RACCORDO
 70
0
 62
7
  6
CONTINUOUS
370
-3
390
F
  0
LAYER
  5
20B
100
AcDbSymbolTableRecord
100
AcDbLayerTableRecord
  2
SMUSSO
 70
0
 62
7
  6
CONTINUOUS
370
-3
390
F
  0
LAYER
  5
20C
100
AcDbSymbolTableRecord
100
AcDbLayerTableRecord
  2
SNAPLINE
 70
0
 62
7
  6
CONTINUOUS
370
-3
390
F
  0
LAYER
  5
20D
100
AcDbSymbolTableRecord
100
AcDbLayerTableRecord
  2
SUPERFICI
 70
0
 62
7
  6
CONTINUOUS
370
-3
390
F
  0
LAYER
  5
20E
100
AcDbSymbolTableRecord
100
AcDbLayerTableRecord
  2
TRASH
 70
0
 62
7
  6
CONTINUOUS
370
-3
390
F
  0
LAYER
  5
20F
100
AcDbSymbolTableRecord
100
AcDbLayerTableRecord
  2
XSEC_DATUMS
 70
0
 62
7
  6
CONTINUOUS
370
-3
390
F
  0
ENDTAB
  0
TABLE
  2
STYLE
  5
3
100
AcDbSymbolTable
 70
1
  0
STYLE
  5
11
100
AcDbSymbolTableRecord
100
AcDbTextStyleTableRecord
  2
STANDARD
 70
0
 40
0.0
 41
0.8
 50
0.0
 71
0
 42
0.2
  3
txt
  4

  0
STYLE
  5
210
100
AcDbSymbolTableRecord
100
AcDbTextStyleTableRecord
  2
TEXTSTYLE_1
 70
0
 40
0.0
 41
0.8
 50
0.0
 71
0
 42
0.2
  3
gdt
  4

  0
ENDTAB
  0
TABLE
  2
VIEW
  5
6
100
AcDbSymbolTable
 70
0
  0
ENDTAB
  0
TABLE
  2
UCS
  5
7
100
AcDbSymbolTable
 70
0
  0
ENDTAB
  0
TABLE
  2
APPID
  5
9
100
AcDbSymbolTable
 70
1
  0
APPID
  5
211
100
AcDbSymbolTableRecord
100
AcDbRegAppTableRecord
  2
ACAD
 70
0
  0
ENDTAB
  0
TABLE
  2
BLOCK_RECORD
  5
1
100
AcDbSymbolTable
 70
0
  0
BLOCK_RECORD
  5
212
100
AcDbSymbolTableRecord
100
AcDbBlockTableRecord
  2
*Model_Space
  0
BLOCK_RECORD
  5
213
100
AcDbSymbolTableRecord
100
AcDbBlockTableRecord
  2
*Paper_Space
  0
ENDTAB
  0
TABLE
  2
DIMSTYLE
  5
A
100
AcDbSymbolTable
 70
1
100
AcDbDimStyleTable
 71
0
  0
DIMSTYLE
105
214
100
AcDbSymbolTableRecord
100
AcDbDimStyleTableRecord
  2
STANDARD
 70
0
  3

  4

 40
1.0
 41
3.0
 42
0.0625
 43
0.38
 44
0.18
 45
0.0
 46
0.0
 47
0.01
 48
0.01
140
3.0
141
0.09
142
0.0
143
25.4
144
1.0
145
0.0
146
1.0
147
0.09
 71
1.0
 72
0.0
 73
0
 74
0
 75
0
 76
0
 77
1
 78
8
170
0
171
2
172
0
173
0
174
0
175
0
176
0
177
0
178
0
270
2
271
2
272
2
273
2
274
2
275
0
280
0
281
0
282
0
283
1
284
8
285
0
286
0
287
3
288
0
340
11
  0
ENDTAB
  0
ENDSEC
  0
SECTION
  2
BLOCKS
  0
BLOCK
  5
20
100
AcDbEntity
  8
0
100
AcDbBlockBegin
  2
*Model_Space
 70
0
 10
0.0
 20
0.0
 30
0.0
  3
*Model_Space
  1

  0
ENDBLK
  5
21
100
AcDbEntity
  8
0
100
AcDbBlockEnd
  0
BLOCK
  5
1C
100
AcDbEntity
  8
0
100
AcDbBlockBegin
  2
*Paper_Space
 70
0
 10
0.0
 20
0.0
 30
0.0
  3
*Paper_Space
  1

  0
ENDBLK
  5
1D
100
AcDbEntity
  8
0
100
AcDbBlockEnd
  0
ENDSEC
  0
SECTION
  2
ENTITIES
  0
LINE
  5
215
100
AcDbEntity
  8
SMUSSO
100
AcDbLine
 62
7
  6
CONTINUOUS
 10
-49.9394164213
 20
69.3461865224
 11
-50.6465232025
 21
68.8337145092
  0
LINE
  5
216
100
AcDbEntity
  8
SMUSSO
100
AcDbLine
 62
7
  6
CONTINUOUS
 10
-50.3536299837
 20
67.9801611186
 11
-50.6465232025
 21
67.7678882604
  0
LINE
  5
217
100
AcDbEntity
  8
SMUSSO
100
AcDbLine
 62
7
  6
CONTINUOUS
 10
-49.9394164213
 20
69.3461865224
 11
-47.4998980262
 21
70.5659457199
  0
LINE
  5
218
100
AcDbEntity
  8
SMUSSO
100
AcDbLine
 62
7
  6
CONTINUOUS
 10
-49.9394164213
 20
69.3461865224
 11
-50.3536299837
 21
67.9801611186
  0
LWPOLYLINE
  5
219
100
AcDbEntity
  8
RACCORDO
100
AcDbPolyline
 62
7
  6
CONTINUOUS
 90
15
 70
0
 10
-37.3665921981
 20
37.9691146936
 10
-37.3929208069
 20
37.953734136
 10
-37.4243487589
 20
37.9320109846
 10
-37.4540471903
 20
37.9075386599
 10
-37.4817978244
 20
37.8804629763
 10
-37.5075406852
 20
37.8507819639
 10
-37.5310864488
 20
37.8186101854
 10
-37.5522454879
 20
37.7841037442
 10
-37.5709535922
 20
37.7472489369
 10
-37.5870646904
 20
37.7081408101
 10
-37.6004174693
 20
37.666922899
 10
-37.6109161686
 20
37.6235584288
 10
-37.6184255818
 20
37.5780651741
 10
-37.6227731637
 20
37.5305718221
 10
-37.6238722246
 20
37.4909777818
  0
LINE
  5
21A
100
AcDbEntity
  8
SMUSSO
100
AcDbLine
 62
7
  6
CONTINUOUS
 10
48.2070048074
 20
-70.0534737067
 11
46.792791245
 21
-69.6947542391
  0
LINE
  5
21B
100
AcDbEntity
  8
SMUSSO
100
AcDbLine
 62
7
  6
CONTINUOUS
 10
-50.6465232025
 20
-20.9750970153
 11
-50.3536299837
 21
-21.4802630924
  0
LINE
  5
21C
100
AcDbEntity
  8
SMUSSO
100
AcDbLine
 62
7
  6
CONTINUOUS
 10
-50.6465232025
 20
68.8337145092
 11
-50.6465232025
 21
-20.9750970153
  0
LINE
  5
21D
100
AcDbEntity
  8
RACCORDO
100
AcDbLine
 62
7
  6
CONTINUOUS
 10
-37.3665769033
 20
37.9691273946
 11
-36.0066528291
 21
38.7028376367
  0
LINE
  5
21E
100
AcDbEntity
  8
RACCORDO
100
AcDbLine
 62
7
  6
CONTINUOUS
 10
-37.0447808851
 20
37.9538291549
 11
-35.6863531295
 21
38.6867320937
  0
LINE
  5
21F
100
AcDbEntity
  8
SMUSSO
100
AcDbLine
 62
7
  6
CONTINUOUS
 10
-49.9394164213
 20
-21.8462884961
 11
-50.3536299837
 21
-21.4802630924
  0
LINE
  5
220
100
AcDbEntity
  8
DRAFT
100
AcDbLine
 62
7
  6
CONTINUOUS
 10
-33.1360652186
 20
28.1928587957
 11
-33.6721043267
 21
27.8951929248
  0
LINE
  5
221
100
AcDbEntity
  8
RACCORDO
100
AcDbLine
 62
7
  6
CONTINUOUS
 10
-32.651857572
 20
28.3818136161
 11
-33.5871417608
 21
27.9105654064
  0
LINE
  5
222
100
AcDbEntity
  8
RACCORDO
100
AcDbLine
 62
7
  6
CONTINUOUS
 10
-32.9433724096
 20
29.2173442087
 11
-32.3678129088
 21
29.4831566595
  0
LINE
  5
223
100
AcDbEntity
  8
RACCORDO
100
AcDbLine
 62
7
  6
CONTINUOUS
 10
-33.0245097541
 20
29.0535698298
 11
-32.4489502533
 21
29.3193822806
  0
LINE
  5
224
100
AcDbEntity
  8
SMUSSO
100
AcDbLine
 62
7
  6
CONTINUOUS
 10
-49.9394164213
 20
-21.8462884961
 11
47.4998980262
 21
-70.5659457199
  0
LINE
  5
225
100
AcDbEntity
  8
SMUSSO
100
AcDbLine
 62
7
  6
CONTINUOUS
 10
-50.3536299837
 20
-21.4802630924
 11
46.4998980262
 21
-69.9070270973
  0
LWPOLYLINE
  5
226
100
AcDbEntity
  8
RACCORDO
100
AcDbPolyline
 62
7
  6
CONTINUOUS
 90
14
 70
0
 10
-37.6232807333
 20
-6.8079974184
 10
-37.6195378342
 20
-6.8589677123
 10
-37.6124661229
 20
-6.9098868349
 10
-37.6021986559
 20
-6.9606175275
 10
-37.5888576961
 20
-7.0109339383
 10
-37.5725423048
 20
-7.0606996683
 10
-37.5533321226
 20
-7.1097563507
 10
-37.5313568753
 20
-7.1577867998
 10
-37.5066613656
 20
-7.2046935647
 10
-37.4793259281
 20
-7.2502312919
 10
-37.4496202648
 20
-7.293906104
 10
-37.417585159
 20
-7.3356056984
 10
-37.3833072424
 20
-7.3751105523
 10
-37.3471956328
 20
-7.4119006924
  0
LINE
  5
227
100
AcDbEntity
  8
RACCORDO
100
AcDbLine
 62
7
  6
CONTINUOUS
 10
-37.623872236
 20
-6.7784189617
 11
-37.6232807333
 21
-6.8079974184
  0
LINE
  5
228
100
AcDbEntity
  8
RACCORDO
100
AcDbLine
 62
7
  6
CONTINUOUS
 10
-37.6238783048
 20
37.4909546217
 11
-37.6238783048
 21
-6.7785247226
  0
LINE
  5
229
100
AcDbEntity
  8
RACCORDO
100
AcDbLine
 62
7
  6
CONTINUOUS
 10
-37.5360103392
 20
37.3848886093
 11
-37.5360103392
 21
-6.884590743
  0
LINE
  5
22A
100
AcDbEntity
  8
RACCORDO
100
AcDbLine
 62
7
  6
CONTINUOUS
 10
-35.8336867252
 20
-5.3708370821
 11
-35.8336867252
 21
34.1688113345
  0
LINE
  5
22B
100
AcDbEntity
  8
RACCORDO
100
AcDbLine
 62
7
  6
CONTINUOUS
 10
-35.4494817599
 20
-5.3876440229
 11
-35.4494817599
 21
34.1520046965
  0
LINE
  5
22C
100
AcDbEntity
  8
RACCORDO
100
AcDbLine
 62
7
  6
CONTINUOUS
 10
-34.273880211
 20
33.7857517846
 11
-34.273880211
 21
-4.5180484466
  0
LINE
  5
22D
100
AcDbEntity
  8
RACCORDO
100
AcDbLine
 62
7
  6
CONTINUOUS
 10
-34.2133392439
 20
33.7554813011
 11
-34.2133392439
 21
-4.4930953857
  0
LINE
  5
22E
100
AcDbEntity
  8
DRAFT
100
AcDbLine
 62
7
  6
CONTINUOUS
 10
-33.1360652186
 20
21.6976682673
 11
-33.6721043267
 21
21.4000023964
  0
LINE
  5
22F
100
AcDbEntity
  8
RACCORDO
100
AcDbLine
 62
7
  6
CONTINUOUS
 10
-32.4397578464
 20
28.0159957022
 11
-33.3750420352
 21
27.5447474924
  0
LINE
  5
230
100
AcDbEntity
  8
RACCORDO
100
AcDbLine
 62
7
  6
CONTINUOUS
 10
-33.3750420352
 20
22.0897816403
 11
-32.4397578464
 21
22.5217268729
  0
LWPOLYLINE
  5
231
100
AcDbEntity
  8
RACCORDO
100
AcDbPolyline
 62
7
  6
CONTINUOUS
 90
20
 70
0
 10
-31.6619055967
 20
-3.9490317549
 10
-31.6619320975
 20
-3.9450113644
 10
-31.6626242845
 20
-3.928179001
 10
-31.6642883763
 20
-3.9111327125
 10
-31.6669665542
 20
-3.8939349047
 10
-31.6706964733
 20
-3.8766556626
 10
-31.6755142956
 20
-3.8593584166
 10
-31.6814561101
 20
-3.8421046281
 10
-31.6885485102
 20
-3.8249793415
 10
-31.6968161327
 20
-3.808063181
 10
-31.7062909318
 20
-3.7914218288
 10
-31.7169875474
 20
-3.775153058
 10
-31.7289131582
 20
-3.7593587834
 10
-31.7420861519
 20
-3.7441238012
 10
-31.7565014272
 20
-3.7295607212
 10
-31.7721410422
 20
-3.7157882291
 10
-31.7889962028
 20
-3.7029125123
 10
-31.8070346757
 20
-3.691056118
 10
-31.8262018209
 20
-3.680349032
 10
-31.8287464437
 20
-3.6790615181
  0
LINE
  5
232
100
AcDbEntity
  8
RACCORDO
100
AcDbLine
 62
7
  6
CONTINUOUS
 10
-33.9178936598
 20
-4.344233463
 11
-33.9178936598
 21
33.607758509
  0
LINE
  5
233
100
AcDbEntity
  8
DRAFT
100
AcDbLine
 62
7
  6
CONTINUOUS
 10
-33.6721043267
 20
2.3474435131
 11
-33.6721043267
 21
8.8426340415
  0
LINE
  5
234
100
AcDbEntity
  8
DRAFT
100
AcDbLine
 62
7
  6
CONTINUOUS
 10
-33.6721043267
 20
21.4000023964
 11
-33.6721043267
 21
27.8951929248
  0
LINE
  5
235
100
AcDbEntity
  8
RACCORDO
100
AcDbLine
 62
7
  6
CONTINUOUS
 10
-33.3750420352
 20
27.5447474924
 11
-33.3750420352
 21
22.0897816403
  0
LINE
  5
236
100
AcDbEntity
  8
RACCORDO
100
AcDbLine
 62
7
  6
CONTINUOUS
 10
-33.3750420352
 20
8.4921886092
 11
-33.3750420352
 21
3.037222757
  0
LINE
  5
237
100
AcDbEntity
  8
RACCORDO
100
AcDbLine
 62
7
  6
CONTINUOUS
 10
-33.1360652186
 20
33.2168442884
 11
-33.1360652186
 21
28.1928587957
  0
LINE
  5
238
100
AcDbEntity
  8
DRAFT
100
AcDbLine
 62
7
  6
CONTINUOUS
 10
-33.1360652186
 20
21.6976682673
 11
-33.1360652186
 21
9.1402999124
  0
LINE
  5
239
100
AcDbEntity
  8
RACCORDO
100
AcDbLine
 62
7
  6
CONTINUOUS
 10
-33.1360652186
 20
2.645109384
 11
-33.1360652186
 21
-3.9686261444
  0
LINE
  5
23A
100
AcDbEntity
  8
RACCORDO
100
AcDbLine
 62
7
  6
CONTINUOUS
 10
-32.9433724096
 20
-4.171455509
 11
-32.9433724096
 21
1.7814845526
  0
LINE
  5
23B
100
AcDbEntity
  8
RACCORDO
100
AcDbLine
 62
7
  6
CONTINUOUS
 10
-32.9433724096
 20
10.1647853254
 11
-32.9433724096
 21
20.8340434359
  0
LINE
  5
23C
100
AcDbEntity
  8
RACCORDO
100
AcDbLine
 62
7
  6
CONTINUOUS
 10
-32.9433724096
 20
29.2173442087
 11
-32.9433724096
 21
33.1204978839
  0
LINE
  5
23D
100
AcDbEntity
  8
RACCORDO
100
AcDbLine
 62
7
  6
CONTINUOUS
 10
-32.8337122579
 20
29.1416864364
 11
-32.8337122579
 21
28.4727409591
  0
LINE
  5
23E
100
AcDbEntity
  8
RACCORDO
100
AcDbLine
 62
7
  6
CONTINUOUS
 10
-32.8337122579
 20
22.2134832061
 11
-32.8337122579
 21
21.6167600599
  0
LINE
  5
23F
100
AcDbEntity
  8
RACCORDO
100
AcDbLine
 62
7
  6
CONTINUOUS
 10
-32.8337122579
 20
10.0891275531
 11
-32.8337122579
 21
9.4201820758
  0
LINE
  5
240
100
AcDbEntity
  8
RACCORDO
100
AcDbLine
 62
7
  6
CONTINUOUS
 10
-32.8337122579
 20
3.1609243228
 11
-32.8337122579
 21
2.5642011766
  0
LINE
  5
241
100
AcDbEntity
  8
RACCORDO
100
AcDbLine
 62
7
  6
CONTINUOUS
 10
-32.6933821581
 20
29.2064955269
 11
-32.6933821581
 21
28.5885544121
  0
LINE
  5
242
100
AcDbEntity
  8
RACCORDO
100
AcDbLine
 62
7
  6
CONTINUOUS
 10
-32.6933821581
 20
22.2782922966
 11
-32.6933821581
 21
21.54659501
  0
LINE
  5
243
100
AcDbEntity
  8
RACCORDO
100
AcDbLine
 62
7
  6
CONTINUOUS
 10
-32.6933821581
 20
10.1539366436
 11
-32.6933821581
 21
9.5359955289
  0
LINE
  5
244
100
AcDbEntity
  8
RACCORDO
100
AcDbLine
 62
7
  6
CONTINUOUS
 10
-32.6933821581
 20
3.2257334133
 11
-32.6933821581
 21
2.4940361267
  0
LINE
  5
245
100
AcDbEntity
  8
RACCORDO
100
AcDbLine
 62
7
  6
CONTINUOUS
 10
-32.4397578464
 20
28.0159957022
 11
-32.4397578464
 21
22.5217268729
  0
LINE
  5
246
100
AcDbEntity
  8
RACCORDO
100
AcDbLine
 62
7
  6
CONTINUOUS
 10
-32.4397578464
 20
8.9634368189
 11
-32.4397578464
 21
3.4691679897
  0
LINE
  5
247
100
AcDbEntity
  8
RACCORDO
100
AcDbLine
 62
7
  6
CONTINUOUS
 10
-32.3678129088
 20
-3.8814566107
 11
-32.3678129088
 21
2.0714834509
  0
LINE
  5
248
100
AcDbEntity
  8
RACCORDO
100
AcDbLine
 62
7
  6
CONTINUOUS
 10
-32.3678129088
 20
10.4305977763
 11
-32.3678129088
 21
21.1240423342
  0
LINE
  5
249
100
AcDbEntity
  8
RACCORDO
100
AcDbLine
 62
7
  6
CONTINUOUS
 10
-32.3678129088
 20
29.4831566595
 11
-32.3678129088
 21
32.8327181335
  0
LINE
  5
24A
100
AcDbEntity
  8
RACCORDO
100
AcDbLine
 62
7
  6
CONTINUOUS
 10
-31.8022361278
 20
-4.0719794791
 11
-31.8022361278
 21
-4.1642450012
  0
LINE
  5
24B
100
AcDbEntity
  8
RACCORDO
100
AcDbLine
 62
7
  6
CONTINUOUS
 10
-31.6619060279
 20
-3.9497916684
 11
-31.6619060279
 21
-4.2344100511
  0
LINE
  5
24C
100
AcDbEntity
  8
RACCORDO
100
AcDbLine
 62
7
  6
CONTINUOUS
 10
-29.0646516966
 20
20.230327905
 11
-29.0646516966
 21
14.744835772
  0
LINE
  5
24D
100
AcDbEntity
  8
RACCORDO
100
AcDbLine
 62
7
  6
CONTINUOUS
 10
-28.9944866467
 20
20.3171602013
 11
-28.9944866467
 21
14.8316680683
  0
LINE
  5
24E
100
AcDbEntity
  8
RACCORDO
100
AcDbLine
 62
7
  6
CONTINUOUS
 10
-33.1360652186
 20
21.2096396342
 11
-32.5799126344
 21
21.4898602482
  0
LINE
  5
24F
100
AcDbEntity
  8
RACCORDO
100
AcDbLine
 62
7
  6
CONTINUOUS
 10
-32.9433724096
 20
20.8340434359
 11
-32.3678129088
 21
21.1240423342
  0
LINE
  5
250
100
AcDbEntity
  8
RACCORDO
100
AcDbLine
 62
7
  6
CONTINUOUS
 10
-29.241401468
 20
20.5351761666
 11
-32.3678129088
 21
18.9844530438
  0
LINE
  5
251
100
AcDbEntity
  8
RACCORDO
100
AcDbLine
 62
7
  6
CONTINUOUS
 10
-29.0646516966
 20
20.230327905
 11
-32.3678129088
 21
18.5919355925
  0
LINE
  5
252
100
AcDbEntity
  8
RACCORDO
100
AcDbLine
 62
7
  6
CONTINUOUS
 10
-33.4561793797
 20
21.9260072614
 11
-32.5208951909
 21
22.357952494
  0
LINE
  5
253
100
AcDbEntity
  8
RACCORDO
100
AcDbLine
 62
7
  6
CONTINUOUS
 10
-29.7269725646
 20
20.7329577134
 11
-32.021532245
 21
19.6732540139
  0
LINE
  5
254
100
AcDbEntity
  8
RACCORDO
100
AcDbLine
 62
7
  6
CONTINUOUS
 10
-29.6190677083
 20
20.7240092868
 11
-31.9604172109
 21
19.6426964968
  0
LINE
  5
255
100
AcDbEntity
  8
SMUSSO
100
AcDbLine
 62
7
  6
CONTINUOUS
 10
47.4998980262
 20
-70.5659457199
 11
46.4998980262
 21
-69.9070270973
  0
LWPOLYLINE
  5
256
100
AcDbEntity
  8
RACCORDO
100
AcDbPolyline
 62
7
  6
CONTINUOUS
 90
5
 70
0
 10
-37.3093331741
 20
-7.4458449044
 10
-37.2697692003
 20
-7.4768244406
 10
-37.2288957073
 20
-7.5044699111
 10
-37.186909086
 20
-7.5286162569
 10
-37.175212902
 20
-7.5346173715
  0
LINE
  5
257
100
AcDbEntity
  8
RACCORDO
100
AcDbLine
 62
7
  6
CONTINUOUS
 10
-37.3471956328
 20
-7.4119006924
 11
-37.3093331741
 21
-7.4458449044
  0
LINE
  5
258
100
AcDbEntity
  8
RACCORDO
100
AcDbLine
 62
7
  6
CONTINUOUS
 10
-26.3927606078
 20
-7.1288299583
 11
-26.3927606078
 21
-7.5997300136
  0
LINE
  5
259
100
AcDbEntity
  8
DRAFT
100
AcDbLine
 62
7
  6
CONTINUOUS
 10
-33.1360652186
 20
9.1402999124
 11
-33.6721043267
 21
8.8426340415
  0
LINE
  5
25A
100
AcDbEntity
  8
RACCORDO
100
AcDbLine
 62
7
  6
CONTINUOUS
 10
-29.0646516966
 20
14.744835772
 11
-32.3678129088
 21
12.962704518
  0
LINE
  5
25B
100
AcDbEntity
  8
RACCORDO
100
AcDbLine
 62
7
  6
CONTINUOUS
 10
-29.1257806916
 20
14.6116478506
 11
-32.3678129088
 21
12.8624970917
  0
LINE
  5
25C
100
AcDbEntity
  8
RACCORDO
100
AcDbLine
 62
7
  6
CONTINUOUS
 10
-32.651857572
 20
9.3292547329
 11
-33.5871417608
 21
8.8580065232
  0
LINE
  5
25D
100
AcDbEntity
  8
RACCORDO
100
AcDbLine
 62
7
  6
CONTINUOUS
 10
-32.4397578464
 20
8.9634368189
 11
-33.3750420352
 21
8.4921886092
  0
LINE
  5
25E
100
AcDbEntity
  8
RACCORDO
100
AcDbLine
 62
7
  6
CONTINUOUS
 10
-32.9433724096
 20
10.1647853254
 11
-32.3678129088
 21
10.4305977763
  0
LINE
  5
25F
100
AcDbEntity
  8
RACCORDO
100
AcDbLine
 62
7
  6
CONTINUOUS
 10
-33.0245097541
 20
10.0010109465
 11
-32.4489502533
 21
10.2668233974
  0
LWPOLYLINE
  5
260
100
AcDbEntity
  8
RACCORDO
100
AcDbPolyline
 62
7
  6
CONTINUOUS
 90
13
 70
0
 10
30.2955133401
 20
-41.2699805956
 10
30.3100804059
 20
-41.2770261033
 10
30.3499532659
 20
-41.2939458156
 10
30.3902764925
 20
-41.307627192
 10
30.4308920909
 20
-41.3180183306
 10
30.4715409487
 20
-41.3250711571
 10
30.5120333577
 20
-41.3287746603
 10
30.5521694386
 20
-41.3291347448
 10
30.5915942127
 20
-41.3262032697
 10
30.6300483581
 20
-41.3200782845
 10
30.6673307894
 20
-41.3108749801
 10
30.7031496294
 20
-41.2987674089
 10
30.7302851449
 20
-41.2872795816
  0
LINE
  5
261
100
AcDbEntity
  8
RACCORDO
100
AcDbLine
 62
7
  6
CONTINUOUS
 10
-37.1752427471
 20
-7.5346101028
 11
30.2954661852
 21
-41.269964569
  0
LINE
  5
262
100
AcDbEntity
  8
RACCORDO
100
AcDbLine
 62
7
  6
CONTINUOUS
 10
-37.253210705
 20
-7.3723479616
 11
30.2174982322
 21
-41.1077024302
  0
LINE
  5
263
100
AcDbEntity
  8
0
100
AcDbLine
 62
7
  6
CONTINUOUS
 10
-1.8876237614
 20
-25.0287612733
 11
-1.5789349642
 21
-25.1831056719
  0
LINE
  5
264
100
AcDbEntity
  8
0
100
AcDbLine
 62
7
  6
CONTINUOUS
 10
-1.1043109072
 20
-25.4204177004
 11
-0.8061886108
 21
-25.5694788486
  0
LINE
  5
265
100
AcDbEntity
  8
0
100
AcDbLine
 62
7
  6
CONTINUOUS
 10
-6.0964816272
 20
-22.9243319959
 11
-5.8233503193
 21
-23.0608976499
  0
LINE
  5
266
100
AcDbEntity
  8
0
100
AcDbLine
 62
7
  6
CONTINUOUS
 10
-5.2310585875
 20
-23.3570435158
 11
-4.9211223716
 21
-23.5120116238
  0
LINE
  5
267
100
AcDbEntity
  8
0
100
AcDbLine
 62
7
  6
CONTINUOUS
 10
-4.7542741626
 20
-23.5954357283
 11
-4.4577666116
 21
-23.7436895038
  0
LINE
  5
268
100
AcDbEntity
  8
0
100
AcDbLine
 62
7
  6
CONTINUOUS
 10
-4.0272899027
 20
-23.9589278582
 11
-3.9838219275
 21
-23.9806618458
  0
LINE
  5
269
100
AcDbEntity
  8
0
100
AcDbLine
 62
7
  6
CONTINUOUS
 10
-3.5516304847
 20
-24.1967575672
 11
-3.2484308751
 21
-24.348357372
  0
LINE
  5
26A
100
AcDbEntity
  8
0
100
AcDbLine
 62
7
  6
CONTINUOUS
 10
-3.1997628367
 20
-24.3726913912
 11
-2.8931896206
 21
-24.5259779993
  0
LINE
  5
26B
100
AcDbEntity
  8
0
100
AcDbLine
 62
7
  6
CONTINUOUS
 10
-2.3052953859
 20
-24.8199251166
 11
-1.9786360946
 21
-24.9832547623
  0
LINE
  5
26C
100
AcDbEntity
  8
0
100
AcDbLine
 62
7
  6
CONTINUOUS
 10
-2.8076664697
 20
-24.2057025915
 11
-2.3855852396
 21
-24.4167432065
  0
LINE
  5
26D
100
AcDbEntity
  8
0
100
AcDbLine
 62
7
  6
CONTINUOUS
 10
-2.4475256723
 20
-24.1048559998
 11
-2.7442672756
 21
-23.9564851981
  0
LINE
  5
26E
100
AcDbEntity
  8
0
100
AcDbLine
 62
7
  6
CONTINUOUS
 10
-1.5789349642
 20
-24.4714450435
 11
-1.4127547486
 21
-24.5545351514
  0
LINE
  5
26F
100
AcDbEntity
  8
0
100
AcDbLine
 62
7
  6
CONTINUOUS
 10
-2.4773703021
 20
-23.9485123287
 11
-2.6028459194
 21
-23.88577452
  0
LINE
  5
270
100
AcDbEntity
  8
ASSI
100
AcDbLine
 62
7
  6
CONTINUOUS
 10
-18.3880288713
 20
-9.2815821482
 11
-18.3880288713
 21
-9.7937082831
  0
LINE
  5
271
100
AcDbEntity
  8
ASSI
100
AcDbLine
 62
7
  6
CONTINUOUS
 10
-18.3366578364
 20
-9.2658237163
 11
-18.3366578364
 21
-9.7763745009
  0
LINE
  5
272
100
AcDbEntity
  8
DRAFT
100
AcDbLine
 62
7
  6
CONTINUOUS
 10
-17.589281182
 20
-12.3992342649
 11
-17.589281182
 21
-12.0014697265
  0
LINE
  5
273
100
AcDbEntity
  8
RACCORDO
100
AcDbLine
 62
7
  6
CONTINUOUS
 10
-17.1835310055
 20
-12.1661455382
 11
-17.1835310055
 21
-11.7333656135
  0
LINE
  5
274
100
AcDbEntity
  8
ASSI
100
AcDbLine
 62
7
  6
CONTINUOUS
 10
-24.8705883023
 20
-8.3608161664
 11
-24.8371256892
 21
-8.3031016961
  0
LINE
  5
275
100
AcDbEntity
  8
ASSI
100
AcDbLine
 62
7
  6
CONTINUOUS
 10
-24.5789234721
 20
-8.2907814484
 11
-24.4835722986
 21
-8.1263250008
  0
LINE
  5
276
100
AcDbEntity
  8
ASSI
100
AcDbLine
 62
7
  6
CONTINUOUS
 10
-24.2253700815
 20
-8.1140047531
 11
-24.130018908
 21
-7.9495483055
  0
LINE
  5
277
100
AcDbEntity
  8
ASSI
100
AcDbLine
 62
7
  6
CONTINUOUS
 10
-23.871816691
 20
-7.9372280578
 11
-23.7764655174
 21
-7.7727716102
  0
LINE
  5
278
100
AcDbEntity
  8
DRAFT
100
AcDbLine
 62
7
  6
CONTINUOUS
 10
-33.1360652186
 20
2.645109384
 11
-33.6721043267
 21
2.3474435131
  0
LINE
  5
279
100
AcDbEntity
  8
RACCORDO
100
AcDbLine
 62
7
  6
CONTINUOUS
 10
-33.1360652186
 20
2.1570807509
 11
-32.5799126344
 21
2.4373013649
  0
LINE
  5
27A
100
AcDbEntity
  8
RACCORDO
100
AcDbLine
 62
7
  6
CONTINUOUS
 10
-33.3750420352
 20
3.037222757
 11
-32.4397578464
 21
3.4691679897
  0
LINE
  5
27B
100
AcDbEntity
  8
RACCORDO
100
AcDbLine
 62
7
  6
CONTINUOUS
 10
-33.4561793797
 20
2.8734483781
 11
-32.5208951909
 21
3.3053936108
  0
LINE
  5
27C
100
AcDbEntity
  8
RACCORDO
100
AcDbLine
 62
7
  6
CONTINUOUS
 10
5.5171790211
 20
-22.2639964001
 11
5.5171366731
 21
-22.2639752383
  0
LINE
  5
27D
100
AcDbEntity
  8
RACCORDO
100
AcDbLine
 62
7
  6
CONTINUOUS
 10
-3.5337877781
 20
-17.7385130005
 11
-3.5338301261
 21
-17.7384918388
  0
LINE
  5
27E
100
AcDbEntity
  8
0
100
AcDbLine
 62
7
  6
CONTINUOUS
 10
-1.4120866874
 20
-24.2570427477
 11
-1.5892119718
 21
-24.1684801055
  0
LINE
  5
27F
100
AcDbEntity
  8
0
100
AcDbLine
 62
7
  6
CONTINUOUS
 10
-1.2706653312
 20
-24.1863320696
 11
-1.4477906156
 21
-24.0977694274
  0
LINE
  5
280
100
AcDbEntity
  8
0
100
AcDbLine
 62
7
  6
CONTINUOUS
 10
-2.4342094374
 20
-22.9369680294
 11
-2.7340347334
 21
-22.7870553814
  0
LINE
  5
281
100
AcDbEntity
  8
0
100
AcDbLine
 62
7
  6
CONTINUOUS
 10
-3.3872762413
 20
-22.4604346274
 11
-3.6939272391
 21
-22.3071091285
  0
LINE
  5
282
100
AcDbEntity
  8
0
100
AcDbLine
 62
7
  6
CONTINUOUS
 10
-4.3105257665
 20
-21.9988098648
 11
-4.6202053027
 21
-21.8439700968
  0
LINE
  5
283
100
AcDbEntity
  8
0
100
AcDbLine
 62
7
  6
CONTINUOUS
 10
-5.3460758694
 20
-21.4810348134
 11
-5.6558006604
 21
-21.3261724179
  0
LINE
  5
284
100
AcDbEntity
  8
0
100
AcDbLine
 62
7
  6
CONTINUOUS
 10
-6.2305059394
 20
-21.0388197784
 11
-6.5671920049
 21
-20.8704767457
  0
LINE
  5
285
100
AcDbEntity
  8
0
100
AcDbLine
 62
7
  6
CONTINUOUS
 10
-4.9211223716
 20
-21.6934024431
 11
-5.2310585875
 21
-21.5384343352
  0
LINE
  5
286
100
AcDbEntity
  8
0
100
AcDbLine
 62
7
  6
CONTINUOUS
 10
-2.2927880811
 20
-22.8662573513
 11
-2.5926133772
 21
-22.7163447033
  0
LINE
  5
287
100
AcDbEntity
  8
0
100
AcDbLine
 62
7
  6
CONTINUOUS
 10
-3.2458548851
 20
-22.3897239493
 11
-3.5525058829
 21
-22.2363984504
  0
LINE
  5
288
100
AcDbEntity
  8
0
100
AcDbLine
 62
7
  6
CONTINUOUS
 10
-4.1691044103
 20
-21.9280991867
 11
-4.4787839464
 21
-21.7732594187
  0
LINE
  5
289
100
AcDbEntity
  8
0
100
AcDbLine
 62
7
  6
CONTINUOUS
 10
-5.2046545132
 20
-21.4103241353
 11
-5.5143793042
 21
-21.2554617398
  0
LINE
  5
28A
100
AcDbEntity
  8
0
100
AcDbLine
 62
7
  6
CONTINUOUS
 10
-6.0890845832
 20
-20.9681091003
 11
-6.4257706486
 21
-20.7997660676
  0
LINE
  5
28B
100
AcDbEntity
  8
0
100
AcDbLine
 62
7
  6
CONTINUOUS
 10
-4.7797010154
 20
-21.622691765
 11
-5.0896372313
 21
-21.4677236571
  0
LINE
  5
28C
100
AcDbEntity
  8
RACCORDO
100
AcDbLine
 62
7
  6
CONTINUOUS
 10
28.3927514806
 20
-38.0041780545
 11
-35.4284639534
 21
-6.0935703375
  0
LINE
  5
28D
100
AcDbEntity
  8
RACCORDO
100
AcDbLine
 62
7
  6
CONTINUOUS
 10
28.532333614
 20
-37.6902512112
 11
-35.2888785731
 21
-5.7796451177
  0
LINE
  5
28E
100
AcDbEntity
  8
RACCORDO
100
AcDbLine
 62
7
  6
CONTINUOUS
 10
-34.0841100777
 20
-4.9262735673
 11
28.7101062867
 21
-36.3233817495
  0
LINE
  5
28F
100
AcDbEntity
  8
RACCORDO
100
AcDbLine
 62
7
  6
CONTINUOUS
 10
-33.9693580538
 20
-4.8428496441
 11
28.7101062867
 21
-36.1825818144
  0
LINE
  5
290
100
AcDbEntity
  8
RACCORDO
100
AcDbLine
 62
7
  6
CONTINUOUS
 10
28.7101062867
 20
-35.9180014874
 11
-33.7057939342
 21
-4.710051377
  0
LINE
  5
291
100
AcDbEntity
  8
DRAFT
100
AcDbLine
 62
7
  6
CONTINUOUS
 10
14.7254987182
 20
-28.688235927
 11
9.4221978593
 21
-26.0365854975
  0
LINE
  5
292
100
AcDbEntity
  8
DRAFT
100
AcDbLine
 62
7
  6
CONTINUOUS
 10
0.9369164851
 20
-21.7939448104
 11
-4.3663843738
 21
-19.142294381
  0
LINE
  5
293
100
AcDbEntity
  8
DRAFT
100
AcDbLine
 62
7
  6
CONTINUOUS
 10
-12.8516657481
 20
-14.8996536939
 11
-18.154966607
 21
-12.2480032644
  0
LINE
  5
294
100
AcDbEntity
  8
RACCORDO
100
AcDbLine
 62
7
  6
CONTINUOUS
 10
-17.4120986097
 20
-12.3704263954
 11
-12.9581376423
 21
-14.5974068791
  0
LINE
  5
295
100
AcDbEntity
  8
RACCORDO
100
AcDbLine
 62
7
  6
CONTINUOUS
 10
-3.6235163765
 20
-19.264717512
 11
0.8304445908
 21
-21.4916979957
  0
LINE
  5
296
100
AcDbEntity
  8
RACCORDO
100
AcDbLine
 62
7
  6
CONTINUOUS
 10
10.1650658566
 20
-26.1590086286
 11
14.619026824
 21
-28.3859891123
  0
LINE
  5
297
100
AcDbEntity
  8
RACCORDO
100
AcDbLine
 62
7
  6
CONTINUOUS
 10
-32.9242239038
 20
-4.3339983656
 11
-17.589281182
 21
-12.0014697265
  0
LINE
  5
298
100
AcDbEntity
  8
DRAFT
100
AcDbLine
 62
7
  6
CONTINUOUS
 10
-12.2859803231
 20
-14.653120156
 11
-3.8006989489
 21
-18.8957608431
  0
LINE
  5
299
100
AcDbEntity
  8
DRAFT
100
AcDbLine
 62
7
  6
CONTINUOUS
 10
1.50260191
 20
-21.5474112725
 11
9.9878832843
 21
-25.7900519596
  0
LINE
  5
29A
100
AcDbEntity
  8
RACCORDO
100
AcDbLine
 62
7
  6
CONTINUOUS
 10
15.2911841432
 20
-28.4417023891
 11
28.7101062867
 21
-35.1511634609
  0
LINE
  5
29B
100
AcDbEntity
  8
ASSI
100
AcDbLine
 62
7
  6
CONTINUOUS
 10
25.0742311961
 20
-33.2587801387
 11
22.8925820409
 21
-32.1679555611
  0
LINE
  5
29C
100
AcDbEntity
  8
ASSI
100
AcDbLine
 62
7
  6
CONTINUOUS
 10
-22.655476534
 20
-9.3939262737
 11
-24.8371256892
 21
-8.3031016961
  0
LINE
  5
29D
100
AcDbEntity
  8
RACCORDO
100
AcDbLine
 62
7
  6
CONTINUOUS
 10
28.7101062867
 20
-34.9981948571
 11
25.2260344188
 21
-33.2561589232
  0
LINE
  5
29E
100
AcDbEntity
  8
RACCORDO
100
AcDbLine
 62
7
  6
CONTINUOUS
 10
20.559129663
 20
-30.9227065453
 11
16.0266465836
 21
-28.6564650056
  0
LINE
  5
29F
100
AcDbEntity
  8
RACCORDO
100
AcDbLine
 62
7
  6
CONTINUOUS
 10
4.6492270863
 20
-22.9677552569
 11
2.2380643505
 21
-21.762173889
  0
LINE
  5
2A0
100
AcDbEntity
  8
RACCORDO
100
AcDbLine
 62
7
  6
CONTINUOUS
 10
-4.1826079987
 20
-18.5518377144
 11
-6.5937707346
 21
-17.3462563465
  0
LINE
  5
2A1
100
AcDbEntity
  8
RACCORDO
100
AcDbLine
 62
7
  6
CONTINUOUS
 10
-17.9711902319
 20
-11.6575465978
 11
-22.5036733113
 21
-9.3913050581
  0
LINE
  5
2A2
100
AcDbEntity
  8
RACCORDO
100
AcDbLine
 62
7
  6
CONTINUOUS
 10
-27.1705780671
 20
-7.0578526802
 11
-32.9433724096
 21
-4.171455509
  0
LINE
  5
2A3
100
AcDbEntity
  8
ASSI
100
AcDbLine
 62
7
  6
CONTINUOUS
 10
25.2107792802
 20
-33.1856328245
 11
23.0340033972
 21
-32.097244883
  0
LINE
  5
2A4
100
AcDbEntity
  8
ASSI
100
AcDbLine
 62
7
  6
CONTINUOUS
 10
-22.5189284499
 20
-9.3207789595
 11
-24.6957043329
 21
-8.232391018
  0
LINE
  5
2A5
100
AcDbEntity
  8
ASSI
100
AcDbLine
 62
7
  6
CONTINUOUS
 10
25.4184712748
 20
-33.0773467875
 11
23.2461354315
 21
-31.9911788658
  0
LINE
  5
2A6
100
AcDbEntity
  8
ASSI
100
AcDbLine
 62
7
  6
CONTINUOUS
 10
-22.3112364553
 20
-9.2124929224
 11
-24.4835722986
 21
-8.1263250008
  0
LINE
  5
2A7
100
AcDbEntity
  8
ASSI
100
AcDbLine
 62
7
  6
CONTINUOUS
 10
25.5569326046
 20
-33.0051560961
 11
23.3875567877
 21
-31.9204681877
  0
LINE
  5
2A8
100
AcDbEntity
  8
ASSI
100
AcDbLine
 62
7
  6
CONTINUOUS
 10
-22.1727751255
 20
-9.1403022311
 11
-24.3421509423
 21
-8.0556143227
  0
LINE
  5
2A9
100
AcDbEntity
  8
RACCORDO
100
AcDbLine
 62
7
  6
CONTINUOUS
 10
-16.5089051673
 20
-11.8831328125
 11
-12.0228534535
 21
-14.1261586694
  0
LINE
  5
2AA
100
AcDbEntity
  8
RACCORDO
100
AcDbLine
 62
7
  6
CONTINUOUS
 10
-2.7203229342
 20
-18.7774239291
 11
1.7657287796
 21
-21.020449786
  0
LINE
  5
2AB
100
AcDbEntity
  8
RACCORDO
100
AcDbLine
 62
7
  6
CONTINUOUS
 10
11.0682592989
 20
-25.6717150456
 11
15.5543110127
 21
-27.9147409025
  0
LINE
  5
2AC
100
AcDbEntity
  8
RACCORDO
100
AcDbLine
 62
7
  6
CONTINUOUS
 10
28.7101062867
 20
-34.4204162084
 11
25.7917198438
 21
-32.961222987
  0
LINE
  5
2AD
100
AcDbEntity
  8
RACCORDO
100
AcDbLine
 62
7
  6
CONTINUOUS
 10
21.1248150879
 20
-30.6277706091
 11
16.5824579327
 21
-28.3565920315
  0
LINE
  5
2AE
100
AcDbEntity
  8
RACCORDO
100
AcDbLine
 62
7
  6
CONTINUOUS
 10
5.2149125113
 20
-22.6728193207
 11
2.7938756996
 21
-21.4623009149
  0
LINE
  5
2AF
100
AcDbEntity
  8
RACCORDO
100
AcDbLine
 62
7
  6
CONTINUOUS
 10
-3.607048498
 20
-18.2618388161
 11
-6.0280853096
 21
-17.0513204103
  0
LINE
  5
2B0
100
AcDbEntity
  8
RACCORDO
100
AcDbLine
 62
7
  6
CONTINUOUS
 10
-17.3956307311
 20
-11.3675476995
 11
-21.9379878863
 21
-9.0963691219
  0
LINE
  5
2B1
100
AcDbEntity
  8
RACCORDO
100
AcDbLine
 62
7
  6
CONTINUOUS
 10
-26.6048926421
 20
-6.762916744
 11
-32.3677806001
 21
-3.8814727651
  0
LINE
  5
2B2
100
AcDbEntity
  8
ASSI
100
AcDbLine
 62
7
  6
CONTINUOUS
 10
27.4887761186
 20
-33.7589458188
 11
23.5996888221
 21
-31.8144021705
  0
LINE
  5
2B3
100
AcDbEntity
  8
ASSI
100
AcDbLine
 62
7
  6
CONTINUOUS
 10
-20.2409316115
 20
-9.8940919537
 11
-24.130018908
 21
-7.9495483055
  0
LINE
  5
2B4
100
AcDbEntity
  8
ASSI
100
AcDbLine
 62
7
  6
CONTINUOUS
 10
27.6301974749
 20
-33.6882351407
 11
23.7411101783
 21
-31.7436914924
  0
LINE
  5
2B5
100
AcDbEntity
  8
ASSI
100
AcDbLine
 62
7
  6
CONTINUOUS
 10
-20.0995102552
 20
-9.8233812756
 11
-23.9885975518
 21
-7.8788376274
  0
LINE
  5
2B6
100
AcDbEntity
  8
RACCORDO
100
AcDbLine
 62
7
  6
CONTINUOUS
 10
-32.3678129088
 20
-3.5294230374
 11
-32.0143358534
 21
-3.7061615651
  0
LINE
  5
2B7
100
AcDbEntity
  8
ASSI
100
AcDbLine
 62
7
  6
CONTINUOUS
 10
27.8423295092
 20
-33.5821691235
 11
23.9532422127
 21
-31.6376254752
  0
LINE
  5
2B8
100
AcDbEntity
  8
ASSI
100
AcDbLine
 62
7
  6
CONTINUOUS
 10
-19.8873782209
 20
-9.7173152585
 11
-23.7764655174
 21
-7.7727716102
  0
LINE
  5
2B9
100
AcDbEntity
  8
RACCORDO
100
AcDbLine
 62
7
  6
CONTINUOUS
 10
-32.3678129088
 20
-3.4095231524
 11
-31.828984801
 21
-3.6789372063
  0
LINE
  5
2BA
100
AcDbEntity
  8
RACCORDO
100
AcDbLine
 62
7
  6
CONTINUOUS
 10
-5.2025381668
 20
-16.9760777371
 11
-3.6642475082
 21
-17.7452230664
  0
LINE
  5
2BB
100
AcDbEntity
  8
RACCORDO
100
AcDbLine
 62
7
  6
CONTINUOUS
 10
3.8484286324
 20
-21.5015611367
 11
5.386719291
 21
-22.270706466
  0
LINE
  5
2BC
100
AcDbEntity
  8
ASSI
100
AcDbLine
 62
7
  6
CONTINUOUS
 10
27.9837508655
 20
-33.5114584454
 11
24.0946635689
 21
-31.5669147971
  0
LINE
  5
2BD
100
AcDbEntity
  8
ASSI
100
AcDbLine
 62
7
  6
CONTINUOUS
 10
-19.7459568646
 20
-9.6466045803
 11
-23.6350441612
 21
-7.7020609321
  0
LINE
  5
2BE
100
AcDbEntity
  8
RACCORDO
100
AcDbLine
 62
7
  6
CONTINUOUS
 10
-5.0720763026
 20
-16.9693687382
 11
-3.533785644
 21
-17.7385140675
  0
LINE
  5
2BF
100
AcDbEntity
  8
RACCORDO
100
AcDbLine
 62
7
  6
CONTINUOUS
 10
3.9788904966
 20
-21.4948521378
 11
5.5171811552
 21
-22.2639974671
  0
LINE
  5
2C0
100
AcDbEntity
  8
ASSI
100
AcDbLine
 62
7
  6
CONTINUOUS
 10
28.1958828998
 20
-33.4053924282
 11
24.3067956033
 21
-31.4608487799
  0
LINE
  5
2C1
100
AcDbEntity
  8
ASSI
100
AcDbLine
 62
7
  6
CONTINUOUS
 10
-19.5338248303
 20
-9.5405385632
 11
-23.4229121268
 21
-7.5959949149
  0
LINE
  5
2C2
100
AcDbEntity
  8
ASSI
100
AcDbLine
 62
7
  6
CONTINUOUS
 10
28.3373042561
 20
-33.3346817501
 11
24.4482169595
 21
-31.3901381018
  0
LINE
  5
2C3
100
AcDbEntity
  8
ASSI
100
AcDbLine
 62
7
  6
CONTINUOUS
 10
-19.392403474
 20
-9.469827885
 11
-23.2814907706
 21
-7.5252842368
  0
LINE
  5
2C4
100
AcDbEntity
  8
ASSI
100
AcDbLine
 62
7
  6
CONTINUOUS
 10
28.5494362904
 20
-33.2286157329
 11
24.6603489939
 21
-31.2840720846
  0
LINE
  5
2C5
100
AcDbEntity
  8
ASSI
100
AcDbLine
 62
7
  6
CONTINUOUS
 10
-19.1802714397
 20
-9.3637618679
 11
-23.0693587362
 21
-7.4192182196
  0
LINE
  5
2C6
100
AcDbEntity
  8
ASSI
100
AcDbLine
 62
7
  6
CONTINUOUS
 10
28.6908576466
 20
-33.1579050548
 11
24.8017703501
 21
-31.2133614065
  0
LINE
  5
2C7
100
AcDbEntity
  8
ASSI
100
AcDbLine
 62
7
  6
CONTINUOUS
 10
-19.0388500834
 20
-9.2930511897
 11
-22.92793738
 21
-7.3485075415
  0
LINE
  5
2C8
100
AcDbEntity
  8
ASSI
100
AcDbLine
 62
7
  6
CONTINUOUS
 10
28.7101062867
 20
-32.9553973405
 11
25.0139023845
 21
-31.1072953893
  0
LINE
  5
2C9
100
AcDbEntity
  8
ASSI
100
AcDbLine
 62
7
  6
CONTINUOUS
 10
-18.8267180491
 20
-9.1869851726
 11
-22.7158053456
 21
-7.2424415243
  0
LINE
  5
2CA
100
AcDbEntity
  8
ASSI
100
AcDbLine
 62
7
  6
CONTINUOUS
 10
-6.74260367
 20
-15.1980613396
 11
-2.4851398245
 21
-17.3267932624
  0
LINE
  5
2CB
100
AcDbEntity
  8
ASSI
100
AcDbLine
 62
7
  6
CONTINUOUS
 10
9.1672989067
 20
-23.153012628
 11
13.4247627522
 21
-25.2817445508
  0
LINE
  5
2CC
100
AcDbEntity
  8
ASSI
100
AcDbLine
 62
7
  6
CONTINUOUS
 10
-20.0995102552
 20
-9.8233812756
 11
-19.993444238
 21
-9.9002520776
  0
LINE
  5
2CD
100
AcDbEntity
  8
ASSI
100
AcDbLine
 62
7
  6
CONTINUOUS
 10
-19.7459568646
 20
-9.6466045803
 11
-19.6398908475
 21
-9.7234753823
  0
LINE
  5
2CE
100
AcDbEntity
  8
ASSI
100
AcDbLine
 62
7
  6
CONTINUOUS
 10
-19.392403474
 20
-9.469827885
 11
-19.2863374569
 21
-9.546698687
  0
LINE
  5
2CF
100
AcDbEntity
  8
ASSI
100
AcDbLine
 62
7
  6
CONTINUOUS
 10
-19.0388500834
 20
-9.2930511897
 11
-18.9327840663
 21
-9.3699219917
  0
LINE
  5
2D0
100
AcDbEntity
  8
ASSI
100
AcDbLine
 62
7
  6
CONTINUOUS
 10
-18.6852966929
 20
-9.1162744944
 11
-18.5792306757
 21
-9.1931452964
  0
LINE
  5
2D1
100
AcDbEntity
  8
RACCORDO
100
AcDbLine
 62
7
  6
CONTINUOUS
 10
-11.8107537279
 20
-14.4919765834
 11
-11.8107537279
 21
-14.8907334535
  0
LINE
  5
2D2
100
AcDbEntity
  8
DRAFT
100
AcDbLine
 62
7
  6
CONTINUOUS
 10
-18.9144965171
 20
-10.3502508843
 11
-18.8574528653
 21
-10.1180370108
  0
LINE
  5
2D3
100
AcDbEntity
  8
ASSI
100
AcDbLine
 62
7
  6
CONTINUOUS
 10
-23.5182633004
 20
-7.7604513625
 11
-23.4229121268
 21
-7.5959949149
  0
LINE
  5
2D4
100
AcDbEntity
  8
ASSI
100
AcDbLine
 62
7
  6
CONTINUOUS
 10
-23.1647099098
 20
-7.5836746672
 11
-23.0693587362
 21
-7.4192182196
  0
LINE
  5
2D5
100
AcDbEntity
  8
ASSI
100
AcDbLine
 62
7
  6
CONTINUOUS
 10
-22.8111565192
 20
-7.4068979719
 11
-22.7158053456
 21
-7.2424415243
  0
LINE
  5
2D6
100
AcDbEntity
  8
ASSI
100
AcDbLine
 62
7
  6
CONTINUOUS
 10
-20.2637680752
 20
-9.9334790275
 11
-20.2409316115
 21
-9.8940919537
  0
LINE
  5
2D7
100
AcDbEntity
  8
ASSI
100
AcDbLine
 62
7
  6
CONTINUOUS
 10
-19.993444238
 20
-9.9002520776
 11
-19.8873782209
 21
-9.7173152585
  0
LINE
  5
2D8
100
AcDbEntity
  8
ASSI
100
AcDbLine
 62
7
  6
CONTINUOUS
 10
-19.6398908475
 20
-9.7234753823
 11
-19.5338248303
 21
-9.5405385632
  0
LINE
  5
2D9
100
AcDbEntity
  8
ASSI
100
AcDbLine
 62
7
  6
CONTINUOUS
 10
-19.2863374569
 20
-9.546698687
 11
-19.1802714397
 21
-9.3637618679
  0
LINE
  5
2DA
100
AcDbEntity
  8
ASSI
100
AcDbLine
 62
7
  6
CONTINUOUS
 10
-18.9327840663
 20
-9.3699219917
 11
-18.8267180491
 21
-9.1869851726
  0
LINE
  5
2DB
100
AcDbEntity
  8
RACCORDO
100
AcDbLine
 62
7
  6
CONTINUOUS
 10
-35.4494817599
 20
-5.3876440229
 11
-34.2732223474
 21
-4.5300859451
  0
LINE
  5
2DC
100
AcDbEntity
  8
RACCORDO
100
AcDbLine
 62
7
  6
CONTINUOUS
 10
-35.2888785731
 20
-5.7796451177
 11
-34.1032700311
 21
-4.9151878604
  0
LINE
  5
2DD
100
AcDbEntity
  8
RACCORDO
100
AcDbLine
 62
7
  6
CONTINUOUS
 10
-32.9433724096
 20
1.7814845526
 11
-32.3678129088
 21
2.0714834509
  0
LINE
  5
2DE
100
AcDbEntity
  8
RACCORDO
100
AcDbLine
 62
7
  6
CONTINUOUS
 10
-34.2133392439
 20
-4.4930953857
 11
-33.9178936598
 21
-4.344233463
  0
LINE
  5
2DF
100
AcDbEntity
  8
RACCORDO
100
AcDbLine
 62
7
  6
CONTINUOUS
 10
-32.9433724096
 20
-4.171455509
 11
-32.3678129088
 21
-3.8814566107
  0
LINE
  5
2E0
100
AcDbEntity
  8
RACCORDO
100
AcDbLine
 62
7
  6
CONTINUOUS
 10
-33.9693580538
 20
-4.8428496441
 11
-33.7057939342
 21
-4.710051377
  0
LINE
  5
2E1
100
AcDbEntity
  8
RACCORDO
100
AcDbLine
 62
7
  6
CONTINUOUS
 10
-32.0143358534
 20
-3.7061615651
 11
-32.3677806001
 21
-3.8814727651
  0
LINE
  5
2E2
100
AcDbEntity
  8
RACCORDO
100
AcDbLine
 62
7
  6
CONTINUOUS
 10
-33.9156920417
 20
-4.3487489523
 11
-33.1360652186
 21
-3.9686261444
  0
LINE
  5
2E3
100
AcDbEntity
  8
ASSI
100
AcDbLine
 62
7
  6
CONTINUOUS
 10
-6.6208001014
 20
-15.2085614069
 11
-2.4280579548
 21
-17.3049324802
  0
LINE
  5
2E4
100
AcDbEntity
  8
ASSI
100
AcDbLine
 62
7
  6
CONTINUOUS
 10
9.2891024753
 20
-23.1635126953
 11
13.4818446219
 21
-25.2598837686
  0
LINE
  5
2E5
100
AcDbEntity
  8
ASSI
100
AcDbLine
 62
7
  6
CONTINUOUS
 10
-22.6525062467
 20
-7.1565075109
 11
-22.5982217828
 21
-7.1836497429
  0
LINE
  5
2E6
100
AcDbEntity
  8
ASSI
100
AcDbLine
 62
7
  6
CONTINUOUS
 10
-18.5792306757
 20
-9.1931452964
 11
-18.3950424012
 21
-9.2852394337
  0
LINE
  5
2E7
100
AcDbEntity
  8
ASSI
100
AcDbLine
 62
7
  6
CONTINUOUS
 10
25.0772014834
 20
-31.0213613759
 11
25.1314859473
 21
-31.0485036079
  0
LINE
  5
2E8
100
AcDbEntity
  8
ASSI
100
AcDbLine
 62
7
  6
CONTINUOUS
 10
28.7101062867
 20
-32.8139759842
 11
25.1553237407
 21
-31.0365847112
  0
LINE
  5
2E9
100
AcDbEntity
  8
ASSI
100
AcDbLine
 62
7
  6
CONTINUOUS
 10
-18.6852966929
 20
-9.1162744944
 11
-22.5743839894
 21
-7.1717308462
  0
LINE
  5
2EA
100
AcDbEntity
  8
ASSI
100
AcDbLine
 62
7
  6
CONTINUOUS
 10
-22.5307037244
 20
-7.167007055
 11
-18.3379594852
 21
-9.2633791747
  0
LINE
  5
2EB
100
AcDbEntity
  8
ASSI
100
AcDbLine
 62
7
  6
CONTINUOUS
 10
25.1990040056
 20
-31.0318609201
 11
28.7101062867
 21
-32.7874120606
  0
LINE
  5
2EC
100
AcDbEntity
  8
DRAFT
100
AcDbLine
 62
7
  6
CONTINUOUS
 10
-33.6721043267
 20
2.9131289381
 11
-33.1360652186
 21
2.645109384
  0
LINE
  5
2ED
100
AcDbEntity
  8
RACCORDO
100
AcDbLine
 62
7
  6
CONTINUOUS
 10
-33.5871417608
 20
2.8835045687
 11
-33.6721043267
 21
2.9259858516
  0
LINE
  5
2EE
100
AcDbEntity
  8
RACCORDO
100
AcDbLine
 62
7
  6
CONTINUOUS
 10
-32.5799126344
 20
2.4373013649
 11
-33.4553848359
 21
2.8750374657
  0
LINE
  5
2EF
100
AcDbEntity
  8
ASSI
100
AcDbLine
 62
7
  6
CONTINUOUS
 10
27.6301974749
 20
-33.6882351407
 11
27.736263492
 21
-33.7651059427
  0
LINE
  5
2F0
100
AcDbEntity
  8
0
100
AcDbLine
 62
7
  6
CONTINUOUS
 10
-6.5671920049
 20
-20.8704767457
 11
-6.0964816272
 21
-22.9243319959
  0
LINE
  5
2F1
100
AcDbEntity
  8
0
100
AcDbLine
 62
7
  6
CONTINUOUS
 10
-3.2484308751
 20
-24.348357372
 11
-3.3872762413
 21
-22.4604346274
  0
LINE
  5
2F2
100
AcDbEntity
  8
0
100
AcDbLine
 62
7
  6
CONTINUOUS
 10
-5.2310585875
 20
-21.5384343352
 11
-5.2310585875
 21
-23.3570435158
  0
LINE
  5
2F3
100
AcDbEntity
  8
RACCORDO
100
AcDbLine
 62
7
  6
CONTINUOUS
 10
-27.1705780671
 20
-7.0578526802
 11
-26.6048926421
 21
-6.762916744
  0
LINE
  5
2F4
100
AcDbEntity
  8
RACCORDO
100
AcDbLine
 62
7
  6
CONTINUOUS
 10
-26.8538044669
 20
-7.3692080841
 11
-26.3927606078
 21
-7.1288299583
  0
LINE
  5
2F5
100
AcDbEntity
  8
RACCORDO
100
AcDbLine
 62
7
  6
CONTINUOUS
 10
-31.8022361278
 20
-4.0719794791
 11
-31.8948715085
 21
-4.1179273108
  0
LINE
  5
2F6
100
AcDbEntity
  8
RACCORDO
100
AcDbLine
 62
7
  6
CONTINUOUS
 10
-33.7038175174
 20
-4.7141049815
 11
-32.9242239038
 21
-4.3339983656
  0
LINE
  5
2F7
100
AcDbEntity
  8
RACCORDO
100
AcDbLine
 62
7
  6
CONTINUOUS
 10
-33.5871417608
 20
8.8580065232
 11
-33.6172825494
 21
8.8730769175
  0
LINE
  5
2F8
100
AcDbEntity
  8
RACCORDO
100
AcDbLine
 62
7
  6
CONTINUOUS
 10
-33.1360652186
 20
9.5713585562
 11
-32.651857572
 21
9.3292547329
  0
LINE
  5
2F9
100
AcDbEntity
  8
ASSI
100
AcDbLine
 62
7
  6
CONTINUOUS
 10
27.9837508655
 20
-33.5114584454
 11
28.0898168826
 21
-33.5883292474
  0
LINE
  5
2FA
100
AcDbEntity
  8
ASSI
100
AcDbLine
 62
7
  6
CONTINUOUS
 10
28.3373042561
 20
-33.3346817501
 11
28.4433702732
 21
-33.4115525521
  0
LINE
  5
2FB
100
AcDbEntity
  8
ASSI
100
AcDbLine
 62
7
  6
CONTINUOUS
 10
28.6908576466
 20
-33.1579050548
 11
28.7101062867
 21
-33.171855408
  0
LINE
  5
2FC
100
AcDbEntity
  8
0
100
AcDbLine
 62
7
  6
CONTINUOUS
 10
-4.3908820883
 20
-22.5896853632
 11
-4.0272899027
 21
-23.9589278582
  0
LINE
  5
2FD
100
AcDbEntity
  8
0
100
AcDbLine
 62
7
  6
CONTINUOUS
 10
-4.003863455
 20
-23.161777685
 11
-4.3105257665
 21
-21.9988098648
  0
LINE
  5
2FE
100
AcDbEntity
  8
0
100
AcDbLine
 62
7
  6
CONTINUOUS
 10
-3.9111859634
 20
-22.9062136885
 11
-4.1691044103
 21
-21.9280991867
  0
LINE
  5
2FF
100
AcDbEntity
  8
0
100
AcDbLine
 62
7
  6
CONTINUOUS
 10
-1.9786360946
 20
-24.9832547623
 11
-2.4342094374
 21
-22.9369680294
  0
LINE
  5
300
100
AcDbEntity
  8
0
100
AcDbLine
 62
7
  6
CONTINUOUS
 10
-1.8876237614
 20
-24.686123209
 11
-2.2927880811
 21
-22.8662573513
  0
LINE
  5
301
100
AcDbEntity
  8
0
100
AcDbLine
 62
7
  6
CONTINUOUS
 10
-5.9474758437
 20
-22.4320645622
 11
-6.2305059394
 21
-21.0388197784
  0
LINE
  5
302
100
AcDbEntity
  8
0
100
AcDbLine
 62
7
  6
CONTINUOUS
 10
-5.8594725056
 20
-22.0983981902
 11
-6.0890845832
 21
-20.9681091003
  0
LINE
  5
303
100
AcDbEntity
  8
0
100
AcDbLine
 62
7
  6
CONTINUOUS
 10
-2.3855852396
 20
-24.4167432065
 11
-2.3052953859
 21
-24.8199251166
  0
LINE
  5
304
100
AcDbEntity
  8
0
100
AcDbLine
 62
7
  6
CONTINUOUS
 10
-2.5899454633
 20
-23.3587776219
 11
-2.4475256723
 21
-24.1048559998
  0
LINE
  5
305
100
AcDbEntity
  8
0
100
AcDbLine
 62
7
  6
CONTINUOUS
 10
-3.1199931436
 20
-24.1011043925
 11
-3.2458548851
 21
-22.3897239493
  0
LINE
  5
306
100
AcDbEntity
  8
0
100
AcDbLine
 62
7
  6
CONTINUOUS
 10
-3.6153075717
 20
-22.9824228227
 11
-3.5516304847
 21
-24.1967575672
  0
LINE
  5
307
100
AcDbEntity
  8
0
100
AcDbLine
 62
7
  6
CONTINUOUS
 10
-4.9211223716
 20
-23.5120116238
 11
-4.9211223716
 21
-21.6934024431
  0
LINE
  5
308
100
AcDbEntity
  8
0
100
AcDbLine
 62
7
  6
CONTINUOUS
 10
-4.7797010154
 20
-23.4413009457
 11
-4.7797010154
 21
-21.622691765
  0
LINE
  5
309
100
AcDbEntity
  8
DRAFT
100
AcDbLine
 62
7
  6
CONTINUOUS
 10
-3.8006989489
 20
-19.2935253814
 11
-3.8006989489
 21
-18.8957608431
  0
LINE
  5
30A
100
AcDbEntity
  8
RACCORDO
100
AcDbLine
 62
7
  6
CONTINUOUS
 10
-3.4521477825
 20
-18.1110409804
 11
-3.4521477825
 21
-18.4219557803
  0
LINE
  5
30B
100
AcDbEntity
  8
RACCORDO
100
AcDbLine
 62
7
  6
CONTINUOUS
 10
-3.3949487723
 20
-19.0604366548
 11
-3.3949487723
 21
-18.6276567301
  0
LINE
  5
30C
100
AcDbEntity
  8
RACCORDO
100
AcDbLine
 62
7
  6
CONTINUOUS
 10
-3.3679497226
 20
-18.0068422248
 11
-3.3679497226
 21
-19.0458700481
  0
LINE
  5
30D
100
AcDbEntity
  8
ASSI
100
AcDbLine
 62
7
  6
CONTINUOUS
 10
-2.4781262946
 20
-17.323135977
 11
-2.4781262946
 21
-17.7486595715
  0
LINE
  5
30E
100
AcDbEntity
  8
ASSI
100
AcDbLine
 62
7
  6
CONTINUOUS
 10
-2.4267552597
 20
-17.3073771492
 11
-2.4267552597
 21
-17.7313257787
  0
LINE
  5
30F
100
AcDbEntity
  8
0
100
AcDbLine
 62
7
  6
CONTINUOUS
 10
-1.8876237614
 20
-23.2315069281
 11
-1.8876237614
 21
-25.0287612733
  0
LINE
  5
310
100
AcDbEntity
  8
0
100
AcDbLine
 62
7
  6
CONTINUOUS
 10
-1.5892119718
 20
-24.1684801055
 11
-1.5892119718
 21
-23.6692662729
  0
LINE
  5
311
100
AcDbEntity
  8
0
100
AcDbLine
 62
7
  6
CONTINUOUS
 10
-1.5789349642
 20
-25.1831056719
 11
-1.5789349642
 21
-24.4714450435
  0
LINE
  5
312
100
AcDbEntity
  8
0
100
AcDbLine
 62
7
  6
CONTINUOUS
 10
-1.4477906156
 20
-24.0977694274
 11
-1.4477906156
 21
-23.7229906102
  0
LINE
  5
313
100
AcDbEntity
  8
0
100
AcDbLine
 62
7
  6
CONTINUOUS
 10
-1.437513608
 20
-25.1123949938
 11
-1.437513608
 21
-24.5421557217
  0
LINE
  5
314
100
AcDbEntity
  8
0
100
AcDbLine
 62
7
  6
CONTINUOUS
 10
-1.0907938029
 20
-24.578316368
 11
-1.0907938029
 21
-24.5675706157
  0
LINE
  5
315
100
AcDbEntity
  8
0
100
AcDbLine
 62
7
  6
CONTINUOUS
 10
-4.4577666116
 20
-23.7436895038
 11
-4.3908820883
 21
-22.5896853632
  0
LINE
  5
316
100
AcDbEntity
  8
0
100
AcDbLine
 62
7
  6
CONTINUOUS
 10
-4.3163452553
 20
-23.6729788257
 11
-4.2781618994
 21
-23.0141754339
  0
LINE
  5
317
100
AcDbEntity
  8
0
100
AcDbLine
 62
7
  6
CONTINUOUS
 10
-4.6202053027
 20
-21.8439700968
 11
-4.7542741626
 21
-23.5954357283
  0
LINE
  5
318
100
AcDbEntity
  8
0
100
AcDbLine
 62
7
  6
CONTINUOUS
 10
-5.6558006604
 20
-21.3261724179
 11
-5.9474758437
 21
-22.4320645622
  0
LINE
  5
319
100
AcDbEntity
  8
ASSI
100
AcDbLine
 62
7
  6
CONTINUOUS
 10
-18.6499413538
 20
-10.0122978155
 11
-18.3952364802
 21
-9.8277017646
  0
LINE
  5
31A
100
AcDbEntity
  8
ASSI
100
AcDbLine
 62
7
  6
CONTINUOUS
 10
-18.3950424012
 20
-9.2852394337
 11
-19.8947041531
 21
-10.1180109885
  0
LINE
  5
31B
100
AcDbEntity
  8
RACCORDO
100
AcDbLine
 62
7
  6
CONTINUOUS
 10
-22.0738612137
 20
-9.0887306934
 11
-22.6395466386
 21
-9.3836666296
  0
LINE
  5
31C
100
AcDbEntity
  8
RACCORDO
100
AcDbLine
 62
7
  6
CONTINUOUS
 10
-21.9379878863
 20
-9.0963691219
 11
-22.5036733113
 21
-9.3913050581
  0
LINE
  5
31D
100
AcDbEntity
  8
ASSI
100
AcDbLine
 62
7
  6
CONTINUOUS
 10
-18.6499413538
 20
-10.0122978155
 11
-19.3711425307
 21
-10.3797917997
  0
LINE
  5
31E
100
AcDbEntity
  8
DRAFT
100
AcDbLine
 62
7
  6
CONTINUOUS
 10
-19.1717833734
 20
-10.4794713784
 11
-18.9144965171
 21
-10.3502508843
  0
LINE
  5
31F
100
AcDbEntity
  8
ASSI
100
AcDbLine
 62
7
  6
CONTINUOUS
 10
-24.8371256892
 20
-8.3031016961
 11
-24.6957043329
 21
-8.232391018
  0
LINE
  5
320
100
AcDbEntity
  8
ASSI
100
AcDbLine
 62
7
  6
CONTINUOUS
 10
-24.4835722986
 20
-8.1263250008
 11
-24.3421509423
 21
-8.0556143227
  0
LINE
  5
321
100
AcDbEntity
  8
ASSI
100
AcDbLine
 62
7
  6
CONTINUOUS
 10
-24.130018908
 20
-7.9495483055
 11
-23.9885975518
 21
-7.8788376274
  0
LINE
  5
322
100
AcDbEntity
  8
ASSI
100
AcDbLine
 62
7
  6
CONTINUOUS
 10
-23.7764655174
 20
-7.7727716102
 11
-23.6350441612
 21
-7.7020609321
  0
LINE
  5
323
100
AcDbEntity
  8
ASSI
100
AcDbLine
 62
7
  6
CONTINUOUS
 10
-23.4229121268
 20
-7.5959949149
 11
-23.2814907706
 21
-7.5252842368
  0
LINE
  5
324
100
AcDbEntity
  8
ASSI
100
AcDbLine
 62
7
  6
CONTINUOUS
 10
-23.0693587362
 20
-7.4192182196
 11
-22.92793738
 21
-7.3485075415
  0
LINE
  5
325
100
AcDbEntity
  8
ASSI
100
AcDbLine
 62
7
  6
CONTINUOUS
 10
-22.7158053456
 20
-7.2424415243
 11
-22.5743839894
 21
-7.1717308462
  0
LINE
  5
326
100
AcDbEntity
  8
ASSI
100
AcDbLine
 62
7
  6
CONTINUOUS
 10
-20.2409316115
 20
-9.8940919537
 11
-20.0995102552
 21
-9.8233812756
  0
LINE
  5
327
100
AcDbEntity
  8
ASSI
100
AcDbLine
 62
7
  6
CONTINUOUS
 10
-19.8873782209
 20
-9.7173152585
 11
-19.7459568646
 21
-9.6466045803
  0
LINE
  5
328
100
AcDbEntity
  8
ASSI
100
AcDbLine
 62
7
  6
CONTINUOUS
 10
-19.5338248303
 20
-9.5405385632
 11
-19.392403474
 21
-9.469827885
  0
LINE
  5
329
100
AcDbEntity
  8
ASSI
100
AcDbLine
 62
7
  6
CONTINUOUS
 10
-19.1802714397
 20
-9.3637618679
 11
-19.0388500834
 21
-9.2930511897
  0
LINE
  5
32A
100
AcDbEntity
  8
ASSI
100
AcDbLine
 62
7
  6
CONTINUOUS
 10
-18.8267180491
 20
-9.1869851726
 11
-18.6852966929
 21
-9.1162744944
  0
LINE
  5
32B
100
AcDbEntity
  8
ASSI
100
AcDbLine
 62
7
  6
CONTINUOUS
 10
-18.5792306757
 20
-9.1931452964
 11
-20.1618331065
 21
-9.9844465118
  0
LINE
  5
32C
100
AcDbEntity
  8
ASSI
100
AcDbLine
 62
7
  6
CONTINUOUS
 10
-18.3880288713
 20
-9.7937082831
 11
-19.4676078306
 21
-10.3315591498
  0
LINE
  5
32D
100
AcDbEntity
  8
ASSI
100
AcDbLine
 62
7
  6
CONTINUOUS
 10
-22.6525062467
 20
-7.1565075109
 11
-25.0870934496
 21
-8.2525635927
  0
LINE
  5
32E
100
AcDbEntity
  8
RACCORDO
100
AcDbLine
 62
7
  6
CONTINUOUS
 10
1.9778285052
 20
-21.3862677
 11
1.9778285052
 21
-21.7850245701
  0
LINE
  5
32F
100
AcDbEntity
  8
RACCORDO
100
AcDbLine
 62
7
  6
CONTINUOUS
 10
5.4270445456
 20
-23.038732535
 11
5.4270445456
 21
-23.5096325903
  0
LINE
  5
330
100
AcDbEntity
  8
RACCORDO
100
AcDbLine
 62
7
  6
CONTINUOUS
 10
5.5988190166
 20
-22.63652438
 11
5.5988190166
 21
-23.5955198258
  0
LINE
  5
331
100
AcDbEntity
  8
RACCORDO
100
AcDbLine
 62
7
  6
CONTINUOUS
 10
5.6830170765
 20
-22.5323256244
 11
5.6830170765
 21
-23.6376188558
  0
LINE
  5
332
100
AcDbEntity
  8
ASSI
100
AcDbLine
 62
7
  6
CONTINUOUS
 10
-3.0301097134
 20
-18.4090720384
 11
-2.9475502886
 21
-18.0729882992
  0
LINE
  5
333
100
AcDbEntity
  8
0
100
AcDbLine
 62
7
  6
CONTINUOUS
 10
-2.7442672756
 20
-23.9564851981
 11
-2.5899454633
 21
-23.3587776219
  0
LINE
  5
334
100
AcDbEntity
  8
0
100
AcDbLine
 62
7
  6
CONTINUOUS
 10
-2.6028459194
 20
-23.88577452
 11
-2.5375917573
 21
-23.633037033
  0
LINE
  5
335
100
AcDbEntity
  8
0
100
AcDbLine
 62
7
  6
CONTINUOUS
 10
-2.8931896206
 20
-24.5259779993
 11
-2.8076664697
 21
-24.2057025915
  0
LINE
  5
336
100
AcDbEntity
  8
0
100
AcDbLine
 62
7
  6
CONTINUOUS
 10
-2.7517682644
 20
-24.4552673211
 11
-2.6995607274
 21
-24.2597554626
  0
LINE
  5
337
100
AcDbEntity
  8
0
100
AcDbLine
 62
7
  6
CONTINUOUS
 10
-2.7340347334
 20
-22.7870553814
 11
-3.1997628367
 21
-24.3726913912
  0
LINE
  5
338
100
AcDbEntity
  8
0
100
AcDbLine
 62
7
  6
CONTINUOUS
 10
-5.8233503193
 20
-23.0608976499
 11
-5.3460758694
 21
-21.4810348134
  0
LINE
  5
339
100
AcDbEntity
  8
0
100
AcDbLine
 62
7
  6
CONTINUOUS
 10
-5.6819289631
 20
-22.9901869718
 11
-5.2046545132
 21
-21.4103241353
  0
LINE
  5
33A
100
AcDbEntity
  8
0
100
AcDbLine
 62
7
  6
CONTINUOUS
 10
-3.6939272391
 20
-22.3071091285
 11
-4.003863455
 21
-23.161777685
  0
LINE
  5
33B
100
AcDbEntity
  8
0
100
AcDbLine
 62
7
  6
CONTINUOUS
 10
-3.9838219275
 20
-23.9806618458
 11
-3.6153075717
 21
-22.9824228227
  0
LINE
  5
33C
100
AcDbEntity
  8
0
100
AcDbLine
 62
7
  6
CONTINUOUS
 10
-3.8424005713
 20
-23.9099511677
 11
-3.6009646712
 21
-23.2559447951
  0
LINE
  5
33D
100
AcDbEntity
  8
RACCORDO
100
AcDbLine
 62
7
  6
CONTINUOUS
 10
-16.6461987531
 20
-11.8762424607
 11
-17.5493921954
 21
-12.3635360437
  0
LINE
  5
33E
100
AcDbEntity
  8
RACCORDO
100
AcDbLine
 62
7
  6
CONTINUOUS
 10
-16.5089051673
 20
-11.8831328125
 11
-17.4120986097
 21
-12.3704263954
  0
LINE
  5
33F
100
AcDbEntity
  8
RACCORDO
100
AcDbLine
 62
7
  6
CONTINUOUS
 10
-17.9711902319
 20
-11.6575465978
 11
-17.3956307311
 21
-11.3675476995
  0
LINE
  5
340
100
AcDbEntity
  8
RACCORDO
100
AcDbLine
 62
7
  6
CONTINUOUS
 10
-17.652701257
 20
-11.969759689
 11
-17.1835310055
 21
-11.7333656135
  0
LINE
  5
341
100
AcDbEntity
  8
DRAFT
100
AcDbLine
 62
7
  6
CONTINUOUS
 10
-19.1009237072
 20
-10.5149012115
 11
-18.9937954885
 21
-10.461041143
  0
LINE
  5
342
100
AcDbEntity
  8
SMUSSO
100
AcDbLine
 62
7
  6
CONTINUOUS
 10
47.4998980262
 20
20.6265292986
 11
49.9394164213
 21
21.8462884961
  0
LINE
  5
343
100
AcDbEntity
  8
SMUSSO
100
AcDbLine
 62
7
  6
CONTINUOUS
 10
48.2070048074
 20
19.4069505042
 11
50.6465232025
 21
20.6267097018
  0
LINE
  5
344
100
AcDbEntity
  8
DRAFT
100
AcDbLine
 62
7
  6
CONTINUOUS
 10
-17.589281182
 20
-12.0014697265
 11
-18.154966607
 21
-12.2480032644
  0
LINE
  5
345
100
AcDbEntity
  8
RACCORDO
100
AcDbLine
 62
7
  6
CONTINUOUS
 10
-29.1326872974
 20
20.5407690237
 11
-29.1327203107
 21
20.5407855202
  0
LINE
  5
346
100
AcDbEntity
  8
RACCORDO
100
AcDbLine
 62
7
  6
CONTINUOUS
 10
-32.3678129088
 20
19.8463943458
 11
-31.9604172109
 21
19.6426964968
  0
LINE
  5
347
100
AcDbEntity
  8
DRAFT
100
AcDbLine
 62
7
  6
CONTINUOUS
 10
-33.6721043267
 20
21.9656878213
 11
-33.1360652186
 21
21.6976682673
  0
LINE
  5
348
100
AcDbEntity
  8
RACCORDO
100
AcDbLine
 62
7
  6
CONTINUOUS
 10
-33.5871417608
 20
21.9360634519
 11
-33.6721043267
 21
21.9785447349
  0
LINE
  5
349
100
AcDbEntity
  8
RACCORDO
100
AcDbLine
 62
7
  6
CONTINUOUS
 10
-32.5799126344
 20
21.4898602482
 11
-33.4553848359
 21
21.9275963489
  0
LINE
  5
34A
100
AcDbEntity
  8
RACCORDO
100
AcDbLine
 62
7
  6
CONTINUOUS
 10
-29.6190677083
 20
20.7240092868
 11
-29.241401468
 21
20.5351761666
  0
LINE
  5
34B
100
AcDbEntity
  8
RACCORDO
100
AcDbLine
 62
7
  6
CONTINUOUS
 10
-29.5103494882
 20
20.7296001192
 11
-29.1326832478
 21
20.540766999
  0
LINE
  5
34C
100
AcDbEntity
  8
DRAFT
100
AcDbLine
 62
7
  6
CONTINUOUS
 10
9.9878832843
 20
-26.187816498
 11
9.9878832843
 21
-25.7900519596
  0
LINE
  5
34D
100
AcDbEntity
  8
RACCORDO
100
AcDbLine
 62
7
  6
CONTINUOUS
 10
-6.163958637
 20
-17.0436819818
 11
-6.7296440619
 21
-17.3386179179
  0
LINE
  5
34E
100
AcDbEntity
  8
RACCORDO
100
AcDbLine
 62
7
  6
CONTINUOUS
 10
-6.0280853096
 20
-17.0513204103
 11
-6.5937707346
 21
-17.3462563465
  0
LINE
  5
34F
100
AcDbEntity
  8
RACCORDO
100
AcDbLine
 62
7
  6
CONTINUOUS
 10
-12.0228534535
 20
-14.1261586694
 11
-12.9581376423
 21
-14.5974068791
  0
LINE
  5
350
100
AcDbEntity
  8
RACCORDO
100
AcDbLine
 62
7
  6
CONTINUOUS
 10
-11.8107537279
 20
-14.4919765834
 11
-12.2079790419
 21
-14.6921207966
  0
LINE
  5
351
100
AcDbEntity
  8
RACCORDO
100
AcDbLine
 62
7
  6
CONTINUOUS
 10
30.4259280521
 20
4.2184746863
 11
31.8326211721
 21
4.9272449429
  0
LINE
  5
352
100
AcDbEntity
  8
RACCORDO
100
AcDbLine
 62
7
  6
CONTINUOUS
 10
30.9208274118
 20
3.3648995537
 11
32.3275205318
 21
4.0736698103
  0
LINE
  5
353
100
AcDbEntity
  8
ASSI
100
AcDbLine
 62
7
  6
CONTINUOUS
 10
-6.74260367
 20
-15.1980613396
 11
-9.0860496857
 21
-16.2530854747
  0
LINE
  5
354
100
AcDbEntity
  8
DRAFT
100
AcDbLine
 62
7
  6
CONTINUOUS
 10
-12.2859803231
 20
-14.653120156
 11
-12.8516657481
 21
-14.8996536939
  0
LINE
  5
355
100
AcDbEntity
  8
SMUSSO
100
AcDbLine
 62
7
  6
CONTINUOUS
 10
48.2070048074
 20
19.4069505042
 11
46.792791245
 21
19.0482310366
  0
LINE
  5
356
100
AcDbEntity
  8
RACCORDO
100
AcDbLine
 62
7
  6
CONTINUOUS
 10
-33.5871417608
 20
27.9105654064
 11
-33.6172825494
 21
27.9256358007
  0
LINE
  5
357
100
AcDbEntity
  8
RACCORDO
100
AcDbLine
 62
7
  6
CONTINUOUS
 10
-33.1360652186
 20
28.6239174394
 11
-32.651857572
 21
28.3818136161
  0
LINE
  5
358
100
AcDbEntity
  8
ASSI
100
AcDbLine
 62
7
  6
CONTINUOUS
 10
13.4317762821
 20
-25.2780872653
 11
13.4317762821
 21
-25.7036108598
  0
LINE
  5
359
100
AcDbEntity
  8
ASSI
100
AcDbLine
 62
7
  6
CONTINUOUS
 10
13.483147317
 20
-25.2623284376
 11
13.483147317
 21
-25.686277067
  0
LINE
  5
35A
100
AcDbEntity
  8
RACCORDO
100
AcDbLine
 62
7
  6
CONTINUOUS
 10
15.7664107383
 20
-28.2805588165
 11
15.7664107383
 21
-28.6793156867
  0
LINE
  5
35B
100
AcDbEntity
  8
ASSI
100
AcDbLine
 62
7
  6
CONTINUOUS
 10
-2.7400387771
 20
-17.9672491038
 11
-2.4853339035
 21
-17.782653053
  0
LINE
  5
35C
100
AcDbEntity
  8
ASSI
100
AcDbLine
 62
7
  6
CONTINUOUS
 10
-2.4851398245
 20
-17.3267932624
 11
-3.4163828495
 21
-17.8439183414
  0
LINE
  5
35D
100
AcDbEntity
  8
RACCORDO
100
AcDbLine
 62
7
  6
CONTINUOUS
 10
-2.85761652
 20
-18.7705335773
 11
-3.7608099623
 21
-19.2578271602
  0
LINE
  5
35E
100
AcDbEntity
  8
RACCORDO
100
AcDbLine
 62
7
  6
CONTINUOUS
 10
-2.7203229342
 20
-18.7774239291
 11
-3.6235163765
 21
-19.264717512
  0
LINE
  5
35F
100
AcDbEntity
  8
ASSI
100
AcDbLine
 62
7
  6
CONTINUOUS
 10
-2.7400387771
 20
-17.9672491038
 11
-3.3679497226
 21
-18.2872062843
  0
LINE
  5
360
100
AcDbEntity
  8
RACCORDO
100
AcDbLine
 62
7
  6
CONTINUOUS
 10
-4.1826079987
 20
-18.5518377144
 11
-3.607048498
 21
-18.2618388161
  0
LINE
  5
361
100
AcDbEntity
  8
RACCORDO
100
AcDbLine
 62
7
  6
CONTINUOUS
 10
-3.8641190239
 20
-18.8640508056
 11
-3.3949487723
 21
-18.6276567301
  0
LINE
  5
362
100
AcDbEntity
  8
ASSI
100
AcDbLine
 62
7
  6
CONTINUOUS
 10
-3.1006274235
 20
-18.5075938126
 11
-3.3679497226
 21
-18.6419934835
  0
LINE
  5
363
100
AcDbEntity
  8
ASSI
100
AcDbLine
 62
7
  6
CONTINUOUS
 10
-3.0301097134
 20
-18.4090720384
 11
-3.3679497226
 21
-18.5787497808
  0
LINE
  5
364
100
AcDbEntity
  8
0
100
AcDbLine
 62
7
  6
CONTINUOUS
 10
-6.4257706486
 20
-20.7997660676
 11
-6.5671920049
 21
-20.8704767457
  0
LINE
  5
365
100
AcDbEntity
  8
0
100
AcDbLine
 62
7
  6
CONTINUOUS
 10
-6.0890845832
 20
-20.9681091003
 11
-6.2305059394
 21
-21.0388197784
  0
LINE
  5
366
100
AcDbEntity
  8
0
100
AcDbLine
 62
7
  6
CONTINUOUS
 10
-5.5143793042
 20
-21.2554617398
 11
-5.6558006604
 21
-21.3261724179
  0
LINE
  5
367
100
AcDbEntity
  8
0
100
AcDbLine
 62
7
  6
CONTINUOUS
 10
-5.2046545132
 20
-21.4103241353
 11
-5.3460758694
 21
-21.4810348134
  0
LINE
  5
368
100
AcDbEntity
  8
0
100
AcDbLine
 62
7
  6
CONTINUOUS
 10
-5.0896372313
 20
-21.4677236571
 11
-5.2310585875
 21
-21.5384343352
  0
LINE
  5
369
100
AcDbEntity
  8
0
100
AcDbLine
 62
7
  6
CONTINUOUS
 10
-4.7797010154
 20
-21.622691765
 11
-4.9211223716
 21
-21.6934024431
  0
LINE
  5
36A
100
AcDbEntity
  8
0
100
AcDbLine
 62
7
  6
CONTINUOUS
 10
-4.4787839464
 20
-21.7732594187
 11
-4.6202053027
 21
-21.8439700968
  0
LINE
  5
36B
100
AcDbEntity
  8
0
100
AcDbLine
 62
7
  6
CONTINUOUS
 10
-4.1691044103
 20
-21.9280991867
 11
-4.3105257665
 21
-21.9988098648
  0
LINE
  5
36C
100
AcDbEntity
  8
0
100
AcDbLine
 62
7
  6
CONTINUOUS
 10
-5.6819289631
 20
-22.9901869718
 11
-5.8233503193
 21
-23.0608976499
  0
LINE
  5
36D
100
AcDbEntity
  8
ASSI
100
AcDbLine
 62
7
  6
CONTINUOUS
 10
-2.4781262946
 20
-17.7486595715
 11
-3.3679497226
 21
-18.1919734188
  0
LINE
  5
36E
100
AcDbEntity
  8
RACCORDO
100
AcDbLine
 62
7
  6
CONTINUOUS
 10
-3.6642475082
 20
-17.7452230664
 11
-4.1542200307
 21
-17.9882530497
  0
LINE
  5
36F
100
AcDbEntity
  8
RACCORDO
100
AcDbLine
 62
7
  6
CONTINUOUS
 10
-3.4521477825
 20
-18.1110409804
 11
-3.6813109392
 21
-18.2247075955
  0
LINE
  5
370
100
AcDbEntity
  8
RACCORDO
100
AcDbLine
 62
7
  6
CONTINUOUS
 10
-5.3320239943
 20
-16.9653396252
 11
-5.7832576077
 21
-17.1737342612
  0
LINE
  5
371
100
AcDbEntity
  8
RACCORDO
100
AcDbLine
 62
7
  6
CONTINUOUS
 10
-5.2025381668
 20
-16.9760777371
 11
-5.7099195668
 21
-17.2104032817
  0
LINE
  5
372
100
AcDbEntity
  8
DRAFT
100
AcDbLine
 62
7
  6
CONTINUOUS
 10
-3.8006989489
 20
-18.8957608431
 11
-4.3663843738
 21
-19.142294381
  0
LINE
  5
373
100
AcDbEntity
  8
RACCORDO
100
AcDbLine
 62
7
  6
CONTINUOUS
 10
-35.3504959977
 20
34.324059678
 11
28.4707194553
 21
2.4134519515
  0
LINE
  5
374
100
AcDbEntity
  8
RACCORDO
100
AcDbLine
 62
7
  6
CONTINUOUS
 10
-35.4284639534
 20
34.4863218181
 11
28.3927514806
 21
2.5757141011
  0
LINE
  5
375
100
AcDbEntity
  8
RACCORDO
100
AcDbLine
 62
7
  6
CONTINUOUS
 10
30.2174982322
 20
3.8544917252
 11
-37.253210705
 21
37.5898461938
  0
LINE
  5
376
100
AcDbEntity
  8
RACCORDO
100
AcDbLine
 62
7
  6
CONTINUOUS
 10
30.4259280521
 20
4.2184746863
 11
-37.0447808851
 21
37.9538291549
  0
LWPOLYLINE
  5
377
100
AcDbEntity
  8
RACCORDO
100
AcDbPolyline
 62
7
  6
CONTINUOUS
 90
24
 70
0
 10
28.4707265202
 20
2.4134485322
 10
28.4732146077
 20
2.412178683
 10
28.4844655221
 20
2.4058328919
 10
28.4971808555
 20
2.3975614444
 10
28.5110053265
 20
2.3873315565
 10
28.5257191681
 20
2.3750744812
 10
28.5410775857
 20
2.3607795901
 10
28.5567230369
 20
2.3445978825
 10
28.5723957209
 20
2.3266589707
 10
28.5879080051
 20
2.3070584174
 10
28.6030691186
 20
2.2859279878
 10
28.6176836767
 20
2.2634516
 10
28.6315885435
 20
2.2398137652
 10
28.6446738438
 20
2.2151379465
 10
28.6567952132
 20
2.1896443087
 10
28.667835217
 20
2.1635561448
 10
28.677733876
 20
2.1369960267
 10
28.6864011593
 20
2.1101896964
 10
28.6937635787
 20
2.0833819233
 10
28.6997860624
 20
2.0567501244
 10
28.7044368715
 20
2.0305146712
 10
28.7076958709
 20
2.0049430999
 10
28.7095681712
 20
1.9803448234
 10
28.7101055207
 20
1.9591314048
  0
LINE
  5
378
100
AcDbEntity
  8
RACCORDO
100
AcDbLine
 62
7
  6
CONTINUOUS
 10
21.3369471223
 20
-30.9936838234
 11
21.3369471223
 21
-31.4645838787
  0
LINE
  5
379
100
AcDbEntity
  8
ASSI
100
AcDbLine
 62
7
  6
CONTINUOUS
 10
12.8797928633
 20
-26.3640233267
 11
12.9623522881
 21
-26.0279395875
  0
LINE
  5
37A
100
AcDbEntity
  8
SMUSSO
100
AcDbLine
 62
7
  6
CONTINUOUS
 10
47.4998980262
 20
20.6265292986
 11
46.4998980262
 21
19.5533971136
  0
LINE
  5
37B
100
AcDbEntity
  8
RACCORDO
100
AcDbLine
 62
7
  6
CONTINUOUS
 10
2.1007707648
 20
-21.7552835372
 11
2.6565821139
 21
-21.4554105631
  0
LINE
  5
37C
100
AcDbEntity
  8
RACCORDO
100
AcDbLine
 62
7
  6
CONTINUOUS
 10
2.2380643505
 20
-21.762173889
 11
2.7938756996
 21
-21.4623009149
  0
LINE
  5
37D
100
AcDbEntity
  8
RACCORDO
100
AcDbLine
 62
7
  6
CONTINUOUS
 10
4.6492270863
 20
-22.9677552569
 11
5.2149125113
 21
-22.6728193207
  0
LINE
  5
37E
100
AcDbEntity
  8
RACCORDO
100
AcDbLine
 62
7
  6
CONTINUOUS
 10
4.9660006865
 20
-23.2791106608
 11
5.4270445456
 21
-23.038732535
  0
LINE
  5
37F
100
AcDbEntity
  8
RACCORDO
100
AcDbLine
 62
7
  6
CONTINUOUS
 10
1.7657287796
 20
-21.020449786
 11
0.8304445908
 21
-21.4916979957
  0
LINE
  5
380
100
AcDbEntity
  8
RACCORDO
100
AcDbLine
 62
7
  6
CONTINUOUS
 10
1.9778285052
 20
-21.3862677
 11
1.5806031912
 21
-21.5864119131
  0
LINE
  5
381
100
AcDbEntity
  8
0
100
AcDbLine
 62
7
  6
CONTINUOUS
 10
-3.5525058829
 20
-22.2363984504
 11
-3.6939272391
 21
-22.3071091285
  0
LINE
  5
382
100
AcDbEntity
  8
0
100
AcDbLine
 62
7
  6
CONTINUOUS
 10
-3.2458548851
 20
-22.3897239493
 11
-3.3872762413
 21
-22.4604346274
  0
LINE
  5
383
100
AcDbEntity
  8
0
100
AcDbLine
 62
7
  6
CONTINUOUS
 10
-4.7797010154
 20
-23.4413009457
 11
-4.9211223716
 21
-23.5120116238
  0
LINE
  5
384
100
AcDbEntity
  8
0
100
AcDbLine
 62
7
  6
CONTINUOUS
 10
-2.5926133772
 20
-22.7163447033
 11
-2.7340347334
 21
-22.7870553814
  0
LINE
  5
385
100
AcDbEntity
  8
0
100
AcDbLine
 62
7
  6
CONTINUOUS
 10
-4.3163452553
 20
-23.6729788257
 11
-4.4577666116
 21
-23.7436895038
  0
LINE
  5
386
100
AcDbEntity
  8
0
100
AcDbLine
 62
7
  6
CONTINUOUS
 10
-2.2927880811
 20
-22.8662573513
 11
-2.4342094374
 21
-22.9369680294
  0
LINE
  5
387
100
AcDbEntity
  8
0
100
AcDbLine
 62
7
  6
CONTINUOUS
 10
-3.8424005713
 20
-23.9099511677
 11
-3.9838219275
 21
-23.9806618458
  0
LINE
  5
388
100
AcDbEntity
  8
0
100
AcDbLine
 62
7
  6
CONTINUOUS
 10
-1.7462024051
 20
-23.16079625
 11
-1.8876237614
 21
-23.2315069281
  0
LINE
  5
389
100
AcDbEntity
  8
0
100
AcDbLine
 62
7
  6
CONTINUOUS
 10
-2.6028459194
 20
-23.88577452
 11
-2.7442672756
 21
-23.9564851981
  0
LINE
  5
38A
100
AcDbEntity
  8
0
100
AcDbLine
 62
7
  6
CONTINUOUS
 10
-3.1830075565
 20
-24.3156457127
 11
-3.2484308751
 21
-24.348357372
  0
LINE
  5
38B
100
AcDbEntity
  8
0
100
AcDbLine
 62
7
  6
CONTINUOUS
 10
-0.9813280392
 20
-23.562379418
 11
-1.1227493954
 21
-23.6330900961
  0
LINE
  5
38C
100
AcDbEntity
  8
0
100
AcDbLine
 62
7
  6
CONTINUOUS
 10
-2.7517682644
 20
-24.4552673211
 11
-2.8931896206
 21
-24.5259779993
  0
LINE
  5
38D
100
AcDbEntity
  8
0
100
AcDbLine
 62
7
  6
CONTINUOUS
 10
-1.4477906156
 20
-24.0977694274
 11
-1.5892119718
 21
-24.1684801055
  0
LINE
  5
38E
100
AcDbEntity
  8
0
100
AcDbLine
 62
7
  6
CONTINUOUS
 10
-1.2706653312
 20
-24.1863320696
 11
-1.4120866874
 21
-24.2570427477
  0
LINE
  5
38F
100
AcDbEntity
  8
0
100
AcDbLine
 62
7
  6
CONTINUOUS
 10
-1.8876237614
 20
-24.9377485956
 11
-1.9786360946
 21
-24.9832547623
  0
LINE
  5
390
100
AcDbEntity
  8
0
100
AcDbLine
 62
7
  6
CONTINUOUS
 10
-1.0864955019
 20
-24.5761672176
 11
-1.0907938029
 21
-24.578316368
  0
LINE
  5
391
100
AcDbEntity
  8
0
100
AcDbLine
 62
7
  6
CONTINUOUS
 10
-1.047762515
 20
-24.560877976
 11
-0.9063411588
 21
-24.4901672979
  0
LINE
  5
392
100
AcDbEntity
  8
0
100
AcDbLine
 62
7
  6
CONTINUOUS
 10
-1.437513608
 20
-25.1123949938
 11
-1.5789349642
 21
-25.1831056719
  0
LINE
  5
393
100
AcDbEntity
  8
0
100
AcDbLine
 62
7
  6
CONTINUOUS
 10
-0.7707217559
 20
-24.9536000091
 11
-0.9121431121
 21
-25.0243106872
  0
LINE
  5
394
100
AcDbEntity
  8
0
100
AcDbLine
 62
7
  6
CONTINUOUS
 10
-0.6647672546
 20
-25.4987681705
 11
-0.8061886108
 21
-25.5694788486
  0
LINE
  5
395
100
AcDbEntity
  8
RACCORDO
100
AcDbLine
 62
7
  6
CONTINUOUS
 10
5.386719291
 20
-22.270706466
 11
4.8967467685
 21
-22.5137364493
  0
LINE
  5
396
100
AcDbEntity
  8
RACCORDO
100
AcDbLine
 62
7
  6
CONTINUOUS
 10
5.5988190166
 20
-22.63652438
 11
5.3286674335
 21
-22.7705215568
  0
LINE
  5
397
100
AcDbEntity
  8
RACCORDO
100
AcDbLine
 62
7
  6
CONTINUOUS
 10
3.7189428049
 20
-21.4908230248
 11
3.2677091915
 21
-21.6992176608
  0
LINE
  5
398
100
AcDbEntity
  8
RACCORDO
100
AcDbLine
 62
7
  6
CONTINUOUS
 10
3.8484286324
 20
-21.5015611367
 11
3.3410472324
 21
-21.7358866813
  0
LINE
  5
399
100
AcDbEntity
  8
DRAFT
100
AcDbLine
 62
7
  6
CONTINUOUS
 10
1.50260191
 20
-21.5474112725
 11
0.9369164851
 21
-21.7939448104
  0
LINE
  5
39A
100
AcDbEntity
  8
RACCORDO
100
AcDbLine
 62
7
  6
CONTINUOUS
 10
31.8326211721
 20
4.9272449429
 11
-35.6863531295
 21
38.6867320937
  0
LINE
  5
39B
100
AcDbEntity
  8
RACCORDO
100
AcDbLine
 62
7
  6
CONTINUOUS
 10
28.7101062867
 20
1.9590468629
 11
28.7101062867
 21
-37.580601561
  0
LINE
  5
39C
100
AcDbEntity
  8
RACCORDO
100
AcDbLine
 62
7
  6
CONTINUOUS
 10
28.7979742524
 20
1.8529808457
 11
28.7979742524
 21
-37.6866675709
  0
LWPOLYLINE
  5
39D
100
AcDbEntity
  8
RACCORDO
100
AcDbPolyline
 62
7
  6
CONTINUOUS
 90
8
 70
0
 10
28.7101064692
 20
-37.580743364
 10
28.7099637008
 20
-37.5912352038
 10
28.709062851
 20
-37.608626875
 10
28.7073913083
 20
-37.6245630053
 10
28.7050820823
 20
-37.6386152916
 10
28.7024388182
 20
-37.6500583418
 10
28.6998086447
 20
-37.658673498
 10
28.6993125111
 20
-37.660064064
  0
LINE
  5
39E
100
AcDbEntity
  8
ASSI
100
AcDbLine
 62
7
  6
CONTINUOUS
 10
13.1698637996
 20
-25.9222003922
 11
13.4245686732
 21
-25.7376043413
  0
LINE
  5
39F
100
AcDbEntity
  8
ASSI
100
AcDbLine
 62
7
  6
CONTINUOUS
 10
13.4247627522
 20
-25.2817445508
 11
11.9387275748
 21
-26.1069491836
  0
LINE
  5
3A0
100
AcDbEntity
  8
RACCORDO
100
AcDbLine
 62
7
  6
CONTINUOUS
 10
10.9309657132
 20
-25.6648246939
 11
10.0277722708
 21
-26.1521182768
  0
LINE
  5
3A1
100
AcDbEntity
  8
RACCORDO
100
AcDbLine
 62
7
  6
CONTINUOUS
 10
11.0682592989
 20
-25.6717150456
 11
10.1650658566
 21
-26.1590086286
  0
LINE
  5
3A2
100
AcDbEntity
  8
ASSI
100
AcDbLine
 62
7
  6
CONTINUOUS
 10
13.1698637996
 20
-25.9222003922
 11
12.3771240724
 21
-26.3261474324
  0
LINE
  5
3A3
100
AcDbEntity
  8
ASSI
100
AcDbLine
 62
7
  6
CONTINUOUS
 10
12.8092751532
 20
-26.4625451009
 11
12.729816798
 21
-26.5024937952
  0
LINE
  5
3A4
100
AcDbEntity
  8
ASSI
100
AcDbLine
 62
7
  6
CONTINUOUS
 10
12.8797928633
 20
-26.3640233267
 11
12.6668120546
 21
-26.4709914235
  0
LINE
  5
3A5
100
AcDbEntity
  8
ASSI
100
AcDbLine
 62
7
  6
CONTINUOUS
 10
13.4317762821
 20
-25.7036108598
 11
12.2798450679
 21
-26.2775079301
  0
LINE
  5
3A6
100
AcDbEntity
  8
ASSI
100
AcDbLine
 62
7
  6
CONTINUOUS
 10
9.1672989067
 20
-23.153012628
 11
6.823852891
 21
-24.208036763
  0
LINE
  5
3A7
100
AcDbEntity
  8
DRAFT
100
AcDbLine
 62
7
  6
CONTINUOUS
 10
9.9878832843
 20
-25.7900519596
 11
9.4221978593
 21
-26.0365854975
  0
LWPOLYLINE
  5
3A8
100
AcDbEntity
  8
RACCORDO
100
AcDbPolyline
 62
7
  6
CONTINUOUS
 90
6
 70
0
 10
-35.3711657282
 20
34.3320635355
 10
-35.3711205962
 20
34.3320552376
 10
-35.3694406593
 20
34.3316686186
 10
-35.3653084059
 20
34.3304061074
 10
-35.3590072017
 20
34.3279899143
 10
-35.3505012057
 20
34.3240624129
  0
LINE
  5
3A9
100
AcDbEntity
  8
RACCORDO
100
AcDbLine
 62
7
  6
CONTINUOUS
 10
30.5002978663
 20
-40.9027448457
 11
30.5002978663
 21
3.3667345066
  0
LINE
  5
3AA
100
AcDbEntity
  8
RACCORDO
100
AcDbLine
 62
7
  6
CONTINUOUS
 10
30.9208274118
 20
-40.9045797986
 11
30.9208274118
 21
3.3648995537
  0
LINE
  5
3AB
100
AcDbEntity
  8
RACCORDO
100
AcDbLine
 62
7
  6
CONTINUOUS
 10
32.3275205318
 20
-40.2549222996
 11
32.3275205318
 21
4.0736698103
  0
LINE
  5
3AC
100
AcDbEntity
  8
RACCORDO
100
AcDbLine
 62
7
  6
CONTINUOUS
 10
15.8893529979
 20
-28.6495746538
 11
16.445164347
 21
-28.3497016796
  0
LINE
  5
3AD
100
AcDbEntity
  8
RACCORDO
100
AcDbLine
 62
7
  6
CONTINUOUS
 10
16.0266465836
 20
-28.6564650056
 11
16.5824579327
 21
-28.3565920315
  0
LINE
  5
3AE
100
AcDbEntity
  8
RACCORDO
100
AcDbLine
 62
7
  6
CONTINUOUS
 10
15.5543110127
 20
-27.9147409025
 11
14.619026824
 21
-28.3859891123
  0
LINE
  5
3AF
100
AcDbEntity
  8
RACCORDO
100
AcDbLine
 62
7
  6
CONTINUOUS
 10
15.7664107383
 20
-28.2805588165
 11
15.3691854244
 21
-28.4807030297
  0
LINE
  5
3B0
100
AcDbEntity
  8
DRAFT
100
AcDbLine
 62
7
  6
CONTINUOUS
 10
15.2911841432
 20
-28.4417023891
 11
14.7254987182
 21
-28.688235927
  0
LINE
  5
3B1
100
AcDbEntity
  8
RACCORDO
100
AcDbLine
 62
7
  6
CONTINUOUS
 10
-34.979256189
 20
34.1384397736
 11
-35.4494817599
 21
34.1520046965
  0
LINE
  5
3B2
100
AcDbEntity
  8
RACCORDO
100
AcDbLine
 62
7
  6
CONTINUOUS
 10
-35.3686753762
 20
34.3318893545
 11
-35.3686193858
 21
34.3318877393
  0
LWPOLYLINE
  5
3B3
100
AcDbEntity
  8
RACCORDO
100
AcDbPolyline
 62
7
  6
CONTINUOUS
 90
3
 70
0
 10
28.6993125111
 20
-37.660064064
 10
28.697564691
 20
-37.6644333432
 10
28.696258795
 20
-37.667123815
  0
LINE
  5
3B4
100
AcDbEntity
  8
ASSI
100
AcDbLine
 62
7
  6
CONTINUOUS
 10
22.8591194278
 20
-32.2256700314
 11
22.8925820409
 21
-32.1679555611
  0
LINE
  5
3B5
100
AcDbEntity
  8
ASSI
100
AcDbLine
 62
7
  6
CONTINUOUS
 10
23.1507842579
 20
-32.1556353134
 11
23.2461354315
 21
-31.9911788658
  0
LINE
  5
3B6
100
AcDbEntity
  8
ASSI
100
AcDbLine
 62
7
  6
CONTINUOUS
 10
23.5043376485
 20
-31.9788586181
 11
23.5996888221
 21
-31.8144021705
  0
LINE
  5
3B7
100
AcDbEntity
  8
ASSI
100
AcDbLine
 62
7
  6
CONTINUOUS
 10
23.8578910391
 20
-31.8020819228
 11
23.9532422127
 21
-31.6376254752
  0
LINE
  5
3B8
100
AcDbEntity
  8
ASSI
100
AcDbLine
 62
7
  6
CONTINUOUS
 10
24.2114444297
 20
-31.6253052275
 11
24.3067956033
 21
-31.4608487799
  0
LINE
  5
3B9
100
AcDbEntity
  8
ASSI
100
AcDbLine
 62
7
  6
CONTINUOUS
 10
24.5649978203
 20
-31.4485285322
 11
24.6603489939
 21
-31.2840720846
  0
LINE
  5
3BA
100
AcDbEntity
  8
ASSI
100
AcDbLine
 62
7
  6
CONTINUOUS
 10
24.9185512109
 20
-31.2717518369
 11
25.0139023845
 21
-31.1072953893
  0
LINE
  5
3BB
100
AcDbEntity
  8
ASSI
100
AcDbLine
 62
7
  6
CONTINUOUS
 10
27.4659396549
 20
-33.7983328925
 11
27.4887761186
 21
-33.7589458188
  0
LINE
  5
3BC
100
AcDbEntity
  8
ASSI
100
AcDbLine
 62
7
  6
CONTINUOUS
 10
27.736263492
 20
-33.7651059427
 11
27.8423295092
 21
-33.5821691235
  0
LINE
  5
3BD
100
AcDbEntity
  8
ASSI
100
AcDbLine
 62
7
  6
CONTINUOUS
 10
28.0898168826
 20
-33.5883292474
 11
28.1958828998
 21
-33.4053924282
  0
LINE
  5
3BE
100
AcDbEntity
  8
RACCORDO
100
AcDbLine
 62
7
  6
CONTINUOUS
 10
20.559129663
 20
-30.9227065453
 11
21.1248150879
 21
-30.6277706091
  0
LINE
  5
3BF
100
AcDbEntity
  8
RACCORDO
100
AcDbLine
 62
7
  6
CONTINUOUS
 10
20.8759032632
 20
-31.2340619491
 11
21.3369471223
 21
-30.9936838234
  0
LINE
  5
3C0
100
AcDbEntity
  8
RACCORDO
100
AcDbLine
 62
7
  6
CONTINUOUS
 10
25.6558465164
 20
-32.9535845584
 11
25.0901610915
 21
-33.2485204946
  0
LINE
  5
3C1
100
AcDbEntity
  8
RACCORDO
100
AcDbLine
 62
7
  6
CONTINUOUS
 10
25.7917198438
 20
-32.961222987
 11
25.2260344188
 21
-33.2561589232
  0
LINE
  5
3C2
100
AcDbEntity
  8
ASSI
100
AcDbLine
 62
7
  6
CONTINUOUS
 10
22.8925820409
 20
-32.1679555611
 11
23.0340033972
 21
-32.097244883
  0
LINE
  5
3C3
100
AcDbEntity
  8
ASSI
100
AcDbLine
 62
7
  6
CONTINUOUS
 10
23.2461354315
 20
-31.9911788658
 11
23.3875567877
 21
-31.9204681877
  0
LINE
  5
3C4
100
AcDbEntity
  8
ASSI
100
AcDbLine
 62
7
  6
CONTINUOUS
 10
23.5996888221
 20
-31.8144021705
 11
23.7411101783
 21
-31.7436914924
  0
LINE
  5
3C5
100
AcDbEntity
  8
ASSI
100
AcDbLine
 62
7
  6
CONTINUOUS
 10
23.9532422127
 20
-31.6376254752
 11
24.0946635689
 21
-31.5669147971
  0
LINE
  5
3C6
100
AcDbEntity
  8
ASSI
100
AcDbLine
 62
7
  6
CONTINUOUS
 10
24.3067956033
 20
-31.4608487799
 11
24.4482169595
 21
-31.3901381018
  0
LINE
  5
3C7
100
AcDbEntity
  8
ASSI
100
AcDbLine
 62
7
  6
CONTINUOUS
 10
24.6603489939
 20
-31.2840720846
 11
24.8017703501
 21
-31.2133614065
  0
LINE
  5
3C8
100
AcDbEntity
  8
ASSI
100
AcDbLine
 62
7
  6
CONTINUOUS
 10
25.0139023845
 20
-31.1072953893
 11
25.1553237407
 21
-31.0365847112
  0
LINE
  5
3C9
100
AcDbEntity
  8
ASSI
100
AcDbLine
 62
7
  6
CONTINUOUS
 10
25.0772014834
 20
-31.0213613759
 11
22.6426142805
 21
-32.1174174578
  0
LINE
  5
3CA
100
AcDbEntity
  8
SMUSSO
100
AcDbLine
 62
7
  6
CONTINUOUS
 10
46.4998980262
 20
19.5533971136
 11
-50.3536299837
 21
67.9801611186
  0
LINE
  5
3CB
100
AcDbEntity
  8
SMUSSO
100
AcDbLine
 62
7
  6
CONTINUOUS
 10
47.4998980262
 20
20.6265292986
 11
-49.9394164213
 21
69.3461865224
  0
LINE
  5
3CC
100
AcDbEntity
  8
SMUSSO
100
AcDbLine
 62
7
  6
CONTINUOUS
 10
46.792791245
 20
-69.6947542391
 11
46.792791245
 21
19.0482310366
  0
LINE
  5
3CD
100
AcDbEntity
  8
ASSI
100
AcDbLine
 62
7
  6
CONTINUOUS
 10
28.4433702732
 20
-33.4115525521
 11
28.5494362904
 21
-33.2286157329
  0
LINE
  5
3CE
100
AcDbEntity
  8
RACCORDO
100
AcDbLine
 62
7
  6
CONTINUOUS
 10
28.696411071
 20
-37.6669193669
 11
28.697610598
 21
-37.6653063291
  0
LINE
  5
3CF
100
AcDbEntity
  8
RACCORDO
100
AcDbLine
 62
7
  6
CONTINUOUS
 10
28.532333614
 20
-37.6902512112
 11
28.7101062867
 21
-37.4670967211
  0
LINE
  5
3D0
100
AcDbEntity
  8
RACCORDO
100
AcDbLine
 62
7
  6
CONTINUOUS
 10
28.6976146603
 20
-37.6653058102
 11
28.6975933955
 21
-37.6653324832
  0
LINE
  5
3D1
100
AcDbEntity
  8
ASSI
100
AcDbLine
 62
7
  6
CONTINUOUS
 10
28.7101062867
 20
-33.496914843
 11
27.835003577
 21
-33.9828648536
  0
LINE
  5
3D2
100
AcDbEntity
  8
ASSI
100
AcDbLine
 62
7
  6
CONTINUOUS
 10
28.7101062867
 20
-34.0655150159
 11
28.3585651994
 21
-34.2446456648
  0
LINE
  5
3D3
100
AcDbEntity
  8
DRAFT
100
AcDbLine
 62
7
  6
CONTINUOUS
 10
28.6287840229
 20
-34.3797550765
 11
28.7101062867
 21
-34.3388692786
  0
LINE
  5
3D4
100
AcDbEntity
  8
DRAFT
100
AcDbLine
 62
7
  6
CONTINUOUS
 10
28.5579243567
 20
-34.3443252434
 11
28.7074509294
 21
-34.2692265855
  0
LINE
  5
3D5
100
AcDbEntity
  8
ASSI
100
AcDbLine
 62
7
  6
CONTINUOUS
 10
27.4887761186
 20
-33.7589458188
 11
27.6301974749
 21
-33.6882351407
  0
LINE
  5
3D6
100
AcDbEntity
  8
ASSI
100
AcDbLine
 62
7
  6
CONTINUOUS
 10
27.8423295092
 20
-33.5821691235
 11
27.9837508655
 21
-33.5114584454
  0
LINE
  5
3D7
100
AcDbEntity
  8
ASSI
100
AcDbLine
 62
7
  6
CONTINUOUS
 10
28.1958828998
 20
-33.4053924282
 11
28.3373042561
 21
-33.3346817501
  0
LINE
  5
3D8
100
AcDbEntity
  8
ASSI
100
AcDbLine
 62
7
  6
CONTINUOUS
 10
28.5494362904
 20
-33.2286157329
 11
28.6908576466
 21
-33.1579050548
  0
LINE
  5
3D9
100
AcDbEntity
  8
ASSI
100
AcDbLine
 62
7
  6
CONTINUOUS
 10
28.7101062867
 20
-33.2781845453
 11
27.5678746236
 21
-33.8493003769
  0
LINE
  5
3DA
100
AcDbEntity
  8
ASSI
100
AcDbLine
 62
7
  6
CONTINUOUS
 10
28.7101062867
 20
-33.9732143117
 11
28.2620998995
 21
-34.1964130148
  0
LINE
  5
3DB
100
AcDbEntity
  8
SMUSSO
100
AcDbLine
 62
7
  6
CONTINUOUS
 10
-47.4998980262
 20
70.5659457199
 11
49.9394164213
 21
21.8462884961
  0
LINE
  5
3DC
100
AcDbEntity
  8
SMUSSO
100
AcDbLine
 62
7
  6
CONTINUOUS
 10
48.2070048074
 20
-70.0534737067
 11
48.2070048074
 21
19.4069505042
  0
LINE
  5
3DD
100
AcDbEntity
  8
SMUSSO
100
AcDbLine
 62
7
  6
CONTINUOUS
 10
50.6465232025
 20
-68.8337145092
 11
50.6465232025
 21
20.8009033586
  0
LINE
  5
3DE
100
AcDbEntity
  8
RACCORDO
100
AcDbLine
 62
7
  6
CONTINUOUS
 10
30.9208274118
 20
-40.9045797986
 11
32.3275205318
 21
-40.2549222996
  0
LINE
  5
3DF
100
AcDbEntity
  8
RACCORDO
100
AcDbLine
 62
7
  6
CONTINUOUS
 10
30.7300899518
 20
-41.2873744287
 11
32.1382948383
 21
-40.6370187458
  0
LINE
  5
3E0
100
AcDbEntity
  8
SMUSSO
100
AcDbLine
 62
7
  6
CONTINUOUS
 10
49.9394164213
 20
21.8462884961
 11
50.1465232025
 21
21.6632757943
  0
LINE
  5
3E1
100
AcDbEntity
  8
SMUSSO
100
AcDbLine
 62
7
  6
CONTINUOUS
 10
46.792791245
 20
19.0482310366
 11
46.4998980262
 21
19.5533971136
  0
LINE
  5
3E2
100
AcDbEntity
  8
SMUSSO
100
AcDbLine
 62
7
  6
CONTINUOUS
 10
48.2070048074
 20
19.4069505042
 11
47.4998980262
 21
20.6265292986
  0
LINE
  5
3E3
100
AcDbEntity
  8
SMUSSO
100
AcDbLine
 62
7
  6
CONTINUOUS
 10
49.9394164213
 20
21.8462884961
 11
50.6465232025
 21
20.6267097018
  0
LINE
  5
3E4
100
AcDbEntity
  8
SMUSSO
100
AcDbLine
 62
7
  6
CONTINUOUS
 10
50.1465232025
 20
21.6632757943
 11
50.6465232025
 21
20.8009033586
  0
LINE
  5
3E5
100
AcDbEntity
  8
SMUSSO
100
AcDbLine
 62
7
  6
CONTINUOUS
 10
46.4998980262
 20
-69.9070270973
 11
46.792791245
 21
-69.6947542391
  0
LINE
  5
3E6
100
AcDbEntity
  8
SMUSSO
100
AcDbLine
 62
7
  6
CONTINUOUS
 10
47.4998980262
 20
-70.5659457199
 11
48.2070048074
 21
-70.0534737067
  0
LINE
  5
3E7
100
AcDbEntity
  8
SMUSSO
100
AcDbLine
 62
7
  6
CONTINUOUS
 10
50.6465232025
 20
-68.8337145092
 11
49.9394164213
 21
-69.3461865224
  0
LINE
  5
3E8
100
AcDbEntity
  8
SMUSSO
100
AcDbLine
 62
7
  6
CONTINUOUS
 10
48.2070048074
 20
-70.0534737067
 11
50.6465232025
 21
-68.8337145092
  0
LINE
  5
3E9
100
AcDbEntity
  8
SMUSSO
100
AcDbLine
 62
7
  6
CONTINUOUS
 10
47.4998980262
 20
-70.5659457199
 11
49.9394164213
 21
-69.3461865224
  0
ARC
  5
3EA
100
AcDbEntity
  8
0
100
AcDbCircle
 62
7
  6
CONTINUOUS
 10
-1.3124748677
 20
-24.8024159392
 40
0.3152191497
100
AcDbArc
 50
42.2221289167
 51
45.3108453725
  0
ARC
  5
3EB
100
AcDbEntity
  8
RACCORDO
100
AcDbCircle
 62
7
  6
CONTINUOUS
 10
-3.6679360731
 20
-18.0068382004
 40
0.2999860163
100
AcDbArc
 50
359.9999782123
 51
63.4464452758
  0
ARC
  5
3EC
100
AcDbEntity
  8
RACCORDO
100
AcDbCircle
 62
7
  6
CONTINUOUS
 10
5.3830307261
 20
-22.5323216
 40
0.2999860163
100
AcDbArc
 50
359.9999782123
 51
63.4464452758
  0
ARC
  5
3ED
100
AcDbEntity
  8
RACCORDO
100
AcDbCircle
 62
7
  6
CONTINUOUS
 10
-5.2062302341
 20
-17.2376336386
 40
0.2999366603
100
AcDbArc
 50
63.4376202806
 51
114.7714837855
  0
ARC
  5
3EE
100
AcDbEntity
  8
RACCORDO
100
AcDbCircle
 62
7
  6
CONTINUOUS
 10
3.8447365651
 20
-21.7631170382
 40
0.2999366603
100
AcDbArc
 50
63.4376202806
 51
114.7714837855
  0
ARC
  5
3EF
100
AcDbEntity
  8
RACCORDO
100
AcDbCircle
 62
7
  6
CONTINUOUS
 10
-29.244489609
 20
14.8316700161
 40
0.2500031208
100
AcDbArc
 50
298.3482651455
 51
0.0019330358
  0
ARC
  5
3F0
100
AcDbEntity
  8
RACCORDO
100
AcDbCircle
 62
7
  6
CONTINUOUS
 10
-29.2444752736
 20
20.3171635548
 40
0.2499883484
100
AcDbArc
 50
359.9999783872
 51
63.4464435507
  0
ARC
  5
3F1
100
AcDbEntity
  8
RACCORDO
100
AcDbCircle
 62
7
  6
CONTINUOUS
 10
-29.6225368187
 20
20.5067196175
 40
0.2491796562
100
AcDbArc
 50
63.4508113348
 51
114.7789325735
  0
ARC
  5
3F2
100
AcDbEntity
  8
RACCORDO
100
AcDbCircle
 62
7
  6
CONTINUOUS
 10
-34.0063149369
 20
-4.7697161513
 40
0.1748207895
100
AcDbArc
 50
236.3170348631
 51
243.5767016674
  0
ARC
  5
3F3
100
AcDbEntity
  8
RACCORDO
100
AcDbCircle
 62
7
  6
CONTINUOUS
 10
-34.1646336042
 20
-4.5181147161
 40
0.1092466269
100
AcDbArc
 50
179.96524416
 51
186.2910963855
  0
ARC
  5
3F4
100
AcDbEntity
  8
RACCORDO
100
AcDbCircle
 62
7
  6
CONTINUOUS
 10
-29.6877045931
 20
20.6478915783
 40
0.0936883334
100
AcDbArc
 50
109.5195127965
 51
114.778830694
  0
ARC
  5
3F5
100
AcDbEntity
  8
ASSI
100
AcDbCircle
 62
7
  6
CONTINUOUS
 10
-22.6124206857
 20
-7.2345555411
 40
0.0874961196
100
AcDbArc
 50
105.061869074
 51
111.6611297249
  0
ARC
  5
3F6
100
AcDbEntity
  8
ASSI
100
AcDbCircle
 62
7
  6
CONTINUOUS
 10
25.1172870444
 20
-31.0994094062
 40
0.0874961196
100
AcDbArc
 50
105.061869074
 51
111.661129725
  0
SPLINE
  5
3F7
100
AcDbEntity
  8
0
100
AcDbSpline
 62
7
  6
CONTINUOUS
 70
0
 71
3
 72
10
 73
6
 74
4
 42
0.0000001
 43
0.0000001
 44
0.0000000001
 12
0.2763115484
 22
-0.1381557742
 32
0.0
 13
0.0793323206
 23
-0.2985656924
 33
0.0
 40
0.0
 40
0.0
 40
0.0
 40
0.0
 40
0.2224105364
 40
0.6042534692
 40
1.0
 40
1.0
 40
1.0
 40
1.0
 10
-1.4127547486
 20
-24.5545351514
 30
0.0
 10
-1.392269882
 20
-24.5647775846
 30
0.0
 10
-1.3406643839
 20
-24.6012377985
 30
0.0
 10
-1.2796885211
 20
-24.6866351728
 30
0.0
 10
-1.2503034131
 20
-24.7618396678
 30
0.0
 10
-1.2398382495
 20
-24.8012251134
 30
0.0
 11
-1.4127547486
 21
-24.5545351514
 31
0.0
 11
-1.3562802609
 21
-24.5936691139
 31
0.0
 11
-1.2848838326
 21
-24.6875699673
 31
0.0
 11
-1.2398382495
 21
-24.8012251134
 31
0.0
  0
SPLINE
  5
3F8
100
AcDbEntity
  8
0
100
AcDbSpline
 62
7
  6
CONTINUOUS
 70
0
 71
3
 72
9
 73
5
 74
3
 42
0.0000001
 43
0.0000001
 44
0.0000000001
 12
0.1629167104
 22
-0.6125703128
 32
0.0
 13
0.1303220388
 23
-0.6203228263
 33
0.0
 40
0.0
 40
0.0
 40
0.0
 40
0.0
 40
0.5011449125
 40
1.0
 40
1.0
 40
1.0
 40
1.0
 10
-1.2398382495
 20
-24.8012251134
 30
0.0
 10
-1.2126232893
 20
-24.9035539454
 30
0.0
 10
-1.1706925927
 20
-25.1108180139
 30
0.0
 10
-1.1259815112
 20
-25.3172673012
 30
0.0
 10
-1.1043109072
 20
-25.4204177004
 30
0.0
 11
-1.2398382495
 21
-24.8012251134
 31
0.0
 11
-1.1698982956
 21
-25.1110879831
 31
0.0
 11
-1.1043109072
 21
-25.4204177004
 31
0.0
  0
SPLINE
  5
3F9
100
AcDbEntity
  8
0
100
AcDbSpline
 62
7
  6
CONTINUOUS
 70
0
 71
3
 72
9
 73
5
 74
3
 42
0.0000001
 43
0.0000001
 44
0.0000000001
 12
0.0421357026
 22
-0.014409079
 32
0.0
 13
0.0398300541
 23
0.0199149638
 33
0.0
 40
0.0
 40
0.0
 40
0.0
 40
0.0
 40
0.5094570831
 40
1.0
 40
1.0
 40
1.0
 40
1.0
 10
-1.0907938029
 20
-24.5675706157
 30
0.0
 10
-1.0836383588
 20
-24.5700175515
 30
0.0
 10
-1.0678738344
 20
-24.5705458245
 30
0.0
 10
-1.054275634
 20
-24.5641345252
 30
0.0
 10
-1.0477628504
 20
-24.5608781437
 30
0.0
 11
-1.0907938029
 21
-24.5675706157
 31
0.0
 11
-1.0681379234
 21
-24.5687546745
 31
0.0
 11
-1.0477628504
 21
-24.5608781437
 31
0.0
  0
SPLINE
  5
3FA
100
AcDbEntity
  8
0
100
AcDbSpline
 62
7
  6
CONTINUOUS
 70
0
 71
3
 72
11
 73
7
 74
5
 42
0.0000001
 43
0.0000001
 44
0.0000000001
 12
0.3138156219
 22
-0.2015300707
 32
0.0
 13
0.0047321734
 23
-0.3729238803
 33
0.0
 40
0.0
 40
0.0
 40
0.0
 40
0.0
 40
0.2339806254
 40
0.4918424311
 40
0.7556842856
 40
1.0
 40
1.0
 40
1.0
 40
1.0
 10
-1.3464051402
 20
-23.7799648466
 30
0.0
 10
-1.3219295484
 20
-23.7956828906
 30
0.0
 10
-1.2751861261
 20
-23.8361854454
 30
0.0
 10
-1.2190343449
 20
-23.9125575268
 30
0.0
 10
-1.1826424667
 20
-24.0014127051
 30
0.0
 10
-1.1717139581
 20
-24.064457221
 30
0.0
 10
-1.1713285767
 20
-24.0948276091
 30
0.0
 11
-1.3464051402
 21
-23.7799648466
 31
0.0
 11
-1.2797633545
 21
-23.8363020095
 31
0.0
 11
-1.2228941962
 21
-23.9138563567
 31
0.0
 11
-1.1852767883
 21
-24.0047830184
 31
0.0
 11
-1.1713285767
 21
-24.0948276091
 31
0.0
  0
SPLINE
  5
3FB
100
AcDbEntity
  8
0
100
AcDbSpline
 62
7
  6
CONTINUOUS
 70
0
 71
3
 72
11
 73
7
 74
5
 42
0.0000001
 43
0.0000001
 44
0.0000000001
 12
0.0026069209
 22
-0.2082217894
 32
0.0
 13
-0.1862538365
 23
-0.093126892
 33
0.0
 40
0.0
 40
0.0
 40
0.0
 40
0.0
 40
0.2862348139
 40
0.5536263913
 40
0.791049786
 40
1.0
 40
1.0
 40
1.0
 40
1.0
 10
-1.1713285767
 20
-24.0948276091
 30
0.0
 10
-1.1710798462
 20
-24.1146943841
 30
0.0
 10
-1.1735307028
 20
-24.1532407435
 30
0.0
 10
-1.1864917451
 20
-24.2069375591
 30
0.0
 10
-1.2087949534
 20
-24.2518155172
 30
0.0
 10
-1.2326002265
 20
-24.2735797838
 30
0.0
 10
-1.2455728195
 20
-24.2800660785
 30
0.0
 11
-1.1713285767
 21
-24.0948276091
 31
0.0
 11
-1.1753837223
 21
-24.154294502
 31
0.0
 11
-1.1890877982
 21
-24.2082628724
 31
0.0
 11
-1.2124734076
 21
-24.2518230153
 31
0.0
 11
-1.2455728195
 21
-24.2800660785
 31
0.0
  0
SPLINE
  5
3FC
100
AcDbEntity
  8
0
100
AcDbSpline
 62
7
  6
CONTINUOUS
 70
0
 71
3
 72
10
 73
6
 74
4
 42
0.0000001
 43
0.0000001
 44
0.0000000001
 12
0.257046478
 22
-0.0748047261
 32
0.0
 13
0.2252633536
 23
-0.1446549704
 33
0.0
 40
0.0
 40
0.0
 40
0.0
 40
0.0
 40
0.2362920832
 40
0.4814109498
 40
1.0
 40
1.0
 40
1.0
 40
1.0
 10
-1.5892119718
 20
-23.6692662729
 30
0.0
 10
-1.5689659559
 20
-23.6751581944
 30
0.0
 10
-1.5279377204
 20
-23.688027861
 30
0.0
 10
-1.4452423867
 20
-23.7217879556
 30
0.0
 10
-1.3853448431
 20
-23.754959352
 30
0.0
 10
-1.3464051402
 20
-23.7799648466
 30
0.0
 11
-1.5892119718
 21
-23.6692662729
 31
0.0
 11
-1.5289833699
 21
-23.6886068677
 31
0.0
 11
-1.4681926688
 21
-23.7133167045
 31
0.0
 11
-1.3464051402
 21
-23.7799648466
 31
0.0
  0
SPLINE
  5
3FD
100
AcDbEntity
  8
RACCORDO
100
AcDbSpline
 62
7
  6
CONTINUOUS
 70
0
 71
3
 72
11
 73
7
 74
5
 42
0.0000001
 43
0.0000001
 44
0.0000000001
 12
-0.5252094582
 22
0.2626021805
 32
0.0
 13
-0.0000165042
 23
0.5872008855
 33
0.0
 40
0.0
 40
0.0
 40
0.0
 40
0.0
 40
0.2296744152
 40
0.4882138292
 40
0.7532078385
 40
1.0
 40
1.0
 40
1.0
 40
1.0
 10
-37.253210705
 20
-7.3723479616
 30
0.0
 10
-37.2934197634
 20
-7.3522436276
 30
0.0
 10
-37.3702536719
 20
-7.2921355831
 30
0.0
 10
-37.4589816487
 20
-7.1728011844
 30
0.0
 10
-37.5193427893
 20
-7.0332419724
 30
0.0
 10
-37.5360089814
 20
-6.9328962682
 30
0.0
 10
-37.5360103392
 20
-6.884590743
 30
0.0
 11
-37.253210705
 21
-7.3723479616
 31
0.0
 11
-37.3614347194
 21
-7.2918735165
 31
0.0
 11
-37.4531854806
 21
-7.170921202
 31
0.0
 11
-37.5144857955
 21
-7.0278998772
 31
0.0
 11
-37.5360103392
 21
-6.884590743
 31
0.0
  0
SPLINE
  5
3FE
100
AcDbEntity
  8
RACCORDO
100
AcDbSpline
 62
7
  6
CONTINUOUS
 70
0
 71
3
 72
15
 73
11
 74
9
 42
0.0000001
 43
0.0000001
 44
0.0000000001
 12
0.0000198666
 22
-0.6465603367
 32
0.0
 13
-0.5782783253
 23
0.28919621
 33
0.0
 40
0.0
 40
0.0
 40
0.0
 40
0.0
 40
0.1488156354
 40
0.2853524865
 40
0.4094989621
 40
0.5236308894
 40
0.6329815813
 40
0.7448415681
 40
0.8659257345
 40
1.0
 40
1.0
 40
1.0
 40
1.0
 10
28.7979742524
 20
-37.6866675709
 30
0.0
 10
28.7979752378
 20
-37.7187403333
 30
0.0
 10
28.7938243055
 20
-37.7803777541
 30
0.0
 10
28.7730329599
 20
-37.8666709312
 30
0.0
 10
28.737607679
 20
-37.9401264469
 30
0.0
 10
28.6874779831
 20
-37.997323318
 30
0.0
 10
28.6236445205
 20
-38.0341468657
 30
0.0
 10
28.549708955
 20
-38.0474683474
 30
0.0
 10
28.4702888373
 20
-38.0372703417
 30
0.0
 10
28.4185955612
 20
-38.0171026443
 30
0.0
 10
28.3927514806
 20
-38.0041780545
 30
0.0
 11
28.7979742524
 21
-37.6866675709
 31
0.0
 11
28.7908342074
 21
-37.7826205728
 31
0.0
 11
28.7692757829
 21
-37.8682270641
 31
0.0
 11
28.733447074
 21
-37.9400552304
 31
0.0
 11
28.6840986609
 21
-37.9949202207
 31
0.0
 11
28.6227358379
 21
-38.0300393227
 31
0.0
 11
28.5516802599
 21
-38.0435263238
 31
0.0
 11
28.4738927394
 21
-38.0346862472
 31
0.0
 11
28.3927514806
 21
-38.0041780545
 31
0.0
  0
SPLINE
  5
3FF
100
AcDbEntity
  8
RACCORDO
100
AcDbSpline
 62
7
  6
CONTINUOUS
 70
0
 71
3
 72
9
 73
5
 74
3
 42
0.0000001
 43
0.0000001
 44
0.0000000001
 12
0.1989366211
 22
-0.099481222
 32
0.0
 13
0.1498422628
 23
-0.164376364
 33
0.0
 40
0.0
 40
0.0
 40
0.0
 40
0.0
 40
0.2331595132
 40
1.0
 40
1.0
 40
1.0
 40
1.0
 10
28.3927514806
 20
2.5757141011
 30
0.0
 10
28.4082128025
 20
2.5679824367
 30
0.0
 10
28.4726706988
 20
2.5311304787
 30
0.0
 10
28.5292184121
 20
2.4813165241
 30
0.0
 10
28.5675201166
 20
2.4392997071
 30
0.0
 11
28.3927514806
 21
2.5757141011
 31
0.0
 11
28.4378407218
 21
2.5500930098
 31
0.0
 11
28.5675201166
 21
2.4392997071
 31
0.0
  0
SPLINE
  5
400
100
AcDbEntity
  8
RACCORDO
100
AcDbSpline
 62
7
  6
CONTINUOUS
 70
0
 71
3
 72
9
 73
5
 74
3
 42
0.0000001
 43
0.0000001
 44
0.0000000001
 12
0.4311233148
 22
-0.4729405552
 32
0.0
 13
0.0000022423
 23
-0.6399531868
 33
0.0
 40
0.0
 40
0.0
 40
0.0
 40
0.0
 40
0.5119288184
 40
1.0
 40
1.0
 40
1.0
 40
1.0
 10
28.5675201166
 20
2.4392997071
 30
0.0
 10
28.6410882663
 20
2.3585957406
 30
0.0
 10
28.7526048364
 20
2.1707364232
 30
0.0
 10
28.7979738876
 20
1.9570950817
 30
0.0
 10
28.7979742524
 20
1.8529808457
 30
0.0
 11
28.5675201166
 21
2.4392997071
 31
0.0
 11
28.7379300042
 21
2.15949782
 31
0.0
 11
28.7979742524
 21
1.8529808457
 31
0.0
  0
SPLINE
  5
401
100
AcDbEntity
  8
RACCORDO
100
AcDbSpline
 62
7
  6
CONTINUOUS
 70
0
 71
3
 72
9
 73
5
 74
3
 42
0.0000001
 43
0.0000001
 44
0.0000000001
 12
-0.1260316343
 22
-0.0657101216
 32
0.0
 13
-0.1032641788
 23
-0.0976642324
 33
0.0
 40
0.0
 40
0.0
 40
0.0
 40
0.0
 40
0.2371046482
 40
1.0
 40
1.0
 40
1.0
 40
1.0
 10
-33.9693580538
 20
-4.8428496441
 30
0.0
 10
-33.9793189493
 20
-4.8480430358
 30
0.0
 10
-34.0204336678
 20
-4.8716565248
 30
0.0
 10
-34.057850157
 20
-4.9014377043
 30
0.0
 10
-34.0841100777
 20
-4.9262735673
 30
0.0
 11
-33.9693580538
 21
-4.8428496441
 31
0.0
 11
-33.9986080217
 21
-4.8595875108
 31
0.0
 11
-34.0841100777
 21
-4.9262735673
 31
0.0
  0
SPLINE
  5
402
100
AcDbEntity
  8
RACCORDO
100
AcDbSpline
 62
7
  6
CONTINUOUS
 70
0
 71
3
 72
9
 73
5
 74
3
 42
0.0000001
 43
0.0000001
 44
0.0000000001
 12
-0.1370512165
 22
-0.0578502863
 32
0.0
 13
-0.1164661161
 23
-0.092549097
 33
0.0
 40
0.0
 40
0.0
 40
0.0
 40
0.0
 40
0.2394516602
 40
1.0
 40
1.0
 40
1.0
 40
1.0
 10
-33.9760825298
 20
-4.8384834287
 30
0.0
 10
-33.9870215769
 20
-4.8431008778
 30
0.0
 10
-34.031950255
 20
-4.8641592279
 30
0.0
 10
-34.0736876515
 20
-4.8917620077
 30
0.0
 10
-34.1032136886
 20
-4.9152246951
 30
0.0
 11
-33.9760825298
 21
-4.8384834287
 31
0.0
 11
-34.0083550912
 21
-4.8535610302
 31
0.0
 11
-34.1032136886
 21
-4.9152246951
 31
0.0
  0
SPLINE
  5
403
100
AcDbEntity
  8
RACCORDO
100
AcDbSpline
 62
7
  6
CONTINUOUS
 70
0
 71
3
 72
9
 73
5
 74
3
 42
0.0000001
 43
0.0000001
 44
0.0000000001
 12
-0.0583420294
 22
-0.036153318
 32
0.0
 13
-0.0621163817
 23
-0.02919606
 33
0.0
 40
0.0
 40
0.0
 40
0.0
 40
0.0
 40
0.243506666
 40
1.0
 40
1.0
 40
1.0
 40
1.0
 10
-34.212851763
 20
-4.4974835179
 30
0.0
 10
-34.2175873207
 20
-4.5004180426
 30
0.0
 10
-34.2372224417
 20
-4.5121647911
 30
0.0
 10
-34.2575635014
 20
-4.5227203862
 30
0.0
 10
-34.2732270443
 20
-4.5300825945
 30
0.0
 11
-34.212851763
 21
-4.4974835179
 31
0.0
 11
-34.2271917454
 21
-4.5060682357
 31
0.0
 11
-34.2732270443
 21
-4.5300825945
 31
0.0
  0
SPLINE
  5
404
100
AcDbEntity
  8
RACCORDO
100
AcDbSpline
 62
7
  6
CONTINUOUS
 70
0
 71
3
 72
15
 73
11
 74
9
 42
0.0000001
 43
0.0000001
 44
0.0000000001
 12
-0.0000103451
 22
0.6465660531
 32
0.0
 13
0.5783199222
 23
-0.289125801
 33
0.0
 40
0.0
 40
0.0
 40
0.0
 40
0.0
 40
0.1488103064
 40
0.2853464
 40
0.4094914164
 40
0.5236242843
 40
0.632974012
 40
0.7448323333
 40
0.8659164603
 40
1.0
 40
1.0
 40
1.0
 40
1.0
 10
-35.8336867252
 20
34.1688113345
 30
0.0
 10
-35.8336872383
 20
34.200883232
 30
0.0
 10
-35.8295311182
 20
34.2625194665
 30
0.0
 10
-35.8087410706
 20
34.348811805
 30
0.0
 10
-35.773314842
 20
34.422267477
 30
0.0
 10
-35.7231875483
 20
34.4794658503
 30
0.0
 10
-35.659358944
 20
34.5162981176
 30
0.0
 10
-35.5854245802
 20
34.5296264547
 30
0.0
 10
-35.5059990512
 20
34.5194323219
 30
0.0
 10
-35.4543116808
 20
34.499244155
 30
0.0
 10
-35.4284639534
 20
34.4863218181
 30
0.0
 11
-35.8336867252
 21
34.1688113345
 31
0.0
 11
-35.8265426094
 21
34.2647614313
 31
0.0
 11
-35.8049835301
 21
34.3503680575
 31
0.0
 11
-35.7691550953
 21
34.4221960992
 31
0.0
 11
-35.7198083586
 21
34.4770642926
 31
0.0
 11
-35.6584494693
 21
34.5121902706
 31
0.0
 11
-35.5873955697
 21
34.5256837662
 31
0.0
 11
-35.509607415
 21
34.5168433659
 31
0.0
 11
-35.4284639534
 21
34.4863218181
 31
0.0
  0
SPLINE
  5
405
100
AcDbEntity
  8
RACCORDO
100
AcDbSpline
 62
7
  6
CONTINUOUS
 70
0
 71
3
 72
9
 73
5
 74
3
 42
0.0000001
 43
0.0000001
 44
0.0000000001
 12
-0.0589857589
 22
-0.0284808214
 32
0.0
 13
-0.0618223221
 23
-0.0216443395
 33
0.0
 40
0.0
 40
0.0
 40
0.0
 40
0.0
 40
0.2421760207
 40
1.0
 40
1.0
 40
1.0
 40
1.0
 10
-34.2133392439
 20
-4.4930953857
 30
0.0
 10
-34.2181008894
 20
-4.4953945097
 30
0.0
 10
-34.2379101277
 20
-4.504581716
 30
0.0
 10
-34.2582633983
 20
-4.5125809135
 30
0.0
 10
-34.273880211
 20
-4.5180484466
 30
0.0
 11
-34.2133392439
 21
-4.4930953857
 31
0.0
 11
-34.2277274415
 21
-4.499774676
 31
0.0
 11
-34.273880211
 21
-4.5180484466
 31
0.0
  0
SPLINE
  5
406
100
AcDbEntity
  8
0
100
AcDbSpline
 62
7
  6
CONTINUOUS
 70
0
 71
3
 72
9
 73
5
 74
3
 42
0.0000001
 43
0.0000001
 44
0.0000000001
 12
-0.1087199623
 22
0.5446236221
 32
0.0
 13
-0.1090135263
 23
0.5445649374
 33
0.0
 40
0.0
 40
0.0
 40
0.0
 40
0.0
 40
0.4998343578
 40
1.0
 40
1.0
 40
1.0
 40
1.0
 10
-0.6647672546
 20
-25.4987681705
 30
0.0
 10
-0.6828812454
 20
-25.4080276377
 30
0.0
 10
-0.717282613
 20
-25.2261256936
 30
0.0
 10
-0.7525468157
 20
-25.0443908996
 30
0.0
 10
-0.7707217559
 20
-24.9536000091
 30
0.0
 11
-0.6647672546
 21
-25.4987681705
 31
0.0
 11
-0.7174867823
 21
-25.2262277147
 31
0.0
 11
-0.7707217559
 21
-24.9536000091
 31
0.0
  0
SPLINE
  5
407
100
AcDbEntity
  8
0
100
AcDbSpline
 62
7
  6
CONTINUOUS
 70
0
 71
3
 72
11
 73
7
 74
5
 42
0.0000001
 43
0.0000001
 44
0.0000000001
 12
-0.0752832336
 22
0.3760871424
 32
0.0
 13
-0.1936604655
 23
0.3310660479
 33
0.0
 40
0.0
 40
0.0
 40
0.0
 40
0.0
 40
0.2349492004
 40
0.484046258
 40
0.7442106415
 40
1.0
 40
1.0
 40
1.0
 40
1.0
 10
-0.7707217559
 20
-24.9536000091
 30
0.0
 10
-0.7766176677
 20
-24.9241462179
 30
0.0
 10
-0.7883119271
 20
-24.863370938
 30
0.0
 10
-0.8112651092
 20
-24.7709519475
 30
0.0
 10
-0.8424149065
 20
-24.678113456
 30
0.0
 10
-0.8705677527
 20
-24.6181381061
 30
0.0
 10
-0.8870798481
 20
-24.5899103821
 30
0.0
 11
-0.7707217559
 21
-24.9536000091
 31
0.0
 11
-0.7887322523
 21
-24.8653038579
 31
0.0
 11
-0.8121267928
 21
-24.772671688
 31
0.0
 11
-0.8444097828
 21
-24.6782526076
 31
0.0
 11
-0.8870798481
 21
-24.5899103821
 31
0.0
  0
SPLINE
  5
408
100
AcDbEntity
  8
0
100
AcDbSpline
 62
7
  6
CONTINUOUS
 70
0
 71
3
 72
9
 73
5
 74
3
 42
0.0000001
 43
0.0000001
 44
0.0000000001
 12
-0.0503073496
 22
0.0860013187
 32
0.0
 13
-0.0699924945
 23
0.0709091458
 33
0.0
 40
0.0
 40
0.0
 40
0.0
 40
0.0
 40
0.2578689696
 40
1.0
 40
1.0
 40
1.0
 40
1.0
 10
-0.8870798481
 20
-24.5899103821
 30
0.0
 10
-0.8914040829
 20
-24.5825180249
 30
0.0
 10
-0.9088567545
 20
-24.5542738475
 30
0.0
 10
-0.9294026714
 20
-24.5278040756
 30
0.0
 10
-0.9467172054
 20
-24.5102627831
 30
0.0
 11
-0.8870798481
 21
-24.5899103821
 31
0.0
 11
-0.9006107775
 21
-24.5680694226
 31
0.0
 11
-0.9467172054
 21
-24.5102627831
 31
0.0
  0
SPLINE
  5
409
100
AcDbEntity
  8
RACCORDO
100
AcDbSpline
 62
7
  6
CONTINUOUS
 70
0
 71
3
 72
11
 73
7
 74
5
 42
0.0000001
 43
0.0000001
 44
0.0000000001
 12
-0.7724879909
 22
0.3864015895
 32
0.0
 13
0.0000139491
 23
0.8637383193
 33
0.0
 40
0.0
 40
0.0
 40
0.0
 40
0.0
 40
0.2302628935
 40
0.48993639
 40
0.754312077
 40
1.0
 40
1.0
 40
1.0
 40
1.0
 10
-35.4284639534
 20
-6.0935703375
 30
0.0
 10
-35.4877557267
 20
-6.0639123548
 30
0.0
 10
-35.6008870847
 20
-5.974467128
 30
0.0
 10
-35.7283621222
 20
-5.7960830704
 30
0.0
 10
-35.8120274356
 20
-5.5887676246
 30
0.0
 10
-35.8336878675
 20
-5.4415737733
 30
0.0
 10
-35.8336867252
 20
-5.3708370821
 30
0.0
 11
-35.4284639534
 21
-6.0935703375
 31
0.0
 11
-35.5873953991
 21
-5.974001159
 31
0.0
 11
-35.7198083462
 21
-5.7929685849
 31
0.0
 11
-35.8049834919
 21
-5.581097016
 31
0.0
 11
-35.8336867252
 21
-5.3708370821
 31
0.0
  0
SPLINE
  5
40A
100
AcDbEntity
  8
0
100
AcDbSpline
 62
7
  6
CONTINUOUS
 70
0
 71
3
 72
11
 73
7
 74
5
 42
0.0000001
 43
0.0000001
 44
0.0000000001
 12
-0.6333494509
 22
0.5969143223
 32
0.0
 13
-0.8289470693
 23
0.2651131674
 33
0.0
 40
0.0
 40
0.0
 40
0.0
 40
0.0
 40
0.2725542141
 40
0.5262218346
 40
0.7671916502
 40
1.0
 40
1.0
 40
1.0
 40
1.0
 10
-0.9813280392
 20
-23.562379418
 30
0.0
 10
-1.0388687265
 20
-23.5081489133
 30
0.0
 10
-1.1621071579
 20
-23.4162514484
 30
0.0
 10
-1.3573444472
 20
-23.3087110162
 30
0.0
 10
-1.5517115383
 20
-23.2257436263
 30
0.0
 10
-1.6818738054
 20
-23.1813697696
 30
0.0
 10
-1.7462024051
 20
-23.16079625
 30
0.0
 11
-0.9813280392
 21
-23.562379418
 31
0.0
 11
-1.1693943561
 21
-23.417818132
 31
0.0
 11
-1.3622290168
 21
-23.3103292025
 31
0.0
 11
-1.5548164803
 21
-23.2273122172
 31
0.0
 11
-1.7462024051
 21
-23.16079625
 31
0.0
  0
SPLINE
  5
40B
100
AcDbEntity
  8
0
100
AcDbSpline
 62
7
  6
CONTINUOUS
 70
0
 71
3
 72
18
 73
14
 74
12
 42
0.0000001
 43
0.0000001
 44
0.0000000001
 12
0.9412018931
 22
0.470597542
 32
0.0
 13
-0.7660303218
 23
0.7214711334
 33
0.0
 40
0.0
 40
0.0
 40
0.0
 40
0.0
 40
0.0457943347
 40
0.0910579538
 40
0.1389648722
 40
0.1905315713
 40
0.3034454178
 40
0.4295778457
 40
0.5663524447
 40
0.7114676369
 40
0.8584343766
 40
0.9305901667
 40
1.0
 40
1.0
 40
1.0
 40
1.0
 10
-0.9063419225
 20
-24.4901676798
 30
0.0
 10
-0.8919746843
 20
-24.4829841127
 30
0.0
 10
-0.8638862781
 20
-24.4676075702
 30
0.0
 10
-0.8255572789
 20
-24.4368372101
 30
0.0
 10
-0.7946953016
 20
-24.3959665538
 30
0.0
 10
-0.7614371103
 20
-24.328951307
 30
0.0
 10
-0.7386895968
 20
-24.2281808814
 30
0.0
 10
-0.7376310782
 20
-24.0957812643
 30
0.0
 10
-0.7595584109
 20
-23.9536332623
 30
0.0
 10
-0.8090715105
 20
-23.8107624222
 30
0.0
 10
-0.8708425332
 20
-23.6981669344
 30
0.0
 10
-0.9304568796
 20
-23.6162914801
 30
0.0
 10
-0.9636046935
 20
-23.579071815
 30
0.0
 10
-0.9813280392
 20
-23.562379418
 30
0.0
 11
-0.9063419225
 21
-24.4901676798
 31
0.0
 11
-0.8644745068
 21
-24.4663074612
 31
0.0
 11
-0.8276626915
 21
-24.4360821669
 31
0.0
 11
-0.7967823736
 21
-24.3962350464
 31
0.0
 11
-0.7723097353
 21
-24.3478036539
 31
0.0
 11
-0.7437488092
 21
-24.2324687962
 31
0.0
 11
-0.7410835122
 21
-24.0997671393
 31
0.0
 11
-0.76320571
 21
-23.957550323
 31
0.0
 11
-0.8127608272
 21
-23.8131108439
 31
0.0
 11
-0.8871790707
 21
-23.6775407807
 31
0.0
 11
-0.932037058
 21
-23.6162791126
 31
0.0
 11
-0.9813280392
 21
-23.562379418
 31
0.0
  0
SPLINE
  5
40C
100
AcDbEntity
  8
0
100
AcDbSpline
 62
7
  6
CONTINUOUS
 70
0
 71
3
 72
18
 73
14
 74
12
 42
0.0000001
 43
0.0000001
 44
0.0000000001
 12
0.9412007038
 22
0.4705988568
 32
0.0
 13
-0.7660299754
 23
0.7214708072
 33
0.0
 40
0.0
 40
0.0
 40
0.0
 40
0.0
 40
0.0457943108
 40
0.0910579325
 40
0.1389648728
 40
0.1905315915
 40
0.3034454653
 40
0.4295779073
 40
0.5663525061
 40
0.7114676852
 40
0.8584344009
 40
0.9305901785
 40
1.0
 40
1.0
 40
1.0
 40
1.0
 10
-1.0477628504
 20
-24.5608781437
 30
0.0
 10
-1.0333956379
 20
-24.5536945603
 30
0.0
 10
-1.0053072577
 20
-24.5383180138
 30
0.0
 10
-0.966978343
 20
-24.5075475789
 30
0.0
 10
-0.9361164441
 20
-24.466676877
 30
0.0
 10
-0.9028583416
 20
-24.399661598
 30
0.0
 10
-0.8801109208
 20
-24.2988911823
 30
0.0
 10
-0.8790524615
 20
-24.1664916116
 30
0.0
 10
-0.9009798368
 20
-24.0243436822
 30
0.0
 10
-0.9504929466
 20
-23.881472933
 30
0.0
 10
-1.0122639499
 20
-23.7688775217
 30
0.0
 10
-1.0718782658
 20
-23.6870021227
 30
0.0
 10
-1.1050260608
 20
-23.6497824828
 30
0.0
 10
-1.1227493954
 20
-23.6330900961
 30
0.0
 11
-1.0477628504
 21
-24.5608781437
 31
0.0
 11
-1.0058955033
 21
-24.5370178998
 31
0.0
 11
-0.9690837591
 21
-24.5067925483
 31
0.0
 11
-0.9382035109
 21
-24.4669453735
 31
0.0
 11
-0.9137309375
 21
-24.4185139526
 31
0.0
 11
-0.8851701194
 21
-24.303179094
 31
0.0
 11
-0.8825048911
 21
-24.1704774808
 31
0.0
 11
-0.9046271313
 21
-24.0282607373
 31
0.0
 11
-0.9541822597
 21
-23.8838213495
 31
0.0
 11
-1.0286004786
 21
-23.7482513813
 31
0.0
 11
-1.0734584428
 21
-23.6869897552
 31
0.0
 11
-1.1227493954
 21
-23.6330900961
 31
0.0
  0
SPLINE
  5
40D
100
AcDbEntity
  8
RACCORDO
100
AcDbSpline
 62
7
  6
CONTINUOUS
 70
0
 71
3
 72
15
 73
11
 74
9
 42
0.0000001
 43
0.0000001
 44
0.0000000001
 12
-0.000001415
 22
0.4373931235
 32
0.0
 13
0.3912229003
 23
-0.195594956
 33
0.0
 40
0.0
 40
0.0
 40
0.0
 40
0.0
 40
0.14879548
 40
0.2840515227
 40
0.4066342785
 40
0.5199167541
 40
0.6296856686
 40
0.7427994542
 40
0.8650889314
 40
1.0
 40
1.0
 40
1.0
 40
1.0
 10
-37.5360103392
 20
37.3848886093
 30
0.0
 10
-37.5360104093
 20
37.4065826493
 30
0.0
 10
-37.5328595068
 20
37.4481162452
 30
0.0
 10
-37.5172274849
 20
37.5057353371
 30
0.0
 10
-37.4911667657
 20
37.5538338714
 30
0.0
 10
-37.4551835664
 20
37.5902314899
 30
0.0
 10
-37.4106484874
 20
37.6127350994
 30
0.0
 10
-37.3600544602
 20
37.6200637204
 30
0.0
 10
-37.3060161525
 20
37.6124413935
 30
0.0
 10
-37.2708041382
 20
37.5986421687
 30
0.0
 10
-37.253210705
 20
37.5898461938
 30
0.0
 11
-37.5360103392
 21
37.3848886093
 31
0.0
 11
-37.5305775708
 21
37.4497435809
 31
0.0
 11
-37.5144854987
 21
37.5066729957
 31
0.0
 11
-37.4883548594
 21
37.5534913337
 31
0.0
 11
-37.4531854389
 21
37.58839424
 31
0.0
 11
-37.4103295498
 21
37.6100400498
 31
0.0
 11
-37.361434765
 21
37.6175961493
 31
0.0
 11
-37.3083824608
 21
37.6107784641
 31
0.0
 11
-37.253210705
 21
37.5898461938
 31
0.0
  0
SPLINE
  5
40E
100
AcDbEntity
  8
RACCORDO
100
AcDbSpline
 62
7
  6
CONTINUOUS
 70
0
 71
3
 72
9
 73
5
 74
3
 42
0.0000001
 43
0.0000001
 44
0.0000000001
 12
-0.0370302827
 22
-0.0464503171
 32
0.0
 13
-0.052087852
 23
-0.0285609782
 33
0.0
 40
0.0
 40
0.0
 40
0.0
 40
0.0
 40
0.2638306818
 40
1.0
 40
1.0
 40
1.0
 40
1.0
 10
28.6975941346
 20
-37.6653311953
 30
0.0
 10
28.6943375597
 20
-37.6694162016
 30
0.0
 10
28.681417597
 20
-37.684402787
 30
0.0
 10
28.6658048716
 20
-37.6972854378
 30
0.0
 10
28.6530230454
 20
-37.7042940098
 30
0.0
 11
28.6975941346
 21
-37.6653311953
 31
0.0
 11
28.6873327604
 21
-37.6771775959
 31
0.0
 11
28.6530230454
 21
-37.7042940098
 31
0.0
  0
SPLINE
  5
40F
100
AcDbEntity
  8
RACCORDO
100
AcDbSpline
 62
7
  6
CONTINUOUS
 70
0
 71
3
 72
10
 73
6
 74
4
 42
0.0000001
 43
0.0000001
 44
0.0000000001
 12
-0.1122910515
 22
-0.0615717898
 32
0.0
 13
-0.1024031095
 23
0.0769023324
 33
0.0
 40
0.0
 40
0.0
 40
0.0
 40
0.0
 40
0.2455578271
 40
0.4860287336
 40
1.0
 40
1.0
 40
1.0
 40
1.0
 10
28.6530230454
 20
-37.7042940098
 30
0.0
 10
28.6438317299
 20
-37.7093338214
 30
0.0
 10
28.6240780065
 20
-37.7168597374
 30
0.0
 10
28.5807004697
 20
-37.7184266899
 30
0.0
 10
28.549877474
 20
-37.7034266904
 30
0.0
 10
28.5323333887
 20
-37.690251494
 30
0.0
 11
28.6530230454
 21
-37.7042940098
 31
0.0
 11
28.6235320154
 21
-37.7152118389
 31
0.0
 11
28.5927575618
 21
-37.7163540967
 31
0.0
 11
28.5323333887
 21
-37.690251494
 31
0.0
  0
SPLINE
  5
410
100
AcDbEntity
  8
0
100
AcDbSpline
 62
7
  6
CONTINUOUS
 70
0
 71
3
 72
9
 73
5
 74
3
 42
0.0000001
 43
0.0000001
 44
0.0000000001
 12
-0.0819613901
 22
0.0180243518
 32
0.0
 13
-0.075872067
 23
0.0358605099
 33
0.0
 40
0.0
 40
0.0
 40
0.0
 40
0.0
 40
0.242384651
 40
1.0
 40
1.0
 40
1.0
 40
1.0
 10
-1.1917609018
 20
-24.214591095
 30
0.0
 10
-1.1983829628
 20
-24.2131348196
 30
0.0
 10
-1.2254579486
 20
-24.2060064789
 30
0.0
 10
-1.251504717
 20
-24.1953882272
 30
0.0
 10
-1.2706653312
 20
-24.1863320696
 30
0.0
 11
-1.1917609018
 21
-24.214591095
 31
0.0
 11
-1.2114476767
 21
-24.2094741855
 31
0.0
 11
-1.2706653312
 21
-24.1863320696
 31
0.0
  0
SPLINE
  5
411
100
AcDbEntity
  8
RACCORDO
100
AcDbSpline
 62
7
  6
CONTINUOUS
 70
0
 71
3
 72
11
 73
7
 74
5
 42
0.0000001
 43
0.0000001
 44
0.0000000001
 12
-0.1291394801
 22
0.0645697401
 32
0.0
 13
0.0000513271
 23
0.144382319
 33
0.0
 40
0.0
 40
0.0
 40
0.0
 40
0.0
 40
0.3021491765
 40
0.5655722792
 40
0.7935305764
 40
1.0
 40
1.0
 40
1.0
 40
1.0
 10
28.7979742524
 20
1.8529808457
 30
0.0
 10
28.7849677898
 20
1.859484077
 30
0.0
 10
28.761442974
 20
1.8734797563
 30
0.0
 10
28.7328272943
 20
1.8992662728
 30
0.0
 10
28.7145042669
 20
1.928044348
 30
0.0
 10
28.7101067143
 20
1.9491100178
 30
0.0
 10
28.7101102468
 20
1.9590468625
 30
0.0
 11
28.7979742524
 21
1.8529808457
 31
0.0
 11
28.7607253851
 21
1.8756890523
 31
0.0
 11
28.7329330084
 21
1.9016532898
 31
0.0
 11
28.7158699176
 21
1.9297980292
 31
0.0
 11
28.7101102468
 21
1.9590468625
 31
0.0
  0
SPLINE
  5
412
100
AcDbEntity
  8
RACCORDO
100
AcDbSpline
 62
7
  6
CONTINUOUS
 70
0
 71
3
 72
11
 73
7
 74
5
 42
0.0000001
 43
0.0000001
 44
0.0000000001
 12
0.0000000577
 22
-0.1889139717
 32
0.0
 13
0.1689716096
 23
-0.0844812632
 33
0.0
 40
0.0
 40
0.0
 40
0.0
 40
0.0
 40
0.289595635
 40
0.5496518077
 40
0.7828348723
 40
1.0
 40
1.0
 40
1.0
 40
1.0
 10
28.3927514806
 20
2.5757141011
 30
0.0
 10
28.3927514862
 20
2.5574778806
 30
0.0
 10
28.3957092382
 20
2.522736399
 30
0.0
 10
28.4105403376
 20
2.4752187853
 30
0.0
 10
28.4353488683
 20
2.4371746201
 30
0.0
 10
28.4584873763
 20
2.4195664098
 30
0.0
 10
28.4707189567
 20
2.4134509484
 30
0.0
 11
28.3927514806
 21
2.5757141011
 31
0.0
 11
28.3979378193
 21
2.5212518248
 31
0.0
 11
28.4132400115
 21
2.4745674878
 31
0.0
 11
28.4378952886
 21
2.438061935
 31
0.0
 11
28.4707189567
 21
2.4134509484
 31
0.0
  0
SPLINE
  5
413
100
AcDbEntity
  8
RACCORDO
100
AcDbSpline
 62
7
  6
CONTINUOUS
 70
0
 71
3
 72
11
 73
7
 74
5
 42
0.0000001
 43
0.0000001
 44
0.0000000001
 12
0.0
 22
-0.1889081527
 32
0.0
 13
0.1689619601
 23
-0.0844875505
 33
0.0
 40
0.0
 40
0.0
 40
0.0
 40
0.0
 40
0.2895946005
 40
0.5496510084
 40
0.7828349031
 40
1.0
 40
1.0
 40
1.0
 40
1.0
 10
-35.4284639534
 20
34.4863218181
 30
0.0
 10
-35.4284639534
 20
34.4680862244
 30
0.0
 10
-35.4255064024
 20
34.4333458738
 30
0.0
 10
-35.4106763594
 20
34.3858295828
 30
0.0
 10
-35.3858696193
 20
34.3477859341
 30
0.0
 10
-35.3627326399
 20
34.3301772223
 30
0.0
 10
-35.3505017598
 20
34.3240613066
 30
0.0
 11
-35.4284639534
 21
34.4863218181
 31
0.0
 11
-35.4232780019
 21
34.431861394
 31
0.0
 11
-35.4079769012
 21
34.385178245
 31
0.0
 11
-35.3833233098
 21
34.3486730018
 31
0.0
 11
-35.3505017598
 21
34.3240613066
 31
0.0
  0
SPLINE
  5
414
100
AcDbEntity
  8
RACCORDO
100
AcDbSpline
 62
7
  6
CONTINUOUS
 70
0
 71
3
 72
11
 73
7
 74
5
 42
0.0000001
 43
0.0000001
 44
0.0000000001
 12
0.3513449618
 22
-0.1756719593
 32
0.0
 13
0.3707502259
 23
0.1298005757
 33
0.0
 40
0.0
 40
0.0
 40
0.0
 40
0.0
 40
0.2301996126
 40
0.4886872628
 40
0.7531669781
 40
1.0
 40
1.0
 40
1.0
 40
1.0
 10
-35.8336867252
 20
34.1688113345
 30
0.0
 10
-35.8067269005
 20
34.1553314621
 30
0.0
 10
-35.7453017655
 20
34.1350691894
 30
0.0
 10
-35.6470405657
 20
34.1225190052
 30
0.0
 10
-35.5458809082
 20
34.1267394618
 30
0.0
 10
-35.4799862261
 20
34.1413248556
 30
0.0
 10
-35.4494817599
 20
34.152004545
 30
0.0
 11
-35.8336867252
 21
34.1688113345
 31
0.0
 11
-35.7483401753
 21
34.1389312678
 31
0.0
 11
-35.6477014235
 21
34.1254482591
 31
0.0
 11
-35.5439089829
 21
34.1299885601
 31
0.0
 11
-35.4494817599
 21
34.152004545
 31
0.0
  0
SPLINE
  5
415
100
AcDbEntity
  8
RACCORDO
100
AcDbSpline
 62
7
  6
CONTINUOUS
 70
0
 71
3
 72
11
 73
7
 74
5
 42
0.0000001
 43
0.0000001
 44
0.0000000001
 12
0.351344799
 22
-0.1756723995
 32
0.0
 13
0.3707501259
 23
0.1298010165
 33
0.0
 40
0.0
 40
0.0
 40
0.0
 40
0.0
 40
0.2301996678
 40
0.4886873034
 40
0.7531669766
 40
1.0
 40
1.0
 40
1.0
 40
1.0
 10
-35.8336867252
 20
-5.3708370821
 30
0.0
 10
-35.8067269065
 20
-5.3843169914
 30
0.0
 10
-35.7453017718
 20
-5.4045793209
 30
0.0
 10
-35.6470405596
 20
-5.4171295331
 30
0.0
 10
-35.5458808946
 20
-5.4129090466
 30
0.0
 10
-35.4799862181
 20
-5.3983235974
 30
0.0
 10
-35.4494817599
 20
-5.3876438716
 30
0.0
 11
-35.8336867252
 21
-5.3708370821
 31
0.0
 11
-35.7483401693
 21
-5.400717233
 31
0.0
 11
-35.6477014136
 21
-5.4142002696
 31
0.0
 11
-35.5439089773
 21
-5.4096599389
 31
0.0
 11
-35.4494817599
 21
-5.3876438716
 31
0.0
  0
SPLINE
  5
416
100
AcDbEntity
  8
RACCORDO
100
AcDbSpline
 62
7
  6
CONTINUOUS
 70
0
 71
3
 72
9
 73
5
 74
3
 42
0.0000001
 43
0.0000001
 44
0.0000000001
 12
-0.0000001069
 22
0.3499495
 32
0.0
 13
0.2542495784
 23
0.2404616486
 33
0.0
 40
0.0
 40
0.0
 40
0.0
 40
0.0
 40
0.4929880368
 40
1.0
 40
1.0
 40
1.0
 40
1.0
 10
-35.4284639534
 20
-6.0935703375
 30
0.0
 10
-35.428463971
 20
-6.0360633652
 30
0.0
 10
-35.3986902106
 20
-5.919538089
 30
0.0
 10
-35.3318545405
 20
-5.8202807078
 30
0.0
 10
-35.2888853478
 20
-5.7796417303
 30
0.0
 11
-35.4284639534
 21
-6.0935703375
 31
0.0
 11
-35.3901003327
 21
-5.9253689718
 31
0.0
 11
-35.2888853478
 21
-5.7796417303
 31
0.0
  0
SPLINE
  5
417
100
AcDbEntity
  8
RACCORDO
100
AcDbSpline
 62
7
  6
CONTINUOUS
 70
0
 71
3
 72
9
 73
5
 74
3
 42
0.0000001
 43
0.0000001
 44
0.0000000001
 12
0.0
 22
0.3499494896
 32
0.0
 13
0.2542494972
 23
0.2404617193
 33
0.0
 40
0.0
 40
0.0
 40
0.0
 40
0.0
 40
0.4929880284
 40
1.0
 40
1.0
 40
1.0
 40
1.0
 10
28.3927514806
 20
-38.0041780545
 30
0.0
 10
28.3927514806
 20
-37.9466710849
 30
0.0
 10
28.4225252577
 20
-37.8301458225
 30
0.0
 10
28.4893609065
 20
-37.7308884374
 30
0.0
 10
28.5323300862
 20
-37.6902494473
 30
0.0
 11
28.3927514806
 21
-38.0041780545
 31
0.0
 11
28.4311151254
 21
-37.8359767027
 31
0.0
 11
28.5323300862
 21
-37.6902494473
 31
0.0
  0
SPLINE
  5
418
100
AcDbEntity
  8
RACCORDO
100
AcDbSpline
 62
7
  6
CONTINUOUS
 70
0
 71
3
 72
11
 73
7
 74
5
 42
0.0000001
 43
0.0000001
 44
0.0000000001
 12
-0.1290144688
 22
0.0645072211
 32
0.0
 13
-0.0002209872
 23
0.1442423859
 33
0.0
 40
0.0
 40
0.0
 40
0.0
 40
0.0
 40
0.302101686
 40
0.5655340995
 40
0.7935296933
 40
1.0
 40
1.0
 40
1.0
 40
1.0
 10
28.7979742524
 20
-37.6866675709
 30
0.0
 10
28.7849824228
 20
-37.6801716575
 30
0.0
 10
28.761481277
 20
-37.6661924407
 30
0.0
 10
28.7328844779
 20
-37.6404423095
 30
0.0
 10
28.7145537834
 20
-37.6117083779
 30
0.0
 10
28.7101255393
 20
-37.5906706191
 30
0.0
 10
28.7101103302
 20
-37.5807433625
 30
0.0
 11
28.7979742524
 21
-37.6866675709
 31
0.0
 11
28.7607648722
 21
-37.6639888858
 31
0.0
 11
28.7329873562
 21
-37.6380607138
 31
0.0
 11
28.715911497
 21
-37.6099547019
 31
0.0
 11
28.7101103302
 21
-37.5807433625
 31
0.0
  0
SPLINE
  5
419
100
AcDbEntity
  8
0
100
AcDbSpline
 62
7
  6
CONTINUOUS
 70
0
 71
3
 72
10
 73
6
 74
4
 42
0.0000001
 43
0.0000001
 44
0.0000000001
 12
-0.1538658195
 22
-0.076932888
 32
0.0
 13
-0.1555300041
 23
0.0735103903
 33
0.0
 40
0.0
 40
0.0
 40
0.0
 40
0.0
 40
0.4571693219
 40
0.7225207019
 40
1.0
 40
1.0
 40
1.0
 40
1.0
 10
-1.2455728195
 20
-24.2800660785
 30
0.0
 10
-1.2690203969
 20
-24.2917898639
 30
0.0
 10
-1.3141810813
 20
-24.2916913963
 30
0.0
 10
-1.3688312077
 20
-24.2759516729
 30
0.0
 10
-1.3977012353
 20
-24.2638419515
 30
0.0
 10
-1.4120866874
 20
-24.2570427477
 30
0.0
 11
-1.2455728195
 21
-24.2800660785
 31
0.0
 11
-1.3238985437
 21
-24.2871516428
 31
0.0
 11
-1.3679782709
 21
-24.2752905214
 31
0.0
 11
-1.4120866874
 21
-24.2570427477
 31
0.0
  0
SPLINE
  5
41A
100
AcDbEntity
  8
RACCORDO
100
AcDbSpline
 62
7
  6
CONTINUOUS
 70
0
 71
3
 72
11
 73
7
 74
5
 42
0.0000001
 43
0.0000001
 44
0.0000000001
 12
0.4079949568
 22
0.1888862649
 32
0.0
 13
0.0027806954
 23
0.449588894
 33
0.0
 40
0.0
 40
0.0
 40
0.0
 40
0.0
 40
0.2166758208
 40
0.4494767836
 40
0.7094274039
 40
1.0
 40
1.0
 40
1.0
 40
1.0
 10
30.7302971256
 20
-41.2872762597
 30
0.0
 10
30.759764673
 20
-41.2736338975
 30
0.0
 10
30.8158726548
 20
-41.233211695
 30
0.0
 10
30.8763664472
 20
-41.1437089602
 30
0.0
 10
30.9129452049
 20
-41.0309094234
 30
0.0
 10
30.9205580805
 20
-40.9481258693
 30
0.0
 10
30.9208274118
 20
-40.9045797986
 30
0.0
 11
30.7302971256
 21
-41.2872762597
 31
0.0
 11
30.8097278521
 21
-41.2308775607
 31
0.0
 11
30.8698086699
 21
-41.1451721377
 31
0.0
 11
30.9074808034
 21
-41.0345369583
 31
0.0
 11
30.9208274118
 21
-40.9045797986
 31
0.0
  0
SPLINE
  5
41B
100
AcDbEntity
  8
RACCORDO
100
AcDbSpline
 62
7
  6
CONTINUOUS
 70
0
 71
3
 72
11
 73
7
 74
5
 42
0.0000001
 43
0.0000001
 44
0.0000000001
 12
0.5252094582
 22
-0.2626021805
 32
0.0
 13
0.0000165042
 23
-0.5872008855
 33
0.0
 40
0.0
 40
0.0
 40
0.0
 40
0.0
 40
0.2296744152
 40
0.4882138292
 40
0.7532078385
 40
1.0
 40
1.0
 40
1.0
 40
1.0
 10
30.2174982322
 20
3.8544917252
 30
0.0
 10
30.2577072906
 20
3.8343873912
 30
0.0
 10
30.3345411991
 20
3.7742793467
 30
0.0
 10
30.4232691759
 20
3.654944948
 30
0.0
 10
30.4836303165
 20
3.515385736
 30
0.0
 10
30.5002965086
 20
3.4150400318
 30
0.0
 10
30.5002978663
 20
3.3667345066
 30
0.0
 11
30.2174982322
 21
3.8544917252
 31
0.0
 11
30.3257222466
 21
3.7740172801
 31
0.0
 11
30.4174730078
 21
3.6530649656
 31
0.0
 11
30.4787733227
 21
3.5100436408
 31
0.0
 11
30.5002978663
 21
3.3667345066
 31
0.0
  0
SPLINE
  5
41C
100
AcDbEntity
  8
RACCORDO
100
AcDbSpline
 62
7
  6
CONTINUOUS
 70
0
 71
3
 72
13
 73
9
 74
7
 42
0.0000001
 43
0.0000001
 44
0.0000000001
 12
-0.0675144161
 22
0.2266503352
 32
0.0
 13
0.2363936884
 23
-0.0068260473
 33
0.0
 40
0.0
 40
0.0
 40
0.0
 40
0.0
 40
0.2946022688
 40
0.4247656415
 40
0.5434738158
 40
0.6533585017
 40
0.7606215203
 40
1.0
 40
1.0
 40
1.0
 40
1.0
 10
-35.4494817993
 20
34.1520046977
 30
0.0
 10
-35.456111766
 20
34.174261932
 30
0.0
 10
-35.4631140745
 20
34.2074544805
 30
0.0
 10
-35.4623341869
 20
34.2504757515
 30
0.0
 10
-35.4562071061
 20
34.2783403977
 30
0.0
 10
-35.4436938608
 20
34.3021395335
 30
0.0
 10
-35.4167317149
 20
34.3271231624
 30
0.0
 10
-35.3875350076
 20
34.3324299634
 30
0.0
 10
-35.368672487
 20
34.3318852938
 30
0.0
 11
-35.4494817993
 21
34.1520046977
 31
0.0
 11
-35.4621633295
 21
34.2205119764
 31
0.0
 11
-35.4612527698
 21
34.2512811313
 31
0.0
 11
-35.4548124694
 21
34.2786059789
 31
0.0
 11
-35.4423838917
 21
34.3014280745
 31
0.0
 11
-35.4236990197
 21
34.3185848117
 31
0.0
 11
-35.368672487
 21
34.3318852938
 31
0.0
  0
SPLINE
  5
41D
100
AcDbEntity
  8
RACCORDO
100
AcDbSpline
 62
7
  6
CONTINUOUS
 70
0
 71
3
 72
12
 73
8
 74
6
 42
0.0000001
 43
0.0000001
 44
0.0000000001
 12
-0.4414327396
 22
0.1388875994
 32
0.0
 13
0.1107439614
 23
0.4493199348
 33
0.0
 40
0.0
 40
0.0
 40
0.0
 40
0.0
 40
0.1130800292
 40
0.2327462536
 40
0.4871196871
 40
0.7477368935
 40
1.0
 40
1.0
 40
1.0
 40
1.0
 10
-35.2888779561
 20
-5.7796446677
 30
0.0
 10
-35.3055170318
 20
-5.7744095297
 30
0.0
 10
-35.3385107267
 20
-5.7591265701
 30
0.0
 10
-35.3971634942
 20
-5.7110436289
 30
0.0
 10
-35.4479466703
 20
-5.623529666
 30
0.0
 10
-35.4678802121
 20
-5.5050940071
 30
0.0
 10
-35.4587940045
 20
-5.4254263325
 30
0.0
 10
-35.4494817993
 20
-5.3876440516
 30
0.0
 11
-35.2888779561
 21
-5.7796446677
 31
0.0
 11
-35.3364040587
 21
-5.7577435454
 31
0.0
 11
-35.3793974212
 21
-5.7228402856
 31
0.0
 11
-35.4406576809
 21
-5.6223210978
 31
0.0
 11
-35.4623104882
 21
-5.5036758833
 31
0.0
 11
-35.4494817993
 21
-5.3876440516
 31
0.0
  0
SPLINE
  5
41E
100
AcDbEntity
  8
RACCORDO
100
AcDbSpline
 62
7
  6
CONTINUOUS
 70
0
 71
3
 72
11
 73
7
 74
5
 42
0.0000001
 43
0.0000001
 44
0.0000000001
 12
-0.0850089234
 22
-0.4356542777
 32
0.0
 13
0.3929040964
 23
-0.2065128028
 33
0.0
 40
0.0
 40
0.0
 40
0.0
 40
0.0
 40
0.2512628255
 40
0.4489234485
 40
0.6470765568
 40
1.0
 40
1.0
 40
1.0
 40
1.0
 10
-34.2732223474
 20
-4.5300859452
 30
0.0
 10
-34.2803422082
 20
-4.5665738534
 30
0.0
 10
-34.2800742796
 20
-4.6344489383
 30
0.0
 10
-34.2566558278
 20
-4.7278945078
 30
0.0
 10
-34.2085989065
 20
-4.8279068624
 30
0.0
 10
-34.1494923883
 20
-4.890893934
 30
0.0
 10
-34.1032706995
 20
-4.9151883372
 30
0.0
 11
-34.2732223474
 21
-4.5300859452
 31
0.0
 11
-34.2750365854
 21
-4.6415993853
 31
0.0
 11
-34.253910556
 21
-4.7267536751
 31
0.0
 11
-34.2154637302
 21
-4.8058599934
 31
0.0
 11
-34.1032706995
 21
-4.9151883372
 31
0.0
  0
SPLINE
  5
41F
100
AcDbEntity
  8
RACCORDO
100
AcDbSpline
 62
7
  6
CONTINUOUS
 70
0
 71
3
 72
12
 73
8
 74
6
 42
0.0000001
 43
0.0000001
 44
0.0000000001
 12
0.1077501471
 22
-0.4047047557
 32
0.0
 13
0.312513104
 23
-0.2788038617
 33
0.0
 40
0.0
 40
0.0
 40
0.0
 40
0.0
 40
0.1121557558
 40
0.2349995989
 40
0.5039208998
 40
0.7737663569
 40
1.0
 40
1.0
 40
1.0
 40
1.0
 10
-34.2128471493
 20
-4.4974858035
 30
0.0
 10
-34.2088188829
 20
-4.5126157928
 30
0.0
 10
-34.1968158417
 20
-4.5433316597
 30
0.0
 10
-34.1646371469
 20
-4.6059161248
 30
0.0
 10
-34.1139864198
 20
-4.6834586801
 30
0.0
 10
-34.0476210399
 20
-4.767227522
 30
0.0
 10
-33.9996495295
 20
-4.817458967
 30
0.0
 10
-33.9760825368
 20
-4.8384839048
 30
0.0
 11
-34.2128471493
 21
-4.4974858035
 31
0.0
 11
-34.1966776874
 21
-4.5415861442
 31
0.0
 11
-34.1734759618
 21
-4.5875046919
 31
0.0
 11
-34.1126886441
 21
-4.6823166594
 31
0.0
 11
-34.0423772317
 21
-4.7707928877
 31
0.0
 11
-33.9760825368
 21
-4.8384839048
 31
0.0
  0
SPLINE
  5
420
100
AcDbEntity
  8
RACCORDO
100
AcDbSpline
 62
7
  6
CONTINUOUS
 70
0
 71
3
 72
8
 73
4
 74
2
 42
0.0000001
 43
0.0000001
 44
0.0000000001
 12
0.0059647387
 22
-0.0053572607
 32
0.0
 13
0.0072567529
 23
-0.0034085023
 33
0.0
 40
0.0
 40
0.0
 40
0.0
 40
0.0
 40
1.0
 40
1.0
 40
1.0
 40
1.0
 10
-33.9760825368
 20
-4.8384839048
 30
0.0
 10
-33.9740942905
 20
-4.8402696584
 30
0.0
 10
-33.9717769715
 20
-4.8417134766
 30
0.0
 10
-33.9693580538
 20
-4.8428496441
 30
0.0
 11
-33.9760825368
 21
-4.8384839048
 31
0.0
 11
-33.9693580538
 21
-4.8428496441
 31
0.0
  0
SPLINE
  5
421
100
AcDbEntity
  8
RACCORDO
100
AcDbSpline
 62
7
  6
CONTINUOUS
 70
0
 71
3
 72
8
 73
4
 74
2
 42
0.0000001
 43
0.0000001
 44
0.0000000001
 12
-0.0001037943
 22
-0.0044166903
 32
0.0
 13
0.0011249435
 23
-0.0042722861
 33
0.0
 40
0.0
 40
0.0
 40
0.0
 40
0.0
 40
1.0
 40
1.0
 40
1.0
 40
1.0
 10
-34.2133392439
 20
-4.4930953857
 30
0.0
 10
-34.213373842
 20
-4.4945676158
 30
0.0
 10
-34.2132221304
 20
-4.4960617082
 30
0.0
 10
-34.2128471493
 20
-4.4974858035
 30
0.0
 11
-34.2133392439
 21
-4.4930953857
 31
0.0
 11
-34.2128471493
 21
-4.4974858035
 31
0.0
  0
SPLINE
  5
422
100
AcDbEntity
  8
RACCORDO
100
AcDbSpline
 62
7
  6
CONTINUOUS
 70
0
 71
3
 72
11
 73
7
 74
5
 42
0.0000001
 43
0.0000001
 44
0.0000000001
 12
-0.0064027244
 22
1.0264962609
 32
0.0
 13
-0.9153131695
 23
0.4646906178
 33
0.0
 40
0.0
 40
0.0
 40
0.0
 40
0.0
 40
0.2466706816
 40
0.5119105748
 40
0.7706373212
 40
1.0
 40
1.0
 40
1.0
 40
1.0
 10
30.9208274118
 20
3.3648995537
 30
0.0
 10
30.920300957
 20
3.4493017311
 30
0.0
 10
30.8902890684
 20
3.6245603605
 30
0.0
 10
30.7843408436
 20
3.8683904838
 30
0.0
 10
30.6295977682
 20
4.0772377594
 30
0.0
 10
30.4959076122
 20
4.1829471247
 30
0.0
 10
30.4259280521
 20
4.2184746863
 30
0.0
 11
30.9208274118
 21
3.3648995537
 31
0.0
 11
30.8820050185
 21
3.6151171873
 31
0.0
 11
30.7743244225
 21
3.8651921874
 31
0.0
 11
30.6141725145
 21
4.077059904
 31
0.0
 11
30.4259280521
 21
4.2184746863
 31
0.0
  0
SPLINE
  5
423
100
AcDbEntity
  8
RACCORDO
100
AcDbSpline
 62
7
  6
CONTINUOUS
 70
0
 71
3
 72
11
 73
7
 74
5
 42
0.0000001
 43
0.0000001
 44
0.0000000001
 12
-0.2996813813
 22
0.1475650247
 32
0.0
 13
-0.2939897903
 23
-0.1586012926
 33
0.0
 40
0.0
 40
0.0
 40
0.0
 40
0.0
 40
0.279823212
 40
0.5359571133
 40
0.7731398267
 40
1.0
 40
1.0
 40
1.0
 40
1.0
 10
-37.0447808851
 20
37.9538291549
 30
0.0
 10
-37.0727334873
 20
37.9675931947
 30
0.0
 10
-37.1285937362
 20
37.9896875121
 30
0.0
 10
-37.2140762534
 20
38.0046723411
 30
0.0
 10
-37.2949542314
 20
37.9990801796
 30
0.0
 10
-37.3443013668
 20
37.981141922
 30
0.0
 10
-37.3665328917
 20
37.9691484831
 30
0.0
 11
-37.0447808851
 21
37.9538291549
 31
0.0
 11
-37.1319890332
 21
37.9874730215
 31
0.0
 11
-37.2164026698
 21
38.0014294883
 31
0.0
 11
-37.2953908111
 21
37.9952550697
 31
0.0
 11
-37.3665328917
 21
37.9691484831
 31
0.0
  0
SPLINE
  5
424
100
AcDbEntity
  8
RACCORDO
100
AcDbSpline
 62
7
  6
CONTINUOUS
 70
0
 71
3
 72
11
 73
7
 74
5
 42
0.0000001
 43
0.0000001
 44
0.0000000001
 12
-0.3869291792
 22
-0.2017363431
 32
0.0
 13
0.000000017
 23
-0.436361939
 33
0.0
 40
0.0
 40
0.0
 40
0.0
 40
0.0
 40
0.2307483936
 40
0.4893409366
 40
0.7537520358
 40
1.0
 40
1.0
 40
1.0
 40
1.0
 10
30.425928052
 20
4.2184746864
 30
0.0
 10
30.3961669565
 20
4.2029579073
 30
0.0
 10
30.3394940998
 20
4.1575939155
 30
0.0
 10
30.2741198997
 20
4.0684271366
 30
0.0
 10
30.2297174467
 20
3.9647169304
 30
0.0
 10
30.2174982308
 20
3.8903094716
 30
0.0
 10
30.2174982322
 20
3.8544917252
 30
0.0
 11
30.425928052
 21
4.2184746864
 31
0.0
 11
30.3458833556
 21
4.1573904354
 31
0.0
 11
30.2783337186
 21
4.0670029397
 31
0.0
 11
30.2332956088
 21
3.9607773851
 31
0.0
 11
30.2174982322
 21
3.8544917252
 31
0.0
  0
SPLINE
  5
425
100
AcDbEntity
  8
RACCORDO
100
AcDbSpline
 62
7
  6
CONTINUOUS
 70
0
 71
3
 72
11
 73
7
 74
5
 42
0.0000001
 43
0.0000001
 44
0.0000000001
 12
-0.3869291622
 22
-0.2017363657
 32
0.0
 13
-0.0000000107
 23
-0.4363619344
 33
0.0
 40
0.0
 40
0.0
 40
0.0
 40
0.0
 40
0.2307483903
 40
0.489340935
 40
0.7537520367
 40
1.0
 40
1.0
 40
1.0
 40
1.0
 10
-37.0447808848
 20
37.9538291548
 30
0.0
 10
-37.0745419786
 20
37.9383123742
 30
0.0
 10
-37.1312148321
 20
37.8929483803
 30
0.0
 10
-37.19658903
 20
37.8037816016
 30
0.0
 10
-37.2409914847
 20
37.7000713971
 30
0.0
 10
-37.2532107041
 20
37.6256639397
 30
0.0
 10
-37.253210705
 20
37.5898461938
 30
0.0
 11
-37.0447808848
 21
37.9538291548
 31
0.0
 11
-37.1248255763
 21
37.8927449014
 31
0.0
 11
-37.1923752117
 21
37.802357405
 31
0.0
 11
-37.2374133234
 21
37.6961318514
 31
0.0
 11
-37.253210705
 21
37.5898461938
 31
0.0
  0
SPLINE
  5
426
100
AcDbEntity
  8
RACCORDO
100
AcDbSpline
 62
7
  6
CONTINUOUS
 70
0
 71
3
 72
15
 73
11
 74
9
 42
0.0000001
 43
0.0000001
 44
0.0000000001
 12
0.000001415
 22
-0.4373931235
 32
0.0
 13
-0.3912229003
 23
0.195594956
 33
0.0
 40
0.0
 40
0.0
 40
0.0
 40
0.0
 40
0.14879548
 40
0.2840515227
 40
0.4066342785
 40
0.5199167541
 40
0.6296856686
 40
0.7427994542
 40
0.8650889314
 40
1.0
 40
1.0
 40
1.0
 40
1.0
 10
30.5002978663
 20
-40.9027448457
 30
0.0
 10
30.5002979365
 20
-40.9244388857
 30
0.0
 10
30.497147034
 20
-40.9659724816
 30
0.0
 10
30.481515012
 20
-41.0235915735
 30
0.0
 10
30.4554542929
 20
-41.0716901078
 30
0.0
 10
30.4194710936
 20
-41.1080877263
 30
0.0
 10
30.3749360146
 20
-41.1305913358
 30
0.0
 10
30.3243419874
 20
-41.1379199568
 30
0.0
 10
30.2703036797
 20
-41.1302976299
 30
0.0
 10
30.2350916654
 20
-41.1164984051
 30
0.0
 10
30.2174982322
 20
-41.1077024302
 30
0.0
 11
30.5002978663
 21
-40.9027448457
 31
0.0
 11
30.494865098
 21
-40.9675998173
 31
0.0
 11
30.4787730259
 21
-41.0245292321
 31
0.0
 11
30.4526423865
 21
-41.0713475701
 31
0.0
 11
30.417472966
 21
-41.1062504764
 31
0.0
 11
30.374617077
 21
-41.1278962862
 31
0.0
 11
30.3257222922
 21
-41.1354523858
 31
0.0
 11
30.272669988
 21
-41.1286347005
 31
0.0
 11
30.2174982322
 21
-41.1077024302
 31
0.0
  0
SPLINE
  5
427
100
AcDbEntity
  8
RACCORDO
100
AcDbSpline
 62
7
  6
CONTINUOUS
 70
0
 71
3
 72
11
 73
7
 74
5
 42
0.0000001
 43
0.0000001
 44
0.0000000001
 12
-0.3888881866
 22
-0.1877724931
 32
0.0
 13
-0.3862564178
 23
0.1931282231
 33
0.0
 40
0.0
 40
0.0
 40
0.0
 40
0.0
 40
0.2366411434
 40
0.5012534759
 40
0.7651925789
 40
1.0
 40
1.0
 40
1.0
 40
1.0
 10
30.9208274118
 20
3.3648995534
 30
0.0
 10
30.8901517635
 20
3.3500879876
 30
0.0
 10
30.8201935552
 20
3.3290297425
 30
0.0
 10
30.7098938088
 20
3.3192861905
 30
0.0
 10
30.5999464648
 20
3.3299373535
 30
0.0
 10
30.5305298241
 20
3.3516185266
 30
0.0
 10
30.5002978663
 20
3.3667345066
 30
0.0
 11
30.9208274118
 21
3.3648995534
 31
0.0
 11
30.8235857445
 21
3.3334756914
 31
0.0
 11
30.7098120504
 21
3.3228129018
 31
0.0
 11
30.5964278696
 21
3.3344668823
 31
0.0
 11
30.5002978663
 21
3.3667345066
 31
0.0
  0
SPLINE
  5
428
100
AcDbEntity
  8
RACCORDO
100
AcDbSpline
 62
7
  6
CONTINUOUS
 70
0
 71
3
 72
11
 73
7
 74
5
 42
0.0000001
 43
0.0000001
 44
0.0000000001
 12
-0.3888881974
 22
-0.1877724611
 32
0.0
 13
-0.3862564288
 23
0.1931281918
 33
0.0
 40
0.0
 40
0.0
 40
0.0
 40
0.0
 40
0.2366411417
 40
0.5012534766
 40
0.7651925816
 40
1.0
 40
1.0
 40
1.0
 40
1.0
 10
30.9208274118
 20
-40.9045797986
 30
0.0
 10
30.8901517628
 20
-40.9193913618
 30
0.0
 10
30.8201935543
 20
-40.9404496027
 30
0.0
 10
30.7098938086
 20
-40.9501931528
 30
0.0
 10
30.5999464655
 20
-40.939541992
 30
0.0
 10
30.5305298246
 20
-40.9178608231
 30
0.0
 10
30.5002978663
 20
-40.9027448457
 30
0.0
 11
30.9208274118
 21
-40.9045797986
 31
0.0
 11
30.8235857444
 21
-40.9360036545
 31
0.0
 11
30.7098120502
 21
-40.9466664421
 31
0.0
 11
30.5964278694
 21
-40.9350124639
 31
0.0
 11
30.5002978663
 21
-40.9027448457
 31
0.0
  0
SPLINE
  5
429
100
AcDbEntity
  8
RACCORDO
100
AcDbSpline
 62
7
  6
CONTINUOUS
 70
0
 71
3
 72
11
 73
7
 74
5
 42
0.0000001
 43
0.0000001
 44
0.0000000001
 12
0.0000149278
 22
-0.1443839731
 32
0.0
 13
0.1291409503
 23
-0.0645704799
 33
0.0
 40
0.0
 40
0.0
 40
0.0
 40
0.0
 40
0.2065459694
 40
0.4344524034
 40
0.6976951635
 40
1.0
 40
1.0
 40
1.0
 40
1.0
 10
-37.6238650323
 20
-6.7785247324
 30
0.0
 10
-37.6238640046
 20
-6.788465375
 30
0.0
 10
-37.61949525
 20
-6.8095383903
 30
0.0
 10
-37.6011504086
 20
-6.8382988821
 30
0.0
 10
-37.5725564272
 20
-6.8640988653
 30
0.0
 10
-37.5490236504
 20
-6.8780840869
 30
0.0
 10
-37.5360103392
 20
-6.884590743
 30
0.0
 11
-37.6238650323
 21
-6.7785247324
 31
0.0
 11
-37.6181155763
 21
-6.8077871851
 31
0.0
 11
-37.6010490648
 21
-6.8359215312
 31
0.0
 11
-37.5732812283
 21
-6.861874528
 31
0.0
 11
-37.5360103392
 21
-6.884590743
 31
0.0
  0
SPLINE
  5
42A
100
AcDbEntity
  8
0
100
AcDbSpline
 62
7
  6
CONTINUOUS
 70
0
 71
3
 72
9
 73
5
 74
3
 42
0.0000001
 43
0.0000001
 44
0.0000000001
 12
-0.1087199623
 22
0.5446236221
 32
0.0
 13
-0.1090135263
 23
0.5445649374
 33
0.0
 40
0.0
 40
0.0
 40
0.0
 40
0.0
 40
0.4998343578
 40
1.0
 40
1.0
 40
1.0
 40
1.0
 10
-0.8061886108
 20
-25.5694788486
 30
0.0
 10
-0.8243026017
 20
-25.4787383158
 30
0.0
 10
-0.8587039692
 20
-25.2968363717
 30
0.0
 10
-0.893968172
 20
-25.1151015777
 30
0.0
 10
-0.9121431121
 20
-25.0243106872
 30
0.0
 11
-0.8061886108
 21
-25.5694788486
 31
0.0
 11
-0.8589081385
 21
-25.2969383928
 31
0.0
 11
-0.9121431121
 21
-25.0243106872
 31
0.0
  0
SPLINE
  5
42B
100
AcDbEntity
  8
0
100
AcDbSpline
 62
7
  6
CONTINUOUS
 70
0
 71
3
 72
11
 73
7
 74
5
 42
0.0000001
 43
0.0000001
 44
0.0000000001
 12
-0.092198631
 22
0.4605902008
 32
0.0
 13
-0.3158044674
 23
0.3477232505
 33
0.0
 40
0.0
 40
0.0
 40
0.0
 40
0.0
 40
0.2378385395
 40
0.4940954459
 40
0.7548551463
 40
1.0
 40
1.0
 40
1.0
 40
1.0
 10
-0.9121431121
 20
-25.0243106872
 30
0.0
 10
-0.9194525747
 20
-24.9877953203
 30
0.0
 10
-0.9340832879
 20
-24.9118126556
 30
0.0
 10
-0.9654756776
 20
-24.7976454842
 30
0.0
 10
-1.0099893735
 20
-24.6866515758
 30
0.0
 10
-1.053234922
 20
-24.6190007615
 30
0.0
 10
-1.0790408686
 20
-24.590586573
 30
0.0
 11
-0.9121431121
 21
-25.0243106872
 31
0.0
 11
-0.9349090103
 21
-24.9149355701
 31
0.0
 11
-0.9674244199
 21
-24.799039473
 31
0.0
 11
-1.0145406217
 21
-24.6859780561
 31
0.0
 11
-1.0790408686
 21
-24.590586573
 31
0.0
  0
SPLINE
  5
42C
100
AcDbEntity
  8
RACCORDO
100
AcDbSpline
 62
7
  6
CONTINUOUS
 70
0
 71
3
 72
11
 73
7
 74
5
 42
0.0000001
 43
0.0000001
 44
0.0000000001
 12
0.0000149287
 22
-0.1443839671
 32
0.0
 13
0.1291409498
 23
-0.0645704674
 33
0.0
 40
0.0
 40
0.0
 40
0.0
 40
0.0
 40
0.2065459738
 40
0.4344524071
 40
0.6976951646
 40
1.0
 40
1.0
 40
1.0
 40
1.0
 10
-37.6238650323
 20
37.4909546111
 30
0.0
 10
-37.6238640045
 20
37.4810139687
 30
0.0
 10
-37.61949525
 20
37.4599409541
 30
0.0
 10
-37.6011504084
 20
37.4311804639
 30
0.0
 10
-37.572556427
 20
37.4053804834
 30
0.0
 10
-37.5490236503
 20
37.3913952642
 30
0.0
 10
-37.5360103392
 20
37.3848886093
 30
0.0
 11
-37.6238650323
 21
37.4909546111
 31
0.0
 11
-37.6181155762
 21
37.4616921591
 31
0.0
 11
-37.6010490646
 21
37.4335578147
 31
0.0
 11
-37.5732812282
 21
37.4076048207
 31
0.0
 11
-37.5360103392
 21
37.3848886093
 31
0.0
  0
SPLINE
  5
42D
100
AcDbEntity
  8
0
100
AcDbSpline
 62
7
  6
CONTINUOUS
 70
0
 71
3
 72
11
 73
7
 74
5
 42
0.0000001
 43
0.0000001
 44
0.0000000001
 12
-0.6333494509
 22
0.5969143223
 32
0.0
 13
-0.8289470693
 23
0.2651131674
 33
0.0
 40
0.0
 40
0.0
 40
0.0
 40
0.0
 40
0.2725542141
 40
0.5262218346
 40
0.7671916502
 40
1.0
 40
1.0
 40
1.0
 40
1.0
 10
-1.1227493954
 20
-23.6330900961
 30
0.0
 10
-1.1802900827
 20
-23.5788595915
 30
0.0
 10
-1.3035285141
 20
-23.4869621265
 30
0.0
 10
-1.4987658034
 20
-23.3794216943
 30
0.0
 10
-1.6931328945
 20
-23.2964543044
 30
0.0
 10
-1.8232951616
 20
-23.2520804478
 30
0.0
 10
-1.8876237614
 20
-23.2315069281
 30
0.0
 11
-1.1227493954
 21
-23.6330900961
 31
0.0
 11
-1.3108157123
 21
-23.4885288102
 31
0.0
 11
-1.503650373
 21
-23.3810398806
 31
0.0
 11
-1.6962378365
 21
-23.2980228953
 31
0.0
 11
-1.8876237614
 21
-23.2315069281
 31
0.0
  0
SPLINE
  5
42E
100
AcDbEntity
  8
RACCORDO
100
AcDbSpline
 62
7
  6
CONTINUOUS
 70
0
 71
3
 72
11
 73
7
 74
5
 42
0.0000001
 43
0.0000001
 44
0.0000000001
 12
-0.1689125338
 22
0.0845958674
 32
0.0
 13
0.0000000046
 23
0.1889124264
 33
0.0
 40
0.0
 40
0.0
 40
0.0
 40
0.0
 40
0.2171672857
 40
0.4503628451
 40
0.7104284797
 40
1.0
 40
1.0
 40
1.0
 40
1.0
 10
30.2954682864
 20
-41.2699603648
 30
0.0
 10
30.2832408609
 20
-41.2638365465
 30
0.0
 10
30.2600952131
 20
-41.2462423672
 30
0.0
 10
30.2352798161
 20
-41.2081962324
 30
0.0
 10
30.2204606316
 20
-41.1606763767
 30
0.0
 10
30.2174982317
 20
-41.1259369831
 30
0.0
 10
30.2174982322
 20
-41.1077024302
 30
0.0
 11
30.2954682864
 21
-41.2699603648
 31
0.0
 11
30.2626429672
 21
-41.2453514602
 31
0.0
 11
30.2379823293
 21
-41.2088471148
 31
0.0
 11
30.2226853704
 21
-41.1621596047
 31
0.0
 11
30.2174982322
 21
-41.1077024302
 31
0.0
  0
SPLINE
  5
42F
100
AcDbEntity
  8
RACCORDO
100
AcDbSpline
 62
7
  6
CONTINUOUS
 70
0
 71
3
 72
11
 73
7
 74
5
 42
0.0000001
 43
0.0000001
 44
0.0000000001
 12
-0.1689125381
 22
0.0845958697
 32
0.0
 13
-0.0000000074
 23
0.1889124313
 33
0.0
 40
0.0
 40
0.0
 40
0.0
 40
0.0
 40
0.2171672809
 40
0.4503628408
 40
0.7104284776
 40
1.0
 40
1.0
 40
1.0
 40
1.0
 10
-37.1752406442
 20
-7.5346058996
 30
0.0
 10
-37.1874680697
 20
-7.5284820812
 30
0.0
 10
-37.2106137176
 20
-7.5108879015
 30
0.0
 10
-37.2354291157
 20
-7.4728417662
 30
0.0
 10
-37.2502483024
 20
-7.4253219097
 30
0.0
 10
-37.2532107043
 20
-7.3905825151
 30
0.0
 10
-37.253210705
 20
-7.3723479616
 30
0.0
 11
-37.1752406442
 21
-7.5346058996
 31
0.0
 11
-37.2080659634
 21
-7.5099969949
 31
0.0
 11
-37.2327266025
 21
-7.4734926487
 31
0.0
 11
-37.2480235637
 21
-7.4268051376
 31
0.0
 11
-37.253210705
 21
-7.3723479616
 31
0.0
  0
SPLINE
  5
430
100
AcDbEntity
  8
ASSI
100
AcDbSpline
 62
7
  6
CONTINUOUS
 70
0
 71
3
 72
9
 73
5
 74
3
 42
0.0000001
 43
0.0000001
 44
0.0000000001
 12
0.1108866591
 22
0.0557557172
 32
0.0
 13
0.0296087567
 23
0.1205316253
 33
0.0
 40
0.0
 40
0.0
 40
0.0
 40
0.0
 40
0.4684215498
 40
1.0
 40
1.0
 40
1.0
 40
1.0
 10
-3.1006384556
 20
-18.5075960678
 30
0.0
 10
-3.0833245554
 20
-18.4988903413
 30
0.0
 10
-3.051197457
 20
-18.4698556653
 30
0.0
 10
-3.0353561724
 20
-18.4304293766
 30
0.0
 10
-3.0301097134
 20
-18.4090720384
 30
0.0
 11
-3.1006384556
 21
-18.5075960678
 31
0.0
 11
-3.0567999178
 21
-18.4694092908
 31
0.0
 11
-3.0301097134
 21
-18.4090720384
 31
0.0
  0
SPLINE
  5
431
100
AcDbEntity
  8
ASSI
100
AcDbSpline
 62
7
  6
CONTINUOUS
 70
0
 71
3
 72
9
 73
5
 74
3
 42
0.0000001
 43
0.0000001
 44
0.0000000001
 12
0.1108866591
 22
0.0557557172
 32
0.0
 13
0.0296087567
 23
0.1205316253
 33
0.0
 40
0.0
 40
0.0
 40
0.0
 40
0.0
 40
0.4684215498
 40
1.0
 40
1.0
 40
1.0
 40
1.0
 10
12.8092641211
 20
-26.4625473562
 30
0.0
 10
12.8265780213
 20
-26.4538416297
 30
0.0
 10
12.8587051197
 20
-26.4248069537
 30
0.0
 10
12.8745464043
 20
-26.3853806649
 30
0.0
 10
12.8797928633
 20
-26.3640233267
 30
0.0
 11
12.8092641211
 21
-26.4625473562
 31
0.0
 11
12.8531026589
 21
-26.4243605792
 31
0.0
 11
12.8797928633
 21
-26.3640233267
 31
0.0
  0
SPLINE
  5
432
100
AcDbEntity
  8
ASSI
100
AcDbSpline
 62
7
  6
CONTINUOUS
 70
0
 71
3
 72
8
 73
4
 74
2
 42
0.0000001
 43
0.0000001
 44
0.0000000001
 12
0.0017199938
 22
-0.0008550042
 32
0.0
 13
0.0000082581
 23
-0.0019207661
 33
0.0
 40
0.0
 40
0.0
 40
0.0
 40
0.0
 40
1.0
 40
1.0
 40
1.0
 40
1.0
 10
-2.4277715997
 20
-17.3050756624
 30
0.0
 10
-2.4271982685
 20
-17.3053606638
 30
0.0
 10
-2.4267558363
 20
-17.3060639142
 30
0.0
 10
-2.4267530836
 20
-17.3067041696
 30
0.0
 11
-2.4277715997
 21
-17.3050756624
 31
0.0
 11
-2.4267530836
 21
-17.3067041696
 31
0.0
  0
SPLINE
  5
433
100
AcDbEntity
  8
ASSI
100
AcDbSpline
 62
7
  6
CONTINUOUS
 70
0
 71
3
 72
8
 73
4
 74
2
 42
0.0000001
 43
0.0000001
 44
0.0000000001
 12
-0.0322886643
 22
0.0161348252
 32
0.0
 13
-0.0345470447
 23
0.0104590691
 33
0.0
 40
0.0
 40
0.0
 40
0.0
 40
0.0
 40
1.0
 40
1.0
 40
1.0
 40
1.0
 10
-6.6211357407
 20
-15.2083935919
 30
0.0
 10
-6.6318986288
 20
-15.2030153168
 30
0.0
 10
-6.6430994666
 20
-15.1983884806
 30
0.0
 10
-6.6546151482
 20
-15.1949021242
 30
0.0
 11
-6.6211357407
 21
-15.2083935919
 31
0.0
 11
-6.6546151482
 21
-15.1949021242
 31
0.0
  0
SPLINE
  5
434
100
AcDbEntity
  8
ASSI
100
AcDbSpline
 62
7
  6
CONTINUOUS
 70
0
 71
3
 72
9
 73
5
 74
3
 42
0.0000001
 43
0.0000001
 44
0.0000000001
 12
-0.0774879905
 22
0.0234593799
 32
0.0
 13
-0.075213758
 23
-0.0299603369
 33
0.0
 40
0.0
 40
0.0
 40
0.0
 40
0.0
 40
0.2646796662
 40
1.0
 40
1.0
 40
1.0
 40
1.0
 10
-6.6546151482
 20
-15.1949021242
 30
0.0
 10
-6.6614516466
 20
-15.1928323839
 30
0.0
 10
-6.6875933303
 20
-15.1865193945
 30
0.0
 10
-6.7163789542
 20
-15.1874484646
 30
0.0
 10
-6.734814356
 20
-15.1947919463
 30
0.0
 11
-6.6546151482
 21
-15.1949021242
 31
0.0
 11
-6.675475213
 21
-15.1899978889
 31
0.0
 11
-6.734814356
 21
-15.1947919463
 31
0.0
  0
SPLINE
  5
435
100
AcDbEntity
  8
ASSI
100
AcDbSpline
 62
7
  6
CONTINUOUS
 70
0
 71
3
 72
8
 73
4
 74
2
 42
0.0000001
 43
0.0000001
 44
0.0000000001
 12
0.0017199938
 22
-0.0008550042
 32
0.0
 13
0.0000082581
 23
-0.0019207661
 33
0.0
 40
0.0
 40
0.0
 40
0.0
 40
0.0
 40
1.0
 40
1.0
 40
1.0
 40
1.0
 10
13.482130977
 20
-25.2600269507
 30
0.0
 10
13.4827043082
 20
-25.2603119521
 30
0.0
 10
13.4831467404
 20
-25.2610152025
 30
0.0
 10
13.4831494931
 20
-25.2616554579
 30
0.0
 11
13.482130977
 21
-25.2600269507
 31
0.0
 11
13.4831494931
 21
-25.2616554579
 31
0.0
  0
SPLINE
  5
436
100
AcDbEntity
  8
ASSI
100
AcDbSpline
 62
7
  6
CONTINUOUS
 70
0
 71
3
 72
8
 73
4
 74
2
 42
0.0000001
 43
0.0000001
 44
0.0000000001
 12
-0.0322886643
 22
0.0161348252
 32
0.0
 13
-0.0345470447
 23
0.0104590691
 33
0.0
 40
0.0
 40
0.0
 40
0.0
 40
0.0
 40
1.0
 40
1.0
 40
1.0
 40
1.0
 10
9.288766836
 20
-23.1633448803
 30
0.0
 10
9.2780039479
 20
-23.1579666052
 30
0.0
 10
9.2668031101
 20
-23.1533397689
 30
0.0
 10
9.2552874285
 20
-23.1498534125
 30
0.0
 11
9.288766836
 21
-23.1633448803
 31
0.0
 11
9.2552874285
 21
-23.1498534125
 31
0.0
  0
SPLINE
  5
437
100
AcDbEntity
  8
ASSI
100
AcDbSpline
 62
7
  6
CONTINUOUS
 70
0
 71
3
 72
9
 73
5
 74
3
 42
0.0000001
 43
0.0000001
 44
0.0000000001
 12
-0.0774879905
 22
0.0234593799
 32
0.0
 13
-0.075213758
 23
-0.0299603369
 33
0.0
 40
0.0
 40
0.0
 40
0.0
 40
0.0
 40
0.2646796662
 40
1.0
 40
1.0
 40
1.0
 40
1.0
 10
9.2552874285
 20
-23.1498534125
 30
0.0
 10
9.24845093
 20
-23.1477836723
 30
0.0
 10
9.2223092464
 20
-23.1414706828
 30
0.0
 10
9.1935236225
 20
-23.142399753
 30
0.0
 10
9.1750882207
 20
-23.1497432346
 30
0.0
 11
9.2552874285
 21
-23.1498534125
 31
0.0
 11
9.2344273637
 21
-23.1449491772
 31
0.0
 11
9.1750882207
 21
-23.1497432346
 31
0.0
  0
SPLINE
  5
438
100
AcDbEntity
  8
ASSI
100
AcDbSpline
 62
7
  6
CONTINUOUS
 70
0
 71
3
 72
8
 73
4
 74
2
 42
0.0000001
 43
0.0000001
 44
0.0000000001
 12
0.0017199875
 22
-0.0008550395
 32
0.0
 13
0.0000082235
 23
-0.0019207763
 33
0.0
 40
0.0
 40
0.0
 40
0.0
 40
0.0
 40
1.0
 40
1.0
 40
1.0
 40
1.0
 10
-18.3376741396
 20
-9.2635218515
 30
0.0
 10
-18.3371008104
 20
-9.2638068646
 30
0.0
 10
-18.3366583979
 20
-9.2645101325
 30
0.0
 10
-18.3366556567
 20
-9.2651503913
 30
0.0
 11
-18.3376741396
 21
-9.2635218515
 31
0.0
 11
-18.3366556567
 21
-9.2651503913
 31
0.0
  0
SPLINE
  5
439
100
AcDbEntity
  8
ASSI
100
AcDbSpline
 62
7
  6
CONTINUOUS
 70
0
 71
3
 72
8
 73
4
 74
2
 42
0.0000001
 43
0.0000001
 44
0.0000000001
 12
-0.032268327
 22
0.0161247358
 32
0.0
 13
-0.0345239903
 23
0.0104568695
 33
0.0
 40
0.0
 40
0.0
 40
0.0
 40
0.0
 40
1.0
 40
1.0
 40
1.0
 40
1.0
 10
-22.5310379078
 20
-7.1668399673
 30
0.0
 10
-22.5417940168
 20
-7.1614650554
 30
0.0
 10
-22.5529874774
 20
-7.1568406627
 30
0.0
 10
-22.5644954742
 20
-7.1533550395
 30
0.0
 11
-22.5310379078
 21
-7.1668399673
 31
0.0
 11
-22.5644954742
 21
-7.1533550395
 31
0.0
  0
SPLINE
  5
43A
100
AcDbEntity
  8
ASSI
100
AcDbSpline
 62
7
  6
CONTINUOUS
 70
0
 71
3
 72
9
 73
5
 74
3
 42
0.0000001
 43
0.0000001
 44
0.0000000001
 12
-0.0479673986
 22
0.0145287038
 32
0.0
 13
-0.0500426309
 23
-0.0027730218
 33
0.0
 40
0.0
 40
0.0
 40
0.0
 40
0.0
 40
0.257878631
 40
1.0
 40
1.0
 40
1.0
 40
1.0
 10
-22.5644954742
 20
-7.1533550395
 30
0.0
 10
-22.5686187299
 20
-7.1521061587
 30
0.0
 10
-22.5847625001
 20
-7.1478313294
 30
0.0
 10
-22.6016625643
 20
-7.1460655776
 30
0.0
 10
-22.6140417996
 20
-7.1467515505
 30
0.0
 11
-22.5644954742
 21
-7.1533550395
 31
0.0
 11
-22.5769952912
 21
-7.1500682416
 31
0.0
 11
-22.6140417996
 21
-7.1467515505
 31
0.0
  0
SPLINE
  5
43B
100
AcDbEntity
  8
ASSI
100
AcDbSpline
 62
7
  6
CONTINUOUS
 70
0
 71
3
 72
8
 73
4
 74
2
 42
0.0000001
 43
0.0000001
 44
0.0000000001
 12
-0.0213414878
 22
-0.0011825999
 32
0.0
 13
-0.0206349063
 23
-0.005572996
 33
0.0
 40
0.0
 40
0.0
 40
0.0
 40
0.0
 40
1.0
 40
1.0
 40
1.0
 40
1.0
 10
-22.6140417996
 20
-7.1467515505
 30
0.0
 10
-22.6211556288
 20
-7.1471457505
 30
0.0
 10
-22.6282792931
 20
-7.1482076166
 30
0.0
 10
-22.6351575952
 20
-7.1500652819
 30
0.0
 11
-22.6140417996
 21
-7.1467515505
 31
0.0
 11
-22.6351575952
 21
-7.1500652819
 31
0.0
  0
SPLINE
  5
43C
100
AcDbEntity
  8
ASSI
100
AcDbSpline
 62
7
  6
CONTINUOUS
 70
0
 71
3
 72
8
 73
4
 74
2
 42
0.0000001
 43
0.0000001
 44
0.0000000001
 12
-0.032268327
 22
0.0161247358
 32
0.0
 13
-0.0345239903
 23
0.0104568695
 33
0.0
 40
0.0
 40
0.0
 40
0.0
 40
0.0
 40
1.0
 40
1.0
 40
1.0
 40
1.0
 10
25.1986698223
 20
-31.0316938324
 30
0.0
 10
25.1879137133
 20
-31.0263189205
 30
0.0
 10
25.1767202527
 20
-31.0216945277
 30
0.0
 10
25.1652122559
 20
-31.0182089045
 30
0.0
 11
25.1986698223
 21
-31.0316938324
 31
0.0
 11
25.1652122559
 21
-31.0182089045
 31
0.0
  0
SPLINE
  5
43D
100
AcDbEntity
  8
ASSI
100
AcDbSpline
 62
7
  6
CONTINUOUS
 70
0
 71
3
 72
9
 73
5
 74
3
 42
0.0000001
 43
0.0000001
 44
0.0000000001
 12
-0.0479673986
 22
0.0145287038
 32
0.0
 13
-0.0500426309
 23
-0.0027730218
 33
0.0
 40
0.0
 40
0.0
 40
0.0
 40
0.0
 40
0.257878631
 40
1.0
 40
1.0
 40
1.0
 40
1.0
 10
25.1652122559
 20
-31.0182089045
 30
0.0
 10
25.1610890002
 20
-31.0169600238
 30
0.0
 10
25.14494523
 20
-31.0126851944
 30
0.0
 10
25.1280451658
 20
-31.0109194426
 30
0.0
 10
25.1156659305
 20
-31.0116054155
 30
0.0
 11
25.1652122559
 21
-31.0182089045
 31
0.0
 11
25.1527124389
 21
-31.0149221066
 31
0.0
 11
25.1156659305
 21
-31.0116054155
 31
0.0
  0
SPLINE
  5
43E
100
AcDbEntity
  8
ASSI
100
AcDbSpline
 62
7
  6
CONTINUOUS
 70
0
 71
3
 72
8
 73
4
 74
2
 42
0.0000001
 43
0.0000001
 44
0.0000000001
 12
-0.0213414878
 22
-0.0011825999
 32
0.0
 13
-0.0206349063
 23
-0.005572996
 33
0.0
 40
0.0
 40
0.0
 40
0.0
 40
0.0
 40
1.0
 40
1.0
 40
1.0
 40
1.0
 10
25.1156659305
 20
-31.0116054155
 30
0.0
 10
25.1085521013
 20
-31.0119996155
 30
0.0
 10
25.101428437
 20
-31.0130614817
 30
0.0
 10
25.0945501348
 20
-31.014919147
 30
0.0
 11
25.1156659305
 21
-31.0116054155
 31
0.0
 11
25.0945501348
 21
-31.014919147
 31
0.0
  0
SPLINE
  5
43F
100
AcDbEntity
  8
RACCORDO
100
AcDbSpline
 62
7
  6
CONTINUOUS
 70
0
 71
3
 72
9
 73
5
 74
3
 42
0.0000001
 43
0.0000001
 44
0.0000000001
 12
0.0354488864
 22
0.0257201477
 32
0.0
 13
0.0312928904
 23
0.0306415495
 33
0.0
 40
0.0
 40
0.0
 40
0.0
 40
0.0
 40
0.2592712118
 40
1.0
 40
1.0
 40
1.0
 40
1.0
 10
-32.7816308735
 20
28.4467307898
 30
0.0
 10
-32.7785672483
 20
28.4489536211
 30
0.0
 10
-32.7668933547
 20
28.4577196975
 30
0.0
 10
-32.7558115293
 20
28.467288531
 30
0.0
 10
-32.7480850144
 20
28.4748542236
 30
0.0
 11
-32.7816308735
 21
28.4467307898
 31
0.0
 11
-32.7725536389
 21
28.4535531662
 31
0.0
 11
-32.7480850144
 21
28.4748542236
 31
0.0
  0
SPLINE
  5
440
100
AcDbEntity
  8
RACCORDO
100
AcDbSpline
 62
7
  6
CONTINUOUS
 70
0
 71
3
 72
9
 73
5
 74
3
 42
0.0000001
 43
0.0000001
 44
0.0000000001
 12
0.0920051784
 22
0.0900901513
 32
0.0
 13
0.0000053934
 23
0.1287679625
 33
0.0
 40
0.0
 40
0.0
 40
0.0
 40
0.0
 40
0.5333183432
 40
1.0
 40
1.0
 40
1.0
 40
1.0
 10
-32.7480850144
 20
28.4748542236
 30
0.0
 10
-32.7317289979
 20
28.4908698004
 30
0.0
 10
-32.70447904
 20
28.525264791
 30
0.0
 10
-32.6933851987
 20
28.5685140886
 30
0.0
 10
-32.6933843597
 20
28.588545304
 30
0.0
 11
-32.7480850144
 21
28.4748542236
 31
0.0
 11
-32.7072584524
 21
28.5300751761
 31
0.0
 11
-32.6933843597
 21
28.588545304
 31
0.0
  0
SPLINE
  5
441
100
AcDbEntity
  8
RACCORDO
100
AcDbSpline
 62
7
  6
CONTINUOUS
 70
0
 71
3
 72
9
 73
5
 74
3
 42
0.0000001
 43
0.0000001
 44
0.0000000001
 12
0.0354488864
 22
0.0257201477
 32
0.0
 13
0.0312928904
 23
0.0306415495
 33
0.0
 40
0.0
 40
0.0
 40
0.0
 40
0.0
 40
0.2592712118
 40
1.0
 40
1.0
 40
1.0
 40
1.0
 10
-32.7816308735
 20
9.3941719065
 30
0.0
 10
-32.7785672483
 20
9.3963947378
 30
0.0
 10
-32.7668933547
 20
9.4051608143
 30
0.0
 10
-32.7558115293
 20
9.4147296478
 30
0.0
 10
-32.7480850144
 20
9.4222953404
 30
0.0
 11
-32.7816308735
 21
9.3941719065
 31
0.0
 11
-32.7725536389
 21
9.4009942829
 31
0.0
 11
-32.7480850144
 21
9.4222953404
 31
0.0
  0
SPLINE
  5
442
100
AcDbEntity
  8
RACCORDO
100
AcDbSpline
 62
7
  6
CONTINUOUS
 70
0
 71
3
 72
9
 73
5
 74
3
 42
0.0000001
 43
0.0000001
 44
0.0000000001
 12
0.0920051784
 22
0.0900901513
 32
0.0
 13
0.0000053934
 23
0.1287679625
 33
0.0
 40
0.0
 40
0.0
 40
0.0
 40
0.0
 40
0.5333183432
 40
1.0
 40
1.0
 40
1.0
 40
1.0
 10
-32.7480850144
 20
9.4222953404
 30
0.0
 10
-32.7317289979
 20
9.4383109171
 30
0.0
 10
-32.70447904
 20
9.4727059077
 30
0.0
 10
-32.6933851987
 20
9.5159552054
 30
0.0
 10
-32.6933843597
 20
9.5359864207
 30
0.0
 11
-32.7480850144
 21
9.4222953404
 31
0.0
 11
-32.7072584524
 21
9.4775162928
 31
0.0
 11
-32.6933843597
 21
9.5359864207
 31
0.0
  0
SPLINE
  5
443
100
AcDbEntity
  8
DRAFT
100
AcDbSpline
 62
7
  6
CONTINUOUS
 70
0
 71
3
 72
9
 73
5
 74
3
 42
0.0000001
 43
0.0000001
 44
0.0000000001
 12
-0.033283447
 22
-0.1354905919
 32
0.0
 13
-0.1246408007
 23
-0.0626909815
 33
0.0
 40
0.0
 40
0.0
 40
0.0
 40
0.0
 40
0.5315820734
 40
1.0
 40
1.0
 40
1.0
 40
1.0
 10
-18.9144965171
 20
-10.3502508843
 30
0.0
 10
-18.9203941451
 20
-10.3742590076
 30
0.0
 10
-18.9381984941
 20
-10.4185764489
 30
0.0
 10
-18.9743001986
 20
-10.4512292599
 30
0.0
 10
-18.9937615271
 20
-10.4610177864
 30
0.0
 11
-18.9144965171
 21
-10.3502508843
 31
0.0
 11
-18.9444935482
 21
-10.4180795368
 31
0.0
 11
-18.9937615271
 21
-10.4610177864
 31
0.0
  0
SPLINE
  5
444
100
AcDbEntity
  8
RACCORDO
100
AcDbSpline
 62
7
  6
CONTINUOUS
 70
0
 71
3
 72
9
 73
5
 74
3
 42
0.0000001
 43
0.0000001
 44
0.0000000001
 12
0.1211461399
 22
0.0559349775
 32
0.0
 13
0.1185133153
 23
-0.0613164172
 33
0.0
 40
0.0
 40
0.0
 40
0.0
 40
0.0
 40
0.4648265797
 40
1.0
 40
1.0
 40
1.0
 40
1.0
 10
-5.3320220599
 20
-16.9653437904
 30
0.0
 10
-5.3132514113
 20
-16.9566771023
 30
0.0
 10
-5.2668885002
 20
-16.9500471557
 30
0.0
 10
-5.2236798922
 20
-16.9651394315
 30
0.0
 10
-5.2025381668
 20
-16.9760777371
 30
0.0
 11
-5.3320220599
 21
-16.9653437904
 31
0.0
 11
-5.2708315151
 21
-16.9552069363
 31
0.0
 11
-5.2025381668
 21
-16.9760777371
 31
0.0
  0
SPLINE
  5
445
100
AcDbEntity
  8
RACCORDO
100
AcDbSpline
 62
7
  6
CONTINUOUS
 70
0
 71
3
 72
9
 73
5
 74
3
 42
0.0000001
 43
0.0000001
 44
0.0000000001
 12
0.1211461399
 22
0.0559349775
 32
0.0
 13
0.1185133153
 23
-0.0613164172
 33
0.0
 40
0.0
 40
0.0
 40
0.0
 40
0.0
 40
0.4648265797
 40
1.0
 40
1.0
 40
1.0
 40
1.0
 10
3.7189447393
 20
-21.49082719
 30
0.0
 10
3.7377153879
 20
-21.4821605019
 30
0.0
 10
3.784078299
 20
-21.4755305553
 30
0.0
 10
3.827286907
 20
-21.4906228311
 30
0.0
 10
3.8484286324
 20
-21.5015611367
 30
0.0
 11
3.7189447393
 21
-21.49082719
 31
0.0
 11
3.7801352841
 21
-21.4806903359
 31
0.0
 11
3.8484286324
 21
-21.5015611367
 31
0.0
  0
SPLINE
  5
446
100
AcDbEntity
  8
RACCORDO
100
AcDbSpline
 62
7
  6
CONTINUOUS
 70
0
 71
3
 72
11
 73
7
 74
5
 42
0.0000001
 43
0.0000001
 44
0.0000000001
 12
0.1712669468
 22
0.0869973878
 32
0.0
 13
0.0003984659
 23
0.1920956891
 33
0.0
 40
0.0
 40
0.0
 40
0.0
 40
0.0
 40
0.3609436533
 40
0.647566348
 40
0.8565838892
 40
1.0
 40
1.0
 40
1.0
 40
1.0
 10
-31.8022361278
 20
-4.0719794791
 30
0.0
 10
-31.781630222
 20
-4.0615124274
 30
0.0
 10
-31.745312422
 20
-4.0413939133
 30
0.0
 10
-31.70052482
 20
-4.0093255028
 30
0.0
 10
-31.6715776716
 20
-3.9802491151
 30
0.0
 10
-31.6619259899
 20
-3.9583025283
 30
0.0
 10
-31.6619069411
 20
-3.9491193227
 30
0.0
 11
-31.8022361278
 21
-4.0719794791
 31
0.0
 11
-31.7419081829
 21
-4.0378034379
 31
0.0
 11
-31.6976256614
 21
-4.0050839779
 31
0.0
 11
-31.6708264108
 21
-3.9751851567
 31
0.0
 11
-31.6619069411
 21
-3.9491193227
 31
0.0
  0
SPLINE
  5
447
100
AcDbEntity
  8
RACCORDO
100
AcDbSpline
 62
7
  6
CONTINUOUS
 70
0
 71
3
 72
11
 73
7
 74
5
 42
0.0000001
 43
0.0000001
 44
0.0000000001
 12
0.3974925818
 22
-0.1920748414
 32
0.0
 13
-0.0061350168
 23
-0.4414243523
 33
0.0
 40
0.0
 40
0.0
 40
0.0
 40
0.0
 40
0.230440651
 40
0.4885148136
 40
0.7528953886
 40
1.0
 40
1.0
 40
1.0
 40
1.0
 10
-3.6642475082
 20
-17.7452230664
 30
0.0
 10
-3.6337146917
 20
-17.7599770169
 30
0.0
 10
-3.5753465613
 20
-17.8045537732
 30
0.0
 10
-3.5082953113
 20
-17.894047731
 30
0.0
 10
-3.4633245695
 20
-17.9990932182
 30
0.0
 10
-3.4516424522
 20
-18.0746816494
 30
0.0
 10
-3.4521477825
 20
-18.1110409804
 30
0.0
 11
-3.6642475082
 21
-17.7452230664
 31
0.0
 11
-3.5819552894
 21
-17.8050342539
 31
0.0
 11
-3.5127604784
 21
-17.8955461397
 31
0.0
 11
-3.4671795826
 21
-18.0029930661
 31
0.0
 11
-3.4521477825
 21
-18.1110409804
 31
0.0
  0
SPLINE
  5
448
100
AcDbEntity
  8
RACCORDO
100
AcDbSpline
 62
7
  6
CONTINUOUS
 70
0
 71
3
 72
14
 73
10
 74
8
 42
0.0000001
 43
0.0000001
 44
0.0000000001
 12
0.3943528897
 22
-0.2003465686
 32
0.0
 13
-0.0117720728
 23
-0.4421700662
 33
0.0
 40
0.0
 40
0.0
 40
0.0
 40
0.0
 40
0.1107719331
 40
0.2307901487
 40
0.3575288845
 40
0.4888703697
 40
0.752742191
 40
0.879807714
 40
1.0
 40
1.0
 40
1.0
 40
1.0
 10
-32.0143358518
 20
-3.7061615643
 30
0.0
 10
-31.9997747744
 20
-3.7135591565
 30
0.0
 10
-31.9705119238
 20
-3.7312385982
 30
0.0
 10
-31.9303066493
 20
-3.7656792121
 30
0.0
 10
-31.8937458188
 20
-3.8080024921
 30
0.0
 10
-31.8509520662
 20
-3.872130225
 30
0.0
 10
-31.820456119
 20
-3.9439169377
 30
0.0
 10
-31.8044953949
 20
-4.0176987045
 30
0.0
 10
-31.801764441
 20
-4.0542643109
 30
0.0
 10
-31.8022360784
 20
-4.0719794546
 30
0.0
 11
-32.0143358518
 21
-3.7061615643
 31
0.0
 11
-31.9724467653
 21
-3.7315790488
 31
0.0
 11
-31.9319821824
 21
-3.7659429167
 31
0.0
 11
-31.8951063462
 21
-3.8081671837
 31
0.0
 11
-31.8628479631
 21
-3.8564841031
 31
0.0
 11
-31.8173060147
 21
-3.9639500076
 31
0.0
 11
-31.805598591
 21
-4.0189216339
 31
0.0
 11
-31.8022360784
 21
-4.0719794546
 31
0.0
  0
SPLINE
  5
449
100
AcDbEntity
  8
RACCORDO
100
AcDbSpline
 62
7
  6
CONTINUOUS
 70
0
 71
3
 72
11
 73
7
 74
5
 42
0.0000001
 43
0.0000001
 44
0.0000000001
 12
0.3974925818
 22
-0.1920748414
 32
0.0
 13
-0.0061350168
 23
-0.4414243523
 33
0.0
 40
0.0
 40
0.0
 40
0.0
 40
0.0
 40
0.230440651
 40
0.4885148136
 40
0.7528953886
 40
1.0
 40
1.0
 40
1.0
 40
1.0
 10
5.386719291
 20
-22.270706466
 30
0.0
 10
5.4172521075
 20
-22.2854604165
 30
0.0
 10
5.4756202379
 20
-22.3300371728
 30
0.0
 10
5.5426714878
 20
-22.4195311306
 30
0.0
 10
5.5876422296
 20
-22.5245766178
 30
0.0
 10
5.599324347
 20
-22.600165049
 30
0.0
 10
5.5988190166
 20
-22.63652438
 30
0.0
 11
5.386719291
 21
-22.270706466
 31
0.0
 11
5.4690115098
 21
-22.3305176535
 31
0.0
 11
5.5382063208
 21
-22.4210295393
 31
0.0
 11
5.5837872166
 21
-22.5284764657
 31
0.0
 11
5.5988190166
 21
-22.63652438
 31
0.0
  0
SPLINE
  5
44A
100
AcDbEntity
  8
RACCORDO
100
AcDbSpline
 62
7
  6
CONTINUOUS
 70
0
 71
3
 72
9
 73
5
 74
3
 42
0.0000001
 43
0.0000001
 44
0.0000000001
 12
-0.1200027248
 22
0.0599767827
 32
0.0
 13
-0.1210098253
 23
-0.0579179644
 33
0.0
 40
0.0
 40
0.0
 40
0.0
 40
0.0
 40
0.465035448
 40
1.0
 40
1.0
 40
1.0
 40
1.0
 10
-5.0720802755
 20
-16.9693713494
 30
0.0
 10
-5.0906821158
 20
-16.9600742393
 30
0.0
 10
-5.1370593901
 20
-16.9519494564
 30
0.0
 10
-5.1809595111
 20
-16.9657497178
 30
0.0
 10
-5.2025381668
 20
-16.9760777371
 30
0.0
 11
-5.0720802755
 21
-16.9693713494
 31
0.0
 11
-5.1332805648
 21
-16.9572590807
 31
0.0
 11
-5.2025381668
 21
-16.9760777371
 31
0.0
  0
SPLINE
  5
44B
100
AcDbEntity
  8
ASSI
100
AcDbSpline
 62
7
  6
CONTINUOUS
 70
0
 71
3
 72
11
 73
7
 74
5
 42
0.0000001
 43
0.0000001
 44
0.0000000001
 12
0.0483159092
 22
0.0240461291
 32
0.0
 13
0.048326814
 23
-0.0240242057
 33
0.0
 40
0.0
 40
0.0
 40
0.0
 40
0.0
 40
0.4141056993
 40
0.7151930062
 40
0.9055096016
 40
1.0
 40
1.0
 40
1.0
 40
1.0
 10
-18.3880288713
 20
-9.2815821482
 30
0.0
 10
-18.3813595735
 20
-9.2782629352
 30
0.0
 10
-18.3697338583
 20
-9.2728669896
 30
0.0
 10
-18.3545062119
 20
-9.2665949879
 30
0.0
 10
-18.344709601
 20
-9.2635998568
 30
0.0
 10
-18.3391962796
 20
-9.2627651659
 30
0.0
 10
-18.3376741396
 20
-9.2635218515
 30
0.0
 11
-18.3880288713
 21
-9.2815821482
 31
0.0
 11
-18.3677621188
 21
-9.2721625349
 31
0.0
 11
-18.3526611059
 21
-9.266162458
 31
0.0
 11
-18.3427719108
 21
-9.2633873997
 31
0.0
 11
-18.3376741396
 21
-9.2635218515
 31
0.0
  0
SPLINE
  5
44C
100
AcDbEntity
  8
ASSI
100
AcDbSpline
 62
7
  6
CONTINUOUS
 70
0
 71
3
 72
11
 73
7
 74
5
 42
0.0000001
 43
0.0000001
 44
0.0000000001
 12
0.048315538
 22
0.0240467905
 32
0.0
 13
0.0483272103
 23
-0.0240233238
 33
0.0
 40
0.0
 40
0.0
 40
0.0
 40
0.0
 40
0.4141046671
 40
0.7151915315
 40
0.9055086154
 40
1.0
 40
1.0
 40
1.0
 40
1.0
 10
13.4317762821
 20
-25.2780872653
 30
0.0
 10
13.438445512
 20
-25.2747679692
 30
0.0
 10
13.4500712654
 20
-25.2693721723
 30
0.0
 10
13.4652988517
 20
-25.2631001397
 30
0.0
 10
13.475095486
 20
-25.2601049799
 30
0.0
 10
13.4806088086
 20
-25.259270285
 30
0.0
 10
13.482130977
 20
-25.2600269507
 30
0.0
 11
13.4317762821
 21
-25.2780872653
 31
0.0
 11
13.4520429724
 21
-25.2686676873
 31
0.0
 11
13.4671439476
 21
-25.2626676109
 31
0.0
 11
13.4770331553
 21
-25.2598925267
 31
0.0
 11
13.482130977
 21
-25.2600269507
 31
0.0
  0
SPLINE
  5
44D
100
AcDbEntity
  8
ASSI
100
AcDbSpline
 62
7
  6
CONTINUOUS
 70
0
 71
3
 72
11
 73
7
 74
5
 42
0.0000001
 43
0.0000001
 44
0.0000000001
 12
0.048315538
 22
0.0240467905
 32
0.0
 13
0.0483272103
 23
-0.0240233238
 33
0.0
 40
0.0
 40
0.0
 40
0.0
 40
0.0
 40
0.4141046671
 40
0.7151915315
 40
0.9055086154
 40
1.0
 40
1.0
 40
1.0
 40
1.0
 10
-2.4781262946
 20
-17.323135977
 30
0.0
 10
-2.4714570647
 20
-17.3198166809
 30
0.0
 10
-2.4598313113
 20
-17.314420884
 30
0.0
 10
-2.444603725
 20
-17.3081488514
 30
0.0
 10
-2.4348070907
 20
-17.3051536916
 30
0.0
 10
-2.4292937681
 20
-17.3043189967
 30
0.0
 10
-2.4277715997
 20
-17.3050756624
 30
0.0
 11
-2.4781262946
 21
-17.323135977
 31
0.0
 11
-2.4578596043
 21
-17.313716399
 31
0.0
 11
-2.4427586291
 21
-17.3077163226
 31
0.0
 11
-2.4328694214
 21
-17.3049412384
 31
0.0
 11
-2.4277715997
 21
-17.3050756624
 31
0.0
  0
SPLINE
  5
44E
100
AcDbEntity
  8
RACCORDO
100
AcDbSpline
 62
7
  6
CONTINUOUS
 70
0
 71
3
 72
11
 73
7
 74
5
 42
0.0000001
 43
0.0000001
 44
0.0000000001
 12
0.0021654052
 22
-0.1535620513
 32
0.0
 13
-0.1351790738
 23
-0.0728876573
 33
0.0
 40
0.0
 40
0.0
 40
0.0
 40
0.0
 40
0.2885237755
 40
0.5479952821
 40
0.7816826091
 40
1.0
 40
1.0
 40
1.0
 40
1.0
 10
-29.0646516966
 20
14.744835772
 30
0.0
 10
-29.0644434397
 20
14.7300670044
 30
0.0
 10
-29.0664296833
 20
14.7018787358
 30
0.0
 10
-29.0778678453
 20
14.6631293024
 30
0.0
 10
-29.0974718284
 20
14.6317981575
 30
0.0
 10
-29.1159446844
 20
14.6169544881
 30
0.0
 10
-29.1257819986
 20
14.6116502738
 30
0.0
 11
-29.0646516966
 21
14.744835772
 31
0.0
 11
-29.068207238
 21
14.7006679451
 31
0.0
 11
-29.0800091269
 21
14.662606767
 31
0.0
 11
-29.0995039789
 21
14.6324741219
 31
0.0
 11
-29.1257819986
 21
14.6116502738
 31
0.0
  0
SPLINE
  5
44F
100
AcDbEntity
  8
RACCORDO
100
AcDbSpline
 62
7
  6
CONTINUOUS
 70
0
 71
3
 72
11
 73
7
 74
5
 42
0.0000001
 43
0.0000001
 44
0.0000000001
 12
0.3312438182
 22
-0.1600623678
 32
0.0
 13
-0.005112514
 23
-0.367853627
 33
0.0
 40
0.0
 40
0.0
 40
0.0
 40
0.0
 40
0.2304406468
 40
0.488514815
 40
0.7528953925
 40
1.0
 40
1.0
 40
1.0
 40
1.0
 10
-29.241401468
 20
20.5351761666
 30
0.0
 10
-29.2159574547
 20
20.5228812081
 30
0.0
 10
-29.1673173458
 20
20.4857339114
 30
0.0
 10
-29.1114413038
 20
20.4111556127
 30
0.0
 10
-29.0739656855
 20
20.3236177061
 30
0.0
 10
-29.064230588
 20
20.260627347
 30
0.0
 10
-29.0646516966
 20
20.230327905
 30
0.0
 11
-29.241401468
 21
20.5351761666
 31
0.0
 11
-29.1728246201
 21
20.4853335115
 31
0.0
 11
-29.1151622762
 21
20.4099069384
 31
0.0
 11
-29.0771781963
 21
20.3203678322
 31
0.0
 11
-29.0646516966
 21
20.230327905
 31
0.0
  0
SPLINE
  5
450
100
AcDbEntity
  8
RACCORDO
100
AcDbSpline
 62
7
  6
CONTINUOUS
 70
0
 71
3
 72
9
 73
5
 74
3
 42
0.0000001
 43
0.0000001
 44
0.0000000001
 12
-0.1199868676
 22
0.0599059461
 32
0.0
 13
-0.1209684762
 23
-0.0578981739
 33
0.0
 40
0.0
 40
0.0
 40
0.0
 40
0.0
 40
0.4650398515
 40
1.0
 40
1.0
 40
1.0
 40
1.0
 10
-3.5338319673
 20
-17.7384955232
 30
0.0
 10
-3.5524315257
 20
-17.7292093058
 30
0.0
 10
-3.5987931873
 20
-17.7211017326
 30
0.0
 10
-3.6426764035
 20
-17.7348986612
 30
0.0
 10
-3.6642475082
 20
-17.7452230664
 30
0.0
 11
-3.5338319673
 21
-17.7384955232
 31
0.0
 11
-3.5950155724
 21
-17.7264057293
 31
0.0
 11
-3.6642475082
 21
-17.7452230664
 31
0.0
  0
SPLINE
  5
451
100
AcDbEntity
  8
RACCORDO
100
AcDbSpline
 62
7
  6
CONTINUOUS
 70
0
 71
3
 72
11
 73
7
 74
5
 42
0.0000001
 43
0.0000001
 44
0.0000000001
 12
-0.0000124808
 22
-0.1402926118
 32
0.0
 13
-0.1245837348
 23
-0.064505117
 33
0.0
 40
0.0
 40
0.0
 40
0.0
 40
0.0
 40
0.2077729763
 40
0.4361383275
 40
0.6987155742
 40
1.0
 40
1.0
 40
1.0
 40
1.0
 10
-3.3679497684
 20
-18.0068425806
 30
0.0
 10
-3.3679506328
 20
-18.0165589185
 30
0.0
 10
-3.3721304348
 20
-18.0371066516
 30
0.0
 10
-3.3896400291
 20
-18.065285739
 30
0.0
 10
-3.4170250718
 20
-18.0907049357
 30
0.0
 10
-3.4396360695
 20
-18.1045628513
 30
0.0
 10
-3.4521477825
 20
-18.1110409804
 30
0.0
 11
-3.3679497684
 21
-18.0068425806
 31
0.0
 11
-3.3734649242
 21
-18.0354650902
 31
0.0
 11
-3.3897926284
 21
-18.063030244
 31
0.0
 11
-3.4163636391
 21
-18.088544822
 31
0.0
 11
-3.4521477825
 21
-18.1110409804
 31
0.0
  0
SPLINE
  5
452
100
AcDbEntity
  8
RACCORDO
100
AcDbSpline
 62
7
  6
CONTINUOUS
 70
0
 71
3
 72
9
 73
5
 74
3
 42
0.0000001
 43
0.0000001
 44
0.0000000001
 12
-0.1200027248
 22
0.0599767827
 32
0.0
 13
-0.1210098253
 23
-0.0579179644
 33
0.0
 40
0.0
 40
0.0
 40
0.0
 40
0.0
 40
0.465035448
 40
1.0
 40
1.0
 40
1.0
 40
1.0
 10
3.9788865236
 20
-21.4948547489
 30
0.0
 10
3.9602846833
 20
-21.4855576389
 30
0.0
 10
3.913907409
 20
-21.477432856
 30
0.0
 10
3.8700072881
 20
-21.4912331174
 30
0.0
 10
3.8484286324
 20
-21.5015611367
 30
0.0
 11
3.9788865236
 21
-21.4948547489
 31
0.0
 11
3.9176862344
 21
-21.4827424803
 31
0.0
 11
3.8484286324
 21
-21.5015611367
 31
0.0
  0
SPLINE
  5
453
100
AcDbEntity
  8
RACCORDO
100
AcDbSpline
 62
7
  6
CONTINUOUS
 70
0
 71
3
 72
9
 73
5
 74
3
 42
0.0000001
 43
0.0000001
 44
0.0000000001
 12
-0.1199868676
 22
0.0599059461
 32
0.0
 13
-0.1209684762
 23
-0.0578981739
 33
0.0
 40
0.0
 40
0.0
 40
0.0
 40
0.0
 40
0.4650398515
 40
1.0
 40
1.0
 40
1.0
 40
1.0
 10
5.5171348319
 20
-22.2639789228
 30
0.0
 10
5.4985352735
 20
-22.2546927054
 30
0.0
 10
5.4521736119
 20
-22.2465851322
 30
0.0
 10
5.4082903957
 20
-22.2603820608
 30
0.0
 10
5.386719291
 20
-22.270706466
 30
0.0
 11
5.5171348319
 21
-22.2639789228
 31
0.0
 11
5.4559512268
 21
-22.2518891289
 31
0.0
 11
5.386719291
 21
-22.270706466
 31
0.0
  0
SPLINE
  5
454
100
AcDbEntity
  8
RACCORDO
100
AcDbSpline
 62
7
  6
CONTINUOUS
 70
0
 71
3
 72
11
 73
7
 74
5
 42
0.0000001
 43
0.0000001
 44
0.0000000001
 12
-0.0000124808
 22
-0.1402926118
 32
0.0
 13
-0.1245837348
 23
-0.064505117
 33
0.0
 40
0.0
 40
0.0
 40
0.0
 40
0.0
 40
0.2077729763
 40
0.4361383275
 40
0.6987155742
 40
1.0
 40
1.0
 40
1.0
 40
1.0
 10
5.6830170308
 20
-22.5323259802
 30
0.0
 10
5.6830161664
 20
-22.5420423181
 30
0.0
 10
5.6788363644
 20
-22.5625900512
 30
0.0
 10
5.6613267701
 20
-22.5907691385
 30
0.0
 10
5.6339417274
 20
-22.6161883353
 30
0.0
 10
5.6113307296
 20
-22.6300462509
 30
0.0
 10
5.5988190166
 20
-22.63652438
 30
0.0
 11
5.6830170308
 21
-22.5323259802
 31
0.0
 11
5.677501875
 21
-22.5609484898
 31
0.0
 11
5.6611741708
 21
-22.5885136436
 31
0.0
 11
5.63460316
 21
-22.6140282215
 31
0.0
 11
5.5988190166
 21
-22.63652438
 31
0.0
  0
SPLINE
  5
455
100
AcDbEntity
  8
RACCORDO
100
AcDbSpline
 62
7
  6
CONTINUOUS
 70
0
 71
3
 72
11
 73
7
 74
5
 42
0.0000001
 43
0.0000001
 44
0.0000000001
 12
-0.0000085169
 22
-0.116911279
 32
0.0
 13
-0.1038204618
 23
-0.0537546177
 33
0.0
 40
0.0
 40
0.0
 40
0.0
 40
0.0
 40
0.2077778344
 40
0.4361450685
 40
0.6987172548
 40
1.0
 40
1.0
 40
1.0
 40
1.0
 10
-28.9944866812
 20
14.8316685711
 30
0.0
 10
-28.9944872711
 20
14.8235713803
 30
0.0
 10
-28.9979706579
 20
14.8064478873
 30
0.0
 10
-29.0125619265
 20
14.7829650362
 30
0.0
 10
-29.0353827929
 20
14.7617822998
 30
0.0
 10
-29.0542252587
 20
14.7502342183
 30
0.0
 10
-29.0646516966
 20
14.744835772
 30
0.0
 11
-28.9944866812
 21
14.8316685711
 31
0.0
 11
-28.9990827375
 21
14.8078157566
 31
0.0
 11
-29.0126892944
 21
14.7848444162
 31
0.0
 11
-29.0348315006
 21
14.7635825151
 31
0.0
 11
-29.0646516966
 21
14.744835772
 31
0.0
  0
SPLINE
  5
456
100
AcDbEntity
  8
RACCORDO
100
AcDbSpline
 62
7
  6
CONTINUOUS
 70
0
 71
3
 72
11
 73
7
 74
5
 42
0.0000001
 43
0.0000001
 44
0.0000000001
 12
-0.0000085169
 22
-0.116911279
 32
0.0
 13
-0.1038204618
 23
-0.0537546177
 33
0.0
 40
0.0
 40
0.0
 40
0.0
 40
0.0
 40
0.2077778344
 40
0.4361450684
 40
0.6987172547
 40
1.0
 40
1.0
 40
1.0
 40
1.0
 10
-28.9944866812
 20
20.317160704
 30
0.0
 10
-28.9944872711
 20
20.3090635132
 30
0.0
 10
-28.9979706579
 20
20.2919400202
 30
0.0
 10
-29.0125619265
 20
20.2684571691
 30
0.0
 10
-29.0353827929
 20
20.2472744327
 30
0.0
 10
-29.0542252587
 20
20.2357263512
 30
0.0
 10
-29.0646516966
 20
20.230327905
 30
0.0
 11
-28.9944866812
 21
20.317160704
 31
0.0
 11
-28.9990827375
 21
20.2933078895
 31
0.0
 11
-29.0126892944
 21
20.2703365491
 31
0.0
 11
-29.0348315006
 21
20.2490746481
 31
0.0
 11
-29.0646516966
 21
20.230327905
 31
0.0
  0
SPLINE
  5
457
100
AcDbEntity
  8
RACCORDO
100
AcDbSpline
 62
7
  6
CONTINUOUS
 70
0
 71
3
 72
9
 73
5
 74
3
 42
0.0000001
 43
0.0000001
 44
0.0000000001
 12
-0.0999894024
 22
0.0499208791
 32
0.0
 13
-0.1008070436
 23
-0.0482484687
 33
0.0
 40
0.0
 40
0.0
 40
0.0
 40
0.0
 40
0.4650457659
 40
1.0
 40
1.0
 40
1.0
 40
1.0
 10
-29.1327218742
 20
20.5407823914
 30
0.0
 10
-29.1482217569
 20
20.5485208892
 30
0.0
 10
-29.1868564344
 20
20.5552773098
 30
0.0
 10
-29.2234257497
 20
20.5437797408
 30
0.0
 10
-29.241401468
 20
20.5351761666
 30
0.0
 11
-29.1327218742
 21
20.5407823914
 31
0.0
 11
-29.1837088724
 21
20.5508572329
 31
0.0
 11
-29.241401468
 21
20.5351761666
 31
0.0
  0
SPLINE
  5
458
100
AcDbEntity
  8
RACCORDO
100
AcDbSpline
 62
7
  6
CONTINUOUS
 70
0
 71
3
 72
9
 73
5
 74
3
 42
0.0000001
 43
0.0000001
 44
0.0000000001
 12
-0.1000017657
 22
0.0499760996
 32
0.0
 13
-0.1008392778
 23
-0.0482638967
 33
0.0
 40
0.0
 40
0.0
 40
0.0
 40
0.0
 40
0.4650416511
 40
1.0
 40
1.0
 40
1.0
 40
1.0
 10
-29.5103550994
 20
20.7295990203
 30
0.0
 10
-29.5258567615
 20
20.7373460096
 30
0.0
 10
-29.5645036103
 20
20.7441158456
 30
0.0
 10
-29.6010861038
 20
20.7326156783
 30
0.0
 10
-29.6190677083
 20
20.7240092868
 30
0.0
 11
-29.5103550994
 21
20.7295990203
 31
0.0
 11
-29.561355105
 21
20.7396913818
 31
0.0
 11
-29.6190677083
 21
20.7240092868
 31
0.0
  0
SPLINE
  5
459
100
AcDbEntity
  8
RACCORDO
100
AcDbSpline
 62
7
  6
CONTINUOUS
 70
0
 71
3
 72
9
 73
5
 74
3
 42
0.0000001
 43
0.0000001
 44
0.0000000001
 12
0.0969325573
 22
0.0343663119
 32
0.0
 13
0.0913430154
 23
-0.0472590478
 33
0.0
 40
0.0
 40
0.0
 40
0.0
 40
0.0
 40
0.4660991936
 40
1.0
 40
1.0
 40
1.0
 40
1.0
 10
-29.7190084762
 20
20.7361954327
 30
0.0
 10
-29.703948414
 20
20.7415348028
 30
0.0
 10
-29.6683179835
 20
20.744284266
 30
0.0
 10
-29.6353237449
 20
20.7324198347
 30
0.0
 10
-29.6190677083
 20
20.7240092868
 30
0.0
 11
-29.7190084762
 21
20.7361954327
 31
0.0
 11
-29.6713064928
 21
20.7409230019
 31
0.0
 11
-29.6190677083
 21
20.7240092868
 31
0.0
  0
SPLINE
  5
45A
100
AcDbEntity
  8
RACCORDO
100
AcDbSpline
 62
7
  6
CONTINUOUS
 70
0
 71
3
 72
10
 73
6
 74
4
 42
0.0000001
 43
0.0000001
 44
0.0000000001
 12
-0.1719057115
 22
0.0858473227
 32
0.0
 13
-0.1728448914
 23
-0.0839403357
 33
0.0
 40
0.0
 40
0.0
 40
0.0
 40
0.0
 40
0.4083746967
 40
0.6803982949
 40
1.0
 40
1.0
 40
1.0
 40
1.0
 10
-31.8287838498
 20
-3.6790371838
 30
0.0
 10
-31.8521844974
 20
-3.6673512257
 30
0.0
 10
-31.8992060513
 20
-3.6662483764
 30
0.0
 10
-31.960749062
 20
-3.6824208814
 30
0.0
 10
-31.9959220127
 20
-3.6972190736
 30
0.0
 10
-32.0143358534
 20
-3.7061615651
 30
0.0
 11
-31.8287838498
 21
-3.6790371838
 31
0.0
 11
-31.9067746825
 21
-3.6703886388
 31
0.0
 11
-31.9575593559
 21
-3.6827571109
 31
0.0
 11
-32.0143358534
 21
-3.7061615651
 31
0.0
  0
ELLIPSE
  5
45B
100
AcDbEntity
  8
RACCORDO
100
AcDbEllipse
 62
7
  6
CONTINUOUS
 10
31.8324703865
 20
-40.007212553
 30
0.0
 11
-0.313181275
 21
0.626269159
 31
0.0
 40
0.6121897086
 41
-3.1605525579
 42
-2.2557347926
  0
ELLIPSE
  5
45C
100
AcDbEntity
  8
RACCORDO
100
AcDbEllipse
 62
7
  6
CONTINUOUS
 10
31.8324703865
 20
4.3210102091
 30
0.0
 11
-0.3130130858
 21
0.6261196575
 31
0.0
 40
0.6125552124
 41
-2.255296188
 42
-0.6848044477
  0
ELLIPSE
  5
45D
100
AcDbEntity
  8
RACCORDO
100
AcDbEllipse
 62
7
  6
CONTINUOUS
 10
-35.6862023439
 20
38.0803465743
 30
0.0
 11
-0.313181275
 21
0.626269159
 31
0.0
 40
0.6121897086
 41
-0.6846338794
 42
0.0188552051
  0
ELLIPSE
  5
45E
100
AcDbEntity
  8
RACCORDO
100
AcDbEllipse
 62
7
  6
CONTINUOUS
 10
-33.7057293118
 20
-4.450236491
 30
0.0
 11
-0.1341484654
 21
0.2683369961
 31
0.0
 40
0.6125552124
 41
0.8862964655
 42
2.4567882058
  0
ELLIPSE
  5
45F
100
AcDbEntity
  8
RACCORDO
100
AcDbEllipse
 62
7
  6
CONTINUOUS
 10
-32.9236420657
 20
-4.0741251176
 30
0.0
 11
-0.1340229113
 21
0.2684080287
 31
0.0
 40
0.6140178746
 41
0.8880524522
 42
2.4561097232
  0
ELLIPSE
  5
460
100
AcDbEntity
  8
RACCORDO
100
AcDbEllipse
 62
7
  6
CONTINUOUS
 10
-16.5088405449
 20
-12.1430123208
 30
0.0
 11
-0.1342205464
 21
0.2684010681
 31
0.0
 40
0.6121897086
 41
-0.6846338794
 42
0.0192594208
  0
ELLIPSE
  5
461
100
AcDbEntity
  8
RACCORDO
100
AcDbEllipse
 62
7
  6
CONTINUOUS
 10
-2.7202583118
 20
-19.0373034374
 30
0.0
 11
-0.1342205464
 21
0.2684010681
 31
0.0
 40
0.6121897086
 41
-0.6846338794
 42
0.0192594208
  0
ELLIPSE
  5
462
100
AcDbEntity
  8
RACCORDO
100
AcDbEllipse
 62
7
  6
CONTINUOUS
 10
11.0683239213
 20
-25.931594554
 30
0.0
 11
-0.1342205464
 21
0.2684010681
 31
0.0
 40
0.6121897086
 41
-0.6846338794
 42
0.0192594208
  0
ELLIPSE
  5
463
100
AcDbEntity
  8
RACCORDO
100
AcDbEllipse
 62
7
  6
CONTINUOUS
 10
2.793940322
 20
-21.7221804232
 30
0.0
 11
-0.1342205464
 21
0.2684010681
 31
0.0
 40
0.6121897086
 41
-0.6846338794
 42
0.019259411
  0
ELLIPSE
  5
464
100
AcDbEntity
  8
RACCORDO
100
AcDbEllipse
 62
7
  6
CONTINUOUS
 10
25.7917198438
 20
-33.2210701841
 30
0.0
 11
-0.1341371037
 21
0.2683722998
 31
0.0
 40
0.6123537661
 41
-0.6845550499
 42
0.0106825902
  0
ELLIPSE
  5
465
100
AcDbEntity
  8
RACCORDO
100
AcDbEllipse
 62
7
  6
CONTINUOUS
 10
-6.0280853096
 20
-17.3111676074
 30
0.0
 11
-0.1341371037
 21
0.2683722998
 31
0.0
 40
0.6123537661
 41
-0.6845550499
 42
0.0106825902
  0
ELLIPSE
  5
466
100
AcDbEntity
  8
RACCORDO
100
AcDbEllipse
 62
7
  6
CONTINUOUS
 10
-21.9379878863
 20
-9.3562163191
 30
0.0
 11
-0.1341371037
 21
0.2683722998
 31
0.0
 40
0.6123537661
 41
-0.6845550499
 42
0.0106825902
  0
ELLIPSE
  5
467
100
AcDbEntity
  8
RACCORDO
100
AcDbEllipse
 62
7
  6
CONTINUOUS
 10
16.5825225551
 20
-28.6164715398
 30
0.0
 11
-0.1342205464
 21
0.2684010681
 31
0.0
 40
0.6121897086
 41
-0.6846338794
 42
0.019259411
  0
ELLIPSE
  5
468
100
AcDbEntity
  8
ASSI
100
AcDbEllipse
 62
7
  6
CONTINUOUS
 10
25.0772014834
 20
-31.1945664567
 30
0.0
 11
0.0974129977
 21
0.1748074534
 31
0.0
 40
0.6437101552
 41
0.6611775963
 42
0.7135374739
  0
ELLIPSE
  5
469
100
AcDbEntity
  8
ASSI
100
AcDbEllipse
 62
7
  6
CONTINUOUS
 10
-22.6525062467
 20
-7.3297125917
 30
0.0
 11
0.0974129977
 21
0.1748074534
 31
0.0
 40
0.6437101552
 41
0.6611775963
 42
0.7135374739
  0
ELLIPSE
  5
46A
100
AcDbEntity
  8
ASSI
100
AcDbEllipse
 62
7
  6
CONTINUOUS
 10
9.1672989067
 20
-23.3262177087
 30
0.0
 11
0.0974129977
 21
0.1748074534
 31
0.0
 40
0.6437101552
 41
0.6611775963
 42
0.7135374739
  0
ELLIPSE
  5
46B
100
AcDbEntity
  8
ASSI
100
AcDbEllipse
 62
7
  6
CONTINUOUS
 10
-6.74260367
 20
-15.3712664204
 30
0.0
 11
0.0974129977
 21
0.1748074534
 31
0.0
 40
0.6437101552
 41
0.6611775963
 42
0.7135374739
  0
ELLIPSE
  5
46C
100
AcDbEntity
  8
RACCORDO
100
AcDbEllipse
 62
7
  6
CONTINUOUS
 10
21.1248150879
 20
-30.8876178062
 30
0.0
 11
-0.1341371037
 21
0.2683722998
 31
0.0
 40
0.6123537661
 41
-2.2553513767
 42
-0.6845550499
  0
ELLIPSE
  5
46D
100
AcDbEntity
  8
RACCORDO
100
AcDbEllipse
 62
7
  6
CONTINUOUS
 10
-17.3956953535
 20
-11.6273625855
 30
0.0
 11
-0.1341484654
 21
0.2683369961
 31
0.0
 40
0.6125552124
 41
-2.255296188
 42
-0.6848044477
  0
ELLIPSE
  5
46E
100
AcDbEntity
  8
RACCORDO
100
AcDbEllipse
 62
7
  6
CONTINUOUS
 10
5.2149125113
 20
-22.9326665178
 30
0.0
 11
-0.1341371037
 21
0.2683722998
 31
0.0
 40
0.6123537661
 41
-2.2553513767
 42
-0.6845550499
  0
ELLIPSE
  5
46F
100
AcDbEntity
  8
RACCORDO
100
AcDbEllipse
 62
7
  6
CONTINUOUS
 10
-26.6048926421
 20
-7.0227639411
 30
0.0
 11
-0.1341371037
 21
0.2683722998
 31
0.0
 40
0.6123537661
 41
-2.2553513767
 42
-0.6845550499
  0
ELLIPSE
  5
470
100
AcDbEntity
  8
RACCORDO
100
AcDbEllipse
 62
7
  6
CONTINUOUS
 10
-32.5799772568
 20
21.2300453622
 30
0.0
 11
-0.1341484654
 21
0.2683369961
 31
0.0
 40
0.6125552124
 41
-2.255296188
 42
-0.6848044477
  0
ELLIPSE
  5
471
100
AcDbEntity
  8
RACCORDO
100
AcDbEllipse
 62
7
  6
CONTINUOUS
 10
-32.5799772568
 20
10.5367590962
 30
0.0
 11
-0.1342205464
 21
0.2684010681
 31
0.0
 40
0.6121897086
 41
-3.160544254
 42
-2.2557347926
  0
ELLIPSE
  5
472
100
AcDbEntity
  8
RACCORDO
100
AcDbEllipse
 62
7
  6
CONTINUOUS
 10
-32.5799772568
 20
29.5893179795
 30
0.0
 11
-0.1342205464
 21
0.2684010681
 31
0.0
 40
0.6121897086
 41
-3.160544254
 42
-2.2557347926
  0
ELLIPSE
  5
473
100
AcDbEntity
  8
RACCORDO
100
AcDbEllipse
 62
7
  6
CONTINUOUS
 10
-32.5799772568
 20
2.177486479
 30
0.0
 11
-0.1341484654
 21
0.2683369961
 31
0.0
 40
0.6125552124
 41
-2.255296188
 42
-0.6848044477
  0
ELLIPSE
  5
474
100
AcDbEntity
  8
RACCORDO
100
AcDbEllipse
 62
7
  6
CONTINUOUS
 10
-3.6071131203
 20
-18.521653702
 30
0.0
 11
-0.1341484654
 21
0.2683369961
 31
0.0
 40
0.6125552124
 41
-2.255296188
 42
-0.6848044477
  0
ELLIPSE
  5
475
100
AcDbEntity
  8
RACCORDO
100
AcDbEllipse
 62
7
  6
CONTINUOUS
 10
-32.6519221944
 20
28.1219987302
 30
0.0
 11
-0.1341484654
 21
0.2683369961
 31
0.0
 40
0.6125552124
 41
-2.255296188
 42
-0.6848044477
  0
ELLIPSE
  5
476
100
AcDbEntity
  8
RACCORDO
100
AcDbEllipse
 62
7
  6
CONTINUOUS
 10
-32.6519221944
 20
22.6278881929
 30
0.0
 11
-0.1342205464
 21
0.2684010681
 31
0.0
 40
0.6121897086
 41
-3.160544254
 42
-2.2557347926
  0
ELLIPSE
  5
477
100
AcDbEntity
  8
RACCORDO
100
AcDbEllipse
 62
7
  6
CONTINUOUS
 10
-32.6519221944
 20
3.5753293096
 30
0.0
 11
-0.1342205464
 21
0.2684010681
 31
0.0
 40
0.6121897086
 41
-3.160544254
 42
-2.2557347926
  0
ELLIPSE
  5
478
100
AcDbEntity
  8
RACCORDO
100
AcDbEllipse
 62
7
  6
CONTINUOUS
 10
-32.6519221944
 20
9.069439847
 30
0.0
 11
-0.1341484654
 21
0.2683369961
 31
0.0
 40
0.6125552124
 41
-2.255296188
 42
-0.6848044477
  0
ELLIPSE
  5
479
100
AcDbEntity
  8
RACCORDO
100
AcDbEllipse
 62
7
  6
CONTINUOUS
 10
-12.0229180759
 20
-14.3859735553
 30
0.0
 11
-0.1341484654
 21
0.2683369961
 31
0.0
 40
0.6125552124
 41
-2.255296188
 42
-0.6848044477
  0
ELLIPSE
  5
47A
100
AcDbEntity
  8
RACCORDO
100
AcDbEllipse
 62
7
  6
CONTINUOUS
 10
1.7656641572
 20
-21.2802646719
 30
0.0
 11
-0.1341484654
 21
0.2683369961
 31
0.0
 40
0.6125552124
 41
-2.255296188
 42
-0.6848044477
  0
ELLIPSE
  5
47B
100
AcDbEntity
  8
RACCORDO
100
AcDbEllipse
 62
7
  6
CONTINUOUS
 10
15.5542463903
 20
-28.1745557885
 30
0.0
 11
-0.1341484654
 21
0.2683369961
 31
0.0
 40
0.6125552124
 41
-2.255296188
 42
-0.6848044477
  0
ELLIPSE
  5
47C
100
AcDbEntity
  8
RACCORDO
100
AcDbEllipse
 62
7
  6
CONTINUOUS
 10
-33.1555367576
 20
29.3235055286
 30
0.0
 11
-0.1342205464
 21
0.2684010681
 31
0.0
 40
0.6121897086
 41
2.5485848158
 42
4.0274505145
  0
ELLIPSE
  5
47D
100
AcDbEntity
  8
RACCORDO
100
AcDbEllipse
 62
7
  6
CONTINUOUS
 10
-33.1555367576
 20
10.2709466454
 30
0.0
 11
-0.1342205464
 21
0.2684010681
 31
0.0
 40
0.6121897086
 41
2.5485848158
 42
4.0274505145
  0
ELLIPSE
  5
47E
100
AcDbEntity
  8
RACCORDO
100
AcDbEllipse
 62
7
  6
CONTINUOUS
 10
14.6189622016
 20
-28.6458039982
 30
0.0
 11
-0.1341484654
 21
0.2683369961
 31
0.0
 40
0.6125552124
 41
4.4046576674
 42
5.5983808594
  0
ELLIPSE
  5
47F
100
AcDbEntity
  8
RACCORDO
100
AcDbEllipse
 62
7
  6
CONTINUOUS
 10
10.165130479
 20
-26.4188881369
 30
0.0
 11
-0.1342205464
 21
0.2684010681
 31
0.0
 40
0.6121897086
 41
-0.6846338794
 42
0.8444045336
  0
ELLIPSE
  5
480
100
AcDbEntity
  8
RACCORDO
100
AcDbEllipse
 62
7
  6
CONTINUOUS
 10
0.8303799684
 20
-21.7515128816
 30
0.0
 11
-0.1341484654
 21
0.2683369961
 31
0.0
 40
0.6125552124
 41
4.4046576674
 42
5.5983808594
  0
ELLIPSE
  5
481
100
AcDbEntity
  8
RACCORDO
100
AcDbEllipse
 62
7
  6
CONTINUOUS
 10
-3.6234517541
 20
-19.5245970203
 30
0.0
 11
-0.1342205464
 21
0.2684010681
 31
0.0
 40
0.6121897086
 41
-0.6846338794
 42
0.8444045336
  0
ELLIPSE
  5
482
100
AcDbEntity
  8
ASSI
100
AcDbEllipse
 62
7
  6
CONTINUOUS
 10
-18.3950424012
 20
-9.4584445144
 30
0.0
 11
0.0823576675
 21
0.1823694112
 31
0.0
 40
0.5796795686
 41
0.6094740628
 42
0.6618339404
  0
ELLIPSE
  5
483
100
AcDbEntity
  8
RACCORDO
100
AcDbEllipse
 62
7
  6
CONTINUOUS
 10
-12.9582022647
 20
-14.857221765
 30
0.0
 11
-0.1341484654
 21
0.2683369961
 31
0.0
 40
0.6125552124
 41
4.4046576674
 42
5.5983808594
  0
ELLIPSE
  5
484
100
AcDbEntity
  8
RACCORDO
100
AcDbEllipse
 62
7
  6
CONTINUOUS
 10
-17.4120339873
 20
-12.6303059038
 30
0.0
 11
-0.1342205464
 21
0.2684010681
 31
0.0
 40
0.6121897086
 41
-0.6846338794
 42
0.8444045336
  0
ELLIPSE
  5
485
100
AcDbEntity
  8
ASSI
100
AcDbEllipse
 62
7
  6
CONTINUOUS
 10
13.4247627522
 20
-25.4549496315
 30
0.0
 11
0.0823576675
 21
0.1823694112
 31
0.0
 40
0.5796795686
 41
0.6094740628
 42
0.6618339404
  0
ELLIPSE
  5
486
100
AcDbEntity
  8
ASSI
100
AcDbEllipse
 62
7
  6
CONTINUOUS
 10
-2.4851398245
 20
-17.4999983432
 30
0.0
 11
0.0823576675
 21
0.1823694112
 31
0.0
 40
0.5796795686
 41
0.6094740628
 42
0.6618339404
  0
ELLIPSE
  5
487
100
AcDbEntity
  8
RACCORDO
100
AcDbEllipse
 62
7
  6
CONTINUOUS
 10
-33.5872063832
 20
22.1959429602
 30
0.0
 11
-0.1342205464
 21
0.2684010681
 31
0.0
 40
0.6121897086
 41
2.4569587742
 42
4.0274505145
  0
ELLIPSE
  5
488
100
AcDbEntity
  8
RACCORDO
100
AcDbEllipse
 62
7
  6
CONTINUOUS
 10
-33.5872063832
 20
3.143384077
 30
0.0
 11
-0.1342205464
 21
0.2684010681
 31
0.0
 40
0.6121897086
 41
2.4569587742
 42
4.0274505145
  0
ELLIPSE
  5
489
100
AcDbEntity
  8
RACCORDO
100
AcDbEllipse
 62
7
  6
CONTINUOUS
 10
-33.1555367576
 20
20.9400464639
 30
0.0
 11
-0.1341484654
 21
0.2683369961
 31
0.0
 40
0.6125552124
 41
-2.255296188
 42
-0.776430489
  0
ELLIPSE
  5
48A
100
AcDbEntity
  8
RACCORDO
100
AcDbEllipse
 62
7
  6
CONTINUOUS
 10
-22.5036733113
 20
-9.6511522553
 30
0.0
 11
-0.1341371037
 21
0.2683722998
 31
0.0
 40
0.6123537661
 41
-0.6845550499
 42
0.4620963561
  0
ELLIPSE
  5
48B
100
AcDbEntity
  8
RACCORDO
100
AcDbEllipse
 62
7
  6
CONTINUOUS
 10
-17.9712548543
 20
-11.9173614838
 30
0.0
 11
-0.1341484654
 21
0.2683369961
 31
0.0
 40
0.6125552124
 41
-1.8314532843
 42
-0.6848044477
  0
ELLIPSE
  5
48C
100
AcDbEntity
  8
RACCORDO
100
AcDbEllipse
 62
7
  6
CONTINUOUS
 10
-33.1555367576
 20
1.8874875807
 30
0.0
 11
-0.1341484654
 21
0.2683369961
 31
0.0
 40
0.6125552124
 41
-2.255296188
 42
-0.776430489
  0
ELLIPSE
  5
48D
100
AcDbEntity
  8
RACCORDO
100
AcDbEllipse
 62
7
  6
CONTINUOUS
 10
-27.1705780671
 20
-7.3176998773
 30
0.0
 11
-0.1341371037
 21
0.2683722998
 31
0.0
 40
0.6123537661
 41
-1.831206456
 42
-0.6845550499
  0
ELLIPSE
  5
48E
100
AcDbEntity
  8
RACCORDO
100
AcDbEllipse
 62
7
  6
CONTINUOUS
 10
25.2260344188
 20
-33.5160061203
 30
0.0
 11
-0.1341371037
 21
0.2683722998
 31
0.0
 40
0.6123537661
 41
-0.6845550499
 42
0.4620963561
  0
ELLIPSE
  5
48F
100
AcDbEntity
  8
RACCORDO
100
AcDbEllipse
 62
7
  6
CONTINUOUS
 10
16.026711206
 20
-28.9163445139
 30
0.0
 11
-0.1342205464
 21
0.2684010681
 31
0.0
 40
0.6121897086
 41
-0.6846338794
 42
0.4620149536
  0
ELLIPSE
  5
490
100
AcDbEntity
  8
RACCORDO
100
AcDbEllipse
 62
7
  6
CONTINUOUS
 10
20.559129663
 20
-31.1825537424
 30
0.0
 11
-0.1341371037
 21
0.2683722998
 31
0.0
 40
0.6123537661
 41
-1.831206456
 42
-0.6845550499
  0
ELLIPSE
  5
491
100
AcDbEntity
  8
RACCORDO
100
AcDbEllipse
 62
7
  6
CONTINUOUS
 10
2.2381289729
 20
-22.0220533973
 30
0.0
 11
-0.1342205464
 21
0.2684010681
 31
0.0
 40
0.6121897086
 41
-0.6846338794
 42
0.4620149536
  0
ELLIPSE
  5
492
100
AcDbEntity
  8
RACCORDO
100
AcDbEllipse
 62
7
  6
CONTINUOUS
 10
4.6492270863
 20
-23.227602454
 30
0.0
 11
-0.1341371037
 21
0.2683722998
 31
0.0
 40
0.6123537661
 41
-1.831206456
 42
-0.6845550499
  0
ELLIPSE
  5
493
100
AcDbEntity
  8
RACCORDO
100
AcDbEllipse
 62
7
  6
CONTINUOUS
 10
-6.5937707346
 20
-17.6061035436
 30
0.0
 11
-0.1341371037
 21
0.2683722998
 31
0.0
 40
0.6123537661
 41
-0.6845550499
 42
0.4620963561
  0
ELLIPSE
  5
494
100
AcDbEntity
  8
RACCORDO
100
AcDbEllipse
 62
7
  6
CONTINUOUS
 10
-4.1826726211
 20
-18.8116526003
 30
0.0
 11
-0.1341484654
 21
0.2683369961
 31
0.0
 40
0.6125552124
 41
-1.8314532843
 42
-0.6848044477
  0
ELLIPSE
  5
495
100
AcDbEntity
  8
RACCORDO
100
AcDbEllipse
 62
7
  6
CONTINUOUS
 10
-33.5872063832
 20
8.5981916372
 30
0.0
 11
-0.1341484654
 21
0.2683369961
 31
0.0
 40
0.6125552124
 41
-2.255296188
 42
-0.6848044477
  0
ELLIPSE
  5
496
100
AcDbEntity
  8
RACCORDO
100
AcDbEllipse
 62
7
  6
CONTINUOUS
 10
-33.5872063832
 20
27.6507505205
 30
0.0
 11
-0.1341484654
 21
0.2683369961
 31
0.0
 40
0.6125552124
 41
-2.255296188
 42
-0.6848044477
  0
ELLIPSE
  5
497
100
AcDbEntity
  8
ASSI
100
AcDbEllipse
 62
7
  6
CONTINUOUS
 10
-2.6267552597
 20
-17.8547888025
 30
0.0
 11
0.1997674032
 21
0.1243735635
 31
0.0
 40
0.0775313764
 41
5.4495541764
 42
6.9679906257
  0
ELLIPSE
  5
498
100
AcDbEntity
  8
ASSI
100
AcDbEllipse
 62
7
  6
CONTINUOUS
 10
13.283147317
 20
-25.8097400909
 30
0.0
 11
0.1997674032
 21
0.1243735635
 31
0.0
 40
0.0775313764
 41
5.4495541764
 42
6.9679906257
  0
ELLIPSE
  5
499
100
AcDbEntity
  8
ASSI
100
AcDbEllipse
 62
7
  6
CONTINUOUS
 10
-18.5366578364
 20
-9.8998375142
 30
0.0
 11
0.1997674032
 21
0.1243735635
 31
0.0
 40
0.0775313764
 41
5.4495541764
 42
6.9679906257
  0
ENDSEC
  0
SECTION
  2
OBJECTS
  0
DICTIONARY
  5
C
100
AcDbDictionary
280
0
281
1
  3
ACAD_GROUP
350
D
  3
ACAD_MLINESTYLE
350
17
  3
ACAD_LAYOUT
350
1A
  3
ACAD_PLOTSETTINGS
350
19
  3
ACAD_PLOTSTYLENAME
350
E
  0
DICTIONARY
  5
D
102
{ACAD_REACTORS
330
C
102
}
100
AcDbDictionary
280
0
281
1
  0
ACDBDICTIONARYWDFLT
  5
E
102
{ACAD_REACTORS
330
C
102
}
100
AcDbDictionary
281
1
  3
Normal
350
F
100
AcDbDictionaryWithDefault
340
F
  0
DICTIONARY
  5
17
102
{ACAD_REACTORS
330
C
102
}
100
AcDbDictionary
280
0
281
1
  3
Standard
350
18
  0
DICTIONARY
  5
19
102
{ACAD_REACTORS
330
C
102
}
100
AcDbDictionary
281
1
  0
DICTIONARY
  5
1A
102
{ACAD_REACTORS
330
C
102
}
100
AcDbDictionary
281
1
  3
Model
350
49A
  3
Layout1
350
49B
  0
ACDBPLACEHOLDER
  5
F
102
{ACAD_REACTORS
330
E
102
}
  0
MLINESTYLE
  5
18
102
{ACAD_REACTORS
330
17
102
}
100
AcDbMlineStyle
  2
STANDARD
 70
0
  3

 62
256
 51
90.0
 52
90.0
 71
2
 49
0.5
 62
256
  6
BYLAYER
 49
-0.5
 62
256
  6
BYLAYER
  0
LAYOUT
  5
49A
102
{ACAD_REACTORS
330
1A
102
}
100
AcDbPlotSettings
  1

  2
none_device
  4
ISO_A4_(297.00_x_210.00_MM)
  6

 40
0.0
 41
0.0
 42
0.0
 43
0.0
 44
297.0
 45
210.0
 46
0.0
 47
0.0
 48
0.0
 49
0.0
140
0.0
141
0.0
142
1.0
143
1.0
 70
1024
 72
1
 73
0
 74
0
  7

 75
0
147
1.0
148
0.0
149
0.0
100
AcDbLayout
  1
Model
 70
0
 71
0
 10
0.0
 20
0.0
 11
297.0
 21
210.0
 12
0.0
 22
0.0
 32
0.0
 14
0.0
 24
0.0
 34
0.0
 15
0.0
 25
0.0
 35
0.0
146
0.0
 13
0.0
 23
0.0
 33
0.0
 16
1.0
 26
0.0
 36
0.0
 17
0.0
 27
1.0
 37
0.0
 76
0
330
212
345
0
346
0
  0
LAYOUT
  5
49B
102
{ACAD_REACTORS
330
1A
102
}
100
AcDbPlotSettings
  1

  2
none_device
  4
ISO_A4_(297.00_x_210.00_MM)
  6

 40
0.0
 41
0.0
 42
0.0
 43
0.0
 44
297.0
 45
210.0
 46
0.0
 47
0.0
 48
0.0
 49
0.0
140
0.0
141
0.0
142
1.0
143
1.0
 70
0
 72
1
 73
0
 74
0
  7

 75
0
147
1.0
148
0.0
149
0.0
100
AcDbLayout
  1
Layout1
 70
0
 71
1
 10
0.0
 20
0.0
 11
297.0
 21
210.0
 12
0.0
 22
0.0
 32
0.0
 14
0.0
 24
0.0
 34
0.0
 15
0.0
 25
0.0
 35
0.0
146
0.0
 13
0.0
 23
0.0
 33
0.0
 16
1.0
 26
0.0
 36
0.0
 17
0.0
 27
1.0
 37
0.0
 76
0
330
213
345
0
346
0
  0
ENDSEC
  0
EOF
