  0
SECTION
  2
HEADER
  9
$ACADVER
  1
AC1015
  9
$DWGCODEPAGE
  3
ANSI_1252
  9
$EXTMAX
 10
297.0
 20
210.0
 30
0.0
  9
$EXTMIN
 10
0.0
 20
0.0
 30
0.0
  9
$LIMMIN
 10
0.0
 20
0.0
  9
$LIMMAX
 10
297.0
 20
210.0
  9
$VIEWCTR
 10
148.5
 20
105.0
  9
$VIEWSIZE
 40
210.0
  9
$CLAYER
  8
0
  9
$LTSCALE
 40
16.335
  9
$CELTYPE
  6
BYLAYER
  9
$DIMSCALE
 40
1.0
  9
$DIMASZ
 40
3.0
  9
$DIMEXO
 40
1.85625
  9
$DIMDLI
 40
11.286
  9
$DIMEXE
 40
5.346
  9
$DIMCEN
 40
2.673
  9
$DIMLFAC
 40
1.0
  9
$DIMBLK
  1
_FILLED
  9
$DIMTXT
 40
3.0
  9
$DIMTOL
 70
1
  9
$DIMLIM
 70
0
  9
$DIMTFAC
 40
1.0
  9
$DIMTP
 40
0.01
  9
$DIMTM
 40
0.01
  9
$PDMODE
 70
3
  9
$PDSIZE
 40
3.0
  9
$HANDSEED
  5
4B7
  9
$TILEMODE
 70
1
  9
$MEASUREMENT
 70
1
  9
$INSUNITS
 70
4
  0
ENDSEC
  0
SECTION
  2
CLASSES
  0
CLASS
  1
ACDBDICTIONARYWDFLT
  2
AcDbDictionaryWithDefault
  3
AutoCAD 2000
 90
0
280
0
281
0
  0
CLASS
  1
ACDBPLACEHOLDER
  2
AcDbPlaceHolder
  3
AutoCAD 2000
 90
0
280
0
281
0
  0
CLASS
  1
LAYOUT
  2
AcDbLayout
  3
AutoCAD 2000
 90
0
280
0
281
0
  0
ENDSEC
  0
SECTION
  2
TABLES
  0
TABLE
  2
VPORT
  5
8
100
AcDbSymbolTable
 70
2
  0
VPORT
  5
1F4
100
AcDbSymbolTableRecord
100
AcDbViewportTableRecord
  2
*ACTIVE
 70
0
 10
0.0
 20
0.0
 11
1.0
 21
1.0
 12
148.5
 22
105.0
 13
0.0
 23
0.0
 14
1.0
 24
1.0
 15
0.0
 25
0.0
 16
0.0
 26
0.0
 36
1.0
 17
0.0
 27
0.0
 37
0.0
 40
210.0
 41
1.4142857143
 42
50.0
 43
0.0
 44
0.0
 50
0.0
 51
0.0
 71
0
 72
100
 73
1
 74
1
 75
0
 76
0
 77
0
 78
0
  0
ENDTAB
  0
TABLE
  2
LTYPE
  5
5
100
AcDbSymbolTable
 70
6
  0
LTYPE
  5
14
100
AcDbSymbolTableRecord
100
AcDbLinetypeTableRecord
  2
BYBLOCK
 70
0
  3

 72
65
 73
0
 40
0.0
  0
LTYPE
  5
15
100
AcDbSymbolTableRecord
100
AcDbLinetypeTableRecord
  2
BYLAYER
 70
0
  3

 72
65
 73
0
 40
0.0
  0
LTYPE
  5
16
100
AcDbSymbolTableRecord
100
AcDbLinetypeTableRecord
  2
CONTINUOUS
 70
64
  3
Solid line
 72
65
 73
0
 40
0.0
  0
LTYPE
  5
1F5
100
AcDbSymbolTableRecord
100
AcDbLinetypeTableRecord
  2
CENTER
 70
64
  3
____ _ ____ _ ____ _ ____ _ ____ _ ____ _ ____
 72
65
 73
4
 40
0.6
 49
0.375
 74
0
 49
-0.075
 74
0
 49
0.075
 74
0
 49
-0.075
 74
0
  0
LTYPE
  5
1F6
100
AcDbSymbolTableRecord
100
AcDbLinetypeTableRecord
  2
HIDDEN
 70
64
  3
- - - - - - - - - - - - - - - - - - - -
 72
65
 73
2
 40
0.2
 49
0.1
 74
0
 49
-0.1
 74
0
  0
LTYPE
  5
1F7
100
AcDbSymbolTableRecord
100
AcDbLinetypeTableRecord
  2
PHANTOM
 70
64
  3
_____ _ _ _____ _ _ _____ _ _ _____
 72
65
 73
6
 40
0.8
 49
0.45
 74
0
 49
-0.05
 74
0
 49
0.1
 74
0
 49
-0.05
 74
0
 49
0.1
 74
0
 49
-0.05
 74
0
  0
LTYPE
  5
1F8
100
AcDbSymbolTableRecord
100
AcDbLinetypeTableRecord
  2
DOT
 70
64
  3
. . . . . . . . . . . . . . . . . . . .
 72
65
 73
2
 40
0.2
 49
0.1
 74
0
 49
-0.1
 74
0
  0
LTYPE
  5
1F9
100
AcDbSymbolTableRecord
100
AcDbLinetypeTableRecord
  2
DASHED
 70
64
  3
- - - - - - - - - - - - - - - - - - - -
 72
65
 73
2
 40
0.2
 49
0.1
 74
0
 49
-0.1
 74
0
  0
ENDTAB
  0
TABLE
  2
LAYER
  5
2
100
AcDbSymbolTable
 70
36
  0
LAYER
  5
10
100
AcDbSymbolTableRecord
100
AcDbLayerTableRecord
  2
0
 70
0
 62
7
  6
CONTINUOUS
370
-3
390
F
  0
LAYER
  5
1FA
100
AcDbSymbolTableRecord
100
AcDbLayerTableRecord
  2
DEFAULT_1
 70
0
 62
7
  6
CENTER
370
-3
390
F
  0
LAYER
  5
1FB
100
AcDbSymbolTableRecord
100
AcDbLayerTableRecord
  2
DEFAULT_2
 70
0
 62
7
  6
HIDDEN
370
-3
390
F
  0
LAYER
  5
1FC
100
AcDbSymbolTableRecord
100
AcDbLayerTableRecord
  2
DEFAULT_3
 70
0
 62
7
  6
PHANTOM
370
-3
390
F
  0
LAYER
  5
1FD
100
AcDbSymbolTableRecord
100
AcDbLayerTableRecord
  2
ASSI
 70
0
 62
7
  6
CONTINUOUS
370
-3
390
F
  0
LAYER
  5
1FE
100
AcDbSymbolTableRecord
100
AcDbLayerTableRecord
  2
COORDINATE
 70
0
 62
7
  6
CONTINUOUS
370
-3
390
F
  0
LAYER
  5
1FF
100
AcDbSymbolTableRecord
100
AcDbLayerTableRecord
  2
COORD_ORIGINE
 70
0
 62
7
  6
CONTINUOUS
370
-3
390
F
  0
LAYER
  5
200
100
AcDbSymbolTableRecord
100
AcDbLayerTableRecord
  2
COPY_PUBLISH
 70
0
 62
7
  6
CONTINUOUS
370
-3
390
F
  0
LAYER
  5
201
100
AcDbSymbolTableRecord
100
AcDbLayerTableRecord
  2
COSMETIC
 70
0
 62
7
  6
CONTINUOUS
370
-3
390
F
  0
LAYER
  5
202
100
AcDbSymbolTableRecord
100
AcDbLayerTableRecord
  2
CURVE
 70
0
 62
7
  6
CONTINUOUS
370
-3
390
F
  0
LAYER
  5
203
100
AcDbSymbolTableRecord
100
AcDbLayerTableRecord
  2
DRAFT
 70
0
 62
7
  6
CONTINUOUS
370
-3
390
F
  0
LAYER
  5
204
100
AcDbSymbolTableRecord
100
AcDbLayerTableRecord
  2
IMPORT_IGES
 70
0
 62
7
  6
CONTINUOUS
370
-3
390
F
  0
LAYER
  5
205
100
AcDbSymbolTableRecord
100
AcDbLayerTableRecord
  2
INTFCLR_2
 70
0
 62
7
  6
CONTINUOUS
370
-3
390
F
  0
LAYER
  5
206
100
AcDbSymbolTableRecord
100
AcDbLayerTableRecord
  2
PIANI
 70
0
 62
7
  6
CONTINUOUS
370
-3
390
F
  0
LAYER
  5
207
100
AcDbSymbolTableRecord
100
AcDbLayerTableRecord
  2
PIANI_ORIGINE
 70
0
 62
7
  6
CONTINUOUS
370
-3
390
F
  0
LAYER
  5
208
100
AcDbSymbolTableRecord
100
AcDbLayerTableRecord
  2
PIANI_RIFERIMENTO
 70
0
 62
7
  6
CONTINUOUS
370
-3
390
F
  0
LAYER
  5
209
100
AcDbSymbolTableRecord
100
AcDbLayerTableRecord
  2
PUNTI
 70
0
 62
7
  6
CONTINUOUS
370
-3
390
F
  0
LAYER
  5
20A
100
AcDbSymbolTableRecord
100
AcDbLayerTableRecord
  2
RACCORDO
 70
0
 62
7
  6
CONTINUOUS
370
-3
390
F
  0
LAYER
  5
20B
100
AcDbSymbolTableRecord
100
AcDbLayerTableRecord
  2
SMUSSO
 70
0
 62
7
  6
CONTINUOUS
370
-3
390
F
  0
LAYER
  5
20C
100
AcDbSymbolTableRecord
100
AcDbLayerTableRecord
  2
SNAPLINE
 70
0
 62
7
  6
CONTINUOUS
370
-3
390
F
  0
LAYER
  5
20D
100
AcDbSymbolTableRecord
100
AcDbLayerTableRecord
  2
SUPERFICI
 70
0
 62
7
  6
CONTINUOUS
370
-3
390
F
  0
LAYER
  5
20E
100
AcDbSymbolTableRecord
100
AcDbLayerTableRecord
  2
TRASH
 70
0
 62
7
  6
CONTINUOUS
370
-3
390
F
  0
LAYER
  5
20F
100
AcDbSymbolTableRecord
100
AcDbLayerTableRecord
  2
XSEC_DATUMS
 70
0
 62
7
  6
CONTINUOUS
370
-3
390
F
  0
ENDTAB
  0
TABLE
  2
STYLE
  5
3
100
AcDbSymbolTable
 70
1
  0
STYLE
  5
11
100
AcDbSymbolTableRecord
100
AcDbTextStyleTableRecord
  2
STANDARD
 70
0
 40
0.0
 41
0.8
 50
0.0
 71
0
 42
0.2
  3
txt
  4

  0
STYLE
  5
210
100
AcDbSymbolTableRecord
100
AcDbTextStyleTableRecord
  2
TEXTSTYLE_1
 70
0
 40
0.0
 41
0.8
 50
0.0
 71
0
 42
0.2
  3
gdt
  4

  0
ENDTAB
  0
TABLE
  2
VIEW
  5
6
100
AcDbSymbolTable
 70
0
  0
ENDTAB
  0
TABLE
  2
UCS
  5
7
100
AcDbSymbolTable
 70
0
  0
ENDTAB
  0
TABLE
  2
APPID
  5
9
100
AcDbSymbolTable
 70
1
  0
APPID
  5
211
100
AcDbSymbolTableRecord
100
AcDbRegAppTableRecord
  2
ACAD
 70
0
  0
ENDTAB
  0
TABLE
  2
BLOCK_RECORD
  5
1
100
AcDbSymbolTable
 70
0
  0
BLOCK_RECORD
  5
212
100
AcDbSymbolTableRecord
100
AcDbBlockTableRecord
  2
*Model_Space
  0
BLOCK_RECORD
  5
213
100
AcDbSymbolTableRecord
100
AcDbBlockTableRecord
  2
*Paper_Space
  0
ENDTAB
  0
TABLE
  2
DIMSTYLE
  5
A
100
AcDbSymbolTable
 70
1
100
AcDbDimStyleTable
 71
0
  0
DIMSTYLE
105
214
100
AcDbSymbolTableRecord
100
AcDbDimStyleTableRecord
  2
STANDARD
 70
0
  3

  4

 40
1.0
 41
3.0
 42
0.0625
 43
0.38
 44
0.18
 45
0.0
 46
0.0
 47
0.01
 48
0.01
140
3.0
141
0.09
142
0.0
143
25.4
144
1.0
145
0.0
146
1.0
147
0.09
 71
1.0
 72
0.0
 73
0
 74
0
 75
0
 76
0
 77
1
 78
8
170
0
171
2
172
0
173
0
174
0
175
0
176
0
177
0
178
0
270
2
271
2
272
2
273
2
274
2
275
0
280
0
281
0
282
0
283
1
284
8
285
0
286
0
287
3
288
0
340
11
  0
ENDTAB
  0
ENDSEC
  0
SECTION
  2
BLOCKS
  0
BLOCK
  5
20
100
AcDbEntity
  8
0
100
AcDbBlockBegin
  2
*Model_Space
 70
0
 10
0.0
 20
0.0
 30
0.0
  3
*Model_Space
  1

  0
ENDBLK
  5
21
100
AcDbEntity
  8
0
100
AcDbBlockEnd
  0
BLOCK
  5
1C
100
AcDbEntity
  8
0
100
AcDbBlockBegin
  2
*Paper_Space
 70
0
 10
0.0
 20
0.0
 30
0.0
  3
*Paper_Space
  1

  0
ENDBLK
  5
1D
100
AcDbEntity
  8
0
100
AcDbBlockEnd
  0
ENDSEC
  0
SECTION
  2
ENTITIES
  0
LINE
  5
215
100
AcDbEntity
  8
DRAFT
100
AcDbLine
 62
7
  6
CONTINUOUS
 10
-48.8287041296
 20
70.443977081
 11
-47.1564606037
 21
71.3267703931
  0
LINE
  5
216
100
AcDbEntity
  8
DRAFT
100
AcDbLine
 62
7
  6
CONTINUOUS
 10
-48.1658145071
 20
70.4080789284
 11
-46.4745931944
 21
71.2898445171
  0
LINE
  5
217
100
AcDbEntity
  8
RACCORDO
100
AcDbLine
 62
7
  6
CONTINUOUS
 10
-51.4826449333
 20
69.4700372315
 11
-49.7148785747
 21
70.3539204108
  0
LINE
  5
218
100
AcDbEntity
  8
SMUSSO
100
AcDbLine
 62
7
  6
CONTINUOUS
 10
-51.0354319321
 20
69.4416351471
 11
-49.2676649792
 21
70.3255186236
  0
LINE
  5
219
100
AcDbEntity
  8
SMUSSO
100
AcDbLine
 62
7
  6
CONTINUOUS
 10
-51.7425387133
 20
68.2220563528
 11
-51.0354319321
 21
69.4416351471
  0
LINE
  5
21A
100
AcDbEntity
  8
DRAFT
100
AcDbLine
 62
7
  6
CONTINUOUS
 10
-48.4505597599
 20
69.916966014
 11
-48.1658145071
 21
70.4080789284
  0
LINE
  5
21B
100
AcDbEntity
  8
SMUSSO
100
AcDbLine
 62
7
  6
CONTINUOUS
 10
46.191750481
 20
-70.811730238
 11
47.6059640434
 21
-70.811730238
  0
LINE
  5
21C
100
AcDbEntity
  8
DRAFT
100
AcDbLine
 62
7
  6
CONTINUOUS
 10
49.3737309964
 20
-69.0626240598
 11
50.0217970219
 21
-69.0626240586
  0
LINE
  5
21D
100
AcDbEntity
  8
SMUSSO
100
AcDbLine
 62
7
  6
CONTINUOUS
 10
-51.7425387133
 20
-21.8445856408
 11
-51.7425387133
 21
68.9291631339
  0
LWPOLYLINE
  5
21E
100
AcDbEntity
  8
RACCORDO
100
AcDbPolyline
 62
7
  6
CONTINUOUS
 90
15
 70
0
 10
-37.1141677867
 20
38.1772033649
 10
-37.1404963956
 20
38.1618228074
 10
-37.1719243476
 20
38.1400996559
 10
-37.201622779
 20
38.1156273312
 10
-37.229373413
 20
38.0885516476
 10
-37.2551162739
 20
38.0588706352
 10
-37.2786620375
 20
38.0266988567
 10
-37.2998210765
 20
37.9921924155
 10
-37.3185291809
 20
37.9553376082
 10
-37.334640279
 20
37.9162294815
 10
-37.347993058
 20
37.8750115703
 10
-37.3584917573
 20
37.8316471001
 10
-37.3660011705
 20
37.7861538455
 10
-37.3703487523
 20
37.7386604935
 10
-37.3714478132
 20
37.6990664531
  0
LINE
  5
21F
100
AcDbEntity
  8
RACCORDO
100
AcDbLine
 62
7
  6
CONTINUOUS
 10
-37.114152492
 20
38.1772160659
 11
-36.8311129067
 21
38.3299224207
  0
LINE
  5
220
100
AcDbEntity
  8
RACCORDO
100
AcDbLine
 62
7
  6
CONTINUOUS
 10
-36.7923564738
 20
38.1619178263
 11
-36.5108132071
 21
38.3138168777
  0
LINE
  5
221
100
AcDbEntity
  8
SMUSSO
100
AcDbLine
 62
7
  6
CONTINUOUS
 10
-51.7425387133
 20
-21.8445856408
 11
-51.0354319321
 21
-22.357057654
  0
LINE
  5
222
100
AcDbEntity
  8
SMUSSO
100
AcDbLine
 62
7
  6
CONTINUOUS
 10
-51.7425387133
 20
-21.8445856408
 11
-51.1768500155
 21
-22.2688521642
  0
LINE
  5
223
100
AcDbEntity
  8
DRAFT
100
AcDbLine
 62
7
  6
CONTINUOUS
 10
-32.6205582912
 20
28.5582955333
 11
-33.1565973992
 21
28.2606296624
  0
LINE
  5
224
100
AcDbEntity
  8
RACCORDO
100
AcDbLine
 62
7
  6
CONTINUOUS
 10
-32.4130423237
 20
29.5753693671
 11
-31.8374828229
 21
29.8411818179
  0
LINE
  5
225
100
AcDbEntity
  8
SMUSSO
100
AcDbLine
 62
7
  6
CONTINUOUS
 10
-51.0354319321
 20
-22.357057654
 11
46.8988572622
 21
-71.3242022512
  0
LINE
  5
226
100
AcDbEntity
  8
SMUSSO
100
AcDbLine
 62
7
  6
CONTINUOUS
 10
-51.7425387133
 20
-21.8445856408
 11
46.191750481
 21
-70.811730238
  0
LWPOLYLINE
  5
227
100
AcDbEntity
  8
RACCORDO
100
AcDbPolyline
 62
7
  6
CONTINUOUS
 90
14
 70
0
 10
-37.370856322
 20
-6.5878155234
 10
-37.3671134229
 20
-6.6387858172
 10
-37.3600417116
 20
-6.6897049398
 10
-37.3497742446
 20
-6.7404356324
 10
-37.3364332848
 20
-6.7907520432
 10
-37.3201178935
 20
-6.8405177732
 10
-37.3009077113
 20
-6.8895744557
 10
-37.278932464
 20
-6.9376049047
 10
-37.2542369543
 20
-6.9845116696
 10
-37.2269015168
 20
-7.0300493968
 10
-37.1971958535
 20
-7.073724209
 10
-37.1651607477
 20
-7.1154238033
 10
-37.130882831
 20
-7.1549286573
 10
-37.0947712215
 20
-7.1917187974
  0
LINE
  5
228
100
AcDbEntity
  8
RACCORDO
100
AcDbLine
 62
7
  6
CONTINUOUS
 10
-37.3714478247
 20
-6.5582370666
 11
-37.370856322
 21
-6.5878155234
  0
LINE
  5
229
100
AcDbEntity
  8
RACCORDO
100
AcDbLine
 62
7
  6
CONTINUOUS
 10
-37.3714538935
 20
37.699043293
 11
-37.3714538935
 21
-6.5583428275
  0
LINE
  5
22A
100
AcDbEntity
  8
RACCORDO
100
AcDbLine
 62
7
  6
CONTINUOUS
 10
-37.2835859278
 20
37.5929772807
 11
-37.2835859278
 21
-6.6644088479
  0
LINE
  5
22B
100
AcDbEntity
  8
RACCORDO
100
AcDbLine
 62
7
  6
CONTINUOUS
 10
-35.5861993518
 20
-5.1542332799
 11
-35.5861993518
 21
34.3854151366
  0
LINE
  5
22C
100
AcDbEntity
  8
RACCORDO
100
AcDbLine
 62
7
  6
CONTINUOUS
 10
-35.2019943865
 20
-5.1710402207
 11
-35.2019943865
 21
34.3686084987
  0
LINE
  5
22D
100
AcDbEntity
  8
DRAFT
100
AcDbLine
 62
7
  6
CONTINUOUS
 10
-32.6205582912
 20
22.0631050049
 11
-33.1565973992
 21
21.765439134
  0
LINE
  5
22E
100
AcDbEntity
  8
RACCORDO
100
AcDbLine
 62
7
  6
CONTINUOUS
 10
-32.1215274861
 20
28.7398387745
 11
-33.0568116749
 21
28.2685905648
  0
LINE
  5
22F
100
AcDbEntity
  8
RACCORDO
100
AcDbLine
 62
7
  6
CONTINUOUS
 10
-31.9094277605
 20
28.3740208606
 11
-32.8447119493
 21
27.9027726508
  0
LINE
  5
230
100
AcDbEntity
  8
RACCORDO
100
AcDbLine
 62
7
  6
CONTINUOUS
 10
-32.4941796682
 20
29.4115949882
 11
-31.9186201675
 21
29.6774074391
  0
LWPOLYLINE
  5
231
100
AcDbEntity
  8
RACCORDO
100
AcDbPolyline
 62
7
  6
CONTINUOUS
 90
20
 70
0
 10
-31.1315755109
 20
-3.5910065965
 10
-31.1316020116
 20
-3.586986206
 10
-31.1322941987
 20
-3.5701538426
 10
-31.1339582904
 20
-3.5531075541
 10
-31.1366364683
 20
-3.5359097463
 10
-31.1403663874
 20
-3.5186305041
 10
-31.1451842097
 20
-3.5013332582
 10
-31.1511260242
 20
-3.4840794697
 10
-31.1582184243
 20
-3.4669541831
 10
-31.1664860468
 20
-3.4500380225
 10
-31.1759608459
 20
-3.4333966704
 10
-31.1866574615
 20
-3.4171278996
 10
-31.1985830723
 20
-3.401333625
 10
-31.211756066
 20
-3.3860986428
 10
-31.2261713413
 20
-3.3715355628
 10
-31.2418109563
 20
-3.3577630707
 10
-31.2586661169
 20
-3.3448873539
 10
-31.2767045898
 20
-3.3330309596
 10
-31.295871735
 20
-3.3223238736
 10
-31.2984163578
 20
-3.3210363597
  0
LINE
  5
232
100
AcDbEntity
  8
RACCORDO
100
AcDbLine
 62
7
  6
CONTINUOUS
 10
-34.0263928376
 20
34.0023555868
 11
-34.0263928376
 21
-4.3014446445
  0
LINE
  5
233
100
AcDbEntity
  8
RACCORDO
100
AcDbLine
 62
7
  6
CONTINUOUS
 10
-33.9658518705
 20
33.9720851033
 11
-33.9658518705
 21
-4.2764915835
  0
LINE
  5
234
100
AcDbEntity
  8
RACCORDO
100
AcDbLine
 62
7
  6
CONTINUOUS
 10
-33.6344338176
 20
-4.1095047297
 11
-33.6344338176
 21
33.8063760768
  0
LINE
  5
235
100
AcDbEntity
  8
DRAFT
100
AcDbLine
 62
7
  6
CONTINUOUS
 10
-33.1565973992
 20
2.7128802508
 11
-33.1565973992
 21
9.2080707791
  0
LINE
  5
236
100
AcDbEntity
  8
DRAFT
100
AcDbLine
 62
7
  6
CONTINUOUS
 10
-33.1565973992
 20
21.765439134
 11
-33.1565973992
 21
28.2606296624
  0
LINE
  5
237
100
AcDbEntity
  8
RACCORDO
100
AcDbLine
 62
7
  6
CONTINUOUS
 10
-32.8447119493
 20
27.9027726508
 11
-32.8447119493
 21
22.4478067987
  0
LINE
  5
238
100
AcDbEntity
  8
RACCORDO
100
AcDbLine
 62
7
  6
CONTINUOUS
 10
-32.8447119493
 20
8.8502137676
 11
-32.8447119493
 21
3.3952479154
  0
LINE
  5
239
100
AcDbEntity
  8
RACCORDO
100
AcDbLine
 62
7
  6
CONTINUOUS
 10
-32.6205582912
 20
33.2994383136
 11
-32.6205582912
 21
28.5582955333
  0
LINE
  5
23A
100
AcDbEntity
  8
DRAFT
100
AcDbLine
 62
7
  6
CONTINUOUS
 10
-32.6205582912
 20
22.0631050049
 11
-32.6205582912
 21
9.5057366501
  0
LINE
  5
23B
100
AcDbEntity
  8
RACCORDO
100
AcDbLine
 62
7
  6
CONTINUOUS
 10
-32.6205582912
 20
3.0105461217
 11
-32.6205582912
 21
-3.6213439941
  0
LINE
  5
23C
100
AcDbEntity
  8
RACCORDO
100
AcDbLine
 62
7
  6
CONTINUOUS
 10
-32.4130423237
 20
-3.8134303506
 11
-32.4130423237
 21
2.139509711
  0
LINE
  5
23D
100
AcDbEntity
  8
RACCORDO
100
AcDbLine
 62
7
  6
CONTINUOUS
 10
-32.4130423237
 20
10.5228104838
 11
-32.4130423237
 21
21.1920685943
  0
LINE
  5
23E
100
AcDbEntity
  8
RACCORDO
100
AcDbLine
 62
7
  6
CONTINUOUS
 10
-32.4130423237
 20
29.5753693671
 11
-32.4130423237
 21
33.1956803298
  0
LINE
  5
23F
100
AcDbEntity
  8
RACCORDO
100
AcDbLine
 62
7
  6
CONTINUOUS
 10
-32.303382172
 20
29.4997115948
 11
-32.303382172
 21
28.8307661175
  0
LINE
  5
240
100
AcDbEntity
  8
RACCORDO
100
AcDbLine
 62
7
  6
CONTINUOUS
 10
-32.303382172
 20
22.5715083645
 11
-32.303382172
 21
21.9747852183
  0
LINE
  5
241
100
AcDbEntity
  8
RACCORDO
100
AcDbLine
 62
7
  6
CONTINUOUS
 10
-32.303382172
 20
10.4471527115
 11
-32.303382172
 21
9.7782072342
  0
LINE
  5
242
100
AcDbEntity
  8
RACCORDO
100
AcDbLine
 62
7
  6
CONTINUOUS
 10
-32.303382172
 20
3.5189494812
 11
-32.303382172
 21
2.922226335
  0
LINE
  5
243
100
AcDbEntity
  8
RACCORDO
100
AcDbLine
 62
7
  6
CONTINUOUS
 10
-32.1630520722
 20
29.5645206853
 11
-32.1630520722
 21
28.9465795705
  0
LINE
  5
244
100
AcDbEntity
  8
RACCORDO
100
AcDbLine
 62
7
  6
CONTINUOUS
 10
-32.1630520722
 20
22.636317455
 11
-32.1630520722
 21
21.9046201684
  0
LINE
  5
245
100
AcDbEntity
  8
RACCORDO
100
AcDbLine
 62
7
  6
CONTINUOUS
 10
-32.1630520722
 20
10.511961802
 11
-32.1630520722
 21
9.8940206873
  0
LINE
  5
246
100
AcDbEntity
  8
RACCORDO
100
AcDbLine
 62
7
  6
CONTINUOUS
 10
-32.1630520722
 20
3.5837585717
 11
-32.1630520722
 21
2.8520612851
  0
LINE
  5
247
100
AcDbEntity
  8
RACCORDO
100
AcDbLine
 62
7
  6
CONTINUOUS
 10
-31.9094277605
 20
28.3740208606
 11
-31.9094277605
 21
22.8797520313
  0
LINE
  5
248
100
AcDbEntity
  8
RACCORDO
100
AcDbLine
 62
7
  6
CONTINUOUS
 10
-31.9094277605
 20
9.3214619773
 11
-31.9094277605
 21
3.8271931481
  0
LINE
  5
249
100
AcDbEntity
  8
RACCORDO
100
AcDbLine
 62
7
  6
CONTINUOUS
 10
-31.8374828229
 20
-3.5234314523
 11
-31.8374828229
 21
2.4295086093
  0
LINE
  5
24A
100
AcDbEntity
  8
RACCORDO
100
AcDbLine
 62
7
  6
CONTINUOUS
 10
-31.8374828229
 20
10.7886229347
 11
-31.8374828229
 21
21.4820674926
  0
LINE
  5
24B
100
AcDbEntity
  8
RACCORDO
100
AcDbLine
 62
7
  6
CONTINUOUS
 10
-31.8374828229
 20
29.8411818179
 11
-31.8374828229
 21
32.9079005795
  0
LINE
  5
24C
100
AcDbEntity
  8
RACCORDO
100
AcDbLine
 62
7
  6
CONTINUOUS
 10
-31.2719060419
 20
-3.7139543206
 11
-31.2719060419
 21
-3.8062198428
  0
LINE
  5
24D
100
AcDbEntity
  8
RACCORDO
100
AcDbLine
 62
7
  6
CONTINUOUS
 10
-31.1315759421
 20
-3.59176651
 11
-31.1315759421
 21
-3.8763848927
  0
LINE
  5
24E
100
AcDbEntity
  8
RACCORDO
100
AcDbLine
 62
7
  6
CONTINUOUS
 10
-32.6205582912
 20
21.5601960607
 11
-32.0495825485
 21
21.8478854066
  0
LINE
  5
24F
100
AcDbEntity
  8
RACCORDO
100
AcDbLine
 62
7
  6
CONTINUOUS
 10
-32.4130423237
 20
21.1920685943
 11
-31.8374828229
 21
21.4820674926
  0
LINE
  5
250
100
AcDbEntity
  8
RACCORDO
100
AcDbLine
 62
7
  6
CONTINUOUS
 10
-28.7110713821
 20
20.893201325
 11
-31.8374828229
 21
19.3424782022
  0
LINE
  5
251
100
AcDbEntity
  8
RACCORDO
100
AcDbLine
 62
7
  6
CONTINUOUS
 10
-28.5343216107
 20
20.5883530634
 11
-31.8374828229
 21
18.9499607509
  0
LINE
  5
252
100
AcDbEntity
  8
RACCORDO
100
AcDbLine
 62
7
  6
CONTINUOUS
 10
-32.8447119493
 20
22.4478067987
 11
-31.9094277605
 21
22.8797520313
  0
LINE
  5
253
100
AcDbEntity
  8
RACCORDO
100
AcDbLine
 62
7
  6
CONTINUOUS
 10
-32.9258492938
 20
22.2840324198
 11
-31.9905651051
 21
22.7159776524
  0
LINE
  5
254
100
AcDbEntity
  8
RACCORDO
100
AcDbLine
 62
7
  6
CONTINUOUS
 10
-29.1966424787
 20
21.0909828718
 11
-31.4912021591
 21
20.0312791723
  0
LINE
  5
255
100
AcDbEntity
  8
RACCORDO
100
AcDbLine
 62
7
  6
CONTINUOUS
 10
-29.0887376224
 20
21.0820344452
 11
-31.4300871251
 21
20.0007216552
  0
LINE
  5
256
100
AcDbEntity
  8
SMUSSO
100
AcDbLine
 62
7
  6
CONTINUOUS
 10
46.191750481
 20
-70.811730238
 11
46.8988572622
 21
-71.3242022512
  0
LINE
  5
257
100
AcDbEntity
  8
RACCORDO
100
AcDbLine
 62
7
  6
CONTINUOUS
 10
-37.0947712215
 20
-7.1917187974
 11
-37.0569087628
 21
-7.2256630093
  0
LINE
  5
258
100
AcDbEntity
  8
RACCORDO
100
AcDbLine
 62
7
  6
CONTINUOUS
 10
-28.5343216107
 20
20.5883530634
 11
-28.5343216107
 21
15.1028609304
  0
LINE
  5
259
100
AcDbEntity
  8
RACCORDO
100
AcDbLine
 62
7
  6
CONTINUOUS
 10
-28.4641565608
 20
20.6751853597
 11
-28.4641565608
 21
15.1896932268
  0
LINE
  5
25A
100
AcDbEntity
  8
RACCORDO
100
AcDbLine
 62
7
  6
CONTINUOUS
 10
-25.8624305219
 20
-6.7708047999
 11
-25.8624305219
 21
-7.2598594425
  0
LINE
  5
25B
100
AcDbEntity
  8
DRAFT
100
AcDbLine
 62
7
  6
CONTINUOUS
 10
-32.6205582912
 20
9.5057366501
 11
-33.1565973992
 21
9.2080707791
  0
LINE
  5
25C
100
AcDbEntity
  8
RACCORDO
100
AcDbLine
 62
7
  6
CONTINUOUS
 10
-28.5343216107
 20
15.1028609304
 11
-31.8374828229
 21
13.3207296764
  0
LINE
  5
25D
100
AcDbEntity
  8
RACCORDO
100
AcDbLine
 62
7
  6
CONTINUOUS
 10
-28.5954506057
 20
14.969673009
 11
-31.8374828229
 21
13.2205222501
  0
LINE
  5
25E
100
AcDbEntity
  8
RACCORDO
100
AcDbLine
 62
7
  6
CONTINUOUS
 10
-32.1215274861
 20
9.6872798913
 11
-33.0568116749
 21
9.2160316816
  0
LINE
  5
25F
100
AcDbEntity
  8
RACCORDO
100
AcDbLine
 62
7
  6
CONTINUOUS
 10
-32.4130423237
 20
10.5228104838
 11
-31.8374828229
 21
10.7886229347
  0
LINE
  5
260
100
AcDbEntity
  8
RACCORDO
100
AcDbLine
 62
7
  6
CONTINUOUS
 10
-32.4941796682
 20
10.359036105
 11
-31.9186201675
 21
10.6248485558
  0
LWPOLYLINE
  5
261
100
AcDbEntity
  8
RACCORDO
100
AcDbPolyline
 62
7
  6
CONTINUOUS
 90
13
 70
0
 10
30.5380636756
 20
-41.0448616626
 10
30.5526307414
 20
-41.0519071703
 10
30.5925036014
 20
-41.0688268826
 10
30.632826828
 20
-41.082508259
 10
30.6734424264
 20
-41.0928993976
 10
30.7140912842
 20
-41.0999522241
 10
30.7545836932
 20
-41.1036557273
 10
30.7947197741
 20
-41.1040158118
 10
30.8341445482
 20
-41.1010843367
 10
30.8725986936
 20
-41.0949593515
 10
30.9098811249
 20
-41.0857560471
 10
30.9456999649
 20
-41.0736484759
 10
30.9728354804
 20
-41.0621606486
  0
LINE
  5
262
100
AcDbEntity
  8
RACCORDO
100
AcDbLine
 62
7
  6
CONTINUOUS
 10
-36.9228183358
 20
-7.3144282078
 11
30.5380165207
 21
-41.044845636
  0
LINE
  5
263
100
AcDbEntity
  8
RACCORDO
100
AcDbLine
 62
7
  6
CONTINUOUS
 10
-37.0007862937
 20
-7.1521660666
 11
30.4600485677
 21
-40.8825834972
  0
LINE
  5
264
100
AcDbEntity
  8
0
100
AcDbLine
 62
7
  6
CONTINUOUS
 10
-5.8489942538
 20
-22.7077281938
 11
-5.5758629459
 21
-22.8442938478
  0
LINE
  5
265
100
AcDbEntity
  8
0
100
AcDbLine
 62
7
  6
CONTINUOUS
 10
-4.9835712141
 20
-23.1404397137
 11
-4.6736349982
 21
-23.2954078216
  0
LINE
  5
266
100
AcDbEntity
  8
0
100
AcDbLine
 62
7
  6
CONTINUOUS
 10
-4.5067867892
 20
-23.3788319261
 11
-4.2102792382
 21
-23.5270857016
  0
LINE
  5
267
100
AcDbEntity
  8
0
100
AcDbLine
 62
7
  6
CONTINUOUS
 10
-3.7798025293
 20
-23.7423240561
 11
-3.7363345541
 21
-23.7640580436
  0
LINE
  5
268
100
AcDbEntity
  8
0
100
AcDbLine
 62
7
  6
CONTINUOUS
 10
-3.3041431113
 20
-23.980153765
 11
-3.0009435017
 21
-24.1317535698
  0
LINE
  5
269
100
AcDbEntity
  8
0
100
AcDbLine
 62
7
  6
CONTINUOUS
 10
-2.9522754633
 20
-24.1560875891
 11
-2.6457022472
 21
-24.3093741971
  0
LINE
  5
26A
100
AcDbEntity
  8
0
100
AcDbLine
 62
7
  6
CONTINUOUS
 10
-2.0578080125
 20
-24.6033213145
 11
-1.7311487212
 21
-24.7666509601
  0
LINE
  5
26B
100
AcDbEntity
  8
0
100
AcDbLine
 62
7
  6
CONTINUOUS
 10
-1.6401363879
 20
-24.8121574712
 11
-1.3314475908
 21
-24.9665018697
  0
LINE
  5
26C
100
AcDbEntity
  8
0
100
AcDbLine
 62
7
  6
CONTINUOUS
 10
-0.8568235338
 20
-25.2038138982
 11
-0.5587012374
 21
-25.3528750464
  0
LWPOLYLINE
  5
26D
100
AcDbEntity
  8
RACCORDO
100
AcDbPolyline
 62
7
  6
CONTINUOUS
 90
5
 70
0
 10
-37.0569087628
 20
-7.2256630093
 10
-37.017344789
 20
-7.2566425455
 10
-36.976471296
 20
-7.284288016
 10
-36.9344846747
 20
-7.3084343618
 10
-36.9227884907
 20
-7.3144354764
  0
LINE
  5
26E
100
AcDbEntity
  8
ASSI
100
AcDbLine
 62
7
  6
CONTINUOUS
 10
-17.8576987854
 20
-8.9235569898
 11
-17.8576987854
 21
-9.4356831247
  0
LINE
  5
26F
100
AcDbEntity
  8
ASSI
100
AcDbLine
 62
7
  6
CONTINUOUS
 10
-17.8063277505
 20
-8.9077985579
 11
-17.8063277505
 21
-9.4183493425
  0
LINE
  5
270
100
AcDbEntity
  8
RACCORDO
100
AcDbLine
 62
7
  6
CONTINUOUS
 10
-17.0938682494
 20
-12.1661194254
 11
-17.0938682494
 21
-12.1735168291
  0
LINE
  5
271
100
AcDbEntity
  8
DRAFT
100
AcDbLine
 62
7
  6
CONTINUOUS
 10
-17.0589510961
 20
-12.0412091065
 11
-17.0589510961
 21
-11.6615991554
  0
LINE
  5
272
100
AcDbEntity
  8
ASSI
100
AcDbLine
 62
7
  6
CONTINUOUS
 10
-24.3484185171
 20
-8.0168654449
 11
-24.3067956033
 21
-7.9450765377
  0
LINE
  5
273
100
AcDbEntity
  8
DRAFT
100
AcDbLine
 62
7
  6
CONTINUOUS
 10
-32.6205582912
 20
3.0105461217
 11
-33.1565973992
 21
2.7128802508
  0
LINE
  5
274
100
AcDbEntity
  8
RACCORDO
100
AcDbLine
 62
7
  6
CONTINUOUS
 10
-31.9094277605
 20
9.3214619773
 11
-32.8447119493
 21
8.8502137676
  0
LINE
  5
275
100
AcDbEntity
  8
RACCORDO
100
AcDbLine
 62
7
  6
CONTINUOUS
 10
-32.6205582912
 20
2.5076371774
 11
-32.0495825485
 21
2.7953265233
  0
LINE
  5
276
100
AcDbEntity
  8
RACCORDO
100
AcDbLine
 62
7
  6
CONTINUOUS
 10
-32.8447119493
 20
3.3952479154
 11
-31.9094277605
 21
3.8271931481
  0
LINE
  5
277
100
AcDbEntity
  8
RACCORDO
100
AcDbLine
 62
7
  6
CONTINUOUS
 10
6.0475091069
 20
-21.9059712417
 11
6.047466759
 21
-21.9059500799
  0
LINE
  5
278
100
AcDbEntity
  8
RACCORDO
100
AcDbLine
 62
7
  6
CONTINUOUS
 10
-3.0034576922
 20
-17.3804878421
 11
-3.0035000402
 21
-17.3804666803
  0
LINE
  5
279
100
AcDbEntity
  8
0
100
AcDbLine
 62
7
  6
CONTINUOUS
 10
-2.5601790962
 20
-23.9890987893
 11
-2.1380978662
 21
-24.2001394044
  0
LINE
  5
27A
100
AcDbEntity
  8
0
100
AcDbLine
 62
7
  6
CONTINUOUS
 10
-2.2000382989
 20
-23.8882521977
 11
-2.4967799022
 21
-23.739881396
  0
LINE
  5
27B
100
AcDbEntity
  8
0
100
AcDbLine
 62
7
  6
CONTINUOUS
 10
-1.3314475908
 20
-24.2548412414
 11
-1.1652673752
 21
-24.3379313492
  0
LINE
  5
27C
100
AcDbEntity
  8
0
100
AcDbLine
 62
7
  6
CONTINUOUS
 10
-2.2298829286
 20
-23.7319085265
 11
-2.355358546
 21
-23.6691707179
  0
LINE
  5
27D
100
AcDbEntity
  8
0
100
AcDbLine
 62
7
  6
CONTINUOUS
 10
-1.164599314
 20
-24.0404389455
 11
-1.3417245984
 21
-23.9518763033
  0
LINE
  5
27E
100
AcDbEntity
  8
0
100
AcDbLine
 62
7
  6
CONTINUOUS
 10
-1.0231779578
 20
-23.9697282674
 11
-1.2003032422
 21
-23.8811656252
  0
LINE
  5
27F
100
AcDbEntity
  8
0
100
AcDbLine
 62
7
  6
CONTINUOUS
 10
-2.186722064
 20
-22.7203642273
 11
-2.48654736
 21
-22.5704515792
  0
LINE
  5
280
100
AcDbEntity
  8
0
100
AcDbLine
 62
7
  6
CONTINUOUS
 10
-3.1397888679
 20
-22.2438308253
 11
-3.4464398657
 21
-22.0905053264
  0
LINE
  5
281
100
AcDbEntity
  8
0
100
AcDbLine
 62
7
  6
CONTINUOUS
 10
-4.0630383931
 20
-21.7822060627
 11
-4.3727179293
 21
-21.6273662946
  0
LINE
  5
282
100
AcDbEntity
  8
0
100
AcDbLine
 62
7
  6
CONTINUOUS
 10
-5.098588496
 20
-21.2644310112
 11
-5.408313287
 21
-21.1095686158
  0
LINE
  5
283
100
AcDbEntity
  8
0
100
AcDbLine
 62
7
  6
CONTINUOUS
 10
-5.983018566
 20
-20.8222159762
 11
-6.3197046315
 21
-20.6538729435
  0
LINE
  5
284
100
AcDbEntity
  8
0
100
AcDbLine
 62
7
  6
CONTINUOUS
 10
-4.6736349982
 20
-21.476798641
 11
-4.9835712141
 21
-21.321830533
  0
LINE
  5
285
100
AcDbEntity
  8
0
100
AcDbLine
 62
7
  6
CONTINUOUS
 10
-2.0453007077
 20
-22.6496535491
 11
-2.3451260038
 21
-22.4997409011
  0
LINE
  5
286
100
AcDbEntity
  8
0
100
AcDbLine
 62
7
  6
CONTINUOUS
 10
-2.9983675117
 20
-22.1731201472
 11
-3.3050185095
 21
-22.0197946483
  0
LINE
  5
287
100
AcDbEntity
  8
0
100
AcDbLine
 62
7
  6
CONTINUOUS
 10
-3.9216170369
 20
-21.7114953846
 11
-4.231296573
 21
-21.5566556165
  0
LINE
  5
288
100
AcDbEntity
  8
0
100
AcDbLine
 62
7
  6
CONTINUOUS
 10
-4.9571671398
 20
-21.1937203331
 11
-5.2668919307
 21
-21.0388579376
  0
LINE
  5
289
100
AcDbEntity
  8
0
100
AcDbLine
 62
7
  6
CONTINUOUS
 10
-5.8415972098
 20
-20.7515052981
 11
-6.1782832752
 21
-20.5831622654
  0
LINE
  5
28A
100
AcDbEntity
  8
0
100
AcDbLine
 62
7
  6
CONTINUOUS
 10
-4.5322136419
 20
-21.4060879628
 11
-4.8421498578
 21
-21.2511198549
  0
LINE
  5
28B
100
AcDbEntity
  8
RACCORDO
100
AcDbLine
 62
7
  6
CONTINUOUS
 10
28.640238854
 20
-37.7875742523
 11
-35.18097658
 21
-5.8769665353
  0
LINE
  5
28C
100
AcDbEntity
  8
RACCORDO
100
AcDbLine
 62
7
  6
CONTINUOUS
 10
28.7798209874
 20
-37.4736474091
 11
-35.0413911999
 21
-5.5630413154
  0
LINE
  5
28D
100
AcDbEntity
  8
RACCORDO
100
AcDbLine
 62
7
  6
CONTINUOUS
 10
-33.8366227043
 20
-4.7096697651
 11
28.9575936601
 21
-36.1067779473
  0
LINE
  5
28E
100
AcDbEntity
  8
RACCORDO
100
AcDbLine
 62
7
  6
CONTINUOUS
 10
-33.7218706804
 20
-4.6262458419
 11
28.9575936601
 21
-35.9659780122
  0
LINE
  5
28F
100
AcDbEntity
  8
RACCORDO
100
AcDbLine
 62
7
  6
CONTINUOUS
 10
28.9575936601
 20
-35.6652865197
 11
-33.4223340919
 21
-4.4753226436
  0
LINE
  5
290
100
AcDbEntity
  8
DRAFT
100
AcDbLine
 62
7
  6
CONTINUOUS
 10
15.2558288041
 20
-28.3483653559
 11
9.9525279452
 21
-25.6967149264
  0
LINE
  5
291
100
AcDbEntity
  8
DRAFT
100
AcDbLine
 62
7
  6
CONTINUOUS
 10
1.467246571
 20
-21.4540742393
 11
-3.8360542879
 21
-18.8024238099
  0
LINE
  5
292
100
AcDbEntity
  8
DRAFT
100
AcDbLine
 62
7
  6
CONTINUOUS
 10
-12.3213356622
 20
-14.5597831227
 11
-17.6246365211
 21
-11.9081326933
  0
LINE
  5
293
100
AcDbEntity
  8
RACCORDO
100
AcDbLine
 62
7
  6
CONTINUOUS
 10
-16.8817685238
 20
-12.012401237
 11
-12.4278075564
 21
-14.2393817207
  0
LINE
  5
294
100
AcDbEntity
  8
RACCORDO
100
AcDbLine
 62
7
  6
CONTINUOUS
 10
-3.0931862906
 20
-18.9066923536
 11
1.3607746767
 21
-21.1336728373
  0
LINE
  5
295
100
AcDbEntity
  8
RACCORDO
100
AcDbLine
 62
7
  6
CONTINUOUS
 10
10.6953959425
 20
-25.8009834702
 11
15.1493569099
 21
-28.0279639538
  0
LINE
  5
296
100
AcDbEntity
  8
RACCORDO
100
AcDbLine
 62
7
  6
CONTINUOUS
 10
-32.4087169764
 20
-3.9867162153
 11
-17.0589510961
 21
-11.6615991554
  0
LINE
  5
297
100
AcDbEntity
  8
DRAFT
100
AcDbLine
 62
7
  6
CONTINUOUS
 10
-11.7556502372
 20
-14.3132495848
 11
-3.270368863
 21
-18.555890272
  0
LINE
  5
298
100
AcDbEntity
  8
DRAFT
100
AcDbLine
 62
7
  6
CONTINUOUS
 10
2.0329319959
 20
-21.2075407014
 11
10.5182133701
 21
-25.4501813885
  0
LINE
  5
299
100
AcDbEntity
  8
RACCORDO
100
AcDbLine
 62
7
  6
CONTINUOUS
 10
15.821514229
 20
-28.101831818
 11
28.9575936601
 21
-34.6698715335
  0
LINE
  5
29A
100
AcDbEntity
  8
ASSI
100
AcDbLine
 62
7
  6
CONTINUOUS
 10
25.604561282
 20
-32.9007549803
 11
23.4229121268
 21
-31.8099304027
  0
LINE
  5
29B
100
AcDbEntity
  8
ASSI
100
AcDbLine
 62
7
  6
CONTINUOUS
 10
-22.1251464481
 20
-9.0359011152
 11
-24.3067956033
 21
-7.9450765377
  0
LINE
  5
29C
100
AcDbEntity
  8
RACCORDO
100
AcDbLine
 62
7
  6
CONTINUOUS
 10
28.9575936601
 20
-34.4987483425
 11
25.7563645047
 21
-32.8981337648
  0
LINE
  5
29D
100
AcDbEntity
  8
RACCORDO
100
AcDbLine
 62
7
  6
CONTINUOUS
 10
21.0894597489
 20
-30.5646813869
 11
16.5569766695
 21
-28.2984398472
  0
LINE
  5
29E
100
AcDbEntity
  8
RACCORDO
100
AcDbLine
 62
7
  6
CONTINUOUS
 10
5.1795571722
 20
-22.6097300985
 11
2.7683944363
 21
-21.4041487306
  0
LINE
  5
29F
100
AcDbEntity
  8
RACCORDO
100
AcDbLine
 62
7
  6
CONTINUOUS
 10
-3.6522779128
 20
-18.193812556
 11
-6.0634406487
 21
-16.9882311881
  0
LINE
  5
2A0
100
AcDbEntity
  8
RACCORDO
100
AcDbLine
 62
7
  6
CONTINUOUS
 10
-17.440860146
 20
-11.2995214394
 11
-21.9733432254
 21
-9.0332798997
  0
LINE
  5
2A1
100
AcDbEntity
  8
RACCORDO
100
AcDbLine
 62
7
  6
CONTINUOUS
 10
-26.6402479812
 20
-6.6998275218
 11
-32.4130423237
 21
-3.8134303506
  0
LINE
  5
2A2
100
AcDbEntity
  8
ASSI
100
AcDbLine
 62
7
  6
CONTINUOUS
 10
25.7411093661
 20
-32.8276076661
 11
23.564333483
 21
-31.7392197246
  0
LINE
  5
2A3
100
AcDbEntity
  8
ASSI
100
AcDbLine
 62
7
  6
CONTINUOUS
 10
-21.988598364
 20
-8.9627538011
 11
-24.1653742471
 21
-7.8743658596
  0
LINE
  5
2A4
100
AcDbEntity
  8
ASSI
100
AcDbLine
 62
7
  6
CONTINUOUS
 10
25.9488013607
 20
-32.7193216291
 11
23.7764655174
 21
-31.6331537074
  0
LINE
  5
2A5
100
AcDbEntity
  8
ASSI
100
AcDbLine
 62
7
  6
CONTINUOUS
 10
-21.7809063694
 20
-8.854467764
 11
-23.9532422127
 21
-7.7682998424
  0
LINE
  5
2A6
100
AcDbEntity
  8
ASSI
100
AcDbLine
 62
7
  6
CONTINUOUS
 10
26.0872626904
 20
-32.6471309377
 11
23.9178868736
 21
-31.5624430293
  0
LINE
  5
2A7
100
AcDbEntity
  8
ASSI
100
AcDbLine
 62
7
  6
CONTINUOUS
 10
-21.6424450396
 20
-8.7822770727
 11
-23.8118208565
 21
-7.6975891643
  0
LINE
  5
2A8
100
AcDbEntity
  8
RACCORDO
100
AcDbLine
 62
7
  6
CONTINUOUS
 10
-15.9785750814
 20
-11.5251076541
 11
-11.4925233677
 21
-13.768133511
  0
LINE
  5
2A9
100
AcDbEntity
  8
RACCORDO
100
AcDbLine
 62
7
  6
CONTINUOUS
 10
-2.1899928483
 20
-18.4193987707
 11
2.2960588655
 21
-20.6624246276
  0
LINE
  5
2AA
100
AcDbEntity
  8
RACCORDO
100
AcDbLine
 62
7
  6
CONTINUOUS
 10
11.5985893848
 20
-25.3136898872
 11
16.0846410986
 21
-27.5567157441
  0
LINE
  5
2AB
100
AcDbEntity
  8
RACCORDO
100
AcDbLine
 62
7
  6
CONTINUOUS
 10
28.9575936601
 20
-33.9209696938
 11
26.3220499297
 21
-32.6031978286
  0
LINE
  5
2AC
100
AcDbEntity
  8
RACCORDO
100
AcDbLine
 62
7
  6
CONTINUOUS
 10
21.6551451738
 20
-30.2697454507
 11
17.1127880186
 21
-27.998566873
  0
LINE
  5
2AD
100
AcDbEntity
  8
RACCORDO
100
AcDbLine
 62
7
  6
CONTINUOUS
 10
5.7452425971
 20
-22.3147941623
 11
3.3242057855
 21
-21.1042757565
  0
LINE
  5
2AE
100
AcDbEntity
  8
RACCORDO
100
AcDbLine
 62
7
  6
CONTINUOUS
 10
-3.0767184121
 20
-17.9038136577
 11
-5.4977552237
 21
-16.6932952519
  0
LINE
  5
2AF
100
AcDbEntity
  8
RACCORDO
100
AcDbLine
 62
7
  6
CONTINUOUS
 10
-16.8653006452
 20
-11.0095225411
 11
-21.4076578004
 21
-8.7383439635
  0
LINE
  5
2B0
100
AcDbEntity
  8
RACCORDO
100
AcDbLine
 62
7
  6
CONTINUOUS
 10
-26.0745625563
 20
-6.4048915856
 11
-31.8374505142
 21
-3.5234476066
  0
LINE
  5
2B1
100
AcDbEntity
  8
ASSI
100
AcDbLine
 62
7
  6
CONTINUOUS
 10
28.0191062045
 20
-33.4009206604
 11
24.130018908
 21
-31.4563770121
  0
LINE
  5
2B2
100
AcDbEntity
  8
ASSI
100
AcDbLine
 62
7
  6
CONTINUOUS
 10
-19.7106015256
 20
-9.5360667953
 11
-23.5996888221
 21
-7.5915231471
  0
LINE
  5
2B3
100
AcDbEntity
  8
ASSI
100
AcDbLine
 62
7
  6
CONTINUOUS
 10
28.1605275608
 20
-33.3302099823
 11
24.2714402642
 21
-31.385666334
  0
LINE
  5
2B4
100
AcDbEntity
  8
ASSI
100
AcDbLine
 62
7
  6
CONTINUOUS
 10
-19.5691801693
 20
-9.4653561172
 11
-23.4582674659
 21
-7.520812469
  0
LINE
  5
2B5
100
AcDbEntity
  8
RACCORDO
100
AcDbLine
 62
7
  6
CONTINUOUS
 10
-31.8374828229
 20
-3.171397879
 11
-31.4840057675
 21
-3.3481364067
  0
LINE
  5
2B6
100
AcDbEntity
  8
ASSI
100
AcDbLine
 62
7
  6
CONTINUOUS
 10
28.3726595951
 20
-33.2241439651
 11
24.4835722986
 21
-31.2796003168
  0
LINE
  5
2B7
100
AcDbEntity
  8
ASSI
100
AcDbLine
 62
7
  6
CONTINUOUS
 10
-19.357048135
 20
-9.3592901
 11
-23.2461354315
 21
-7.4147464518
  0
LINE
  5
2B8
100
AcDbEntity
  8
RACCORDO
100
AcDbLine
 62
7
  6
CONTINUOUS
 10
-31.8374828229
 20
-3.051497994
 11
-31.2986547151
 21
-3.3209120479
  0
LINE
  5
2B9
100
AcDbEntity
  8
RACCORDO
100
AcDbLine
 62
7
  6
CONTINUOUS
 10
-4.6722080809
 20
-16.6180525787
 11
-3.1339174223
 21
-17.387197908
  0
LINE
  5
2BA
100
AcDbEntity
  8
RACCORDO
100
AcDbLine
 62
7
  6
CONTINUOUS
 10
4.3787587183
 20
-21.1435359783
 11
5.9170493769
 21
-21.9126813076
  0
LINE
  5
2BB
100
AcDbEntity
  8
ASSI
100
AcDbLine
 62
7
  6
CONTINUOUS
 10
28.5140809513
 20
-33.153433287
 11
24.6249936548
 21
-31.2088896387
  0
LINE
  5
2BC
100
AcDbEntity
  8
ASSI
100
AcDbLine
 62
7
  6
CONTINUOUS
 10
-19.2156267787
 20
-9.2885794219
 11
-23.1047140753
 21
-7.3440357737
  0
LINE
  5
2BD
100
AcDbEntity
  8
RACCORDO
100
AcDbLine
 62
7
  6
CONTINUOUS
 10
-4.5417462167
 20
-16.6113435798
 11
-3.0034555581
 21
-17.3804889091
  0
LINE
  5
2BE
100
AcDbEntity
  8
RACCORDO
100
AcDbLine
 62
7
  6
CONTINUOUS
 10
4.5092205825
 20
-21.1368269794
 11
6.0475112411
 21
-21.9059723087
  0
LINE
  5
2BF
100
AcDbEntity
  8
ASSI
100
AcDbLine
 62
7
  6
CONTINUOUS
 10
-19.5691801693
 20
-9.4653561172
 11
-19.4631141522
 21
-9.5422269192
  0
LINE
  5
2C0
100
AcDbEntity
  8
ASSI
100
AcDbLine
 62
7
  6
CONTINUOUS
 10
-19.2156267787
 20
-9.2885794219
 11
-19.1095607616
 21
-9.3654502239
  0
LINE
  5
2C1
100
AcDbEntity
  8
ASSI
100
AcDbLine
 62
7
  6
CONTINUOUS
 10
-18.8620733882
 20
-9.1118027266
 11
-18.756007371
 21
-9.1886735286
  0
LINE
  5
2C2
100
AcDbEntity
  8
ASSI
100
AcDbLine
 62
7
  6
CONTINUOUS
 10
-18.5085199976
 20
-8.9350260313
 11
-18.4024539804
 21
-9.0118968333
  0
LINE
  5
2C3
100
AcDbEntity
  8
ASSI
100
AcDbLine
 62
7
  6
CONTINUOUS
 10
-18.154966607
 20
-8.758249336
 11
-18.0489005898
 21
-8.835120138
  0
LINE
  5
2C4
100
AcDbEntity
  8
RACCORDO
100
AcDbLine
 62
7
  6
CONTINUOUS
 10
-16.6532009196
 20
-11.8081203798
 11
-16.6532009196
 21
-11.3753404551
  0
LINE
  5
2C5
100
AcDbEntity
  8
RACCORDO
100
AcDbLine
 62
7
  6
CONTINUOUS
 10
-11.280423642
 20
-14.133951425
 11
-11.280423642
 21
-14.5508628824
  0
LINE
  5
2C6
100
AcDbEntity
  8
DRAFT
100
AcDbLine
 62
7
  6
CONTINUOUS
 10
-18.3841664313
 20
-9.9922257259
 11
-18.3271227794
 21
-9.7600118524
  0
LINE
  5
2C7
100
AcDbEntity
  8
ASSI
100
AcDbLine
 62
7
  6
CONTINUOUS
 10
-24.0485933863
 20
-7.93275629
 11
-23.9532422127
 21
-7.7682998424
  0
LINE
  5
2C8
100
AcDbEntity
  8
ASSI
100
AcDbLine
 62
7
  6
CONTINUOUS
 10
-23.6950399957
 20
-7.7559795947
 11
-23.5996888221
 21
-7.5915231471
  0
LINE
  5
2C9
100
AcDbEntity
  8
ASSI
100
AcDbLine
 62
7
  6
CONTINUOUS
 10
-23.3414866051
 20
-7.5792028994
 11
-23.2461354315
 21
-7.4147464518
  0
LINE
  5
2CA
100
AcDbEntity
  8
ASSI
100
AcDbLine
 62
7
  6
CONTINUOUS
 10
-22.9879332145
 20
-7.4024262041
 11
-22.8925820409
 21
-7.2379697565
  0
LINE
  5
2CB
100
AcDbEntity
  8
ASSI
100
AcDbLine
 62
7
  6
CONTINUOUS
 10
-22.6343798239
 20
-7.2256495088
 11
-22.5390286503
 21
-7.0611930612
  0
LINE
  5
2CC
100
AcDbEntity
  8
ASSI
100
AcDbLine
 62
7
  6
CONTINUOUS
 10
-22.2808264333
 20
-7.0488728135
 11
-22.1854752597
 21
-6.8844163659
  0
LINE
  5
2CD
100
AcDbEntity
  8
ASSI
100
AcDbLine
 62
7
  6
CONTINUOUS
 10
-19.7334379893
 20
-9.5754538691
 11
-19.7106015256
 21
-9.5360667953
  0
LINE
  5
2CE
100
AcDbEntity
  8
ASSI
100
AcDbLine
 62
7
  6
CONTINUOUS
 10
-19.4631141522
 20
-9.5422269192
 11
-19.357048135
 21
-9.3592901
  0
LINE
  5
2CF
100
AcDbEntity
  8
ASSI
100
AcDbLine
 62
7
  6
CONTINUOUS
 10
-19.1095607616
 20
-9.3654502239
 11
-19.0034947444
 21
-9.1825134048
  0
LINE
  5
2D0
100
AcDbEntity
  8
ASSI
100
AcDbLine
 62
7
  6
CONTINUOUS
 10
-18.756007371
 20
-9.1886735286
 11
-18.6499413538
 21
-9.0057367095
  0
LINE
  5
2D1
100
AcDbEntity
  8
ASSI
100
AcDbLine
 62
7
  6
CONTINUOUS
 10
-18.4024539804
 20
-9.0118968333
 11
-18.2963879632
 21
-8.8289600142
  0
LINE
  5
2D2
100
AcDbEntity
  8
RACCORDO
100
AcDbLine
 62
7
  6
CONTINUOUS
 10
-35.2019943865
 20
-5.1710402207
 11
-34.025734974
 21
-4.313482143
  0
LINE
  5
2D3
100
AcDbEntity
  8
RACCORDO
100
AcDbLine
 62
7
  6
CONTINUOUS
 10
-35.0413911999
 20
-5.5630413154
 11
-33.8557826676
 21
-4.698584052
  0
LINE
  5
2D4
100
AcDbEntity
  8
RACCORDO
100
AcDbLine
 62
7
  6
CONTINUOUS
 10
-32.4130423237
 20
2.139509711
 11
-31.8374828229
 21
2.4295086093
  0
LINE
  5
2D5
100
AcDbEntity
  8
RACCORDO
100
AcDbLine
 62
7
  6
CONTINUOUS
 10
-33.9658518705
 20
-4.2764915835
 11
-33.6344338176
 21
-4.1095047297
  0
LINE
  5
2D6
100
AcDbEntity
  8
RACCORDO
100
AcDbLine
 62
7
  6
CONTINUOUS
 10
-32.4130423237
 20
-3.8134303506
 11
-31.8374828229
 21
-3.5234314523
  0
LINE
  5
2D7
100
AcDbEntity
  8
RACCORDO
100
AcDbLine
 62
7
  6
CONTINUOUS
 10
-33.7218706804
 20
-4.6262458419
 11
-33.4223340919
 21
-4.4753226436
  0
LINE
  5
2D8
100
AcDbEntity
  8
RACCORDO
100
AcDbLine
 62
7
  6
CONTINUOUS
 10
-31.4840057675
 20
-3.3481364067
 11
-31.8374505142
 21
-3.5234476066
  0
LINE
  5
2D9
100
AcDbEntity
  8
RACCORDO
100
AcDbLine
 62
7
  6
CONTINUOUS
 10
-33.6320014278
 20
-4.1144935288
 11
-32.6205582912
 21
-3.6213439941
  0
LINE
  5
2DA
100
AcDbEntity
  8
RACCORDO
100
AcDbLine
 62
7
  6
CONTINUOUS
 10
-32.9258492938
 20
3.2314735365
 11
-31.9905651051
 21
3.6634187692
  0
LINE
  5
2DB
100
AcDbEntity
  8
ASSI
100
AcDbLine
 62
7
  6
CONTINUOUS
 10
28.7262129857
 20
-33.0473672698
 11
24.8371256892
 21
-31.1028236215
  0
LINE
  5
2DC
100
AcDbEntity
  8
ASSI
100
AcDbLine
 62
7
  6
CONTINUOUS
 10
-19.0034947444
 20
-9.1825134048
 11
-22.8925820409
 21
-7.2379697565
  0
LINE
  5
2DD
100
AcDbEntity
  8
ASSI
100
AcDbLine
 62
7
  6
CONTINUOUS
 10
28.8676343419
 20
-32.9766565917
 11
24.9785470454
 21
-31.0321129434
  0
LINE
  5
2DE
100
AcDbEntity
  8
ASSI
100
AcDbLine
 62
7
  6
CONTINUOUS
 10
-18.8620733882
 20
-9.1118027266
 11
-22.7511606847
 21
-7.1672590784
  0
LINE
  5
2DF
100
AcDbEntity
  8
ASSI
100
AcDbLine
 62
7
  6
CONTINUOUS
 10
28.9575936601
 20
-32.8095042164
 11
25.1906790798
 21
-30.9260469262
  0
LINE
  5
2E0
100
AcDbEntity
  8
ASSI
100
AcDbLine
 62
7
  6
CONTINUOUS
 10
-18.6499413538
 20
-9.0057367095
 11
-22.5390286503
 21
-7.0611930612
  0
LINE
  5
2E1
100
AcDbEntity
  8
ASSI
100
AcDbLine
 62
7
  6
CONTINUOUS
 10
28.9575936601
 20
-32.6680828602
 11
25.332100436
 21
-30.8553362481
  0
LINE
  5
2E2
100
AcDbEntity
  8
ASSI
100
AcDbLine
 62
7
  6
CONTINUOUS
 10
-18.5085199976
 20
-8.9350260313
 11
-22.3976072941
 21
-6.9904823831
  0
LINE
  5
2E3
100
AcDbEntity
  8
ASSI
100
AcDbLine
 62
7
  6
CONTINUOUS
 10
28.9575936601
 20
-32.4559508258
 11
25.5442324704
 21
-30.7492702309
  0
LINE
  5
2E4
100
AcDbEntity
  8
ASSI
100
AcDbLine
 62
7
  6
CONTINUOUS
 10
-18.2963879632
 20
-8.8289600142
 11
-22.1854752597
 21
-6.8844163659
  0
LINE
  5
2E5
100
AcDbEntity
  8
ASSI
100
AcDbLine
 62
7
  6
CONTINUOUS
 10
-6.2122735841
 20
-14.8400361812
 11
-1.9548097386
 21
-16.968768104
  0
LINE
  5
2E6
100
AcDbEntity
  8
ASSI
100
AcDbLine
 62
7
  6
CONTINUOUS
 10
9.6976289926
 20
-22.7949874696
 11
13.9550928381
 21
-24.9237193924
  0
LINE
  5
2E7
100
AcDbEntity
  8
ASSI
100
AcDbLine
 62
7
  6
CONTINUOUS
 10
-6.0904700156
 20
-14.8505362485
 11
-1.897727869
 21
-16.9469073218
  0
LINE
  5
2E8
100
AcDbEntity
  8
ASSI
100
AcDbLine
 62
7
  6
CONTINUOUS
 10
9.8194325611
 20
-22.8054875369
 11
14.0121747077
 21
-24.9018586102
  0
LINE
  5
2E9
100
AcDbEntity
  8
ASSI
100
AcDbLine
 62
7
  6
CONTINUOUS
 10
-22.1221761608
 20
-6.7984823525
 11
-22.0678916969
 21
-6.8256245845
  0
LINE
  5
2EA
100
AcDbEntity
  8
ASSI
100
AcDbLine
 62
7
  6
CONTINUOUS
 10
-18.0489005898
 20
-8.835120138
 11
-17.8647123153
 21
-8.9272142753
  0
LINE
  5
2EB
100
AcDbEntity
  8
ASSI
100
AcDbLine
 62
7
  6
CONTINUOUS
 10
25.6075315693
 20
-30.6633362175
 11
25.6618160332
 21
-30.6904784495
  0
LINE
  5
2EC
100
AcDbEntity
  8
ASSI
100
AcDbLine
 62
7
  6
CONTINUOUS
 10
28.9575936601
 20
-32.3145294696
 11
25.6856538266
 21
-30.6785595528
  0
LINE
  5
2ED
100
AcDbEntity
  8
ASSI
100
AcDbLine
 62
7
  6
CONTINUOUS
 10
-18.154966607
 20
-8.758249336
 11
-22.0440539035
 21
-6.8137056878
  0
LINE
  5
2EE
100
AcDbEntity
  8
ASSI
100
AcDbLine
 62
7
  6
CONTINUOUS
 10
-22.0003736386
 20
-6.8089818966
 11
-17.8076293993
 21
-8.9053540162
  0
LINE
  5
2EF
100
AcDbEntity
  8
ASSI
100
AcDbLine
 62
7
  6
CONTINUOUS
 10
25.7293340915
 20
-30.6738357617
 11
28.9575936601
 21
-32.287965546
  0
LINE
  5
2F0
100
AcDbEntity
  8
DRAFT
100
AcDbLine
 62
7
  6
CONTINUOUS
 10
-33.1565973992
 20
3.2785656757
 11
-32.6205582912
 21
3.0105461217
  0
LINE
  5
2F1
100
AcDbEntity
  8
RACCORDO
100
AcDbLine
 62
7
  6
CONTINUOUS
 10
-33.0568116749
 20
3.2415297271
 11
-33.1565973992
 21
3.2914225892
  0
LINE
  5
2F2
100
AcDbEntity
  8
RACCORDO
100
AcDbLine
 62
7
  6
CONTINUOUS
 10
-32.0495825485
 20
2.7953265233
 11
-32.9250547501
 21
3.2330626241
  0
LINE
  5
2F3
100
AcDbEntity
  8
RACCORDO
100
AcDbLine
 62
7
  6
CONTINUOUS
 10
-26.6402479812
 20
-6.6998275218
 11
-26.0745625563
 21
-6.4048915856
  0
LINE
  5
2F4
100
AcDbEntity
  8
RACCORDO
100
AcDbLine
 62
7
  6
CONTINUOUS
 10
-26.3412489828
 20
-7.020450212
 11
-25.8624305219
 21
-6.7708047999
  0
LINE
  5
2F5
100
AcDbEntity
  8
RACCORDO
100
AcDbLine
 62
7
  6
CONTINUOUS
 10
-31.2719060419
 20
-3.7139543206
 11
-31.3645414226
 21
-3.7599021524
  0
LINE
  5
2F6
100
AcDbEntity
  8
RACCORDO
100
AcDbLine
 62
7
  6
CONTINUOUS
 10
-33.4166604966
 20
-4.4781594413
 11
-32.4087169764
 21
-3.9867162153
  0
LINE
  5
2F7
100
AcDbEntity
  8
RACCORDO
100
AcDbLine
 62
7
  6
CONTINUOUS
 10
-33.0568116749
 20
9.2160316816
 11
-33.1017756219
 21
9.2385136551
  0
LINE
  5
2F8
100
AcDbEntity
  8
RACCORDO
100
AcDbLine
 62
7
  6
CONTINUOUS
 10
-32.6205582912
 20
9.9367952938
 11
-32.1215274861
 21
9.6872798913
  0
LINE
  5
2F9
100
AcDbEntity
  8
ASSI
100
AcDbLine
 62
7
  6
CONTINUOUS
 10
28.1605275608
 20
-33.3302099823
 11
28.2665935779
 21
-33.4070807843
  0
LINE
  5
2FA
100
AcDbEntity
  8
ASSI
100
AcDbLine
 62
7
  6
CONTINUOUS
 10
28.5140809513
 20
-33.153433287
 11
28.6201469685
 21
-33.230304089
  0
LINE
  5
2FB
100
AcDbEntity
  8
ASSI
100
AcDbLine
 62
7
  6
CONTINUOUS
 10
28.8676343419
 20
-32.9766565917
 11
28.9575936601
 21
-33.0418541462
  0
LINE
  5
2FC
100
AcDbEntity
  8
0
100
AcDbLine
 62
7
  6
CONTINUOUS
 10
-4.1433947148
 20
-22.373081561
 11
-3.7798025293
 21
-23.7423240561
  0
LINE
  5
2FD
100
AcDbEntity
  8
0
100
AcDbLine
 62
7
  6
CONTINUOUS
 10
-3.7563760816
 20
-22.9451738829
 11
-4.0630383931
 21
-21.7822060627
  0
LINE
  5
2FE
100
AcDbEntity
  8
0
100
AcDbLine
 62
7
  6
CONTINUOUS
 10
-3.66369859
 20
-22.6896098863
 11
-3.9216170369
 21
-21.7114953846
  0
LINE
  5
2FF
100
AcDbEntity
  8
0
100
AcDbLine
 62
7
  6
CONTINUOUS
 10
-6.3197046315
 20
-20.6538729435
 11
-5.8489942538
 21
-22.7077281938
  0
LINE
  5
300
100
AcDbEntity
  8
0
100
AcDbLine
 62
7
  6
CONTINUOUS
 10
-1.7311487212
 20
-24.7666509601
 11
-2.186722064
 21
-22.7203642273
  0
LINE
  5
301
100
AcDbEntity
  8
0
100
AcDbLine
 62
7
  6
CONTINUOUS
 10
-1.6401363879
 20
-24.4695194069
 11
-2.0453007077
 21
-22.6496535491
  0
LINE
  5
302
100
AcDbEntity
  8
0
100
AcDbLine
 62
7
  6
CONTINUOUS
 10
-5.6999884703
 20
-22.2154607601
 11
-5.983018566
 21
-20.8222159762
  0
LINE
  5
303
100
AcDbEntity
  8
0
100
AcDbLine
 62
7
  6
CONTINUOUS
 10
-5.6119851322
 20
-21.8817943881
 11
-5.8415972098
 21
-20.7515052981
  0
LINE
  5
304
100
AcDbEntity
  8
0
100
AcDbLine
 62
7
  6
CONTINUOUS
 10
-2.1380978662
 20
-24.2001394044
 11
-2.0578080125
 21
-24.6033213145
  0
LINE
  5
305
100
AcDbEntity
  8
0
100
AcDbLine
 62
7
  6
CONTINUOUS
 10
-2.3424580899
 20
-23.1421738197
 11
-2.2000382989
 21
-23.8882521977
  0
LINE
  5
306
100
AcDbEntity
  8
0
100
AcDbLine
 62
7
  6
CONTINUOUS
 10
-3.0009435017
 20
-24.1317535698
 11
-3.1397888679
 21
-22.2438308253
  0
LINE
  5
307
100
AcDbEntity
  8
0
100
AcDbLine
 62
7
  6
CONTINUOUS
 10
-2.8725057702
 20
-23.8845005903
 11
-2.9983675117
 21
-22.1731201472
  0
LINE
  5
308
100
AcDbEntity
  8
0
100
AcDbLine
 62
7
  6
CONTINUOUS
 10
-3.3678201983
 20
-22.7658190205
 11
-3.3041431113
 21
-23.980153765
  0
LINE
  5
309
100
AcDbEntity
  8
0
100
AcDbLine
 62
7
  6
CONTINUOUS
 10
-4.9835712141
 20
-21.321830533
 11
-4.9835712141
 21
-23.1404397137
  0
LINE
  5
30A
100
AcDbEntity
  8
0
100
AcDbLine
 62
7
  6
CONTINUOUS
 10
-4.6736349982
 20
-23.2954078216
 11
-4.6736349982
 21
-21.476798641
  0
LINE
  5
30B
100
AcDbEntity
  8
0
100
AcDbLine
 62
7
  6
CONTINUOUS
 10
-4.5322136419
 20
-23.2246971435
 11
-4.5322136419
 21
-21.4060879628
  0
LINE
  5
30C
100
AcDbEntity
  8
RACCORDO
100
AcDbLine
 62
7
  6
CONTINUOUS
 10
-3.3052860163
 20
-19.060410542
 11
-3.3052860163
 21
-19.0678079457
  0
LINE
  5
30D
100
AcDbEntity
  8
DRAFT
100
AcDbLine
 62
7
  6
CONTINUOUS
 10
-3.270368863
 20
-18.935500223
 11
-3.270368863
 21
-18.555890272
  0
LINE
  5
30E
100
AcDbEntity
  8
RACCORDO
100
AcDbLine
 62
7
  6
CONTINUOUS
 10
-2.9218176967
 20
-17.753015822
 11
-2.9218176967
 21
-18.0639306219
  0
LINE
  5
30F
100
AcDbEntity
  8
RACCORDO
100
AcDbLine
 62
7
  6
CONTINUOUS
 10
-2.8646186864
 20
-18.7024114964
 11
-2.8646186864
 21
-18.2696315717
  0
LINE
  5
310
100
AcDbEntity
  8
RACCORDO
100
AcDbLine
 62
7
  6
CONTINUOUS
 10
-2.8376196368
 20
-17.6488170664
 11
-2.8376196368
 21
-18.6878448897
  0
LINE
  5
311
100
AcDbEntity
  8
ASSI
100
AcDbLine
 62
7
  6
CONTINUOUS
 10
-1.9477962087
 20
-16.9651108186
 11
-1.9477962087
 21
-17.3906344131
  0
LINE
  5
312
100
AcDbEntity
  8
ASSI
100
AcDbLine
 62
7
  6
CONTINUOUS
 10
-1.8964251738
 20
-16.9493519908
 11
-1.8964251738
 21
-17.3733006203
  0
LINE
  5
313
100
AcDbEntity
  8
0
100
AcDbLine
 62
7
  6
CONTINUOUS
 10
-1.6401363879
 20
-23.0149031259
 11
-1.6401363879
 21
-24.8121574712
  0
LINE
  5
314
100
AcDbEntity
  8
0
100
AcDbLine
 62
7
  6
CONTINUOUS
 10
-1.3417245984
 20
-23.9518763033
 11
-1.3417245984
 21
-23.4526624707
  0
LINE
  5
315
100
AcDbEntity
  8
0
100
AcDbLine
 62
7
  6
CONTINUOUS
 10
-1.3314475908
 20
-24.9665018697
 11
-1.3314475908
 21
-24.2548412414
  0
LINE
  5
316
100
AcDbEntity
  8
0
100
AcDbLine
 62
7
  6
CONTINUOUS
 10
-1.2003032422
 20
-23.8811656252
 11
-1.2003032422
 21
-23.5063868119
  0
LINE
  5
317
100
AcDbEntity
  8
0
100
AcDbLine
 62
7
  6
CONTINUOUS
 10
-1.1900262345
 20
-24.8957911916
 11
-1.1900262345
 21
-24.3255519195
  0
LINE
  5
318
100
AcDbEntity
  8
0
100
AcDbLine
 62
7
  6
CONTINUOUS
 10
-0.8433064295
 20
-24.3617125659
 11
-0.8433064295
 21
-24.3509668136
  0
LINE
  5
319
100
AcDbEntity
  8
0
100
AcDbLine
 62
7
  6
CONTINUOUS
 10
-4.2102792382
 20
-23.5270857016
 11
-4.1433947148
 21
-22.373081561
  0
LINE
  5
31A
100
AcDbEntity
  8
0
100
AcDbLine
 62
7
  6
CONTINUOUS
 10
-4.0688578819
 20
-23.4563750235
 11
-4.030674526
 21
-22.7975716318
  0
LINE
  5
31B
100
AcDbEntity
  8
0
100
AcDbLine
 62
7
  6
CONTINUOUS
 10
-4.3727179293
 20
-21.6273662946
 11
-4.5067867892
 21
-23.3788319261
  0
LINE
  5
31C
100
AcDbEntity
  8
0
100
AcDbLine
 62
7
  6
CONTINUOUS
 10
-5.408313287
 20
-21.1095686158
 11
-5.6999884703
 21
-22.2154607601
  0
LINE
  5
31D
100
AcDbEntity
  8
ASSI
100
AcDbLine
 62
7
  6
CONTINUOUS
 10
-18.1196112679
 20
-9.6542726571
 11
-17.8649063943
 21
-9.4696766062
  0
LINE
  5
31E
100
AcDbEntity
  8
ASSI
100
AcDbLine
 62
7
  6
CONTINUOUS
 10
-17.8647123153
 20
-8.9272142753
 11
-19.3643740672
 21
-9.7599858301
  0
LINE
  5
31F
100
AcDbEntity
  8
RACCORDO
100
AcDbLine
 62
7
  6
CONTINUOUS
 10
-21.5435311278
 20
-8.730705535
 11
-22.1092165527
 21
-9.0256414712
  0
LINE
  5
320
100
AcDbEntity
  8
RACCORDO
100
AcDbLine
 62
7
  6
CONTINUOUS
 10
-21.4076578004
 20
-8.7383439635
 11
-21.9733432254
 21
-9.0332798997
  0
LINE
  5
321
100
AcDbEntity
  8
ASSI
100
AcDbLine
 62
7
  6
CONTINUOUS
 10
-18.1196112679
 20
-9.6542726571
 11
-18.8408124448
 21
-10.0217666413
  0
LINE
  5
322
100
AcDbEntity
  8
DRAFT
100
AcDbLine
 62
7
  6
CONTINUOUS
 10
-18.5705936213
 20
-10.1568760531
 11
-18.4634654026
 21
-10.1030159846
  0
LINE
  5
323
100
AcDbEntity
  8
DRAFT
100
AcDbLine
 62
7
  6
CONTINUOUS
 10
-18.6414532875
 20
-10.12144622
 11
-18.3841664313
 21
-9.9922257259
  0
LINE
  5
324
100
AcDbEntity
  8
ASSI
100
AcDbLine
 62
7
  6
CONTINUOUS
 10
-24.3067956033
 20
-7.9450765377
 11
-24.1653742471
 21
-7.8743658596
  0
LINE
  5
325
100
AcDbEntity
  8
ASSI
100
AcDbLine
 62
7
  6
CONTINUOUS
 10
-23.9532422127
 20
-7.7682998424
 11
-23.8118208565
 21
-7.6975891643
  0
LINE
  5
326
100
AcDbEntity
  8
ASSI
100
AcDbLine
 62
7
  6
CONTINUOUS
 10
-23.5996888221
 20
-7.5915231471
 11
-23.4582674659
 21
-7.520812469
  0
LINE
  5
327
100
AcDbEntity
  8
ASSI
100
AcDbLine
 62
7
  6
CONTINUOUS
 10
-23.2461354315
 20
-7.4147464518
 11
-23.1047140753
 21
-7.3440357737
  0
LINE
  5
328
100
AcDbEntity
  8
ASSI
100
AcDbLine
 62
7
  6
CONTINUOUS
 10
-22.8925820409
 20
-7.2379697565
 11
-22.7511606847
 21
-7.1672590784
  0
LINE
  5
329
100
AcDbEntity
  8
ASSI
100
AcDbLine
 62
7
  6
CONTINUOUS
 10
-22.5390286503
 20
-7.0611930612
 11
-22.3976072941
 21
-6.9904823831
  0
LINE
  5
32A
100
AcDbEntity
  8
ASSI
100
AcDbLine
 62
7
  6
CONTINUOUS
 10
-22.1854752597
 20
-6.8844163659
 11
-22.0440539035
 21
-6.8137056878
  0
LINE
  5
32B
100
AcDbEntity
  8
ASSI
100
AcDbLine
 62
7
  6
CONTINUOUS
 10
-19.7106015256
 20
-9.5360667953
 11
-19.5691801693
 21
-9.4653561172
  0
LINE
  5
32C
100
AcDbEntity
  8
ASSI
100
AcDbLine
 62
7
  6
CONTINUOUS
 10
-19.357048135
 20
-9.3592901
 11
-19.2156267787
 21
-9.2885794219
  0
LINE
  5
32D
100
AcDbEntity
  8
ASSI
100
AcDbLine
 62
7
  6
CONTINUOUS
 10
-19.0034947444
 20
-9.1825134048
 11
-18.8620733882
 21
-9.1118027266
  0
LINE
  5
32E
100
AcDbEntity
  8
ASSI
100
AcDbLine
 62
7
  6
CONTINUOUS
 10
-18.6499413538
 20
-9.0057367095
 11
-18.5085199976
 21
-8.9350260313
  0
LINE
  5
32F
100
AcDbEntity
  8
ASSI
100
AcDbLine
 62
7
  6
CONTINUOUS
 10
-18.2963879632
 20
-8.8289600142
 11
-18.154966607
 21
-8.758249336
  0
LINE
  5
330
100
AcDbEntity
  8
ASSI
100
AcDbLine
 62
7
  6
CONTINUOUS
 10
-18.0489005898
 20
-8.835120138
 11
-19.6315030206
 21
-9.6264213534
  0
LINE
  5
331
100
AcDbEntity
  8
ASSI
100
AcDbLine
 62
7
  6
CONTINUOUS
 10
-17.8576987854
 20
-9.4356831247
 11
-18.9372777447
 21
-9.9735339914
  0
LINE
  5
332
100
AcDbEntity
  8
ASSI
100
AcDbLine
 62
7
  6
CONTINUOUS
 10
-22.1221761608
 20
-6.7984823525
 11
-24.5758693926
 21
-7.9031400072
  0
LINE
  5
333
100
AcDbEntity
  8
RACCORDO
100
AcDbLine
 62
7
  6
CONTINUOUS
 10
2.5081585911
 20
-21.0282425415
 11
2.5081585911
 21
-21.445153999
  0
LINE
  5
334
100
AcDbEntity
  8
RACCORDO
100
AcDbLine
 62
7
  6
CONTINUOUS
 10
5.9573746315
 20
-22.6807073766
 11
5.9573746315
 21
-23.1697620192
  0
LINE
  5
335
100
AcDbEntity
  8
RACCORDO
100
AcDbLine
 62
7
  6
CONTINUOUS
 10
6.1291491025
 20
-22.2784992216
 11
6.1291491025
 21
-23.2556492547
  0
LINE
  5
336
100
AcDbEntity
  8
RACCORDO
100
AcDbLine
 62
7
  6
CONTINUOUS
 10
6.2133471624
 20
-22.174300466
 11
6.2133471624
 21
-23.2977482847
  0
LINE
  5
337
100
AcDbEntity
  8
ASSI
100
AcDbLine
 62
7
  6
CONTINUOUS
 10
-2.4997796275
 20
-18.05104688
 11
-2.4172202027
 21
-17.7149631408
  0
LINE
  5
338
100
AcDbEntity
  8
0
100
AcDbLine
 62
7
  6
CONTINUOUS
 10
-2.4967799022
 20
-23.739881396
 11
-2.3424580899
 21
-23.1421738197
  0
LINE
  5
339
100
AcDbEntity
  8
0
100
AcDbLine
 62
7
  6
CONTINUOUS
 10
-2.355358546
 20
-23.6691707179
 11
-2.2901043839
 21
-23.4164332308
  0
LINE
  5
33A
100
AcDbEntity
  8
0
100
AcDbLine
 62
7
  6
CONTINUOUS
 10
-2.6457022472
 20
-24.3093741971
 11
-2.5601790962
 21
-23.9890987893
  0
LINE
  5
33B
100
AcDbEntity
  8
0
100
AcDbLine
 62
7
  6
CONTINUOUS
 10
-2.504280891
 20
-24.238663519
 11
-2.452073354
 21
-24.0431516605
  0
LINE
  5
33C
100
AcDbEntity
  8
0
100
AcDbLine
 62
7
  6
CONTINUOUS
 10
-2.48654736
 20
-22.5704515792
 11
-2.9522754633
 21
-24.1560875891
  0
LINE
  5
33D
100
AcDbEntity
  8
0
100
AcDbLine
 62
7
  6
CONTINUOUS
 10
-5.5758629459
 20
-22.8442938478
 11
-5.098588496
 21
-21.2644310112
  0
LINE
  5
33E
100
AcDbEntity
  8
0
100
AcDbLine
 62
7
  6
CONTINUOUS
 10
-5.4344415896
 20
-22.7735831696
 11
-4.9571671398
 21
-21.1937203331
  0
LINE
  5
33F
100
AcDbEntity
  8
0
100
AcDbLine
 62
7
  6
CONTINUOUS
 10
-3.4464398657
 20
-22.0905053264
 11
-3.7563760816
 21
-22.9451738829
  0
LINE
  5
340
100
AcDbEntity
  8
0
100
AcDbLine
 62
7
  6
CONTINUOUS
 10
-3.7363345541
 20
-23.7640580436
 11
-3.3678201983
 21
-22.7658190205
  0
LINE
  5
341
100
AcDbEntity
  8
0
100
AcDbLine
 62
7
  6
CONTINUOUS
 10
-3.5949131979
 20
-23.6933473655
 11
-3.3534772977
 21
-23.039340993
  0
LINE
  5
342
100
AcDbEntity
  8
RACCORDO
100
AcDbLine
 62
7
  6
CONTINUOUS
 10
-16.1158686672
 20
-11.5182173023
 11
-17.0190621096
 21
-12.0055108853
  0
LINE
  5
343
100
AcDbEntity
  8
RACCORDO
100
AcDbLine
 62
7
  6
CONTINUOUS
 10
-15.9785750814
 20
-11.5251076541
 11
-16.8817685238
 21
-12.012401237
  0
LINE
  5
344
100
AcDbEntity
  8
DRAFT
100
AcDbLine
 62
7
  6
CONTINUOUS
 10
48.990657227
 20
21.8298430614
 11
50.6818785415
 21
22.7116086491
  0
LINE
  5
345
100
AcDbEntity
  8
RACCORDO
100
AcDbLine
 62
7
  6
CONTINUOUS
 10
-17.440860146
 20
-11.2995214394
 11
-16.8653006452
 21
-11.0095225411
  0
LINE
  5
346
100
AcDbEntity
  8
RACCORDO
100
AcDbLine
 62
7
  6
CONTINUOUS
 10
-17.1404560298
 20
-11.6208466886
 11
-16.6532009196
 21
-11.3753404551
  0
LINE
  5
347
100
AcDbEntity
  8
SMUSSO
100
AcDbLine
 62
7
  6
CONTINUOUS
 10
46.8988572622
 20
20.47449055
 11
48.6666242152
 21
21.3583740264
  0
LINE
  5
348
100
AcDbEntity
  8
SMUSSO
100
AcDbLine
 62
7
  6
CONTINUOUS
 10
47.6059640434
 20
19.2549117556
 11
49.3737309964
 21
20.1387952321
  0
LINE
  5
349
100
AcDbEntity
  8
DRAFT
100
AcDbLine
 62
7
  6
CONTINUOUS
 10
50.0217970219
 20
20.0513899896
 11
51.7425387133
 21
20.8822404587
  0
LINE
  5
34A
100
AcDbEntity
  8
DRAFT
100
AcDbLine
 62
7
  6
CONTINUOUS
 10
-17.0589510961
 20
-11.6615991554
 11
-17.6246365211
 21
-11.9081326933
  0
LINE
  5
34B
100
AcDbEntity
  8
RACCORDO
100
AcDbLine
 62
7
  6
CONTINUOUS
 10
-28.6023572115
 20
20.8987941821
 11
-28.6023902248
 21
20.8988106786
  0
LINE
  5
34C
100
AcDbEntity
  8
RACCORDO
100
AcDbLine
 62
7
  6
CONTINUOUS
 10
-31.8374828229
 20
20.2044195042
 11
-31.4300871251
 21
20.0007216552
  0
LINE
  5
34D
100
AcDbEntity
  8
DRAFT
100
AcDbLine
 62
7
  6
CONTINUOUS
 10
-33.1565973992
 20
22.331124559
 11
-32.6205582912
 21
22.0631050049
  0
LINE
  5
34E
100
AcDbEntity
  8
RACCORDO
100
AcDbLine
 62
7
  6
CONTINUOUS
 10
-33.0568116749
 20
22.2940886103
 11
-33.1565973992
 21
22.3439814725
  0
LINE
  5
34F
100
AcDbEntity
  8
RACCORDO
100
AcDbLine
 62
7
  6
CONTINUOUS
 10
-32.0495825485
 20
21.8478854066
 11
-32.9250547501
 21
22.2856215073
  0
LINE
  5
350
100
AcDbEntity
  8
RACCORDO
100
AcDbLine
 62
7
  6
CONTINUOUS
 10
-29.0887376224
 20
21.0820344452
 11
-28.7110713821
 21
20.893201325
  0
LINE
  5
351
100
AcDbEntity
  8
RACCORDO
100
AcDbLine
 62
7
  6
CONTINUOUS
 10
-28.9800194023
 20
21.0876252776
 11
-28.6023531619
 21
20.8987921574
  0
LINE
  5
352
100
AcDbEntity
  8
RACCORDO
100
AcDbLine
 62
7
  6
CONTINUOUS
 10
10.4832962169
 20
-25.9547016585
 11
10.4832962169
 21
-25.9620990623
  0
LINE
  5
353
100
AcDbEntity
  8
DRAFT
100
AcDbLine
 62
7
  6
CONTINUOUS
 10
10.5182133701
 20
-25.8297913396
 11
10.5182133701
 21
-25.4501813885
  0
LINE
  5
354
100
AcDbEntity
  8
RACCORDO
100
AcDbLine
 62
7
  6
CONTINUOUS
 10
-5.6336285511
 20
-16.6856568233
 11
-6.199313976
 21
-16.9805927595
  0
LINE
  5
355
100
AcDbEntity
  8
RACCORDO
100
AcDbLine
 62
7
  6
CONTINUOUS
 10
-5.4977552237
 20
-16.6932952519
 11
-6.0634406487
 21
-16.9882311881
  0
LINE
  5
356
100
AcDbEntity
  8
RACCORDO
100
AcDbLine
 62
7
  6
CONTINUOUS
 10
-11.4925233677
 20
-13.768133511
 11
-12.4278075564
 21
-14.2393817207
  0
LINE
  5
357
100
AcDbEntity
  8
RACCORDO
100
AcDbLine
 62
7
  6
CONTINUOUS
 10
-11.280423642
 20
-14.133951425
 11
-11.6957338147
 21
-14.3432077961
  0
LINE
  5
358
100
AcDbEntity
  8
RACCORDO
100
AcDbLine
 62
7
  6
CONTINUOUS
 10
30.6684783876
 20
4.4315003956
 11
30.9600249748
 21
4.5783977867
  0
LINE
  5
359
100
AcDbEntity
  8
RACCORDO
100
AcDbLine
 62
7
  6
CONTINUOUS
 10
31.1633777473
 20
3.577925263
 11
31.4549243346
 21
3.7248226541
  0
LINE
  5
35A
100
AcDbEntity
  8
ASSI
100
AcDbLine
 62
7
  6
CONTINUOUS
 10
-6.2122735841
 20
-14.8400361812
 11
-8.5748256287
 21
-15.9036618891
  0
LINE
  5
35B
100
AcDbEntity
  8
DRAFT
100
AcDbLine
 62
7
  6
CONTINUOUS
 10
-11.7556502372
 20
-14.3132495848
 11
-12.3213356622
 21
-14.5597831227
  0
LINE
  5
35C
100
AcDbEntity
  8
RACCORDO
100
AcDbLine
 62
7
  6
CONTINUOUS
 10
-33.0568116749
 20
28.2685905648
 11
-33.1017756219
 21
28.2910725384
  0
LINE
  5
35D
100
AcDbEntity
  8
RACCORDO
100
AcDbLine
 62
7
  6
CONTINUOUS
 10
-32.6205582912
 20
28.9893541771
 11
-32.1215274861
 21
28.7398387745
  0
LINE
  5
35E
100
AcDbEntity
  8
ASSI
100
AcDbLine
 62
7
  6
CONTINUOUS
 10
13.962106368
 20
-24.9200621069
 11
13.962106368
 21
-25.3455857014
  0
LINE
  5
35F
100
AcDbEntity
  8
ASSI
100
AcDbLine
 62
7
  6
CONTINUOUS
 10
14.0134774029
 20
-24.9043032792
 11
14.0134774029
 21
-25.3282519086
  0
LINE
  5
360
100
AcDbEntity
  8
RACCORDO
100
AcDbLine
 62
7
  6
CONTINUOUS
 10
16.2967408242
 20
-27.9225336581
 11
16.2967408242
 21
-28.3394451156
  0
LINE
  5
361
100
AcDbEntity
  8
ASSI
100
AcDbLine
 62
7
  6
CONTINUOUS
 10
-2.2097086912
 20
-17.6092239454
 11
-1.9550038176
 21
-17.4246278946
  0
LINE
  5
362
100
AcDbEntity
  8
ASSI
100
AcDbLine
 62
7
  6
CONTINUOUS
 10
-1.9548097386
 20
-16.968768104
 11
-2.8860527636
 21
-17.485893183
  0
LINE
  5
363
100
AcDbEntity
  8
RACCORDO
100
AcDbLine
 62
7
  6
CONTINUOUS
 10
-2.3272864341
 20
-18.4125084189
 11
-3.2304798764
 21
-18.8998020018
  0
LINE
  5
364
100
AcDbEntity
  8
RACCORDO
100
AcDbLine
 62
7
  6
CONTINUOUS
 10
-2.1899928483
 20
-18.4193987707
 11
-3.0931862906
 21
-18.9066923536
  0
LINE
  5
365
100
AcDbEntity
  8
ASSI
100
AcDbLine
 62
7
  6
CONTINUOUS
 10
-2.2097086912
 20
-17.6092239454
 11
-2.8376196368
 21
-17.9291811259
  0
LINE
  5
366
100
AcDbEntity
  8
RACCORDO
100
AcDbLine
 62
7
  6
CONTINUOUS
 10
-3.6522779128
 20
-18.193812556
 11
-3.0767184121
 21
-17.9038136577
  0
LINE
  5
367
100
AcDbEntity
  8
RACCORDO
100
AcDbLine
 62
7
  6
CONTINUOUS
 10
-3.3518737967
 20
-18.5151378051
 11
-2.8646186864
 21
-18.2696315717
  0
LINE
  5
368
100
AcDbEntity
  8
ASSI
100
AcDbLine
 62
7
  6
CONTINUOUS
 10
-2.5702973376
 20
-18.1495686542
 11
-2.8376196368
 21
-18.2839683251
  0
LINE
  5
369
100
AcDbEntity
  8
ASSI
100
AcDbLine
 62
7
  6
CONTINUOUS
 10
-2.4997796275
 20
-18.05104688
 11
-2.8376196368
 21
-18.2207246223
  0
LINE
  5
36A
100
AcDbEntity
  8
0
100
AcDbLine
 62
7
  6
CONTINUOUS
 10
-6.1782832752
 20
-20.5831622654
 11
-6.3197046315
 21
-20.6538729435
  0
LINE
  5
36B
100
AcDbEntity
  8
0
100
AcDbLine
 62
7
  6
CONTINUOUS
 10
-5.8415972098
 20
-20.7515052981
 11
-5.983018566
 21
-20.8222159762
  0
LINE
  5
36C
100
AcDbEntity
  8
0
100
AcDbLine
 62
7
  6
CONTINUOUS
 10
-5.2668919307
 20
-21.0388579376
 11
-5.408313287
 21
-21.1095686158
  0
LINE
  5
36D
100
AcDbEntity
  8
0
100
AcDbLine
 62
7
  6
CONTINUOUS
 10
-4.9571671398
 20
-21.1937203331
 11
-5.098588496
 21
-21.2644310112
  0
LINE
  5
36E
100
AcDbEntity
  8
0
100
AcDbLine
 62
7
  6
CONTINUOUS
 10
-4.8421498578
 20
-21.2511198549
 11
-4.9835712141
 21
-21.321830533
  0
LINE
  5
36F
100
AcDbEntity
  8
0
100
AcDbLine
 62
7
  6
CONTINUOUS
 10
-4.5322136419
 20
-21.4060879628
 11
-4.6736349982
 21
-21.476798641
  0
LINE
  5
370
100
AcDbEntity
  8
0
100
AcDbLine
 62
7
  6
CONTINUOUS
 10
-4.231296573
 20
-21.5566556165
 11
-4.3727179293
 21
-21.6273662946
  0
LINE
  5
371
100
AcDbEntity
  8
0
100
AcDbLine
 62
7
  6
CONTINUOUS
 10
-3.9216170369
 20
-21.7114953846
 11
-4.0630383931
 21
-21.7822060627
  0
LINE
  5
372
100
AcDbEntity
  8
0
100
AcDbLine
 62
7
  6
CONTINUOUS
 10
-5.4344415896
 20
-22.7735831696
 11
-5.5758629459
 21
-22.8442938478
  0
LINE
  5
373
100
AcDbEntity
  8
0
100
AcDbLine
 62
7
  6
CONTINUOUS
 10
-3.3050185095
 20
-22.0197946483
 11
-3.4464398657
 21
-22.0905053264
  0
LINE
  5
374
100
AcDbEntity
  8
ASSI
100
AcDbLine
 62
7
  6
CONTINUOUS
 10
-1.9477962087
 20
-17.3906344131
 11
-2.8376196368
 21
-17.8339482604
  0
LINE
  5
375
100
AcDbEntity
  8
RACCORDO
100
AcDbLine
 62
7
  6
CONTINUOUS
 10
-3.1339174223
 20
-17.387197908
 11
-3.6238899448
 21
-17.6302278913
  0
LINE
  5
376
100
AcDbEntity
  8
RACCORDO
100
AcDbLine
 62
7
  6
CONTINUOUS
 10
-2.9218176967
 20
-17.753015822
 11
-3.1509808533
 21
-17.8666824371
  0
LINE
  5
377
100
AcDbEntity
  8
RACCORDO
100
AcDbLine
 62
7
  6
CONTINUOUS
 10
-4.8016939084
 20
-16.6073144668
 11
-5.2529275218
 21
-16.8157091028
  0
LINE
  5
378
100
AcDbEntity
  8
RACCORDO
100
AcDbLine
 62
7
  6
CONTINUOUS
 10
-4.6722080809
 20
-16.6180525787
 11
-5.1795894809
 21
-16.8523781233
  0
LINE
  5
379
100
AcDbEntity
  8
DRAFT
100
AcDbLine
 62
7
  6
CONTINUOUS
 10
-3.270368863
 20
-18.555890272
 11
-3.8360542879
 21
-18.8024238099
  0
LINE
  5
37A
100
AcDbEntity
  8
RACCORDO
100
AcDbLine
 62
7
  6
CONTINUOUS
 10
-35.1030086243
 20
34.5406634801
 11
28.7182068287
 21
2.6300557536
  0
LINE
  5
37B
100
AcDbEntity
  8
RACCORDO
100
AcDbLine
 62
7
  6
CONTINUOUS
 10
-35.18097658
 20
34.7029256203
 11
28.640238854
 21
2.7923179033
  0
LINE
  5
37C
100
AcDbEntity
  8
RACCORDO
100
AcDbLine
 62
7
  6
CONTINUOUS
 10
30.4600485677
 20
4.0675174345
 11
-37.0007862937
 21
37.7979348652
  0
LINE
  5
37D
100
AcDbEntity
  8
RACCORDO
100
AcDbLine
 62
7
  6
CONTINUOUS
 10
30.6684783876
 20
4.4315003956
 11
-36.7923564738
 21
38.1619178263
  0
LINE
  5
37E
100
AcDbEntity
  8
RACCORDO
100
AcDbLine
 62
7
  6
CONTINUOUS
 10
-36.5108132071
 20
38.3138168777
 11
30.9600249748
 21
4.5783977867
  0
LWPOLYLINE
  5
37F
100
AcDbEntity
  8
RACCORDO
100
AcDbPolyline
 62
7
  6
CONTINUOUS
 90
24
 70
0
 10
28.7182138936
 20
2.6300523343
 10
28.7207019809
 20
2.6287824852
 10
28.7319528952
 20
2.6224366943
 10
28.7446682284
 20
2.6141652469
 10
28.7584926992
 20
2.6039353592
 10
28.7732065404
 20
2.5916782843
 10
28.7885649579
 20
2.5773833935
 10
28.8042104088
 20
2.5612016863
 10
28.8198830925
 20
2.5432627751
 10
28.8353953765
 20
2.5236622223
 10
28.8505564898
 20
2.5025317931
 10
28.8651710479
 20
2.4800554059
 10
28.8790759146
 20
2.4564175715
 10
28.892161215
 20
2.4317417532
 10
28.9042825845
 20
2.4062481156
 10
28.9153225885
 20
2.3801599518
 10
28.9252212477
 20
2.3535998338
 10
28.9338885313
 20
2.3267935034
 10
28.941250951
 20
2.29998573
 10
28.947273435
 20
2.2733539308
 10
28.9519242443
 20
2.2471184771
 10
28.955183244
 20
2.2215469051
 10
28.9570555445
 20
2.1969486279
 10
28.9575928941
 20
2.175735207
  0
LINE
  5
380
100
AcDbEntity
  8
RACCORDO
100
AcDbLine
 62
7
  6
CONTINUOUS
 10
21.8672772082
 20
-30.635658665
 11
21.8672772082
 21
-31.1247133075
  0
LINE
  5
381
100
AcDbEntity
  8
ASSI
100
AcDbLine
 62
7
  6
CONTINUOUS
 10
13.4101229492
 20
-26.0059981683
 11
13.492682374
 21
-25.6699144291
  0
LINE
  5
382
100
AcDbEntity
  8
RACCORDO
100
AcDbLine
 62
7
  6
CONTINUOUS
 10
2.6311008506
 20
-21.3972583788
 11
3.1869121998
 21
-21.0973854047
  0
LINE
  5
383
100
AcDbEntity
  8
RACCORDO
100
AcDbLine
 62
7
  6
CONTINUOUS
 10
2.7683944363
 20
-21.4041487306
 11
3.3242057855
 21
-21.1042757565
  0
LINE
  5
384
100
AcDbEntity
  8
RACCORDO
100
AcDbLine
 62
7
  6
CONTINUOUS
 10
5.1795571722
 20
-22.6097300985
 11
5.7452425971
 21
-22.3147941623
  0
LINE
  5
385
100
AcDbEntity
  8
RACCORDO
100
AcDbLine
 62
7
  6
CONTINUOUS
 10
5.4785561706
 20
-22.9303527887
 11
5.9573746315
 21
-22.6807073766
  0
LINE
  5
386
100
AcDbEntity
  8
RACCORDO
100
AcDbLine
 62
7
  6
CONTINUOUS
 10
2.2960588655
 20
-20.6624246276
 11
1.3607746767
 21
-21.1336728373
  0
LINE
  5
387
100
AcDbEntity
  8
RACCORDO
100
AcDbLine
 62
7
  6
CONTINUOUS
 10
2.5081585911
 20
-21.0282425415
 11
2.0928484185
 21
-21.2374989127
  0
LINE
  5
388
100
AcDbEntity
  8
0
100
AcDbLine
 62
7
  6
CONTINUOUS
 10
-2.9983675117
 20
-22.1731201472
 11
-3.1397888679
 21
-22.2438308253
  0
LINE
  5
389
100
AcDbEntity
  8
0
100
AcDbLine
 62
7
  6
CONTINUOUS
 10
-4.5322136419
 20
-23.2246971435
 11
-4.6736349982
 21
-23.2954078216
  0
LINE
  5
38A
100
AcDbEntity
  8
0
100
AcDbLine
 62
7
  6
CONTINUOUS
 10
-2.3451260038
 20
-22.4997409011
 11
-2.48654736
 21
-22.5704515792
  0
LINE
  5
38B
100
AcDbEntity
  8
0
100
AcDbLine
 62
7
  6
CONTINUOUS
 10
-4.0688578819
 20
-23.4563750235
 11
-4.2102792382
 21
-23.5270857016
  0
LINE
  5
38C
100
AcDbEntity
  8
0
100
AcDbLine
 62
7
  6
CONTINUOUS
 10
-2.0453007077
 20
-22.6496535491
 11
-2.186722064
 21
-22.7203642273
  0
LINE
  5
38D
100
AcDbEntity
  8
0
100
AcDbLine
 62
7
  6
CONTINUOUS
 10
-3.5949131979
 20
-23.6933473655
 11
-3.7363345541
 21
-23.7640580436
  0
LINE
  5
38E
100
AcDbEntity
  8
0
100
AcDbLine
 62
7
  6
CONTINUOUS
 10
-1.4987150317
 20
-22.9441924478
 11
-1.6401363879
 21
-23.0149031259
  0
LINE
  5
38F
100
AcDbEntity
  8
0
100
AcDbLine
 62
7
  6
CONTINUOUS
 10
-2.355358546
 20
-23.6691707179
 11
-2.4967799022
 21
-23.739881396
  0
LINE
  5
390
100
AcDbEntity
  8
0
100
AcDbLine
 62
7
  6
CONTINUOUS
 10
-2.935520183
 20
-24.0990419105
 11
-3.0009435017
 21
-24.1317535698
  0
LINE
  5
391
100
AcDbEntity
  8
0
100
AcDbLine
 62
7
  6
CONTINUOUS
 10
-0.7338406658
 20
-23.3457756158
 11
-0.875262022
 21
-23.416486294
  0
LINE
  5
392
100
AcDbEntity
  8
0
100
AcDbLine
 62
7
  6
CONTINUOUS
 10
-2.504280891
 20
-24.238663519
 11
-2.6457022472
 21
-24.3093741971
  0
LINE
  5
393
100
AcDbEntity
  8
0
100
AcDbLine
 62
7
  6
CONTINUOUS
 10
-1.2003032422
 20
-23.8811656252
 11
-1.3417245984
 21
-23.9518763033
  0
LINE
  5
394
100
AcDbEntity
  8
0
100
AcDbLine
 62
7
  6
CONTINUOUS
 10
-1.0231779578
 20
-23.9697282674
 11
-1.164599314
 21
-24.0404389455
  0
LINE
  5
395
100
AcDbEntity
  8
0
100
AcDbLine
 62
7
  6
CONTINUOUS
 10
-1.6401363879
 20
-24.7211447935
 11
-1.7311487212
 21
-24.7666509601
  0
LINE
  5
396
100
AcDbEntity
  8
0
100
AcDbLine
 62
7
  6
CONTINUOUS
 10
-0.8390081285
 20
-24.3595634154
 11
-0.8433064295
 21
-24.3617125659
  0
LINE
  5
397
100
AcDbEntity
  8
0
100
AcDbLine
 62
7
  6
CONTINUOUS
 10
-0.8002751416
 20
-24.3442741739
 11
-0.6588537854
 21
-24.2735634958
  0
LINE
  5
398
100
AcDbEntity
  8
0
100
AcDbLine
 62
7
  6
CONTINUOUS
 10
-1.1900262345
 20
-24.8957911916
 11
-1.3314475908
 21
-24.9665018697
  0
LINE
  5
399
100
AcDbEntity
  8
0
100
AcDbLine
 62
7
  6
CONTINUOUS
 10
-0.5232343825
 20
-24.7369962069
 11
-0.6646557387
 21
-24.807706885
  0
LINE
  5
39A
100
AcDbEntity
  8
0
100
AcDbLine
 62
7
  6
CONTINUOUS
 10
-0.4172798812
 20
-25.2821643683
 11
-0.5587012374
 21
-25.3528750464
  0
LINE
  5
39B
100
AcDbEntity
  8
RACCORDO
100
AcDbLine
 62
7
  6
CONTINUOUS
 10
5.9170493769
 20
-21.9126813076
 11
5.4270768543
 21
-22.1557112909
  0
LINE
  5
39C
100
AcDbEntity
  8
RACCORDO
100
AcDbLine
 62
7
  6
CONTINUOUS
 10
6.1291491025
 20
-22.2784992216
 11
5.8589975194
 21
-22.4124963984
  0
LINE
  5
39D
100
AcDbEntity
  8
RACCORDO
100
AcDbLine
 62
7
  6
CONTINUOUS
 10
4.2492728908
 20
-21.1327978664
 11
3.7980392774
 21
-21.3411925024
  0
LINE
  5
39E
100
AcDbEntity
  8
RACCORDO
100
AcDbLine
 62
7
  6
CONTINUOUS
 10
4.3787587183
 20
-21.1435359783
 11
3.8713773183
 21
-21.3778615229
  0
LINE
  5
39F
100
AcDbEntity
  8
DRAFT
100
AcDbLine
 62
7
  6
CONTINUOUS
 10
2.0329319959
 20
-21.2075407014
 11
1.467246571
 21
-21.4540742393
  0
LINE
  5
3A0
100
AcDbEntity
  8
SMUSSO
100
AcDbLine
 62
7
  6
CONTINUOUS
 10
46.191750481
 20
19.2549117556
 11
47.6059640434
 21
19.2549117556
  0
LINE
  5
3A1
100
AcDbEntity
  8
DRAFT
100
AcDbLine
 62
7
  6
CONTINUOUS
 10
49.3737309964
 20
20.0513899896
 11
50.0217970219
 21
20.0513899896
  0
LINE
  5
3A2
100
AcDbEntity
  8
RACCORDO
100
AcDbLine
 62
7
  6
CONTINUOUS
 10
28.9575936601
 20
2.1756506651
 11
28.9575936601
 21
-37.3639977588
  0
LINE
  5
3A3
100
AcDbEntity
  8
RACCORDO
100
AcDbLine
 62
7
  6
CONTINUOUS
 10
29.0454616258
 20
2.0695846479
 11
29.0454616258
 21
-37.4700637687
  0
LWPOLYLINE
  5
3A4
100
AcDbEntity
  8
RACCORDO
100
AcDbPolyline
 62
7
  6
CONTINUOUS
 90
8
 70
0
 10
28.9575938426
 20
-37.3641395618
 10
28.9574510742
 20
-37.3746314016
 10
28.9565502245
 20
-37.3920230728
 10
28.9548786817
 20
-37.4079592031
 10
28.9525694557
 20
-37.4220114894
 10
28.9499261916
 20
-37.4334545396
 10
28.9472960181
 20
-37.4420696958
 10
28.9467998845
 20
-37.4434602618
  0
LINE
  5
3A5
100
AcDbEntity
  8
ASSI
100
AcDbLine
 62
7
  6
CONTINUOUS
 10
13.7001938855
 20
-25.5641752338
 11
13.9548987591
 21
-25.3795791829
  0
LINE
  5
3A6
100
AcDbEntity
  8
ASSI
100
AcDbLine
 62
7
  6
CONTINUOUS
 10
13.9550928381
 20
-24.9237193924
 11
12.4690576606
 21
-25.7489240251
  0
LINE
  5
3A7
100
AcDbEntity
  8
RACCORDO
100
AcDbLine
 62
7
  6
CONTINUOUS
 10
11.4612957991
 20
-25.3067995355
 11
10.5581023567
 21
-25.7940931184
  0
LINE
  5
3A8
100
AcDbEntity
  8
RACCORDO
100
AcDbLine
 62
7
  6
CONTINUOUS
 10
11.5985893848
 20
-25.3136898872
 11
10.6953959425
 21
-25.8009834702
  0
LINE
  5
3A9
100
AcDbEntity
  8
ASSI
100
AcDbLine
 62
7
  6
CONTINUOUS
 10
13.7001938855
 20
-25.5641752338
 11
12.9074541583
 21
-25.968122274
  0
LINE
  5
3AA
100
AcDbEntity
  8
ASSI
100
AcDbLine
 62
7
  6
CONTINUOUS
 10
13.3396052391
 20
-26.1045199425
 11
13.2601468839
 21
-26.1444686368
  0
LINE
  5
3AB
100
AcDbEntity
  8
ASSI
100
AcDbLine
 62
7
  6
CONTINUOUS
 10
13.4101229492
 20
-26.0059981683
 11
13.1971421405
 21
-26.1129662651
  0
LINE
  5
3AC
100
AcDbEntity
  8
ASSI
100
AcDbLine
 62
7
  6
CONTINUOUS
 10
13.962106368
 20
-25.3455857014
 11
12.8101751538
 21
-25.9194827717
  0
LINE
  5
3AD
100
AcDbEntity
  8
ASSI
100
AcDbLine
 62
7
  6
CONTINUOUS
 10
9.6976289926
 20
-22.7949874696
 11
7.335076948
 21
-23.8586131775
  0
LINE
  5
3AE
100
AcDbEntity
  8
DRAFT
100
AcDbLine
 62
7
  6
CONTINUOUS
 10
10.5182133701
 20
-25.4501813885
 11
9.9525279452
 21
-25.6967149264
  0
LWPOLYLINE
  5
3AF
100
AcDbEntity
  8
RACCORDO
100
AcDbPolyline
 62
7
  6
CONTINUOUS
 90
6
 70
0
 10
-35.1236783548
 20
34.5486673376
 10
-35.1236332227
 20
34.5486590398
 10
-35.1219532859
 20
34.5482724208
 10
-35.1178210325
 20
34.5470099096
 10
-35.1115198283
 20
34.5445937165
 10
-35.1030138323
 20
34.540666215
  0
LINE
  5
3B0
100
AcDbEntity
  8
RACCORDO
100
AcDbLine
 62
7
  6
CONTINUOUS
 10
30.7428482019
 20
-40.6776259127
 11
30.7428482019
 21
3.5797602158
  0
LINE
  5
3B1
100
AcDbEntity
  8
RACCORDO
100
AcDbLine
 62
7
  6
CONTINUOUS
 10
31.1633777473
 20
-40.6794608656
 11
31.1633777473
 21
3.577925263
  0
LINE
  5
3B2
100
AcDbEntity
  8
RACCORDO
100
AcDbLine
 62
7
  6
CONTINUOUS
 10
31.4549243346
 20
3.7248226541
 11
31.4549243346
 21
-40.5448149901
  0
LINE
  5
3B3
100
AcDbEntity
  8
SMUSSO
100
AcDbLine
 62
7
  6
CONTINUOUS
 10
46.191750481
 20
19.2549117556
 11
46.8988572622
 21
20.47449055
  0
LINE
  5
3B4
100
AcDbEntity
  8
DRAFT
100
AcDbLine
 62
7
  6
CONTINUOUS
 10
48.7045516163
 20
21.3363838749
 11
48.990657227
 21
21.8298430614
  0
LINE
  5
3B5
100
AcDbEntity
  8
RACCORDO
100
AcDbLine
 62
7
  6
CONTINUOUS
 10
16.4196830838
 20
-28.2915494953
 11
16.9754944329
 21
-27.9916765212
  0
LINE
  5
3B6
100
AcDbEntity
  8
RACCORDO
100
AcDbLine
 62
7
  6
CONTINUOUS
 10
16.5569766695
 20
-28.2984398472
 11
17.1127880186
 21
-27.998566873
  0
LINE
  5
3B7
100
AcDbEntity
  8
RACCORDO
100
AcDbLine
 62
7
  6
CONTINUOUS
 10
16.0846410986
 20
-27.5567157441
 11
15.1493569099
 21
-28.0279639538
  0
LINE
  5
3B8
100
AcDbEntity
  8
RACCORDO
100
AcDbLine
 62
7
  6
CONTINUOUS
 10
16.2967408242
 20
-27.9225336581
 11
15.8814306516
 21
-28.1317900293
  0
LINE
  5
3B9
100
AcDbEntity
  8
DRAFT
100
AcDbLine
 62
7
  6
CONTINUOUS
 10
15.821514229
 20
-28.101831818
 11
15.2558288041
 21
-28.3483653559
  0
LINE
  5
3BA
100
AcDbEntity
  8
RACCORDO
100
AcDbLine
 62
7
  6
CONTINUOUS
 10
-34.7317688156
 20
34.3550435758
 11
-35.2019943865
 21
34.3686084987
  0
LINE
  5
3BB
100
AcDbEntity
  8
RACCORDO
100
AcDbLine
 62
7
  6
CONTINUOUS
 10
-35.1211880028
 20
34.5484931567
 11
-35.1211320124
 21
34.5484915414
  0
LWPOLYLINE
  5
3BC
100
AcDbEntity
  8
RACCORDO
100
AcDbPolyline
 62
7
  6
CONTINUOUS
 90
3
 70
0
 10
28.9467998845
 20
-37.4434602618
 10
28.9450520644
 20
-37.447829541
 10
28.9437461684
 20
-37.4505200128
  0
LINE
  5
3BD
100
AcDbEntity
  8
ASSI
100
AcDbLine
 62
7
  6
CONTINUOUS
 10
23.381289213
 20
-31.8817193099
 11
23.4229121268
 21
-31.8099304027
  0
LINE
  5
3BE
100
AcDbEntity
  8
ASSI
100
AcDbLine
 62
7
  6
CONTINUOUS
 10
23.6811143438
 20
-31.797610155
 11
23.7764655174
 21
-31.6331537074
  0
LINE
  5
3BF
100
AcDbEntity
  8
ASSI
100
AcDbLine
 62
7
  6
CONTINUOUS
 10
24.0346677344
 20
-31.6208334597
 11
24.130018908
 21
-31.4563770121
  0
LINE
  5
3C0
100
AcDbEntity
  8
ASSI
100
AcDbLine
 62
7
  6
CONTINUOUS
 10
24.388221125
 20
-31.4440567644
 11
24.4835722986
 21
-31.2796003168
  0
LINE
  5
3C1
100
AcDbEntity
  8
ASSI
100
AcDbLine
 62
7
  6
CONTINUOUS
 10
24.7417745156
 20
-31.2672800691
 11
24.8371256892
 21
-31.1028236215
  0
LINE
  5
3C2
100
AcDbEntity
  8
ASSI
100
AcDbLine
 62
7
  6
CONTINUOUS
 10
25.0953279062
 20
-31.0905033738
 11
25.1906790798
 21
-30.9260469262
  0
LINE
  5
3C3
100
AcDbEntity
  8
ASSI
100
AcDbLine
 62
7
  6
CONTINUOUS
 10
25.4488812968
 20
-30.9137266785
 11
25.5442324704
 21
-30.7492702309
  0
LINE
  5
3C4
100
AcDbEntity
  8
ASSI
100
AcDbLine
 62
7
  6
CONTINUOUS
 10
27.9962697408
 20
-33.4403077341
 11
28.0191062045
 21
-33.4009206604
  0
LINE
  5
3C5
100
AcDbEntity
  8
ASSI
100
AcDbLine
 62
7
  6
CONTINUOUS
 10
28.2665935779
 20
-33.4070807843
 11
28.3726595951
 21
-33.2241439651
  0
LINE
  5
3C6
100
AcDbEntity
  8
ASSI
100
AcDbLine
 62
7
  6
CONTINUOUS
 10
28.6201469685
 20
-33.230304089
 11
28.7262129857
 21
-33.0473672698
  0
LINE
  5
3C7
100
AcDbEntity
  8
RACCORDO
100
AcDbLine
 62
7
  6
CONTINUOUS
 10
21.0894597489
 20
-30.5646813869
 11
21.6551451738
 21
-30.2697454507
  0
LINE
  5
3C8
100
AcDbEntity
  8
RACCORDO
100
AcDbLine
 62
7
  6
CONTINUOUS
 10
21.3884587473
 20
-30.8853040771
 11
21.8672772082
 21
-30.635658665
  0
LINE
  5
3C9
100
AcDbEntity
  8
RACCORDO
100
AcDbLine
 62
7
  6
CONTINUOUS
 10
26.1861766023
 20
-32.5955594
 11
25.6204911774
 21
-32.8904953362
  0
LINE
  5
3CA
100
AcDbEntity
  8
RACCORDO
100
AcDbLine
 62
7
  6
CONTINUOUS
 10
26.3220499297
 20
-32.6031978286
 11
25.7563645047
 21
-32.8981337648
  0
LINE
  5
3CB
100
AcDbEntity
  8
ASSI
100
AcDbLine
 62
7
  6
CONTINUOUS
 10
23.4229121268
 20
-31.8099304027
 11
23.564333483
 21
-31.7392197246
  0
LINE
  5
3CC
100
AcDbEntity
  8
ASSI
100
AcDbLine
 62
7
  6
CONTINUOUS
 10
23.7764655174
 20
-31.6331537074
 11
23.9178868736
 21
-31.5624430293
  0
LINE
  5
3CD
100
AcDbEntity
  8
ASSI
100
AcDbLine
 62
7
  6
CONTINUOUS
 10
24.130018908
 20
-31.4563770121
 11
24.2714402642
 21
-31.385666334
  0
LINE
  5
3CE
100
AcDbEntity
  8
ASSI
100
AcDbLine
 62
7
  6
CONTINUOUS
 10
24.4835722986
 20
-31.2796003168
 11
24.6249936548
 21
-31.2088896387
  0
LINE
  5
3CF
100
AcDbEntity
  8
ASSI
100
AcDbLine
 62
7
  6
CONTINUOUS
 10
24.8371256892
 20
-31.1028236215
 11
24.9785470454
 21
-31.0321129434
  0
LINE
  5
3D0
100
AcDbEntity
  8
ASSI
100
AcDbLine
 62
7
  6
CONTINUOUS
 10
25.1906790798
 20
-30.9260469262
 11
25.332100436
 21
-30.8553362481
  0
LINE
  5
3D1
100
AcDbEntity
  8
ASSI
100
AcDbLine
 62
7
  6
CONTINUOUS
 10
25.5442324704
 20
-30.7492702309
 11
25.6856538266
 21
-30.6785595528
  0
LINE
  5
3D2
100
AcDbEntity
  8
ASSI
100
AcDbLine
 62
7
  6
CONTINUOUS
 10
25.6075315693
 20
-30.6633362175
 11
23.1538383375
 21
-31.7679938722
  0
LINE
  5
3D3
100
AcDbEntity
  8
SMUSSO
100
AcDbLine
 62
7
  6
CONTINUOUS
 10
46.191750481
 20
19.2549117556
 11
-51.7425387133
 21
68.2220563528
  0
LINE
  5
3D4
100
AcDbEntity
  8
SMUSSO
100
AcDbLine
 62
7
  6
CONTINUOUS
 10
46.8988572622
 20
20.47449055
 11
-51.0354319321
 21
69.4416351471
  0
LINE
  5
3D5
100
AcDbEntity
  8
SMUSSO
100
AcDbLine
 62
7
  6
CONTINUOUS
 10
-49.2676649792
 20
70.3255186236
 11
48.6666242152
 21
21.3583740264
  0
LINE
  5
3D6
100
AcDbEntity
  8
DRAFT
100
AcDbLine
 62
7
  6
CONTINUOUS
 10
48.990657227
 20
21.8298430614
 11
-48.1658145071
 21
70.4080789284
  0
LINE
  5
3D7
100
AcDbEntity
  8
SMUSSO
100
AcDbLine
 62
7
  6
CONTINUOUS
 10
46.191750481
 20
-70.811730238
 11
46.191750481
 21
19.2549117556
  0
LINE
  5
3D8
100
AcDbEntity
  8
SMUSSO
100
AcDbLine
 62
7
  6
CONTINUOUS
 10
47.6059640434
 20
-70.811730238
 11
47.6059640434
 21
19.2549117556
  0
LINE
  5
3D9
100
AcDbEntity
  8
RACCORDO
100
AcDbLine
 62
7
  6
CONTINUOUS
 10
28.9438984444
 20
-37.4503155648
 11
28.9450979714
 21
-37.448702527
  0
LINE
  5
3DA
100
AcDbEntity
  8
RACCORDO
100
AcDbLine
 62
7
  6
CONTINUOUS
 10
28.7798209874
 20
-37.4736474091
 11
28.9575936601
 21
-37.250492919
  0
LINE
  5
3DB
100
AcDbEntity
  8
RACCORDO
100
AcDbLine
 62
7
  6
CONTINUOUS
 10
28.9451020337
 20
-37.4487020081
 11
28.9450807689
 21
-37.448728681
  0
LINE
  5
3DC
100
AcDbEntity
  8
ASSI
100
AcDbLine
 62
7
  6
CONTINUOUS
 10
28.9575936601
 20
-33.2959540127
 11
28.3653336629
 21
-33.6248396952
  0
LINE
  5
3DD
100
AcDbEntity
  8
ASSI
100
AcDbLine
 62
7
  6
CONTINUOUS
 10
28.9575936601
 20
-33.8516146851
 11
28.8888952853
 21
-33.8866205064
  0
LINE
  5
3DE
100
AcDbEntity
  8
ASSI
100
AcDbLine
 62
7
  6
CONTINUOUS
 10
28.0191062045
 20
-33.4009206604
 11
28.1605275608
 21
-33.3302099823
  0
LINE
  5
3DF
100
AcDbEntity
  8
ASSI
100
AcDbLine
 62
7
  6
CONTINUOUS
 10
28.3726595951
 20
-33.2241439651
 11
28.5140809513
 21
-33.153433287
  0
LINE
  5
3E0
100
AcDbEntity
  8
ASSI
100
AcDbLine
 62
7
  6
CONTINUOUS
 10
28.7262129857
 20
-33.0473672698
 11
28.8676343419
 21
-32.9766565917
  0
LINE
  5
3E1
100
AcDbEntity
  8
ASSI
100
AcDbLine
 62
7
  6
CONTINUOUS
 10
28.9575936601
 20
-33.0615807432
 11
28.0982047095
 21
-33.4912752185
  0
LINE
  5
3E2
100
AcDbEntity
  8
ASSI
100
AcDbLine
 62
7
  6
CONTINUOUS
 10
28.9575936601
 20
-33.7561026055
 11
28.7924299854
 21
-33.8383878564
  0
LINE
  5
3E3
100
AcDbEntity
  8
DRAFT
100
AcDbLine
 62
7
  6
CONTINUOUS
 10
-46.4745931944
 20
71.2898445171
 11
50.6818785415
 21
22.7116086491
  0
LINE
  5
3E4
100
AcDbEntity
  8
SMUSSO
100
AcDbLine
 62
7
  6
CONTINUOUS
 10
49.0908882839
 20
21.0580340476
 11
48.8080455714
 21
21.270166082
  0
LINE
  5
3E5
100
AcDbEntity
  8
SMUSSO
100
AcDbLine
 62
7
  6
CONTINUOUS
 10
49.3737309964
 20
20.4923486227
 11
49.3737309964
 21
-69.9278467615
  0
LINE
  5
3E6
100
AcDbEntity
  8
DRAFT
100
AcDbLine
 62
7
  6
CONTINUOUS
 10
50.0217970219
 20
-69.0626240586
 11
50.0217970219
 21
20.0513899896
  0
LINE
  5
3E7
100
AcDbEntity
  8
DRAFT
100
AcDbLine
 62
7
  6
CONTINUOUS
 10
51.7425387133
 20
21.5893472387
 11
51.7425387133
 21
-68.2317735919
  0
LINE
  5
3E8
100
AcDbEntity
  8
RACCORDO
100
AcDbLine
 62
7
  6
CONTINUOUS
 10
31.1633777473
 20
-40.6794608656
 11
31.4549243346
 21
-40.5448149901
  0
LINE
  5
3E9
100
AcDbEntity
  8
RACCORDO
100
AcDbLine
 62
7
  6
CONTINUOUS
 10
30.9726402873
 20
-41.0622554957
 11
31.2656986411
 21
-40.9269114363
  0
LINE
  5
3EA
100
AcDbEntity
  8
SMUSSO
100
AcDbLine
 62
7
  6
CONTINUOUS
 10
51.4596966524
 20
22.155032175
 11
50.8940105759
 21
22.5792967324
  0
LINE
  5
3EB
100
AcDbEntity
  8
SMUSSO
100
AcDbLine
 62
7
  6
CONTINUOUS
 10
47.6059640434
 20
-70.811730238
 11
49.3737309964
 21
-69.9278467615
  0
LINE
  5
3EC
100
AcDbEntity
  8
RACCORDO
100
AcDbLine
 62
7
  6
CONTINUOUS
 10
47.346071452
 20
-71.3526037412
 11
49.1138378107
 21
-70.4687205619
  0
LINE
  5
3ED
100
AcDbEntity
  8
DRAFT
100
AcDbLine
 62
7
  6
CONTINUOUS
 10
50.0217970219
 20
-69.0626240586
 11
51.7425387133
 21
-68.2317735919
  0
LINE
  5
3EE
100
AcDbEntity
  8
DRAFT
100
AcDbLine
 62
7
  6
CONTINUOUS
 10
49.631948516
 20
-69.856634657
 11
51.3415292812
 21
-69.0485158235
  0
ARC
  5
3EF
100
AcDbEntity
  8
DRAFT
100
AcDbCircle
 62
7
  6
CONTINUOUS
 10
49.3803285046
 20
-69.2476844654
 40
0.6634370266
100
AcDbArc
 50
269.4440133823
 51
271.6256308861
  0
ARC
  5
3F0
100
AcDbEntity
  8
0
100
AcDbCircle
 62
7
  6
CONTINUOUS
 10
-1.0649873815
 20
-24.5858120271
 40
0.3152189922
100
AcDbArc
 50
42.2221610431
 51
45.3108458888
  0
ARC
  5
3F1
100
AcDbEntity
  8
RACCORDO
100
AcDbCircle
 62
7
  6
CONTINUOUS
 10
-3.1376059872
 20
-17.648813042
 40
0.2999860163
100
AcDbArc
 50
359.9999782123
 51
63.4464452758
  0
ARC
  5
3F2
100
AcDbEntity
  8
RACCORDO
100
AcDbCircle
 62
7
  6
CONTINUOUS
 10
5.913360812
 20
-22.1742964416
 40
0.2999860163
100
AcDbArc
 50
359.9999782123
 51
63.4464452758
  0
ARC
  5
3F3
100
AcDbEntity
  8
RACCORDO
100
AcDbCircle
 62
7
  6
CONTINUOUS
 10
-4.6759001482
 20
-16.8796084802
 40
0.2999366603
100
AcDbArc
 50
63.4376202806
 51
114.7714837855
  0
ARC
  5
3F4
100
AcDbEntity
  8
RACCORDO
100
AcDbCircle
 62
7
  6
CONTINUOUS
 10
4.3750666509
 20
-21.4050918798
 40
0.2999366603
100
AcDbArc
 50
63.4376202806
 51
114.7714837855
  0
ARC
  5
3F5
100
AcDbEntity
  8
RACCORDO
100
AcDbCircle
 62
7
  6
CONTINUOUS
 10
-28.7141595231
 20
15.1896951745
 40
0.2500031208
100
AcDbArc
 50
298.3482651455
 51
0.0019330358
  0
ARC
  5
3F6
100
AcDbEntity
  8
RACCORDO
100
AcDbCircle
 62
7
  6
CONTINUOUS
 10
-28.7141451877
 20
20.6751887132
 40
0.2499883484
100
AcDbArc
 50
359.9999783872
 51
63.4464435507
  0
ARC
  5
3F7
100
AcDbEntity
  8
RACCORDO
100
AcDbCircle
 62
7
  6
CONTINUOUS
 10
-29.0922067328
 20
20.8647447759
 40
0.2491796562
100
AcDbArc
 50
63.4508113348
 51
114.7789325735
  0
ARC
  5
3F8
100
AcDbEntity
  8
RACCORDO
100
AcDbCircle
 62
7
  6
CONTINUOUS
 10
-33.7588277473
 20
-4.553112661
 40
0.1748204284
100
AcDbArc
 50
236.3170244967
 51
243.5767101439
  0
ARC
  5
3F9
100
AcDbEntity
  8
RACCORDO
100
AcDbCircle
 62
7
  6
CONTINUOUS
 10
-33.9171436747
 20
-4.3015107742
 40
0.1092491829
100
AcDbArc
 50
179.9653182336
 51
186.2910223118
  0
ARC
  5
3FA
100
AcDbEntity
  8
RACCORDO
100
AcDbCircle
 62
7
  6
CONTINUOUS
 10
-29.1573745072
 20
21.0059167367
 40
0.0936883334
100
AcDbArc
 50
109.5195127964
 51
114.7788306941
  0
ARC
  5
3FB
100
AcDbEntity
  8
ASSI
100
AcDbCircle
 62
7
  6
CONTINUOUS
 10
-22.0820905998
 20
-6.8765303827
 40
0.0874961196
100
AcDbArc
 50
105.061869074
 51
111.661129725
  0
ARC
  5
3FC
100
AcDbEntity
  8
ASSI
100
AcDbCircle
 62
7
  6
CONTINUOUS
 10
25.6476171303
 20
-30.7413842478
 40
0.0874961196
100
AcDbArc
 50
105.0618690741
 51
111.6611297249
  0
SPLINE
  5
3FD
100
AcDbEntity
  8
0
100
AcDbSpline
 62
7
  6
CONTINUOUS
 70
0
 71
3
 72
11
 73
7
 74
5
 42
0.0000001
 43
0.0000001
 44
0.0000000001
 12
0.3138156219
 22
-0.2015300707
 32
0.0
 13
0.0047321734
 23
-0.3729238803
 33
0.0
 40
0.0
 40
0.0
 40
0.0
 40
0.0
 40
0.2339806254
 40
0.4918424311
 40
0.7556842856
 40
1.0
 40
1.0
 40
1.0
 40
1.0
 10
-1.0989177668
 20
-23.5633610444
 30
0.0
 10
-1.074442175
 20
-23.5790790884
 30
0.0
 10
-1.0276987526
 20
-23.6195816432
 30
0.0
 10
-0.9715469715
 20
-23.6959537246
 30
0.0
 10
-0.9351550933
 20
-23.784808903
 30
0.0
 10
-0.9242265847
 20
-23.8478534188
 30
0.0
 10
-0.9238412033
 20
-23.8782238069
 30
0.0
 11
-1.0989177668
 21
-23.5633610444
 31
0.0
 11
-1.0322759811
 21
-23.6196982073
 31
0.0
 11
-0.9754068227
 21
-23.6972525545
 31
0.0
 11
-0.9377894149
 21
-23.7881792162
 31
0.0
 11
-0.9238412033
 21
-23.8782238069
 31
0.0
  0
SPLINE
  5
3FE
100
AcDbEntity
  8
0
100
AcDbSpline
 62
7
  6
CONTINUOUS
 70
0
 71
3
 72
11
 73
7
 74
5
 42
0.0000001
 43
0.0000001
 44
0.0000000001
 12
0.0026069209
 22
-0.2082217894
 32
0.0
 13
-0.1862538365
 23
-0.0931268919
 33
0.0
 40
0.0
 40
0.0
 40
0.0
 40
0.0
 40
0.2862348139
 40
0.5536263913
 40
0.791049786
 40
1.0
 40
1.0
 40
1.0
 40
1.0
 10
-0.9238412033
 20
-23.8782238069
 30
0.0
 10
-0.9235924728
 20
-23.898090582
 30
0.0
 10
-0.9260433294
 20
-23.9366369413
 30
0.0
 10
-0.9390043716
 20
-23.9903337569
 30
0.0
 10
-0.96130758
 20
-24.035211715
 30
0.0
 10
-0.9851128531
 20
-24.0569759817
 30
0.0
 10
-0.9980854461
 20
-24.0634622763
 30
0.0
 11
-0.9238412033
 21
-23.8782238069
 31
0.0
 11
-0.9278963489
 21
-23.9376906998
 31
0.0
 11
-0.9416004247
 21
-23.9916590702
 31
0.0
 11
-0.9649860342
 21
-24.0352192131
 31
0.0
 11
-0.9980854461
 21
-24.0634622763
 31
0.0
  0
SPLINE
  5
3FF
100
AcDbEntity
  8
0
100
AcDbSpline
 62
7
  6
CONTINUOUS
 70
0
 71
3
 72
10
 73
6
 74
4
 42
0.0000001
 43
0.0000001
 44
0.0000000001
 12
0.257046478
 22
-0.0748047261
 32
0.0
 13
0.2252633536
 23
-0.1446549704
 33
0.0
 40
0.0
 40
0.0
 40
0.0
 40
0.0
 40
0.2362920832
 40
0.4814109498
 40
1.0
 40
1.0
 40
1.0
 40
1.0
 10
-1.3417245984
 20
-23.4526624707
 30
0.0
 10
-1.3214785825
 20
-23.4585543922
 30
0.0
 10
-1.2804503469
 20
-23.4714240588
 30
0.0
 10
-1.1977550133
 20
-23.5051841534
 30
0.0
 10
-1.1378574697
 20
-23.5383555499
 30
0.0
 10
-1.0989177668
 20
-23.5633610444
 30
0.0
 11
-1.3417245984
 21
-23.4526624707
 31
0.0
 11
-1.2814959965
 21
-23.4720030656
 31
0.0
 11
-1.2207052954
 21
-23.4967129023
 31
0.0
 11
-1.0989177668
 21
-23.5633610444
 31
0.0
  0
SPLINE
  5
400
100
AcDbEntity
  8
0
100
AcDbSpline
 62
7
  6
CONTINUOUS
 70
0
 71
3
 72
10
 73
6
 74
4
 42
0.0000001
 43
0.0000001
 44
0.0000000001
 12
0.2763115484
 22
-0.1381557742
 32
0.0
 13
0.0793323206
 23
-0.2985656924
 33
0.0
 40
0.0
 40
0.0
 40
0.0
 40
0.0
 40
0.2224105364
 40
0.6042534692
 40
1.0
 40
1.0
 40
1.0
 40
1.0
 10
-1.1652673752
 20
-24.3379313492
 30
0.0
 10
-1.1447825086
 20
-24.3481737825
 30
0.0
 10
-1.0931770105
 20
-24.3846339964
 30
0.0
 10
-1.0322011476
 20
-24.4700313706
 30
0.0
 10
-1.0028160396
 20
-24.5452358656
 30
0.0
 10
-0.9923508761
 20
-24.5846213113
 30
0.0
 11
-1.1652673752
 21
-24.3379313492
 31
0.0
 11
-1.1087928875
 21
-24.3770653117
 31
0.0
 11
-1.0373964592
 21
-24.4709661651
 31
0.0
 11
-0.9923508761
 21
-24.5846213113
 31
0.0
  0
SPLINE
  5
401
100
AcDbEntity
  8
0
100
AcDbSpline
 62
7
  6
CONTINUOUS
 70
0
 71
3
 72
9
 73
5
 74
3
 42
0.0000001
 43
0.0000001
 44
0.0000000001
 12
0.1629167104
 22
-0.6125703128
 32
0.0
 13
0.1303220388
 23
-0.6203228263
 33
0.0
 40
0.0
 40
0.0
 40
0.0
 40
0.0
 40
0.5011449125
 40
1.0
 40
1.0
 40
1.0
 40
1.0
 10
-0.9923508761
 20
-24.5846213113
 30
0.0
 10
-0.9651359159
 20
-24.6869501432
 30
0.0
 10
-0.9232052193
 20
-24.8942142117
 30
0.0
 10
-0.8784941378
 20
-25.100663499
 30
0.0
 10
-0.8568235338
 20
-25.2038138982
 30
0.0
 11
-0.9923508761
 21
-24.5846213113
 31
0.0
 11
-0.9224109222
 21
-24.894484181
 31
0.0
 11
-0.8568235338
 21
-25.2038138982
 31
0.0
  0
SPLINE
  5
402
100
AcDbEntity
  8
0
100
AcDbSpline
 62
7
  6
CONTINUOUS
 70
0
 71
3
 72
9
 73
5
 74
3
 42
0.0000001
 43
0.0000001
 44
0.0000000001
 12
0.0421357037
 22
-0.0144090793
 32
0.0
 13
0.039830055
 23
0.0199149644
 33
0.0
 40
0.0
 40
0.0
 40
0.0
 40
0.0
 40
0.5094570825
 40
1.0
 40
1.0
 40
1.0
 40
1.0
 10
-0.8433064295
 20
-24.3509668136
 30
0.0
 10
-0.8361509852
 20
-24.3534137494
 30
0.0
 10
-0.8203864604
 20
-24.3539420223
 30
0.0
 10
-0.8067882597
 20
-24.3475307226
 30
0.0
 10
-0.8002754759
 20
-24.344274341
 30
0.0
 11
-0.8433064295
 21
-24.3509668136
 31
0.0
 11
-0.8206505495
 21
-24.3521508722
 31
0.0
 11
-0.8002754759
 21
-24.344274341
 31
0.0
  0
SPLINE
  5
403
100
AcDbEntity
  8
RACCORDO
100
AcDbSpline
 62
7
  6
CONTINUOUS
 70
0
 71
3
 72
15
 73
11
 74
9
 42
0.0000001
 43
0.0000001
 44
0.0000000001
 12
0.0000198666
 22
-0.6465603367
 32
0.0
 13
-0.5782783253
 23
0.28919621
 33
0.0
 40
0.0
 40
0.0
 40
0.0
 40
0.0
 40
0.1488156354
 40
0.2853524865
 40
0.4094989621
 40
0.5236308894
 40
0.6329815813
 40
0.7448415681
 40
0.8659257345
 40
1.0
 40
1.0
 40
1.0
 40
1.0
 10
29.0454616258
 20
-37.4700637687
 30
0.0
 10
29.0454626113
 20
-37.5021365311
 30
0.0
 10
29.0413116789
 20
-37.5637739519
 30
0.0
 10
29.0205203334
 20
-37.6500671291
 30
0.0
 10
28.9850950524
 20
-37.7235226447
 30
0.0
 10
28.9349653565
 20
-37.7807195158
 30
0.0
 10
28.8711318939
 20
-37.8175430635
 30
0.0
 10
28.7971963284
 20
-37.8308645452
 30
0.0
 10
28.7177762107
 20
-37.8206665395
 30
0.0
 10
28.6660829346
 20
-37.8004988421
 30
0.0
 10
28.640238854
 20
-37.7875742523
 30
0.0
 11
29.0454616258
 21
-37.4700637687
 31
0.0
 11
29.0383215808
 21
-37.5660167707
 31
0.0
 11
29.0167631563
 21
-37.6516232619
 31
0.0
 11
28.9809344474
 21
-37.7234514282
 31
0.0
 11
28.9315860343
 21
-37.7783164185
 31
0.0
 11
28.8702232113
 21
-37.8134355205
 31
0.0
 11
28.7991676334
 21
-37.8269225216
 31
0.0
 11
28.7213801128
 21
-37.818082445
 31
0.0
 11
28.640238854
 21
-37.7875742523
 31
0.0
  0
SPLINE
  5
404
100
AcDbEntity
  8
RACCORDO
100
AcDbSpline
 62
7
  6
CONTINUOUS
 70
0
 71
3
 72
9
 73
5
 74
3
 42
0.0000001
 43
0.0000001
 44
0.0000000001
 12
0.1989366818
 22
-0.0994812521
 32
0.0
 13
0.1498422937
 23
-0.1643764275
 33
0.0
 40
0.0
 40
0.0
 40
0.0
 40
0.0
 40
0.2331595096
 40
1.0
 40
1.0
 40
1.0
 40
1.0
 10
28.640238854
 20
2.7923179033
 30
0.0
 10
28.6557001804
 20
2.7845862366
 30
0.0
 10
28.7201580958
 20
2.7477342664
 30
0.0
 10
28.7767058233
 20
2.6979202923
 30
0.0
 10
28.8150075359
 20
2.6559034589
 30
0.0
 11
28.640238854
 21
2.7923179033
 31
0.0
 11
28.6853281079
 21
2.766696804
 31
0.0
 11
28.8150075359
 21
2.6559034589
 31
0.0
  0
SPLINE
  5
405
100
AcDbEntity
  8
RACCORDO
100
AcDbSpline
 62
7
  6
CONTINUOUS
 70
0
 71
3
 72
9
 73
5
 74
3
 42
0.0000001
 43
0.0000001
 44
0.0000000001
 12
0.4311232275
 22
-0.4729405443
 32
0.0
 13
0.0000022423
 23
-0.63995312
 33
0.0
 40
0.0
 40
0.0
 40
0.0
 40
0.0
 40
0.5119288225
 40
1.0
 40
1.0
 40
1.0
 40
1.0
 10
28.8150075359
 20
2.6559034589
 30
0.0
 10
28.8885756713
 20
2.5751994936
 30
0.0
 10
29.0000922193
 20
2.3873401914
 30
0.0
 10
29.045461261
 20
2.1736988721
 30
0.0
 10
29.0454616258
 20
2.0695846479
 30
0.0
 11
28.8150075359
 21
2.6559034589
 31
0.0
 11
28.9854173905
 21
2.3761015888
 31
0.0
 11
29.0454616258
 21
2.0695846479
 31
0.0
  0
SPLINE
  5
406
100
AcDbEntity
  8
0
100
AcDbSpline
 62
7
  6
CONTINUOUS
 70
0
 71
3
 72
9
 73
5
 74
3
 42
0.0000001
 43
0.0000001
 44
0.0000000001
 12
-0.1087199623
 22
0.5446236221
 32
0.0
 13
-0.1090135263
 23
0.5445649374
 33
0.0
 40
0.0
 40
0.0
 40
0.0
 40
0.0
 40
0.4998343578
 40
1.0
 40
1.0
 40
1.0
 40
1.0
 10
-0.4172798812
 20
-25.2821643683
 30
0.0
 10
-0.435393872
 20
-25.1914238355
 30
0.0
 10
-0.4697952396
 20
-25.0095218914
 30
0.0
 10
-0.5050594423
 20
-24.8277870975
 30
0.0
 10
-0.5232343825
 20
-24.7369962069
 30
0.0
 11
-0.4172798812
 21
-25.2821643683
 31
0.0
 11
-0.4699994088
 21
-25.0096239125
 31
0.0
 11
-0.5232343825
 21
-24.7369962069
 31
0.0
  0
SPLINE
  5
407
100
AcDbEntity
  8
0
100
AcDbSpline
 62
7
  6
CONTINUOUS
 70
0
 71
3
 72
11
 73
7
 74
5
 42
0.0000001
 43
0.0000001
 44
0.0000000001
 12
-0.0752825898
 22
0.3760839262
 32
0.0
 13
-0.1936567563
 23
0.3310644176
 33
0.0
 40
0.0
 40
0.0
 40
0.0
 40
0.0
 40
0.2349491592
 40
0.4840459814
 40
0.7442103085
 40
1.0
 40
1.0
 40
1.0
 40
1.0
 10
-0.5232343825
 20
-24.7369962069
 30
0.0
 10
-0.5291302428
 20
-24.7075426728
 30
0.0
 10
-0.540824397
 20
-24.6467679479
 30
0.0
 10
-0.5637772913
 20
-24.5543497714
 30
0.0
 10
-0.5949266427
 20
-24.461512011
 30
0.0
 10
-0.6230790144
 20
-24.4015370388
 30
0.0
 10
-0.6395908151
 20
-24.373309417
 30
0.0
 11
-0.5232343825
 21
-24.7369962069
 31
0.0
 11
-0.5412447106
 21
-24.648700824
 31
0.0
 11
-0.564638946
 21
-24.556069513
 31
0.0
 11
-0.5969214511
 21
-24.4616511914
 31
0.0
 11
-0.6395908151
 21
-24.373309417
 31
0.0
  0
SPLINE
  5
408
100
AcDbEntity
  8
0
100
AcDbSpline
 62
7
  6
CONTINUOUS
 70
0
 71
3
 72
9
 73
5
 74
3
 42
0.0000001
 43
0.0000001
 44
0.0000000001
 12
-0.0503084761
 22
0.0860044682
 32
0.0
 13
-0.0699948064
 23
0.0709114829
 33
0.0
 40
0.0
 40
0.0
 40
0.0
 40
0.0
 40
0.2578691857
 40
1.0
 40
1.0
 40
1.0
 40
1.0
 10
-0.6395908151
 20
-24.373309417
 30
0.0
 10
-0.6439151503
 20
-24.365916783
 30
0.0
 10
-0.6613682335
 20
-24.3376715735
 30
0.0
 10
-0.6819147388
 20
-24.3112008386
 30
0.0
 10
-0.6992298397
 20
-24.2936589731
 30
0.0
 11
-0.6395908151
 21
-24.373309417
 31
0.0
 11
-0.6531220768
 21
-24.351467641
 31
0.0
 11
-0.6992298397
 21
-24.2936589731
 31
0.0
  0
SPLINE
  5
409
100
AcDbEntity
  8
RACCORDO
100
AcDbSpline
 62
7
  6
CONTINUOUS
 70
0
 71
3
 72
15
 73
11
 74
9
 42
0.0000001
 43
0.0000001
 44
0.0000000001
 12
-0.0000103451
 22
0.6465660531
 32
0.0
 13
0.5783199222
 23
-0.289125801
 33
0.0
 40
0.0
 40
0.0
 40
0.0
 40
0.0
 40
0.1488103064
 40
0.2853464
 40
0.4094914164
 40
0.5236242843
 40
0.632974012
 40
0.7448323333
 40
0.8659164603
 40
1.0
 40
1.0
 40
1.0
 40
1.0
 10
-35.5861993518
 20
34.3854151366
 30
0.0
 10
-35.5861998649
 20
34.4174870341
 30
0.0
 10
-35.5820437448
 20
34.4791232687
 30
0.0
 10
-35.5612536972
 20
34.5654156071
 30
0.0
 10
-35.5258274686
 20
34.6388712792
 30
0.0
 10
-35.4757001748
 20
34.6960696524
 30
0.0
 10
-35.4118715706
 20
34.7329019198
 30
0.0
 10
-35.3379372068
 20
34.7462302568
 30
0.0
 10
-35.2585116778
 20
34.7360361241
 30
0.0
 10
-35.2068243074
 20
34.7158479572
 30
0.0
 10
-35.18097658
 20
34.7029256203
 30
0.0
 11
-35.5861993518
 21
34.3854151366
 31
0.0
 11
-35.579055236
 21
34.4813652335
 31
0.0
 11
-35.5574961567
 21
34.5669718596
 31
0.0
 11
-35.5216677219
 21
34.6387999014
 31
0.0
 11
-35.4723209851
 21
34.6936680947
 31
0.0
 11
-35.4109620959
 21
34.7287940728
 31
0.0
 11
-35.3399081963
 21
34.7422875684
 31
0.0
 11
-35.2621200416
 21
34.7334471681
 31
0.0
 11
-35.18097658
 21
34.7029256203
 31
0.0
  0
SPLINE
  5
40A
100
AcDbEntity
  8
0
100
AcDbSpline
 62
7
  6
CONTINUOUS
 70
0
 71
3
 72
11
 73
7
 74
5
 42
0.0000001
 43
0.0000001
 44
0.0000000001
 12
-0.6333494509
 22
0.5969143223
 32
0.0
 13
-0.8289470693
 23
0.2651131674
 33
0.0
 40
0.0
 40
0.0
 40
0.0
 40
0.0
 40
0.2725542141
 40
0.5262218346
 40
0.7671916502
 40
1.0
 40
1.0
 40
1.0
 40
1.0
 10
-0.7338406658
 20
-23.3457756158
 30
0.0
 10
-0.791381353
 20
-23.2915451112
 30
0.0
 10
-0.9146197845
 20
-23.1996476462
 30
0.0
 10
-1.1098570738
 20
-23.092107214
 30
0.0
 10
-1.3042241649
 20
-23.0091398241
 30
0.0
 10
-1.4343864319
 20
-22.9647659675
 30
0.0
 10
-1.4987150317
 20
-22.9441924478
 30
0.0
 11
-0.7338406658
 21
-23.3457756158
 31
0.0
 11
-0.9219069827
 21
-23.2012143299
 31
0.0
 11
-1.1147416434
 21
-23.0937254003
 31
0.0
 11
-1.3073291068
 21
-23.010708415
 31
0.0
 11
-1.4987150317
 21
-22.9441924478
 31
0.0
  0
SPLINE
  5
40B
100
AcDbEntity
  8
RACCORDO
100
AcDbSpline
 62
7
  6
CONTINUOUS
 70
0
 71
3
 72
9
 73
5
 74
3
 42
0.0000001
 43
0.0000001
 44
0.0000000001
 12
-0.1260316343
 22
-0.0657101216
 32
0.0
 13
-0.1032641788
 23
-0.0976642324
 33
0.0
 40
0.0
 40
0.0
 40
0.0
 40
0.0
 40
0.2371046482
 40
1.0
 40
1.0
 40
1.0
 40
1.0
 10
-33.7218706804
 20
-4.6262458419
 30
0.0
 10
-33.7318315759
 20
-4.6314392337
 30
0.0
 10
-33.7729462944
 20
-4.6550527226
 30
0.0
 10
-33.8103627836
 20
-4.6848339022
 30
0.0
 10
-33.8366227043
 20
-4.7096697651
 30
0.0
 11
-33.7218706804
 21
-4.6262458419
 31
0.0
 11
-33.7511206483
 21
-4.6429837087
 31
0.0
 11
-33.8366227043
 21
-4.7096697651
 31
0.0
  0
SPLINE
  5
40C
100
AcDbEntity
  8
RACCORDO
100
AcDbSpline
 62
7
  6
CONTINUOUS
 70
0
 71
3
 72
9
 73
5
 74
3
 42
0.0000001
 43
0.0000001
 44
0.0000000001
 12
-0.1370512163
 22
-0.0578502869
 32
0.0
 13
-0.1164661164
 23
-0.0925490967
 33
0.0
 40
0.0
 40
0.0
 40
0.0
 40
0.0
 40
0.2394516598
 40
1.0
 40
1.0
 40
1.0
 40
1.0
 10
-33.7285951564
 20
-4.6218796265
 30
0.0
 10
-33.7395342034
 20
-4.6264970756
 30
0.0
 10
-33.7844628814
 20
-4.6475554259
 30
0.0
 10
-33.826200278
 20
-4.6751582057
 30
0.0
 10
-33.8557263151
 20
-4.698620893
 30
0.0
 11
-33.7285951564
 21
-4.6218796265
 31
0.0
 11
-33.7608677177
 21
-4.6369572281
 31
0.0
 11
-33.8557263151
 21
-4.698620893
 31
0.0
  0
SPLINE
  5
40D
100
AcDbEntity
  8
RACCORDO
100
AcDbSpline
 62
7
  6
CONTINUOUS
 70
0
 71
3
 72
9
 73
5
 74
3
 42
0.0000001
 43
0.0000001
 44
0.0000000001
 12
-0.0583420295
 22
-0.0361533179
 32
0.0
 13
-0.0621163822
 23
-0.0291960592
 33
0.0
 40
0.0
 40
0.0
 40
0.0
 40
0.0
 40
0.2435066652
 40
1.0
 40
1.0
 40
1.0
 40
1.0
 10
-33.9653643904
 20
-4.2808797154
 30
0.0
 10
-33.970099948
 20
-4.28381424
 30
0.0
 10
-33.9897350691
 20
-4.2955609886
 30
0.0
 10
-34.010076129
 20
-4.3061165835
 30
0.0
 10
-34.025739672
 20
-4.3134787915
 30
0.0
 11
-33.9653643904
 21
-4.2808797154
 31
0.0
 11
-33.9797043727
 21
-4.2894644331
 31
0.0
 11
-34.025739672
 21
-4.3134787915
 31
0.0
  0
SPLINE
  5
40E
100
AcDbEntity
  8
RACCORDO
100
AcDbSpline
 62
7
  6
CONTINUOUS
 70
0
 71
3
 72
9
 73
5
 74
3
 42
0.0000001
 43
0.0000001
 44
0.0000000001
 12
-0.0589857591
 22
-0.0284808211
 32
0.0
 13
-0.061822322
 23
-0.0216443398
 33
0.0
 40
0.0
 40
0.0
 40
0.0
 40
0.0
 40
0.2421760202
 40
1.0
 40
1.0
 40
1.0
 40
1.0
 10
-33.9658518705
 20
-4.2764915835
 30
0.0
 10
-33.970613516
 20
-4.2787907075
 30
0.0
 10
-33.9904227543
 20
-4.2879779137
 30
0.0
 10
-34.0107760249
 20
-4.2959771112
 30
0.0
 10
-34.0263928376
 20
-4.3014446445
 30
0.0
 11
-33.9658518705
 21
-4.2764915835
 31
0.0
 11
-33.980240068
 21
-4.2831708738
 31
0.0
 11
-34.0263928376
 21
-4.3014446445
 31
0.0
  0
SPLINE
  5
40F
100
AcDbEntity
  8
RACCORDO
100
AcDbSpline
 62
7
  6
CONTINUOUS
 70
0
 71
3
 72
11
 73
7
 74
5
 42
0.0000001
 43
0.0000001
 44
0.0000000001
 12
-0.7724879918
 22
0.3864015877
 32
0.0
 13
0.0000139491
 23
0.8637383193
 33
0.0
 40
0.0
 40
0.0
 40
0.0
 40
0.0
 40
0.2302628938
 40
0.4899363902
 40
0.7543120771
 40
1.0
 40
1.0
 40
1.0
 40
1.0
 10
-35.18097658
 20
-5.8769665353
 30
0.0
 10
-35.2402683535
 20
-5.8473085527
 30
0.0
 10
-35.3533997114
 20
-5.7578633256
 30
0.0
 10
-35.4808747488
 20
-5.5794792681
 30
0.0
 10
-35.5645400622
 20
-5.3721638224
 30
0.0
 10
-35.5862004941
 20
-5.2249699711
 30
0.0
 10
-35.5861993518
 20
-5.1542332799
 30
0.0
 11
-35.18097658
 21
-5.8769665353
 31
0.0
 11
-35.3399080259
 21
-5.7573973566
 31
0.0
 11
-35.4723209728
 21
-5.5763647825
 31
0.0
 11
-35.5574961185
 21
-5.3644932137
 31
0.0
 11
-35.5861993518
 21
-5.1542332799
 31
0.0
  0
SPLINE
  5
410
100
AcDbEntity
  8
0
100
AcDbSpline
 62
7
  6
CONTINUOUS
 70
0
 71
3
 72
9
 73
5
 74
3
 42
0.0000001
 43
0.0000001
 44
0.0000000001
 12
-0.0819614393
 22
0.0180243464
 32
0.0
 13
-0.0758721094
 23
0.03586053
 33
0.0
 40
0.0
 40
0.0
 40
0.0
 40
0.0
 40
0.2423846414
 40
1.0
 40
1.0
 40
1.0
 40
1.0
 10
-0.9442734825
 20
-23.9979873029
 30
0.0
 10
-0.9508955472
 20
-23.996531028
 30
0.0
 10
-0.9779705492
 20
-23.9894026873
 30
0.0
 10
-1.0040173326
 20
-23.9787844302
 30
0.0
 10
-1.0231779578
 20
-23.9697282674
 30
0.0
 11
-0.9442734825
 21
-23.9979873029
 31
0.0
 11
-0.9639602683
 21
-23.9928703937
 31
0.0
 11
-1.0231779578
 21
-23.9697282674
 31
0.0
  0
SPLINE
  5
411
100
AcDbEntity
  8
0
100
AcDbSpline
 62
7
  6
CONTINUOUS
 70
0
 71
3
 72
10
 73
6
 74
4
 42
0.0000001
 43
0.0000001
 44
0.0000000001
 12
-0.1538658195
 22
-0.076932888
 32
0.0
 13
-0.1555300041
 23
0.0735103903
 33
0.0
 40
0.0
 40
0.0
 40
0.0
 40
0.0
 40
0.4571693219
 40
0.7225207019
 40
1.0
 40
1.0
 40
1.0
 40
1.0
 10
-0.9980854461
 20
-24.0634622763
 30
0.0
 10
-1.0215330235
 20
-24.0751860617
 30
0.0
 10
-1.0666937079
 20
-24.0750875942
 30
0.0
 10
-1.1213438343
 20
-24.0593478707
 30
0.0
 10
-1.1502138619
 20
-24.0472381494
 30
0.0
 10
-1.164599314
 20
-24.0404389455
 30
0.0
 11
-0.9980854461
 21
-24.0634622763
 31
0.0
 11
-1.0764111703
 21
-24.0705478406
 31
0.0
 11
-1.1204908975
 21
-24.0586867193
 31
0.0
 11
-1.164599314
 21
-24.0404389455
 31
0.0
  0
SPLINE
  5
412
100
AcDbEntity
  8
RACCORDO
100
AcDbSpline
 62
7
  6
CONTINUOUS
 70
0
 71
3
 72
9
 73
5
 74
3
 42
0.0000001
 43
0.0000001
 44
0.0000000001
 12
-0.0370302827
 22
-0.0464503171
 32
0.0
 13
-0.052087852
 23
-0.0285609782
 33
0.0
 40
0.0
 40
0.0
 40
0.0
 40
0.0
 40
0.2638306818
 40
1.0
 40
1.0
 40
1.0
 40
1.0
 10
28.9450815081
 20
-37.4487273931
 30
0.0
 10
28.9418249332
 20
-37.4528123994
 30
0.0
 10
28.9289049704
 20
-37.4677989849
 30
0.0
 10
28.913292245
 20
-37.4806816357
 30
0.0
 10
28.9005104189
 20
-37.4876902076
 30
0.0
 11
28.9450815081
 21
-37.4487273931
 31
0.0
 11
28.9348201339
 21
-37.4605737937
 31
0.0
 11
28.9005104189
 21
-37.4876902076
 31
0.0
  0
SPLINE
  5
413
100
AcDbEntity
  8
RACCORDO
100
AcDbSpline
 62
7
  6
CONTINUOUS
 70
0
 71
3
 72
10
 73
6
 74
4
 42
0.0000001
 43
0.0000001
 44
0.0000000001
 12
-0.1122910515
 22
-0.0615717898
 32
0.0
 13
-0.1024031095
 23
0.0769023324
 33
0.0
 40
0.0
 40
0.0
 40
0.0
 40
0.0
 40
0.2455578271
 40
0.4860287336
 40
1.0
 40
1.0
 40
1.0
 40
1.0
 10
28.9005104189
 20
-37.4876902076
 30
0.0
 10
28.8913191033
 20
-37.4927300192
 30
0.0
 10
28.8715653799
 20
-37.5002559353
 30
0.0
 10
28.8281878431
 20
-37.5018228878
 30
0.0
 10
28.7973648474
 20
-37.4868228882
 30
0.0
 10
28.7798207621
 20
-37.4736476918
 30
0.0
 11
28.9005104189
 21
-37.4876902076
 31
0.0
 11
28.8710193888
 21
-37.4986080367
 31
0.0
 11
28.8402449352
 21
-37.4997502945
 31
0.0
 11
28.7798207621
 21
-37.4736476918
 31
0.0
  0
SPLINE
  5
414
100
AcDbEntity
  8
0
100
AcDbSpline
 62
7
  6
CONTINUOUS
 70
0
 71
3
 72
18
 73
14
 74
12
 42
0.0000001
 43
0.0000001
 44
0.0000000001
 12
0.9412018923
 22
0.4705975429
 32
0.0
 13
-0.7660303215
 23
0.7214711332
 33
0.0
 40
0.0
 40
0.0
 40
0.0
 40
0.0
 40
0.0457943347
 40
0.0910579538
 40
0.1389648722
 40
0.1905315713
 40
0.3034454178
 40
0.4295778457
 40
0.5663524448
 40
0.711467637
 40
0.8584343766
 40
0.9305901667
 40
1.0
 40
1.0
 40
1.0
 40
1.0
 10
-0.6588545488
 20
-24.2735638775
 30
0.0
 10
-0.6444873106
 20
-24.2663803103
 30
0.0
 10
-0.6163989044
 20
-24.2510037678
 30
0.0
 10
-0.5780699053
 20
-24.2202334077
 30
0.0
 10
-0.547207928
 20
-24.1793627514
 30
0.0
 10
-0.5139497369
 20
-24.1123475046
 30
0.0
 10
-0.4912022234
 20
-24.011577079
 30
0.0
 10
-0.4901437048
 20
-23.8791774619
 30
0.0
 10
-0.5120710375
 20
-23.73702946
 30
0.0
 10
-0.5615841371
 20
-23.5941586199
 30
0.0
 10
-0.6233551598
 20
-23.4815631322
 30
0.0
 10
-0.6829695062
 20
-23.3996876779
 30
0.0
 10
-0.7161173201
 20
-23.3624680129
 30
0.0
 10
-0.7338406658
 20
-23.3457756158
 30
0.0
 11
-0.6588545488
 21
-24.2735638775
 31
0.0
 11
-0.6169871332
 21
-24.2497036589
 31
0.0
 11
-0.5801753179
 21
-24.2194783645
 31
0.0
 11
-0.5492950001
 21
-24.179631244
 31
0.0
 11
-0.5248223618
 21
-24.1311998515
 31
0.0
 11
-0.4962614357
 21
-24.0158649938
 31
0.0
 11
-0.4935961388
 21
-23.8831633369
 31
0.0
 11
-0.5157183366
 21
-23.7409465207
 31
0.0
 11
-0.5652734538
 21
-23.5965070416
 31
0.0
 11
-0.6396916973
 21
-23.4609369785
 31
0.0
 11
-0.6845496846
 21
-23.3996753104
 31
0.0
 11
-0.7338406658
 21
-23.3457756158
 31
0.0
  0
SPLINE
  5
415
100
AcDbEntity
  8
RACCORDO
100
AcDbSpline
 62
7
  6
CONTINUOUS
 70
0
 71
3
 72
11
 73
7
 74
5
 42
0.0000001
 43
0.0000001
 44
0.0000000001
 12
0.4079949568
 22
0.1888862649
 32
0.0
 13
0.0027806954
 23
0.449588894
 33
0.0
 40
0.0
 40
0.0
 40
0.0
 40
0.0
 40
0.2166758208
 40
0.4494767836
 40
0.7094274039
 40
1.0
 40
1.0
 40
1.0
 40
1.0
 10
30.9728474611
 20
-41.0621573267
 30
0.0
 10
31.0023150085
 20
-41.0485149646
 30
0.0
 10
31.0584229903
 20
-41.008092762
 30
0.0
 10
31.1189167827
 20
-40.9185900272
 30
0.0
 10
31.1554955404
 20
-40.8057904904
 30
0.0
 10
31.163108416
 20
-40.7230069363
 30
0.0
 10
31.1633777473
 20
-40.6794608656
 30
0.0
 11
30.9728474611
 21
-41.0621573267
 31
0.0
 11
31.0522781876
 21
-41.0057586277
 31
0.0
 11
31.1123590054
 21
-40.9200532047
 31
0.0
 11
31.1500311389
 21
-40.8094180253
 31
0.0
 11
31.1633777473
 21
-40.6794608656
 31
0.0
  0
SPLINE
  5
416
100
AcDbEntity
  8
0
100
AcDbSpline
 62
7
  6
CONTINUOUS
 70
0
 71
3
 72
18
 73
14
 74
12
 42
0.0000001
 43
0.0000001
 44
0.0000000001
 12
0.9412007008
 22
0.47059886
 32
0.0
 13
-0.7660299745
 23
0.7214708064
 33
0.0
 40
0.0
 40
0.0
 40
0.0
 40
0.0
 40
0.0457943108
 40
0.0910579325
 40
0.1389648728
 40
0.1905315916
 40
0.3034454654
 40
0.4295779075
 40
0.5663525062
 40
0.7114676854
 40
0.858434401
 40
0.9305901785
 40
1.0
 40
1.0
 40
1.0
 40
1.0
 10
-0.8002754759
 20
-24.344274341
 30
0.0
 10
-0.7859082635
 20
-24.3370907576
 30
0.0
 10
-0.7578198834
 20
-24.321714211
 30
0.0
 10
-0.7194909689
 20
-24.290943776
 30
0.0
 10
-0.6886290702
 20
-24.2500730739
 30
0.0
 10
-0.6553709679
 20
-24.1830577949
 30
0.0
 10
-0.6326235473
 20
-24.0822873792
 30
0.0
 10
-0.6315650882
 20
-23.9498878086
 30
0.0
 10
-0.6534924636
 20
-23.8077398794
 30
0.0
 10
-0.7030055734
 20
-23.6648691304
 30
0.0
 10
-0.7647765767
 20
-23.5522737193
 30
0.0
 10
-0.8243908924
 20
-23.4703983205
 30
0.0
 10
-0.8575386874
 20
-23.4331786806
 30
0.0
 10
-0.875262022
 20
-23.416486294
 30
0.0
 11
-0.8002754759
 21
-24.344274341
 31
0.0
 11
-0.758408129
 21
-24.320414097
 31
0.0
 11
-0.721596385
 21
-24.2901887455
 31
0.0
 11
-0.6907161369
 21
-24.2503415705
 31
0.0
 11
-0.6662435637
 21
-24.2019101495
 31
0.0
 11
-0.6376827459
 21
-24.0865752909
 31
0.0
 11
-0.6350175177
 21
-23.9538736778
 31
0.0
 11
-0.657139758
 21
-23.8116569345
 31
0.0
 11
-0.7066948865
 21
-23.6672175469
 31
0.0
 11
-0.7811131053
 21
-23.531647579
 31
0.0
 11
-0.8259710695
 21
-23.470385953
 31
0.0
 11
-0.875262022
 21
-23.416486294
 31
0.0
  0
SPLINE
  5
417
100
AcDbEntity
  8
RACCORDO
100
AcDbSpline
 62
7
  6
CONTINUOUS
 70
0
 71
3
 72
15
 73
11
 74
9
 42
0.0000001
 43
0.0000001
 44
0.0000000001
 12
-0.000001415
 22
0.4373931235
 32
0.0
 13
0.3912229003
 23
-0.195594956
 33
0.0
 40
0.0
 40
0.0
 40
0.0
 40
0.0
 40
0.14879548
 40
0.2840515227
 40
0.4066342785
 40
0.5199167541
 40
0.6296856686
 40
0.7427994542
 40
0.8650889314
 40
1.0
 40
1.0
 40
1.0
 40
1.0
 10
-37.2835859278
 20
37.5929772807
 30
0.0
 10
-37.283585998
 20
37.6146713206
 30
0.0
 10
-37.2804350955
 20
37.6562049165
 30
0.0
 10
-37.2648030735
 20
37.7138240085
 30
0.0
 10
-37.2387423544
 20
37.7619225428
 30
0.0
 10
-37.2027591551
 20
37.7983201613
 30
0.0
 10
-37.158224076
 20
37.8208237708
 30
0.0
 10
-37.1076300489
 20
37.8281523918
 30
0.0
 10
-37.0535917412
 20
37.8205300648
 30
0.0
 10
-37.0183797268
 20
37.80673084
 30
0.0
 10
-37.0007862937
 20
37.7979348652
 30
0.0
 11
-37.2835859278
 21
37.5929772807
 31
0.0
 11
-37.2781531594
 21
37.6578322523
 31
0.0
 11
-37.2620610874
 21
37.7147616671
 31
0.0
 11
-37.235930448
 21
37.761580005
 31
0.0
 11
-37.2007610275
 21
37.7964829113
 31
0.0
 11
-37.1579051385
 21
37.8181287212
 31
0.0
 11
-37.1090103536
 21
37.8256848207
 31
0.0
 11
-37.0559580495
 21
37.8188671354
 31
0.0
 11
-37.0007862937
 21
37.7979348652
 31
0.0
  0
SPLINE
  5
418
100
AcDbEntity
  8
RACCORDO
100
AcDbSpline
 62
7
  6
CONTINUOUS
 70
0
 71
3
 72
11
 73
7
 74
5
 42
0.0000001
 43
0.0000001
 44
0.0000000001
 12
-0.1291394801
 22
0.0645697401
 32
0.0
 13
0.0000513271
 23
0.144382319
 33
0.0
 40
0.0
 40
0.0
 40
0.0
 40
0.0
 40
0.3021491765
 40
0.5655722792
 40
0.7935305764
 40
1.0
 40
1.0
 40
1.0
 40
1.0
 10
29.0454616258
 20
2.0695846479
 30
0.0
 10
29.0324551633
 20
2.0760878791
 30
0.0
 10
29.0089303474
 20
2.0900835585
 30
0.0
 10
28.9803146677
 20
2.115870075
 30
0.0
 10
28.9619916403
 20
2.1446481502
 30
0.0
 10
28.9575940877
 20
2.16571382
 30
0.0
 10
28.9575976202
 20
2.1756506647
 30
0.0
 11
29.0454616258
 21
2.0695846479
 31
0.0
 11
29.0082127586
 21
2.0922928545
 31
0.0
 11
28.9804203818
 21
2.118257092
 31
0.0
 11
28.963357291
 21
2.1464018314
 31
0.0
 11
28.9575976202
 21
2.1756506647
 31
0.0
  0
SPLINE
  5
419
100
AcDbEntity
  8
RACCORDO
100
AcDbSpline
 62
7
  6
CONTINUOUS
 70
0
 71
3
 72
11
 73
7
 74
5
 42
0.0000001
 43
0.0000001
 44
0.0000000001
 12
0.0000000577
 22
-0.1889139717
 32
0.0
 13
0.1689716096
 23
-0.0844812632
 33
0.0
 40
0.0
 40
0.0
 40
0.0
 40
0.0
 40
0.289595635
 40
0.5496518077
 40
0.7828348723
 40
1.0
 40
1.0
 40
1.0
 40
1.0
 10
28.640238854
 20
2.7923179033
 30
0.0
 10
28.6402388596
 20
2.7740816827
 30
0.0
 10
28.6431966116
 20
2.7393402011
 30
0.0
 10
28.6580277111
 20
2.6918225874
 30
0.0
 10
28.6828362417
 20
2.6537784223
 30
0.0
 10
28.7059747497
 20
2.636170212
 30
0.0
 10
28.7182063301
 20
2.6300547505
 30
0.0
 11
28.640238854
 21
2.7923179033
 31
0.0
 11
28.6454251928
 21
2.7378556269
 31
0.0
 11
28.6607273849
 21
2.69117129
 31
0.0
 11
28.685382662
 21
2.6546657372
 31
0.0
 11
28.7182063301
 21
2.6300547505
 31
0.0
  0
SPLINE
  5
41A
100
AcDbEntity
  8
RACCORDO
100
AcDbSpline
 62
7
  6
CONTINUOUS
 70
0
 71
3
 72
11
 73
7
 74
5
 42
0.0000001
 43
0.0000001
 44
0.0000000001
 12
0.0
 22
-0.1889081527
 32
0.0
 13
0.1689619601
 23
-0.0844875505
 33
0.0
 40
0.0
 40
0.0
 40
0.0
 40
0.0
 40
0.2895946005
 40
0.5496510084
 40
0.7828349031
 40
1.0
 40
1.0
 40
1.0
 40
1.0
 10
-35.18097658
 20
34.7029256203
 30
0.0
 10
-35.18097658
 20
34.6846900266
 30
0.0
 10
-35.178019029
 20
34.649949676
 30
0.0
 10
-35.163188986
 20
34.602433385
 30
0.0
 10
-35.1383822458
 20
34.5643897362
 30
0.0
 10
-35.1152452665
 20
34.5467810245
 30
0.0
 10
-35.1030143864
 20
34.5406651088
 30
0.0
 11
-35.18097658
 21
34.7029256203
 31
0.0
 11
-35.1757906285
 21
34.6484651961
 31
0.0
 11
-35.1604895278
 21
34.6017820471
 31
0.0
 11
-35.1358359364
 21
34.565276804
 31
0.0
 11
-35.1030143864
 21
34.5406651088
 31
0.0
  0
SPLINE
  5
41B
100
AcDbEntity
  8
RACCORDO
100
AcDbSpline
 62
7
  6
CONTINUOUS
 70
0
 71
3
 72
11
 73
7
 74
5
 42
0.0000001
 43
0.0000001
 44
0.0000000001
 12
0.3513449618
 22
-0.1756719593
 32
0.0
 13
0.3707502259
 23
0.1298005757
 33
0.0
 40
0.0
 40
0.0
 40
0.0
 40
0.0
 40
0.2301996126
 40
0.4886872628
 40
0.7531669781
 40
1.0
 40
1.0
 40
1.0
 40
1.0
 10
-35.5861993518
 20
34.3854151366
 30
0.0
 10
-35.559239527
 20
34.3719352643
 30
0.0
 10
-35.4978143921
 20
34.3516729915
 30
0.0
 10
-35.3995531922
 20
34.3391228074
 30
0.0
 10
-35.2983935348
 20
34.343343264
 30
0.0
 10
-35.2324988527
 20
34.3579286577
 30
0.0
 10
-35.2019943865
 20
34.3686083472
 30
0.0
 11
-35.5861993518
 21
34.3854151366
 31
0.0
 11
-35.5008528019
 21
34.3555350699
 31
0.0
 11
-35.4002140501
 21
34.3420520613
 31
0.0
 11
-35.2964216095
 21
34.3465923622
 31
0.0
 11
-35.2019943865
 21
34.3686083472
 31
0.0
  0
SPLINE
  5
41C
100
AcDbEntity
  8
RACCORDO
100
AcDbSpline
 62
7
  6
CONTINUOUS
 70
0
 71
3
 72
11
 73
7
 74
5
 42
0.0000001
 43
0.0000001
 44
0.0000000001
 12
0.351344799
 22
-0.1756723995
 32
0.0
 13
0.3707501259
 23
0.1298010165
 33
0.0
 40
0.0
 40
0.0
 40
0.0
 40
0.0
 40
0.2301996678
 40
0.4886873034
 40
0.7531669766
 40
1.0
 40
1.0
 40
1.0
 40
1.0
 10
-35.5861993518
 20
-5.1542332799
 30
0.0
 10
-35.5592395331
 20
-5.1677131893
 30
0.0
 10
-35.4978143983
 20
-5.1879755187
 30
0.0
 10
-35.3995531862
 20
-5.2005257309
 30
0.0
 10
-35.2983935212
 20
-5.1963052444
 30
0.0
 10
-35.2324988447
 20
-5.1817197952
 30
0.0
 10
-35.2019943865
 20
-5.1710400694
 30
0.0
 11
-35.5861993518
 21
-5.1542332799
 31
0.0
 11
-35.5008527959
 21
-5.1841134308
 31
0.0
 11
-35.4002140402
 21
-5.1975964675
 31
0.0
 11
-35.2964216039
 21
-5.1930561367
 31
0.0
 11
-35.2019943865
 21
-5.1710400694
 31
0.0
  0
SPLINE
  5
41D
100
AcDbEntity
  8
RACCORDO
100
AcDbSpline
 62
7
  6
CONTINUOUS
 70
0
 71
3
 72
9
 73
5
 74
3
 42
0.0000001
 43
0.0000001
 44
0.0000000001
 12
-0.0000001069
 22
0.3499495
 32
0.0
 13
0.2542495784
 23
0.2404616486
 33
0.0
 40
0.0
 40
0.0
 40
0.0
 40
0.0
 40
0.4929880368
 40
1.0
 40
1.0
 40
1.0
 40
1.0
 10
-35.18097658
 20
-5.8769665353
 30
0.0
 10
-35.1809765976
 20
-5.819459563
 30
0.0
 10
-35.1512028372
 20
-5.7029342869
 30
0.0
 10
-35.0843671671
 20
-5.6036769057
 30
0.0
 10
-35.0413979744
 20
-5.5630379281
 30
0.0
 11
-35.18097658
 21
-5.8769665353
 31
0.0
 11
-35.1426129593
 21
-5.7087651697
 31
0.0
 11
-35.0413979744
 21
-5.5630379281
 31
0.0
  0
SPLINE
  5
41E
100
AcDbEntity
  8
RACCORDO
100
AcDbSpline
 62
7
  6
CONTINUOUS
 70
0
 71
3
 72
9
 73
5
 74
3
 42
0.0000001
 43
0.0000001
 44
0.0000000001
 12
0.0
 22
0.3499494896
 32
0.0
 13
0.2542494972
 23
0.2404617193
 33
0.0
 40
0.0
 40
0.0
 40
0.0
 40
0.0
 40
0.4929880284
 40
1.0
 40
1.0
 40
1.0
 40
1.0
 10
28.640238854
 20
-37.7875742523
 30
0.0
 10
28.640238854
 20
-37.7300672827
 30
0.0
 10
28.6700126312
 20
-37.6135420203
 30
0.0
 10
28.73684828
 20
-37.5142846353
 30
0.0
 10
28.7798174596
 20
-37.4736456451
 30
0.0
 11
28.640238854
 21
-37.7875742523
 31
0.0
 11
28.6786024988
 21
-37.6193729005
 31
0.0
 11
28.7798174596
 21
-37.4736456451
 31
0.0
  0
SPLINE
  5
41F
100
AcDbEntity
  8
RACCORDO
100
AcDbSpline
 62
7
  6
CONTINUOUS
 70
0
 71
3
 72
11
 73
7
 74
5
 42
0.0000001
 43
0.0000001
 44
0.0000000001
 12
0.5252094582
 22
-0.2626021805
 32
0.0
 13
0.0000165042
 23
-0.5872008855
 33
0.0
 40
0.0
 40
0.0
 40
0.0
 40
0.0
 40
0.2296744152
 40
0.4882138292
 40
0.7532078385
 40
1.0
 40
1.0
 40
1.0
 40
1.0
 10
30.4600485677
 20
4.0675174345
 30
0.0
 10
30.5002576261
 20
4.0474131004
 30
0.0
 10
30.5770915346
 20
3.9873050559
 30
0.0
 10
30.6658195114
 20
3.8679706573
 30
0.0
 10
30.726180652
 20
3.7284114453
 30
0.0
 10
30.7428468441
 20
3.6280657411
 30
0.0
 10
30.7428482019
 20
3.5797602158
 30
0.0
 11
30.4600485677
 21
4.0675174345
 31
0.0
 11
30.5682725821
 21
3.9870429893
 31
0.0
 11
30.6600233433
 21
3.8660906748
 31
0.0
 11
30.7213236582
 21
3.7230693501
 31
0.0
 11
30.7428482019
 21
3.5797602158
 31
0.0
  0
SPLINE
  5
420
100
AcDbEntity
  8
RACCORDO
100
AcDbSpline
 62
7
  6
CONTINUOUS
 70
0
 71
3
 72
11
 73
7
 74
5
 42
0.0000001
 43
0.0000001
 44
0.0000000001
 12
-0.1290144688
 22
0.0645072211
 32
0.0
 13
-0.0002209872
 23
0.1442423859
 33
0.0
 40
0.0
 40
0.0
 40
0.0
 40
0.0
 40
0.302101686
 40
0.5655340995
 40
0.7935296933
 40
1.0
 40
1.0
 40
1.0
 40
1.0
 10
29.0454616258
 20
-37.4700637687
 30
0.0
 10
29.0324697963
 20
-37.4635678553
 30
0.0
 10
29.0089686504
 20
-37.4495886385
 30
0.0
 10
28.9803718513
 20
-37.4238385073
 30
0.0
 10
28.9620411568
 20
-37.3951045758
 30
0.0
 10
28.9576129127
 20
-37.3740668169
 30
0.0
 10
28.9575977036
 20
-37.3641395604
 30
0.0
 11
29.0454616258
 21
-37.4700637687
 31
0.0
 11
29.0082522456
 21
-37.4473850836
 31
0.0
 11
28.9804747296
 21
-37.4214569116
 31
0.0
 11
28.9633988704
 21
-37.3933508998
 31
0.0
 11
28.9575977036
 21
-37.3641395604
 31
0.0
  0
SPLINE
  5
421
100
AcDbEntity
  8
0
100
AcDbSpline
 62
7
  6
CONTINUOUS
 70
0
 71
3
 72
9
 73
5
 74
3
 42
0.0000001
 43
0.0000001
 44
0.0000000001
 12
-0.1087199623
 22
0.5446236221
 32
0.0
 13
-0.1090135263
 23
0.5445649374
 33
0.0
 40
0.0
 40
0.0
 40
0.0
 40
0.0
 40
0.4998343578
 40
1.0
 40
1.0
 40
1.0
 40
1.0
 10
-0.5587012374
 20
-25.3528750464
 30
0.0
 10
-0.5768152283
 20
-25.2621345136
 30
0.0
 10
-0.6112165958
 20
-25.0802325695
 30
0.0
 10
-0.6464807986
 20
-24.8984977756
 30
0.0
 10
-0.6646557387
 20
-24.807706885
 30
0.0
 11
-0.5587012374
 21
-25.3528750464
 31
0.0
 11
-0.6114207651
 21
-25.0803345907
 31
0.0
 11
-0.6646557387
 21
-24.807706885
 31
0.0
  0
SPLINE
  5
422
100
AcDbEntity
  8
0
100
AcDbSpline
 62
7
  6
CONTINUOUS
 70
0
 71
3
 72
11
 73
7
 74
5
 42
0.0000001
 43
0.0000001
 44
0.0000000001
 12
-0.0921986666
 22
0.4605903784
 32
0.0
 13
-0.3158047812
 23
0.3477232103
 33
0.0
 40
0.0
 40
0.0
 40
0.0
 40
0.0
 40
0.2378385493
 40
0.4940954724
 40
0.7548551718
 40
1.0
 40
1.0
 40
1.0
 40
1.0
 10
-0.6646557387
 20
-24.807706885
 30
0.0
 10
-0.6719652044
 20
-24.7711915026
 30
0.0
 10
-0.6865959242
 20
-24.6952088045
 30
0.0
 10
-0.7179883336
 20
-24.5810415867
 30
0.0
 10
-0.7625020614
 20
-24.4700476426
 30
0.0
 10
-0.8057476482
 20
-24.402396818
 30
0.0
 10
-0.8315536178
 20
-24.3739826358
 30
0.0
 11
-0.6646557387
 21
-24.807706885
 31
0.0
 11
-0.6874216477
 21
-24.6983317215
 31
0.0
 11
-0.719937079
 21
-24.5824355741
 31
0.0
 11
-0.7670533169
 21
-24.4693741215
 31
0.0
 11
-0.8315536178
 21
-24.3739826358
 31
0.0
  0
SPLINE
  5
423
100
AcDbEntity
  8
RACCORDO
100
AcDbSpline
 62
7
  6
CONTINUOUS
 70
0
 71
3
 72
13
 73
9
 74
7
 42
0.0000001
 43
0.0000001
 44
0.0000000001
 12
-0.0675144161
 22
0.2266503352
 32
0.0
 13
0.2363936884
 23
-0.0068260473
 33
0.0
 40
0.0
 40
0.0
 40
0.0
 40
0.0
 40
0.2946022688
 40
0.4247656415
 40
0.5434738158
 40
0.6533585017
 40
0.7606215203
 40
1.0
 40
1.0
 40
1.0
 40
1.0
 10
-35.2019944259
 20
34.3686084998
 30
0.0
 10
-35.2086243926
 20
34.3908657342
 30
0.0
 10
-35.2156267011
 20
34.4240582827
 30
0.0
 10
-35.2148468134
 20
34.4670795536
 30
0.0
 10
-35.2087197327
 20
34.4949441999
 30
0.0
 10
-35.1962064874
 20
34.5187433357
 30
0.0
 10
-35.1692443414
 20
34.5437269645
 30
0.0
 10
-35.1400476342
 20
34.5490337656
 30
0.0
 10
-35.1211851136
 20
34.548489096
 30
0.0
 11
-35.2019944259
 21
34.3686084998
 31
0.0
 11
-35.214675956
 21
34.4371157786
 31
0.0
 11
-35.2137653964
 21
34.4678849335
 31
0.0
 11
-35.2073250959
 21
34.495209781
 31
0.0
 11
-35.1948965183
 21
34.5180318767
 31
0.0
 11
-35.1762116463
 21
34.5351886139
 31
0.0
 11
-35.1211851136
 21
34.548489096
 31
0.0
  0
SPLINE
  5
424
100
AcDbEntity
  8
RACCORDO
100
AcDbSpline
 62
7
  6
CONTINUOUS
 70
0
 71
3
 72
15
 73
11
 74
9
 42
0.0000001
 43
0.0000001
 44
0.0000000001
 12
0.000001415
 22
-0.4373931235
 32
0.0
 13
-0.3912229003
 23
0.195594956
 33
0.0
 40
0.0
 40
0.0
 40
0.0
 40
0.0
 40
0.14879548
 40
0.2840515227
 40
0.4066342785
 40
0.5199167541
 40
0.6296856686
 40
0.7427994542
 40
0.8650889314
 40
1.0
 40
1.0
 40
1.0
 40
1.0
 10
30.7428482019
 20
-40.6776259127
 30
0.0
 10
30.742848272
 20
-40.6993199527
 30
0.0
 10
30.7396973695
 20
-40.7408535486
 30
0.0
 10
30.7240653476
 20
-40.7984726405
 30
0.0
 10
30.6980046284
 20
-40.8465711749
 30
0.0
 10
30.6620214291
 20
-40.8829687933
 30
0.0
 10
30.6174863501
 20
-40.9054724028
 30
0.0
 10
30.5668923229
 20
-40.9128010238
 30
0.0
 10
30.5128540152
 20
-40.9051786969
 30
0.0
 10
30.4776420009
 20
-40.8913794721
 30
0.0
 10
30.4600485677
 20
-40.8825834972
 30
0.0
 11
30.7428482019
 21
-40.6776259127
 31
0.0
 11
30.7374154335
 21
-40.7424808844
 31
0.0
 11
30.7213233614
 21
-40.7994102991
 31
0.0
 11
30.6951927221
 21
-40.8462286371
 31
0.0
 11
30.6600233016
 21
-40.8811315434
 31
0.0
 11
30.6171674125
 21
-40.9027773532
 31
0.0
 11
30.5682726277
 21
-40.9103334528
 31
0.0
 11
30.5152203235
 21
-40.9035157675
 31
0.0
 11
30.4600485677
 21
-40.8825834972
 31
0.0
  0
SPLINE
  5
425
100
AcDbEntity
  8
RACCORDO
100
AcDbSpline
 62
7
  6
CONTINUOUS
 70
0
 71
3
 72
12
 73
8
 74
6
 42
0.0000001
 43
0.0000001
 44
0.0000000001
 12
-0.4414327386
 22
0.1388876019
 32
0.0
 13
0.1107439614
 23
0.4493199347
 33
0.0
 40
0.0
 40
0.0
 40
0.0
 40
0.0
 40
0.1130800295
 40
0.2327462541
 40
0.4871196873
 40
0.7477368936
 40
1.0
 40
1.0
 40
1.0
 40
1.0
 10
-35.0413905829
 20
-5.5630408654
 30
0.0
 10
-35.0580296586
 20
-5.5578057274
 30
0.0
 10
-35.0910233536
 20
-5.5425227678
 30
0.0
 10
-35.149676121
 20
-5.4944398264
 30
0.0
 10
-35.200459297
 20
-5.4069258636
 30
0.0
 10
-35.2203928387
 20
-5.2884902048
 30
0.0
 10
-35.2113066311
 20
-5.2088225303
 30
0.0
 10
-35.2019944258
 20
-5.1710402494
 30
0.0
 11
-35.0413905829
 21
-5.5630408654
 31
0.0
 11
-35.0889166855
 21
-5.5411397431
 31
0.0
 11
-35.131910048
 21
-5.5062364831
 31
0.0
 11
-35.1931703076
 21
-5.4057172955
 31
0.0
 11
-35.2148231148
 21
-5.287072081
 31
0.0
 11
-35.2019944258
 21
-5.1710402494
 31
0.0
  0
SPLINE
  5
426
100
AcDbEntity
  8
0
100
AcDbSpline
 62
7
  6
CONTINUOUS
 70
0
 71
3
 72
11
 73
7
 74
5
 42
0.0000001
 43
0.0000001
 44
0.0000000001
 12
-0.6333494509
 22
0.5969143223
 32
0.0
 13
-0.8289470693
 23
0.2651131674
 33
0.0
 40
0.0
 40
0.0
 40
0.0
 40
0.0
 40
0.2725542141
 40
0.5262218346
 40
0.7671916502
 40
1.0
 40
1.0
 40
1.0
 40
1.0
 10
-0.875262022
 20
-23.416486294
 30
0.0
 10
-0.9328027093
 20
-23.3622557893
 30
0.0
 10
-1.0560411407
 20
-23.2703583243
 30
0.0
 10
-1.25127843
 20
-23.1628178921
 30
0.0
 10
-1.4456455211
 20
-23.0798505023
 30
0.0
 10
-1.5758077882
 20
-23.0354766456
 30
0.0
 10
-1.6401363879
 20
-23.0149031259
 30
0.0
 11
-0.875262022
 21
-23.416486294
 31
0.0
 11
-1.0633283389
 21
-23.271925008
 31
0.0
 11
-1.2561629996
 21
-23.1644360784
 31
0.0
 11
-1.4487504631
 21
-23.0814190931
 31
0.0
 11
-1.6401363879
 21
-23.0149031259
 31
0.0
  0
SPLINE
  5
427
100
AcDbEntity
  8
RACCORDO
100
AcDbSpline
 62
7
  6
CONTINUOUS
 70
0
 71
3
 72
11
 73
7
 74
5
 42
0.0000001
 43
0.0000001
 44
0.0000000001
 12
-0.1689125338
 22
0.0845958674
 32
0.0
 13
0.0000000046
 23
0.1889124264
 33
0.0
 40
0.0
 40
0.0
 40
0.0
 40
0.0
 40
0.2171672857
 40
0.4503628451
 40
0.7104284797
 40
1.0
 40
1.0
 40
1.0
 40
1.0
 10
30.5380186219
 20
-41.0448414318
 30
0.0
 10
30.5257911964
 20
-41.0387176135
 30
0.0
 10
30.5026455487
 20
-41.0211234343
 30
0.0
 10
30.4778301516
 20
-40.9830772994
 30
0.0
 10
30.4630109671
 20
-40.9355574437
 30
0.0
 10
30.4600485672
 20
-40.9008180501
 30
0.0
 10
30.4600485677
 20
-40.8825834972
 30
0.0
 11
30.5380186219
 21
-41.0448414318
 31
0.0
 11
30.5051933027
 21
-41.0202325272
 31
0.0
 11
30.4805326648
 21
-40.9837281818
 31
0.0
 11
30.4652357059
 21
-40.9370406717
 31
0.0
 11
30.4600485677
 21
-40.8825834972
 31
0.0
  0
SPLINE
  5
428
100
AcDbEntity
  8
RACCORDO
100
AcDbSpline
 62
7
  6
CONTINUOUS
 70
0
 71
3
 72
11
 73
7
 74
5
 42
0.0000001
 43
0.0000001
 44
0.0000000001
 12
-0.0850088828
 22
-0.4356542734
 32
0.0
 13
0.3929041401
 23
-0.206512694
 33
0.0
 40
0.0
 40
0.0
 40
0.0
 40
0.0
 40
0.251262812
 40
0.4489234055
 40
0.6470764859
 40
1.0
 40
1.0
 40
1.0
 40
1.0
 10
-34.025734974
 20
-4.313482143
 30
0.0
 10
-34.032854831
 20
-4.3499700489
 30
0.0
 10
-34.0325869029
 20
-4.4178451238
 30
0.0
 10
-34.0091684651
 20
-4.5112906843
 30
0.0
 10
-33.9611115468
 20
-4.6113030361
 30
0.0
 10
-33.9020050392
 20
-4.6742901336
 30
0.0
 10
-33.855783336
 20
-4.6985845288
 30
0.0
 11
-34.025734974
 21
-4.313482143
 31
0.0
 11
-34.0275492111
 21
-4.4249955742
 31
0.0
 11
-34.0064231926
 21
-4.5101498507
 31
0.0
 11
-33.9679763789
 21
-4.5892561585
 31
0.0
 11
-33.855783336
 21
-4.6985845288
 31
0.0
  0
SPLINE
  5
429
100
AcDbEntity
  8
RACCORDO
100
AcDbSpline
 62
7
  6
CONTINUOUS
 70
0
 71
3
 72
12
 73
8
 74
6
 42
0.0000001
 43
0.0000001
 44
0.0000000001
 12
0.1077499093
 22
-0.4047048189
 32
0.0
 13
0.3125130215
 23
-0.278803954
 33
0.0
 40
0.0
 40
0.0
 40
0.0
 40
0.0
 40
0.1121557524
 40
0.234999587
 40
0.5039208419
 40
0.7737662959
 40
1.0
 40
1.0
 40
1.0
 40
1.0
 10
-33.9653597759
 20
-4.2808820014
 30
0.0
 10
-33.9613315185
 20
-4.2960119925
 30
0.0
 10
-33.9493284639
 20
-4.326727854
 30
0.0
 10
-33.9171497824
 20
-4.3893123151
 30
0.0
 10
-33.8664990523
 20
-4.4668548598
 30
0.0
 10
-33.8001336828
 20
-4.5506237126
 30
0.0
 10
-33.7521621562
 20
-4.6008551522
 30
0.0
 10
-33.7285951634
 20
-4.6218801026
 30
0.0
 11
-33.9653597759
 21
-4.2808820014
 31
0.0
 11
-33.9491903142
 21
-4.3249823406
 31
0.0
 11
-33.9259885909
 21
-4.3709008855
 31
0.0
 11
-33.8652012837
 21
-4.4657128368
 31
0.0
 11
-33.7948898757
 21
-4.5541890668
 31
0.0
 11
-33.7285951634
 21
-4.6218801026
 31
0.0
  0
SPLINE
  5
42A
100
AcDbEntity
  8
RACCORDO
100
AcDbSpline
 62
7
  6
CONTINUOUS
 70
0
 71
3
 72
11
 73
7
 74
5
 42
0.0000001
 43
0.0000001
 44
0.0000000001
 12
-0.1689125381
 22
0.0845958697
 32
0.0
 13
-0.0000000074
 23
0.1889124313
 33
0.0
 40
0.0
 40
0.0
 40
0.0
 40
0.0
 40
0.2171672809
 40
0.4503628408
 40
0.7104284776
 40
1.0
 40
1.0
 40
1.0
 40
1.0
 10
-36.9228162328
 20
-7.3144240045
 30
0.0
 10
-36.9350436584
 20
-7.3083001861
 30
0.0
 10
-36.9581893063
 20
-7.2907060065
 30
0.0
 10
-36.9830047044
 20
-7.2526598711
 30
0.0
 10
-36.9978238911
 20
-7.2051400146
 30
0.0
 10
-37.000786293
 20
-7.17040062
 30
0.0
 10
-37.0007862937
 20
-7.1521660666
 30
0.0
 11
-36.9228162328
 21
-7.3144240045
 31
0.0
 11
-36.9556415521
 21
-7.2898150998
 31
0.0
 11
-36.9803021912
 21
-7.2533107537
 31
0.0
 11
-36.9955991524
 21
-7.2066232426
 31
0.0
 11
-37.0007862937
 21
-7.1521660666
 31
0.0
  0
SPLINE
  5
42B
100
AcDbEntity
  8
RACCORDO
100
AcDbSpline
 62
7
  6
CONTINUOUS
 70
0
 71
3
 72
8
 73
4
 74
2
 42
0.0000001
 43
0.0000001
 44
0.0000000001
 12
0.0059647385
 22
-0.005357261
 32
0.0
 13
0.0072567533
 23
-0.0034085014
 33
0.0
 40
0.0
 40
0.0
 40
0.0
 40
0.0
 40
1.0
 40
1.0
 40
1.0
 40
1.0
 10
-33.7285951634
 20
-4.6218801026
 30
0.0
 10
-33.7266069172
 20
-4.6236658563
 30
0.0
 10
-33.7242895982
 20
-4.6251096748
 30
0.0
 10
-33.7218706804
 20
-4.6262458419
 30
0.0
 11
-33.7285951634
 21
-4.6218801026
 31
0.0
 11
-33.7218706804
 21
-4.6262458419
 31
0.0
  0
SPLINE
  5
42C
100
AcDbEntity
  8
RACCORDO
100
AcDbSpline
 62
7
  6
CONTINUOUS
 70
0
 71
3
 72
8
 73
4
 74
2
 42
0.0000001
 43
0.0000001
 44
0.0000000001
 12
-0.0001037907
 22
-0.0044166904
 32
0.0
 13
0.0011249164
 23
-0.0042722932
 33
0.0
 40
0.0
 40
0.0
 40
0.0
 40
0.0
 40
1.0
 40
1.0
 40
1.0
 40
1.0
 10
-33.9658518705
 20
-4.2764915835
 30
0.0
 10
-33.9658864674
 20
-4.2779638136
 30
0.0
 10
-33.965734748
 20
-4.2794579036
 30
0.0
 10
-33.9653597759
 20
-4.2808820014
 30
0.0
 11
-33.9658518705
 21
-4.2764915835
 31
0.0
 11
-33.9653597759
 21
-4.2808820014
 31
0.0
  0
SPLINE
  5
42D
100
AcDbEntity
  8
RACCORDO
100
AcDbSpline
 62
7
  6
CONTINUOUS
 70
0
 71
3
 72
11
 73
7
 74
5
 42
0.0000001
 43
0.0000001
 44
0.0000000001
 12
-0.0064027244
 22
1.0264962609
 32
0.0
 13
-0.9153131695
 23
0.4646906178
 33
0.0
 40
0.0
 40
0.0
 40
0.0
 40
0.0
 40
0.2466706816
 40
0.5119105748
 40
0.7706373212
 40
1.0
 40
1.0
 40
1.0
 40
1.0
 10
31.1633777473
 20
3.577925263
 30
0.0
 10
31.1628512925
 20
3.6623274404
 30
0.0
 10
31.1328394039
 20
3.8375860698
 30
0.0
 10
31.0268911791
 20
4.0814161931
 30
0.0
 10
30.8721481037
 20
4.2902634687
 30
0.0
 10
30.7384579477
 20
4.395972834
 30
0.0
 10
30.6684783876
 20
4.4315003956
 30
0.0
 11
31.1633777473
 21
3.577925263
 31
0.0
 11
31.124555354
 21
3.8281428966
 31
0.0
 11
31.016874758
 21
4.0782178967
 31
0.0
 11
30.85672285
 21
4.2900856133
 31
0.0
 11
30.6684783876
 21
4.4315003956
 31
0.0
  0
SPLINE
  5
42E
100
AcDbEntity
  8
RACCORDO
100
AcDbSpline
 62
7
  6
CONTINUOUS
 70
0
 71
3
 72
11
 73
7
 74
5
 42
0.0000001
 43
0.0000001
 44
0.0000000001
 12
-0.2996813813
 22
0.1475650247
 32
0.0
 13
-0.2939897903
 23
-0.1586012926
 33
0.0
 40
0.0
 40
0.0
 40
0.0
 40
0.0
 40
0.279823212
 40
0.5359571133
 40
0.7731398267
 40
1.0
 40
1.0
 40
1.0
 40
1.0
 10
-36.7923564738
 20
38.1619178263
 30
0.0
 10
-36.820309076
 20
38.175681866
 30
0.0
 10
-36.8761693248
 20
38.1977761834
 30
0.0
 10
-36.961651842
 20
38.2127610124
 30
0.0
 10
-37.0425298201
 20
38.207168851
 30
0.0
 10
-37.0918769555
 20
38.1892305934
 30
0.0
 10
-37.1141084804
 20
38.1772371545
 30
0.0
 11
-36.7923564738
 21
38.1619178263
 31
0.0
 11
-36.8795646219
 21
38.1955616928
 31
0.0
 11
-36.9639782584
 21
38.2095181597
 31
0.0
 11
-37.0429663998
 21
38.203343741
 31
0.0
 11
-37.1141084804
 21
38.1772371545
 31
0.0
  0
SPLINE
  5
42F
100
AcDbEntity
  8
RACCORDO
100
AcDbSpline
 62
7
  6
CONTINUOUS
 70
0
 71
3
 72
11
 73
7
 74
5
 42
0.0000001
 43
0.0000001
 44
0.0000000001
 12
-0.3869291792
 22
-0.2017363431
 32
0.0
 13
0.000000017
 23
-0.436361939
 33
0.0
 40
0.0
 40
0.0
 40
0.0
 40
0.0
 40
0.2307483936
 40
0.4893409366
 40
0.7537520358
 40
1.0
 40
1.0
 40
1.0
 40
1.0
 10
30.6684783875
 20
4.4315003956
 30
0.0
 10
30.638717292
 20
4.4159836166
 30
0.0
 10
30.5820444353
 20
4.3706196247
 30
0.0
 10
30.5166702352
 20
4.2814528459
 30
0.0
 10
30.4722677822
 20
4.1777426397
 30
0.0
 10
30.4600485663
 20
4.1033351809
 30
0.0
 10
30.4600485677
 20
4.0675174345
 30
0.0
 11
30.6684783875
 21
4.4315003956
 31
0.0
 11
30.5884336911
 21
4.3704161446
 31
0.0
 11
30.5208840541
 21
4.280028649
 31
0.0
 11
30.4758459443
 21
4.1738030943
 31
0.0
 11
30.4600485677
 21
4.0675174345
 31
0.0
  0
SPLINE
  5
430
100
AcDbEntity
  8
RACCORDO
100
AcDbSpline
 62
7
  6
CONTINUOUS
 70
0
 71
3
 72
11
 73
7
 74
5
 42
0.0000001
 43
0.0000001
 44
0.0000000001
 12
-0.3869291622
 22
-0.2017363657
 32
0.0
 13
-0.0000000107
 23
-0.4363619344
 33
0.0
 40
0.0
 40
0.0
 40
0.0
 40
0.0
 40
0.2307483903
 40
0.489340935
 40
0.7537520367
 40
1.0
 40
1.0
 40
1.0
 40
1.0
 10
-36.7923564735
 20
38.1619178261
 30
0.0
 10
-36.8221175673
 20
38.1464010456
 30
0.0
 10
-36.8787904207
 20
38.1010370517
 30
0.0
 10
-36.9441646187
 20
38.0118702729
 30
0.0
 10
-36.9885670733
 20
37.9081600684
 30
0.0
 10
-37.0007862928
 20
37.833752611
 30
0.0
 10
-37.0007862937
 20
37.7979348652
 30
0.0
 11
-36.7923564735
 21
38.1619178261
 31
0.0
 11
-36.8724011649
 21
38.1008335728
 31
0.0
 11
-36.9399508004
 21
38.0104460764
 31
0.0
 11
-36.9849889121
 21
37.9042205228
 31
0.0
 11
-37.0007862937
 21
37.7979348652
 31
0.0
  0
SPLINE
  5
431
100
AcDbEntity
  8
RACCORDO
100
AcDbSpline
 62
7
  6
CONTINUOUS
 70
0
 71
3
 72
11
 73
7
 74
5
 42
0.0000001
 43
0.0000001
 44
0.0000000001
 12
-0.3888881866
 22
-0.1877724931
 32
0.0
 13
-0.3862564178
 23
0.1931282231
 33
0.0
 40
0.0
 40
0.0
 40
0.0
 40
0.0
 40
0.2366411434
 40
0.5012534759
 40
0.7651925789
 40
1.0
 40
1.0
 40
1.0
 40
1.0
 10
31.1633777473
 20
3.5779252626
 30
0.0
 10
31.132702099
 20
3.5631136968
 30
0.0
 10
31.0627438908
 20
3.5420554518
 30
0.0
 10
30.9524441443
 20
3.5323118997
 30
0.0
 10
30.8424968003
 20
3.5429630627
 30
0.0
 10
30.7730801596
 20
3.5646442358
 30
0.0
 10
30.7428482019
 20
3.5797602158
 30
0.0
 11
31.1633777473
 21
3.5779252626
 31
0.0
 11
31.06613608
 21
3.5465014007
 31
0.0
 11
30.9523623859
 21
3.5358386111
 31
0.0
 11
30.8389782051
 21
3.5474925915
 31
0.0
 11
30.7428482019
 21
3.5797602158
 31
0.0
  0
SPLINE
  5
432
100
AcDbEntity
  8
RACCORDO
100
AcDbSpline
 62
7
  6
CONTINUOUS
 70
0
 71
3
 72
11
 73
7
 74
5
 42
0.0000001
 43
0.0000001
 44
0.0000000001
 12
-0.3888881974
 22
-0.187772461
 32
0.0
 13
-0.3862564288
 23
0.1931281918
 33
0.0
 40
0.0
 40
0.0
 40
0.0
 40
0.0
 40
0.2366411417
 40
0.5012534766
 40
0.7651925816
 40
1.0
 40
1.0
 40
1.0
 40
1.0
 10
31.1633777473
 20
-40.6794608656
 30
0.0
 10
31.1327020983
 20
-40.6942724288
 30
0.0
 10
31.0627438898
 20
-40.7153306697
 30
0.0
 10
30.9524441441
 20
-40.7250742198
 30
0.0
 10
30.842496801
 20
-40.714423059
 30
0.0
 10
30.7730801601
 20
-40.6927418901
 30
0.0
 10
30.7428482019
 20
-40.6776259127
 30
0.0
 11
31.1633777473
 21
-40.6794608656
 31
0.0
 11
31.0661360799
 21
-40.7108847216
 31
0.0
 11
30.9523623857
 21
-40.7215475091
 31
0.0
 11
30.8389782049
 21
-40.7098935309
 31
0.0
 11
30.7428482019
 21
-40.6776259127
 31
0.0
  0
SPLINE
  5
433
100
AcDbEntity
  8
RACCORDO
100
AcDbSpline
 62
7
  6
CONTINUOUS
 70
0
 71
3
 72
11
 73
7
 74
5
 42
0.0000001
 43
0.0000001
 44
0.0000000001
 12
0.0000149278
 22
-0.1443839731
 32
0.0
 13
0.1291409503
 23
-0.0645704799
 33
0.0
 40
0.0
 40
0.0
 40
0.0
 40
0.0
 40
0.2065459694
 40
0.4344524034
 40
0.6976951635
 40
1.0
 40
1.0
 40
1.0
 40
1.0
 10
-37.371440621
 20
-6.5583428374
 30
0.0
 10
-37.3714395932
 20
-6.5682834799
 30
0.0
 10
-37.3670708386
 20
-6.5893564952
 30
0.0
 10
-37.3487259973
 20
-6.6181169871
 30
0.0
 10
-37.3201320158
 20
-6.6439169702
 30
0.0
 10
-37.2965992391
 20
-6.6579021918
 30
0.0
 10
-37.2835859278
 20
-6.6644088479
 30
0.0
 11
-37.371440621
 21
-6.5583428374
 31
0.0
 11
-37.365691165
 21
-6.58760529
 31
0.0
 11
-37.3486246535
 21
-6.6157396361
 31
0.0
 11
-37.320856817
 21
-6.6416926329
 31
0.0
 11
-37.2835859278
 21
-6.6644088479
 31
0.0
  0
SPLINE
  5
434
100
AcDbEntity
  8
RACCORDO
100
AcDbSpline
 62
7
  6
CONTINUOUS
 70
0
 71
3
 72
11
 73
7
 74
5
 42
0.0000001
 43
0.0000001
 44
0.0000000001
 12
0.0000149287
 22
-0.1443839671
 32
0.0
 13
0.1291409498
 23
-0.0645704674
 33
0.0
 40
0.0
 40
0.0
 40
0.0
 40
0.0
 40
0.2065459738
 40
0.4344524071
 40
0.6976951646
 40
1.0
 40
1.0
 40
1.0
 40
1.0
 10
-37.371440621
 20
37.6990432824
 30
0.0
 10
-37.3714395932
 20
37.6891026401
 30
0.0
 10
-37.3670708387
 20
37.6680296255
 30
0.0
 10
-37.3487259971
 20
37.6392691352
 30
0.0
 10
-37.3201320156
 20
37.6134691548
 30
0.0
 10
-37.296599239
 20
37.5994839355
 30
0.0
 10
-37.2835859278
 20
37.5929772807
 30
0.0
 11
-37.371440621
 21
37.6990432824
 31
0.0
 11
-37.3656911649
 21
37.6697808304
 31
0.0
 11
-37.3486246533
 21
37.6416464861
 31
0.0
 11
-37.3208568169
 21
37.6156934921
 31
0.0
 11
-37.2835859278
 21
37.5929772807
 31
0.0
  0
SPLINE
  5
435
100
AcDbEntity
  8
RACCORDO
100
AcDbSpline
 62
7
  6
CONTINUOUS
 70
0
 71
3
 72
11
 73
7
 74
5
 42
0.0000001
 43
0.0000001
 44
0.0000000001
 12
-0.5252094582
 22
0.2626021805
 32
0.0
 13
-0.0000165042
 23
0.5872008855
 33
0.0
 40
0.0
 40
0.0
 40
0.0
 40
0.0
 40
0.2296744152
 40
0.4882138292
 40
0.7532078385
 40
1.0
 40
1.0
 40
1.0
 40
1.0
 10
-37.0007862937
 20
-7.1521660666
 30
0.0
 10
-37.040995352
 20
-7.1320617325
 30
0.0
 10
-37.1178292606
 20
-7.071953688
 30
0.0
 10
-37.2065572374
 20
-6.9526192893
 30
0.0
 10
-37.266918378
 20
-6.8130600774
 30
0.0
 10
-37.2835845701
 20
-6.7127143732
 30
0.0
 10
-37.2835859278
 20
-6.6644088479
 30
0.0
 11
-37.0007862937
 21
-7.1521660666
 31
0.0
 11
-37.1090103081
 21
-7.0716916214
 31
0.0
 11
-37.2007610692
 21
-6.9507393069
 31
0.0
 11
-37.2620613842
 21
-6.8077179822
 31
0.0
 11
-37.2835859278
 21
-6.6644088479
 31
0.0
  0
SPLINE
  5
436
100
AcDbEntity
  8
ASSI
100
AcDbSpline
 62
7
  6
CONTINUOUS
 70
0
 71
3
 72
9
 73
5
 74
3
 42
0.0000001
 43
0.0000001
 44
0.0000000001
 12
0.1108866591
 22
0.0557557172
 32
0.0
 13
0.0296087567
 23
0.1205316253
 33
0.0
 40
0.0
 40
0.0
 40
0.0
 40
0.0
 40
0.4684215498
 40
1.0
 40
1.0
 40
1.0
 40
1.0
 10
-2.5703083697
 20
-18.1495709094
 30
0.0
 10
-2.5529944695
 20
-18.1408651829
 30
0.0
 10
-2.5208673711
 20
-18.1118305069
 30
0.0
 10
-2.5050260865
 20
-18.0724042182
 30
0.0
 10
-2.4997796275
 20
-18.05104688
 30
0.0
 11
-2.5703083697
 21
-18.1495709094
 31
0.0
 11
-2.5264698319
 21
-18.1113841324
 31
0.0
 11
-2.4997796275
 21
-18.05104688
 31
0.0
  0
SPLINE
  5
437
100
AcDbEntity
  8
ASSI
100
AcDbSpline
 62
7
  6
CONTINUOUS
 70
0
 71
3
 72
9
 73
5
 74
3
 42
0.0000001
 43
0.0000001
 44
0.0000000001
 12
0.1108866591
 22
0.0557557172
 32
0.0
 13
0.0296087567
 23
0.1205316253
 33
0.0
 40
0.0
 40
0.0
 40
0.0
 40
0.0
 40
0.4684215498
 40
1.0
 40
1.0
 40
1.0
 40
1.0
 10
13.339594207
 20
-26.1045221978
 30
0.0
 10
13.3569081072
 20
-26.0958164713
 30
0.0
 10
13.3890352056
 20
-26.0667817953
 30
0.0
 10
13.4048764902
 20
-26.0273555065
 30
0.0
 10
13.4101229492
 20
-26.0059981683
 30
0.0
 11
13.339594207
 21
-26.1045221978
 31
0.0
 11
13.3834327448
 21
-26.0663354207
 31
0.0
 11
13.4101229492
 21
-26.0059981683
 31
0.0
  0
SPLINE
  5
438
100
AcDbEntity
  8
ASSI
100
AcDbSpline
 62
7
  6
CONTINUOUS
 70
0
 71
3
 72
8
 73
4
 74
2
 42
0.0000001
 43
0.0000001
 44
0.0000000001
 12
0.0017199938
 22
-0.0008550042
 32
0.0
 13
0.0000082581
 23
-0.0019207661
 33
0.0
 40
0.0
 40
0.0
 40
0.0
 40
0.0
 40
1.0
 40
1.0
 40
1.0
 40
1.0
 10
-1.8974415138
 20
-16.947050504
 30
0.0
 10
-1.8968681826
 20
-16.9473355054
 30
0.0
 10
-1.8964257504
 20
-16.9480387558
 30
0.0
 10
-1.8964229977
 20
-16.9486790111
 30
0.0
 11
-1.8974415138
 21
-16.947050504
 31
0.0
 11
-1.8964229977
 21
-16.9486790111
 31
0.0
  0
SPLINE
  5
439
100
AcDbEntity
  8
ASSI
100
AcDbSpline
 62
7
  6
CONTINUOUS
 70
0
 71
3
 72
8
 73
4
 74
2
 42
0.0000001
 43
0.0000001
 44
0.0000000001
 12
-0.0322886643
 22
0.0161348252
 32
0.0
 13
-0.0345470447
 23
0.0104590691
 33
0.0
 40
0.0
 40
0.0
 40
0.0
 40
0.0
 40
1.0
 40
1.0
 40
1.0
 40
1.0
 10
-6.0908056548
 20
-14.8503684335
 30
0.0
 10
-6.1015685429
 20
-14.8449901584
 30
0.0
 10
-6.1127693807
 20
-14.8403633222
 30
0.0
 10
-6.1242850623
 20
-14.8368769658
 30
0.0
 11
-6.0908056548
 21
-14.8503684335
 31
0.0
 11
-6.1242850623
 21
-14.8368769658
 31
0.0
  0
SPLINE
  5
43A
100
AcDbEntity
  8
ASSI
100
AcDbSpline
 62
7
  6
CONTINUOUS
 70
0
 71
3
 72
9
 73
5
 74
3
 42
0.0000001
 43
0.0000001
 44
0.0000000001
 12
-0.0774879905
 22
0.0234593799
 32
0.0
 13
-0.075213758
 23
-0.0299603369
 33
0.0
 40
0.0
 40
0.0
 40
0.0
 40
0.0
 40
0.2646796662
 40
1.0
 40
1.0
 40
1.0
 40
1.0
 10
-6.1242850623
 20
-14.8368769658
 30
0.0
 10
-6.1311215608
 20
-14.8348072255
 30
0.0
 10
-6.1572632445
 20
-14.8284942361
 30
0.0
 10
-6.1860488683
 20
-14.8294233062
 30
0.0
 10
-6.2044842701
 20
-14.8367667879
 30
0.0
 11
-6.1242850623
 21
-14.8368769658
 31
0.0
 11
-6.1451451271
 21
-14.8319727305
 31
0.0
 11
-6.2044842701
 21
-14.8367667879
 31
0.0
  0
SPLINE
  5
43B
100
AcDbEntity
  8
ASSI
100
AcDbSpline
 62
7
  6
CONTINUOUS
 70
0
 71
3
 72
8
 73
4
 74
2
 42
0.0000001
 43
0.0000001
 44
0.0000000001
 12
0.0017199938
 22
-0.0008550042
 32
0.0
 13
0.0000082581
 23
-0.0019207661
 33
0.0
 40
0.0
 40
0.0
 40
0.0
 40
0.0
 40
1.0
 40
1.0
 40
1.0
 40
1.0
 10
14.0124610629
 20
-24.9020017923
 30
0.0
 10
14.0130343941
 20
-24.9022867937
 30
0.0
 10
14.0134768263
 20
-24.9029900441
 30
0.0
 10
14.013479579
 20
-24.9036302995
 30
0.0
 11
14.0124610629
 21
-24.9020017923
 31
0.0
 11
14.013479579
 21
-24.9036302995
 31
0.0
  0
SPLINE
  5
43C
100
AcDbEntity
  8
ASSI
100
AcDbSpline
 62
7
  6
CONTINUOUS
 70
0
 71
3
 72
8
 73
4
 74
2
 42
0.0000001
 43
0.0000001
 44
0.0000000001
 12
-0.0322886643
 22
0.0161348252
 32
0.0
 13
-0.0345470447
 23
0.0104590691
 33
0.0
 40
0.0
 40
0.0
 40
0.0
 40
0.0
 40
1.0
 40
1.0
 40
1.0
 40
1.0
 10
9.8190969219
 20
-22.8053197218
 30
0.0
 10
9.8083340338
 20
-22.7999414468
 30
0.0
 10
9.797133196
 20
-22.7953146105
 30
0.0
 10
9.7856175144
 20
-22.7918282541
 30
0.0
 11
9.8190969219
 21
-22.8053197218
 31
0.0
 11
9.7856175144
 21
-22.7918282541
 31
0.0
  0
SPLINE
  5
43D
100
AcDbEntity
  8
ASSI
100
AcDbSpline
 62
7
  6
CONTINUOUS
 70
0
 71
3
 72
9
 73
5
 74
3
 42
0.0000001
 43
0.0000001
 44
0.0000000001
 12
-0.0774879905
 22
0.0234593799
 32
0.0
 13
-0.075213758
 23
-0.0299603369
 33
0.0
 40
0.0
 40
0.0
 40
0.0
 40
0.0
 40
0.2646796662
 40
1.0
 40
1.0
 40
1.0
 40
1.0
 10
9.7856175144
 20
-22.7918282541
 30
0.0
 10
9.7787810159
 20
-22.7897585139
 30
0.0
 10
9.7526393322
 20
-22.7834455244
 30
0.0
 10
9.7238537084
 20
-22.7843745945
 30
0.0
 10
9.7054183066
 20
-22.7917180762
 30
0.0
 11
9.7856175144
 21
-22.7918282541
 31
0.0
 11
9.7647574496
 21
-22.7869240188
 31
0.0
 11
9.7054183066
 21
-22.7917180762
 31
0.0
  0
SPLINE
  5
43E
100
AcDbEntity
  8
ASSI
100
AcDbSpline
 62
7
  6
CONTINUOUS
 70
0
 71
3
 72
8
 73
4
 74
2
 42
0.0000001
 43
0.0000001
 44
0.0000000001
 12
0.0017199875
 22
-0.0008550395
 32
0.0
 13
0.0000082235
 23
-0.0019207763
 33
0.0
 40
0.0
 40
0.0
 40
0.0
 40
0.0
 40
1.0
 40
1.0
 40
1.0
 40
1.0
 10
-17.8073440537
 20
-8.9054966931
 30
0.0
 10
-17.8067707245
 20
-8.9057817062
 30
0.0
 10
-17.806328312
 20
-8.9064849741
 30
0.0
 10
-17.8063255708
 20
-8.9071252329
 30
0.0
 11
-17.8073440537
 21
-8.9054966931
 31
0.0
 11
-17.8063255708
 21
-8.9071252329
 31
0.0
  0
SPLINE
  5
43F
100
AcDbEntity
  8
ASSI
100
AcDbSpline
 62
7
  6
CONTINUOUS
 70
0
 71
3
 72
8
 73
4
 74
2
 42
0.0000001
 43
0.0000001
 44
0.0000000001
 12
-0.032268327
 22
0.0161247358
 32
0.0
 13
-0.0345239903
 23
0.0104568695
 33
0.0
 40
0.0
 40
0.0
 40
0.0
 40
0.0
 40
1.0
 40
1.0
 40
1.0
 40
1.0
 10
-22.0007078219
 20
-6.8088148089
 30
0.0
 10
-22.0114639309
 20
-6.803439897
 30
0.0
 10
-22.0226573915
 20
-6.7988155043
 30
0.0
 10
-22.0341653883
 20
-6.7953298811
 30
0.0
 11
-22.0007078219
 21
-6.8088148089
 31
0.0
 11
-22.0341653883
 21
-6.7953298811
 31
0.0
  0
SPLINE
  5
440
100
AcDbEntity
  8
ASSI
100
AcDbSpline
 62
7
  6
CONTINUOUS
 70
0
 71
3
 72
9
 73
5
 74
3
 42
0.0000001
 43
0.0000001
 44
0.0000000001
 12
-0.0479673986
 22
0.0145287038
 32
0.0
 13
-0.0500426309
 23
-0.0027730218
 33
0.0
 40
0.0
 40
0.0
 40
0.0
 40
0.0
 40
0.257878631
 40
1.0
 40
1.0
 40
1.0
 40
1.0
 10
-22.0341653883
 20
-6.7953298811
 30
0.0
 10
-22.038288644
 20
-6.7940810003
 30
0.0
 10
-22.0544324142
 20
-6.789806171
 30
0.0
 10
-22.0713324784
 20
-6.7880404192
 30
0.0
 10
-22.0837117137
 20
-6.7887263921
 30
0.0
 11
-22.0341653883
 21
-6.7953298811
 31
0.0
 11
-22.0466652053
 21
-6.7920430832
 31
0.0
 11
-22.0837117137
 21
-6.7887263921
 31
0.0
  0
SPLINE
  5
441
100
AcDbEntity
  8
ASSI
100
AcDbSpline
 62
7
  6
CONTINUOUS
 70
0
 71
3
 72
8
 73
4
 74
2
 42
0.0000001
 43
0.0000001
 44
0.0000000001
 12
-0.0213414878
 22
-0.0011825999
 32
0.0
 13
-0.0206349063
 23
-0.005572996
 33
0.0
 40
0.0
 40
0.0
 40
0.0
 40
0.0
 40
1.0
 40
1.0
 40
1.0
 40
1.0
 10
-22.0837117137
 20
-6.7887263921
 30
0.0
 10
-22.0908255429
 20
-6.7891205921
 30
0.0
 10
-22.0979492072
 20
-6.7901824582
 30
0.0
 10
-22.1048275094
 20
-6.7920401235
 30
0.0
 11
-22.0837117137
 21
-6.7887263921
 31
0.0
 11
-22.1048275094
 21
-6.7920401235
 31
0.0
  0
SPLINE
  5
442
100
AcDbEntity
  8
ASSI
100
AcDbSpline
 62
7
  6
CONTINUOUS
 70
0
 71
3
 72
8
 73
4
 74
2
 42
0.0000001
 43
0.0000001
 44
0.0000000001
 12
-0.032268327
 22
0.0161247358
 32
0.0
 13
-0.0345239903
 23
0.0104568695
 33
0.0
 40
0.0
 40
0.0
 40
0.0
 40
0.0
 40
1.0
 40
1.0
 40
1.0
 40
1.0
 10
25.7289999082
 20
-30.673668674
 30
0.0
 10
25.7182437992
 20
-30.6682937621
 30
0.0
 10
25.7070503385
 20
-30.6636693693
 30
0.0
 10
25.6955423418
 20
-30.6601837461
 30
0.0
 11
25.7289999082
 21
-30.673668674
 31
0.0
 11
25.6955423418
 21
-30.6601837461
 31
0.0
  0
SPLINE
  5
443
100
AcDbEntity
  8
ASSI
100
AcDbSpline
 62
7
  6
CONTINUOUS
 70
0
 71
3
 72
9
 73
5
 74
3
 42
0.0000001
 43
0.0000001
 44
0.0000000001
 12
-0.0479673986
 22
0.0145287038
 32
0.0
 13
-0.0500426309
 23
-0.0027730218
 33
0.0
 40
0.0
 40
0.0
 40
0.0
 40
0.0
 40
0.257878631
 40
1.0
 40
1.0
 40
1.0
 40
1.0
 10
25.6955423418
 20
-30.6601837461
 30
0.0
 10
25.6914190861
 20
-30.6589348654
 30
0.0
 10
25.6752753159
 20
-30.654660036
 30
0.0
 10
25.6583752517
 20
-30.6528942842
 30
0.0
 10
25.6459960164
 20
-30.6535802571
 30
0.0
 11
25.6955423418
 21
-30.6601837461
 31
0.0
 11
25.6830425248
 21
-30.6568969482
 31
0.0
 11
25.6459960164
 21
-30.6535802571
 31
0.0
  0
SPLINE
  5
444
100
AcDbEntity
  8
ASSI
100
AcDbSpline
 62
7
  6
CONTINUOUS
 70
0
 71
3
 72
8
 73
4
 74
2
 42
0.0000001
 43
0.0000001
 44
0.0000000001
 12
-0.0213414878
 22
-0.0011825999
 32
0.0
 13
-0.0206349063
 23
-0.005572996
 33
0.0
 40
0.0
 40
0.0
 40
0.0
 40
0.0
 40
1.0
 40
1.0
 40
1.0
 40
1.0
 10
25.6459960164
 20
-30.6535802571
 30
0.0
 10
25.6388821872
 20
-30.6539744571
 30
0.0
 10
25.6317585228
 20
-30.6550363233
 30
0.0
 10
25.6248802207
 20
-30.6568939886
 30
0.0
 11
25.6459960164
 21
-30.6535802571
 31
0.0
 11
25.6248802207
 21
-30.6568939886
 31
0.0
  0
SPLINE
  5
445
100
AcDbEntity
  8
RACCORDO
100
AcDbSpline
 62
7
  6
CONTINUOUS
 70
0
 71
3
 72
9
 73
5
 74
3
 42
0.0000001
 43
0.0000001
 44
0.0000000001
 12
0.0354488864
 22
0.0257201477
 32
0.0
 13
0.0312928904
 23
0.0306415495
 33
0.0
 40
0.0
 40
0.0
 40
0.0
 40
0.0
 40
0.2592712118
 40
1.0
 40
1.0
 40
1.0
 40
1.0
 10
-32.2513007876
 20
28.8047559482
 30
0.0
 10
-32.2482371624
 20
28.8069787795
 30
0.0
 10
-32.2365632688
 20
28.8157448559
 30
0.0
 10
-32.2254814434
 20
28.8253136894
 30
0.0
 10
-32.2177549285
 20
28.8328793821
 30
0.0
 11
-32.2513007876
 21
28.8047559482
 31
0.0
 11
-32.2422235531
 21
28.8115783246
 31
0.0
 11
-32.2177549285
 21
28.8328793821
 31
0.0
  0
SPLINE
  5
446
100
AcDbEntity
  8
RACCORDO
100
AcDbSpline
 62
7
  6
CONTINUOUS
 70
0
 71
3
 72
9
 73
5
 74
3
 42
0.0000001
 43
0.0000001
 44
0.0000000001
 12
0.0920051784
 22
0.0900901513
 32
0.0
 13
0.0000053934
 23
0.1287679625
 33
0.0
 40
0.0
 40
0.0
 40
0.0
 40
0.0
 40
0.5333183432
 40
1.0
 40
1.0
 40
1.0
 40
1.0
 10
-32.2177549285
 20
28.8328793821
 30
0.0
 10
-32.201398912
 20
28.8488949588
 30
0.0
 10
-32.1741489541
 20
28.8832899494
 30
0.0
 10
-32.1630551128
 20
28.926539247
 30
0.0
 10
-32.1630542738
 20
28.9465704624
 30
0.0
 11
-32.2177549285
 21
28.8328793821
 31
0.0
 11
-32.1769283665
 21
28.8881003345
 31
0.0
 11
-32.1630542738
 21
28.9465704624
 31
0.0
  0
SPLINE
  5
447
100
AcDbEntity
  8
RACCORDO
100
AcDbSpline
 62
7
  6
CONTINUOUS
 70
0
 71
3
 72
9
 73
5
 74
3
 42
0.0000001
 43
0.0000001
 44
0.0000000001
 12
0.0354488864
 22
0.0257201477
 32
0.0
 13
0.0312928904
 23
0.0306415495
 33
0.0
 40
0.0
 40
0.0
 40
0.0
 40
0.0
 40
0.2592712118
 40
1.0
 40
1.0
 40
1.0
 40
1.0
 10
-32.2513007876
 20
9.7521970649
 30
0.0
 10
-32.2482371624
 20
9.7544198962
 30
0.0
 10
-32.2365632688
 20
9.7631859727
 30
0.0
 10
-32.2254814434
 20
9.7727548062
 30
0.0
 10
-32.2177549285
 20
9.7803204988
 30
0.0
 11
-32.2513007876
 21
9.7521970649
 31
0.0
 11
-32.2422235531
 21
9.7590194413
 31
0.0
 11
-32.2177549285
 21
9.7803204988
 31
0.0
  0
SPLINE
  5
448
100
AcDbEntity
  8
RACCORDO
100
AcDbSpline
 62
7
  6
CONTINUOUS
 70
0
 71
3
 72
9
 73
5
 74
3
 42
0.0000001
 43
0.0000001
 44
0.0000000001
 12
0.0920051784
 22
0.0900901513
 32
0.0
 13
0.0000053934
 23
0.1287679625
 33
0.0
 40
0.0
 40
0.0
 40
0.0
 40
0.0
 40
0.5333183432
 40
1.0
 40
1.0
 40
1.0
 40
1.0
 10
-32.2177549285
 20
9.7803204988
 30
0.0
 10
-32.201398912
 20
9.7963360755
 30
0.0
 10
-32.1741489541
 20
9.8307310661
 30
0.0
 10
-32.1630551128
 20
9.8739803638
 30
0.0
 10
-32.1630542738
 20
9.8940115791
 30
0.0
 11
-32.2177549285
 21
9.7803204988
 31
0.0
 11
-32.1769283665
 21
9.8355414512
 31
0.0
 11
-32.1630542738
 21
9.8940115791
 31
0.0
  0
SPLINE
  5
449
100
AcDbEntity
  8
DRAFT
100
AcDbSpline
 62
7
  6
CONTINUOUS
 70
0
 71
3
 72
9
 73
5
 74
3
 42
0.0000001
 43
0.0000001
 44
0.0000000001
 12
-0.033283447
 22
-0.1354905919
 32
0.0
 13
-0.1246408007
 23
-0.0626909815
 33
0.0
 40
0.0
 40
0.0
 40
0.0
 40
0.0
 40
0.5315820734
 40
1.0
 40
1.0
 40
1.0
 40
1.0
 10
-18.3841664313
 20
-9.9922257259
 30
0.0
 10
-18.3900640592
 20
-10.0162338492
 30
0.0
 10
-18.4078684083
 20
-10.0605512905
 30
0.0
 10
-18.4439701127
 20
-10.0932041015
 30
0.0
 10
-18.4634314412
 20
-10.102992628
 30
0.0
 11
-18.3841664313
 21
-9.9922257259
 31
0.0
 11
-18.4141634623
 21
-10.0600543784
 31
0.0
 11
-18.4634314412
 21
-10.102992628
 31
0.0
  0
SPLINE
  5
44A
100
AcDbEntity
  8
RACCORDO
100
AcDbSpline
 62
7
  6
CONTINUOUS
 70
0
 71
3
 72
9
 73
5
 74
3
 42
0.0000001
 43
0.0000001
 44
0.0000000001
 12
0.1211461399
 22
0.0559349775
 32
0.0
 13
0.1185133153
 23
-0.0613164172
 33
0.0
 40
0.0
 40
0.0
 40
0.0
 40
0.0
 40
0.4648265797
 40
1.0
 40
1.0
 40
1.0
 40
1.0
 10
-4.801691974
 20
-16.607318632
 30
0.0
 10
-4.7829213254
 20
-16.5986519439
 30
0.0
 10
-4.7365584143
 20
-16.5920219973
 30
0.0
 10
-4.6933498063
 20
-16.6071142731
 30
0.0
 10
-4.6722080809
 20
-16.6180525787
 30
0.0
 11
-4.801691974
 21
-16.607318632
 31
0.0
 11
-4.7405014292
 21
-16.5971817779
 31
0.0
 11
-4.6722080809
 21
-16.6180525787
 31
0.0
  0
SPLINE
  5
44B
100
AcDbEntity
  8
RACCORDO
100
AcDbSpline
 62
7
  6
CONTINUOUS
 70
0
 71
3
 72
9
 73
5
 74
3
 42
0.0000001
 43
0.0000001
 44
0.0000000001
 12
0.1211461399
 22
0.0559349775
 32
0.0
 13
0.1185133153
 23
-0.0613164172
 33
0.0
 40
0.0
 40
0.0
 40
0.0
 40
0.0
 40
0.4648265797
 40
1.0
 40
1.0
 40
1.0
 40
1.0
 10
4.2492748252
 20
-21.1328020316
 30
0.0
 10
4.2680454738
 20
-21.1241353435
 30
0.0
 10
4.3144083849
 20
-21.1175053969
 30
0.0
 10
4.3576169929
 20
-21.1325976727
 30
0.0
 10
4.3787587183
 20
-21.1435359783
 30
0.0
 11
4.2492748252
 21
-21.1328020316
 31
0.0
 11
4.31046537
 21
-21.1226651775
 31
0.0
 11
4.3787587183
 21
-21.1435359783
 31
0.0
  0
SPLINE
  5
44C
100
AcDbEntity
  8
RACCORDO
100
AcDbSpline
 62
7
  6
CONTINUOUS
 70
0
 71
3
 72
11
 73
7
 74
5
 42
0.0000001
 43
0.0000001
 44
0.0000000001
 12
0.1712669468
 22
0.0869973878
 32
0.0
 13
0.0003984659
 23
0.1920956891
 33
0.0
 40
0.0
 40
0.0
 40
0.0
 40
0.0
 40
0.3609436533
 40
0.647566348
 40
0.8565838892
 40
1.0
 40
1.0
 40
1.0
 40
1.0
 10
-31.2719060419
 20
-3.7139543206
 30
0.0
 10
-31.2513001361
 20
-3.703487269
 30
0.0
 10
-31.2149823361
 20
-3.6833687549
 30
0.0
 10
-31.1701947341
 20
-3.6513003444
 30
0.0
 10
-31.1412475857
 20
-3.6222239567
 30
0.0
 10
-31.131595904
 20
-3.6002773699
 30
0.0
 10
-31.1315768552
 20
-3.5910941643
 30
0.0
 11
-31.2719060419
 21
-3.7139543206
 31
0.0
 11
-31.211578097
 21
-3.6797782795
 31
0.0
 11
-31.1672955755
 21
-3.6470588195
 31
0.0
 11
-31.1404963249
 21
-3.6171599983
 31
0.0
 11
-31.1315768552
 21
-3.5910941643
 31
0.0
  0
SPLINE
  5
44D
100
AcDbEntity
  8
RACCORDO
100
AcDbSpline
 62
7
  6
CONTINUOUS
 70
0
 71
3
 72
11
 73
7
 74
5
 42
0.0000001
 43
0.0000001
 44
0.0000000001
 12
0.3974925818
 22
-0.1920748414
 32
0.0
 13
-0.0061350168
 23
-0.4414243523
 33
0.0
 40
0.0
 40
0.0
 40
0.0
 40
0.0
 40
0.230440651
 40
0.4885148136
 40
0.7528953886
 40
1.0
 40
1.0
 40
1.0
 40
1.0
 10
-3.1339174223
 20
-17.387197908
 30
0.0
 10
-3.1033846058
 20
-17.4019518585
 30
0.0
 10
-3.0450164754
 20
-17.4465286148
 30
0.0
 10
-2.9779652255
 20
-17.5360225726
 30
0.0
 10
-2.9329944837
 20
-17.6410680598
 30
0.0
 10
-2.9213123663
 20
-17.716656491
 30
0.0
 10
-2.9218176967
 20
-17.753015822
 30
0.0
 11
-3.1339174223
 21
-17.387197908
 31
0.0
 11
-3.0516252035
 21
-17.4470090955
 31
0.0
 11
-2.9824303925
 21
-17.5375209813
 31
0.0
 11
-2.9368494967
 21
-17.6449679077
 31
0.0
 11
-2.9218176967
 21
-17.753015822
 31
0.0
  0
SPLINE
  5
44E
100
AcDbEntity
  8
RACCORDO
100
AcDbSpline
 62
7
  6
CONTINUOUS
 70
0
 71
3
 72
14
 73
10
 74
8
 42
0.0000001
 43
0.0000001
 44
0.0000000001
 12
0.3943528897
 22
-0.2003465686
 32
0.0
 13
-0.0117720728
 23
-0.4421700662
 33
0.0
 40
0.0
 40
0.0
 40
0.0
 40
0.0
 40
0.1107719331
 40
0.2307901487
 40
0.3575288845
 40
0.4888703697
 40
0.752742191
 40
0.879807714
 40
1.0
 40
1.0
 40
1.0
 40
1.0
 10
-31.4840057659
 20
-3.3481364058
 30
0.0
 10
-31.4694446886
 20
-3.3555339981
 30
0.0
 10
-31.4401818379
 20
-3.3732134398
 30
0.0
 10
-31.3999765634
 20
-3.4076540537
 30
0.0
 10
-31.3634157329
 20
-3.4499773337
 30
0.0
 10
-31.3206219803
 20
-3.5141050666
 30
0.0
 10
-31.2901260331
 20
-3.5858917793
 30
0.0
 10
-31.274165309
 20
-3.6596735461
 30
0.0
 10
-31.2714343551
 20
-3.6962391525
 30
0.0
 10
-31.2719059925
 20
-3.7139542962
 30
0.0
 11
-31.4840057659
 21
-3.3481364058
 31
0.0
 11
-31.4421166794
 21
-3.3735538904
 31
0.0
 11
-31.4016520965
 21
-3.4079177583
 31
0.0
 11
-31.3647762603
 21
-3.4501420253
 31
0.0
 11
-31.3325178772
 21
-3.4984589447
 31
0.0
 11
-31.2869759289
 21
-3.6059248492
 31
0.0
 11
-31.2752685051
 21
-3.6608964755
 31
0.0
 11
-31.2719059925
 21
-3.7139542962
 31
0.0
  0
SPLINE
  5
44F
100
AcDbEntity
  8
RACCORDO
100
AcDbSpline
 62
7
  6
CONTINUOUS
 70
0
 71
3
 72
11
 73
7
 74
5
 42
0.0000001
 43
0.0000001
 44
0.0000000001
 12
0.3974925818
 22
-0.1920748414
 32
0.0
 13
-0.0061350168
 23
-0.4414243523
 33
0.0
 40
0.0
 40
0.0
 40
0.0
 40
0.0
 40
0.230440651
 40
0.4885148136
 40
0.7528953886
 40
1.0
 40
1.0
 40
1.0
 40
1.0
 10
5.9170493769
 20
-21.9126813076
 30
0.0
 10
5.9475821934
 20
-21.9274352581
 30
0.0
 10
6.0059503238
 20
-21.9720120144
 30
0.0
 10
6.0730015737
 20
-22.0615059722
 30
0.0
 10
6.1179723155
 20
-22.1665514594
 30
0.0
 10
6.1296544329
 20
-22.2421398906
 30
0.0
 10
6.1291491025
 20
-22.2784992216
 30
0.0
 11
5.9170493769
 21
-21.9126813076
 31
0.0
 11
5.9993415957
 21
-21.9724924951
 31
0.0
 11
6.0685364067
 21
-22.0630043809
 31
0.0
 11
6.1141173025
 21
-22.1704513073
 31
0.0
 11
6.1291491025
 21
-22.2784992216
 31
0.0
  0
SPLINE
  5
450
100
AcDbEntity
  8
RACCORDO
100
AcDbSpline
 62
7
  6
CONTINUOUS
 70
0
 71
3
 72
9
 73
5
 74
3
 42
0.0000001
 43
0.0000001
 44
0.0000000001
 12
-0.1200027248
 22
0.0599767827
 32
0.0
 13
-0.1210098253
 23
-0.0579179644
 33
0.0
 40
0.0
 40
0.0
 40
0.0
 40
0.0
 40
0.465035448
 40
1.0
 40
1.0
 40
1.0
 40
1.0
 10
-4.5417501897
 20
-16.6113461909
 30
0.0
 10
-4.56035203
 20
-16.6020490809
 30
0.0
 10
-4.6067293043
 20
-16.593924298
 30
0.0
 10
-4.6506294252
 20
-16.6077245594
 30
0.0
 10
-4.6722080809
 20
-16.6180525787
 30
0.0
 11
-4.5417501897
 21
-16.6113461909
 31
0.0
 11
-4.6029504789
 21
-16.5992339223
 31
0.0
 11
-4.6722080809
 21
-16.6180525787
 31
0.0
  0
SPLINE
  5
451
100
AcDbEntity
  8
ASSI
100
AcDbSpline
 62
7
  6
CONTINUOUS
 70
0
 71
3
 72
11
 73
7
 74
5
 42
0.0000001
 43
0.0000001
 44
0.0000000001
 12
0.0483159092
 22
0.0240461291
 32
0.0
 13
0.048326814
 23
-0.0240242057
 33
0.0
 40
0.0
 40
0.0
 40
0.0
 40
0.0
 40
0.4141056993
 40
0.7151930062
 40
0.9055096016
 40
1.0
 40
1.0
 40
1.0
 40
1.0
 10
-17.8576987854
 20
-8.9235569898
 30
0.0
 10
-17.8510294876
 20
-8.9202377768
 30
0.0
 10
-17.8394037724
 20
-8.9148418312
 30
0.0
 10
-17.824176126
 20
-8.9085698295
 30
0.0
 10
-17.8143795151
 20
-8.9055746984
 30
0.0
 10
-17.8088661937
 20
-8.9047400075
 30
0.0
 10
-17.8073440537
 20
-8.9054966931
 30
0.0
 11
-17.8576987854
 21
-8.9235569898
 31
0.0
 11
-17.8374320329
 21
-8.9141373765
 31
0.0
 11
-17.82233102
 21
-8.9081372996
 31
0.0
 11
-17.8124418249
 21
-8.9053622413
 31
0.0
 11
-17.8073440537
 21
-8.9054966931
 31
0.0
  0
SPLINE
  5
452
100
AcDbEntity
  8
ASSI
100
AcDbSpline
 62
7
  6
CONTINUOUS
 70
0
 71
3
 72
11
 73
7
 74
5
 42
0.0000001
 43
0.0000001
 44
0.0000000001
 12
0.048315538
 22
0.0240467905
 32
0.0
 13
0.0483272103
 23
-0.0240233238
 33
0.0
 40
0.0
 40
0.0
 40
0.0
 40
0.0
 40
0.4141046671
 40
0.7151915315
 40
0.9055086154
 40
1.0
 40
1.0
 40
1.0
 40
1.0
 10
13.962106368
 20
-24.9200621069
 30
0.0
 10
13.9687755979
 20
-24.9167428108
 30
0.0
 10
13.9804013513
 20
-24.9113470139
 30
0.0
 10
13.9956289376
 20
-24.9050749813
 30
0.0
 10
14.0054255719
 20
-24.9020798215
 30
0.0
 10
14.0109388945
 20
-24.9012451266
 30
0.0
 10
14.0124610629
 20
-24.9020017923
 30
0.0
 11
13.962106368
 21
-24.9200621069
 31
0.0
 11
13.9823730583
 21
-24.9106425289
 31
0.0
 11
13.9974740335
 21
-24.9046424525
 31
0.0
 11
14.0073632412
 21
-24.9018673683
 31
0.0
 11
14.0124610629
 21
-24.9020017923
 31
0.0
  0
SPLINE
  5
453
100
AcDbEntity
  8
ASSI
100
AcDbSpline
 62
7
  6
CONTINUOUS
 70
0
 71
3
 72
11
 73
7
 74
5
 42
0.0000001
 43
0.0000001
 44
0.0000000001
 12
0.048315538
 22
0.0240467905
 32
0.0
 13
0.0483272103
 23
-0.0240233238
 33
0.0
 40
0.0
 40
0.0
 40
0.0
 40
0.0
 40
0.4141046671
 40
0.7151915315
 40
0.9055086154
 40
1.0
 40
1.0
 40
1.0
 40
1.0
 10
-1.9477962087
 20
-16.9651108186
 30
0.0
 10
-1.9411269788
 20
-16.9617915225
 30
0.0
 10
-1.9295012254
 20
-16.9563957256
 30
0.0
 10
-1.9142736391
 20
-16.950123693
 30
0.0
 10
-1.9044770048
 20
-16.9471285332
 30
0.0
 10
-1.8989636822
 20
-16.9462938383
 30
0.0
 10
-1.8974415138
 20
-16.947050504
 30
0.0
 11
-1.9477962087
 21
-16.9651108186
 31
0.0
 11
-1.9275295184
 21
-16.9556912406
 31
0.0
 11
-1.9124285432
 21
-16.9496911641
 31
0.0
 11
-1.9025393355
 21
-16.94691608
 31
0.0
 11
-1.8974415138
 21
-16.947050504
 31
0.0
  0
SPLINE
  5
454
100
AcDbEntity
  8
RACCORDO
100
AcDbSpline
 62
7
  6
CONTINUOUS
 70
0
 71
3
 72
11
 73
7
 74
5
 42
0.0000001
 43
0.0000001
 44
0.0000000001
 12
0.0021654052
 22
-0.1535620513
 32
0.0
 13
-0.1351790738
 23
-0.0728876573
 33
0.0
 40
0.0
 40
0.0
 40
0.0
 40
0.0
 40
0.2885237755
 40
0.5479952821
 40
0.7816826091
 40
1.0
 40
1.0
 40
1.0
 40
1.0
 10
-28.5343216107
 20
15.1028609304
 30
0.0
 10
-28.5341133538
 20
15.0880921628
 30
0.0
 10
-28.5360995974
 20
15.0599038942
 30
0.0
 10
-28.5475377594
 20
15.0211544608
 30
0.0
 10
-28.5671417425
 20
14.9898233159
 30
0.0
 10
-28.5856145985
 20
14.9749796465
 30
0.0
 10
-28.5954519128
 20
14.9696754322
 30
0.0
 11
-28.5343216107
 21
15.1028609304
 31
0.0
 11
-28.5378771521
 21
15.0586931035
 31
0.0
 11
-28.549679041
 21
15.0206319254
 31
0.0
 11
-28.569173893
 21
14.9904992803
 31
0.0
 11
-28.5954519128
 21
14.9696754322
 31
0.0
  0
SPLINE
  5
455
100
AcDbEntity
  8
RACCORDO
100
AcDbSpline
 62
7
  6
CONTINUOUS
 70
0
 71
3
 72
11
 73
7
 74
5
 42
0.0000001
 43
0.0000001
 44
0.0000000001
 12
0.3312438182
 22
-0.1600623678
 32
0.0
 13
-0.005112514
 23
-0.367853627
 33
0.0
 40
0.0
 40
0.0
 40
0.0
 40
0.0
 40
0.2304406468
 40
0.488514815
 40
0.7528953925
 40
1.0
 40
1.0
 40
1.0
 40
1.0
 10
-28.7110713821
 20
20.893201325
 30
0.0
 10
-28.6856273689
 20
20.8809063665
 30
0.0
 10
-28.6369872599
 20
20.8437590698
 30
0.0
 10
-28.5811112179
 20
20.7691807711
 30
0.0
 10
-28.5436355997
 20
20.6816428645
 30
0.0
 10
-28.5339005021
 20
20.6186525054
 30
0.0
 10
-28.5343216107
 20
20.5883530634
 30
0.0
 11
-28.7110713821
 21
20.893201325
 31
0.0
 11
-28.6424945342
 21
20.8433586699
 31
0.0
 11
-28.5848321904
 21
20.7679320968
 31
0.0
 11
-28.5468481104
 21
20.6783929906
 31
0.0
 11
-28.5343216107
 21
20.5883530634
 31
0.0
  0
SPLINE
  5
456
100
AcDbEntity
  8
RACCORDO
100
AcDbSpline
 62
7
  6
CONTINUOUS
 70
0
 71
3
 72
9
 73
5
 74
3
 42
0.0000001
 43
0.0000001
 44
0.0000000001
 12
-0.1199868676
 22
0.0599059461
 32
0.0
 13
-0.1209684762
 23
-0.0578981739
 33
0.0
 40
0.0
 40
0.0
 40
0.0
 40
0.0
 40
0.4650398515
 40
1.0
 40
1.0
 40
1.0
 40
1.0
 10
-3.0035018814
 20
-17.3804703648
 30
0.0
 10
-3.0221014398
 20
-17.3711841474
 30
0.0
 10
-3.0684631014
 20
-17.3630765742
 30
0.0
 10
-3.1123463176
 20
-17.3768735028
 30
0.0
 10
-3.1339174223
 20
-17.387197908
 30
0.0
 11
-3.0035018814
 21
-17.3804703648
 31
0.0
 11
-3.0646854865
 21
-17.3683805709
 31
0.0
 11
-3.1339174223
 21
-17.387197908
 31
0.0
  0
SPLINE
  5
457
100
AcDbEntity
  8
RACCORDO
100
AcDbSpline
 62
7
  6
CONTINUOUS
 70
0
 71
3
 72
11
 73
7
 74
5
 42
0.0000001
 43
0.0000001
 44
0.0000000001
 12
-0.0000124808
 22
-0.1402926118
 32
0.0
 13
-0.1245837348
 23
-0.064505117
 33
0.0
 40
0.0
 40
0.0
 40
0.0
 40
0.0
 40
0.2077729763
 40
0.4361383275
 40
0.6987155742
 40
1.0
 40
1.0
 40
1.0
 40
1.0
 10
-2.8376196825
 20
-17.6488174222
 30
0.0
 10
-2.8376205469
 20
-17.6585337601
 30
0.0
 10
-2.8418003489
 20
-17.6790814932
 30
0.0
 10
-2.8593099432
 20
-17.7072605805
 30
0.0
 10
-2.8866949859
 20
-17.7326797773
 30
0.0
 10
-2.9093059837
 20
-17.7465376929
 30
0.0
 10
-2.9218176967
 20
-17.753015822
 30
0.0
 11
-2.8376196825
 21
-17.6488174222
 31
0.0
 11
-2.8431348383
 21
-17.6774399318
 31
0.0
 11
-2.8594625425
 21
-17.7050050856
 31
0.0
 11
-2.8860335533
 21
-17.7305196635
 31
0.0
 11
-2.9218176967
 21
-17.753015822
 31
0.0
  0
SPLINE
  5
458
100
AcDbEntity
  8
RACCORDO
100
AcDbSpline
 62
7
  6
CONTINUOUS
 70
0
 71
3
 72
9
 73
5
 74
3
 42
0.0000001
 43
0.0000001
 44
0.0000000001
 12
-0.1200027248
 22
0.0599767827
 32
0.0
 13
-0.1210098253
 23
-0.0579179644
 33
0.0
 40
0.0
 40
0.0
 40
0.0
 40
0.0
 40
0.465035448
 40
1.0
 40
1.0
 40
1.0
 40
1.0
 10
4.5092166095
 20
-21.1368295905
 30
0.0
 10
4.4906147692
 20
-21.1275324805
 30
0.0
 10
4.4442374949
 20
-21.1194076976
 30
0.0
 10
4.400337374
 20
-21.133207959
 30
0.0
 10
4.3787587183
 20
-21.1435359783
 30
0.0
 11
4.5092166095
 21
-21.1368295905
 31
0.0
 11
4.4480163203
 21
-21.1247173219
 31
0.0
 11
4.3787587183
 21
-21.1435359783
 31
0.0
  0
SPLINE
  5
459
100
AcDbEntity
  8
RACCORDO
100
AcDbSpline
 62
7
  6
CONTINUOUS
 70
0
 71
3
 72
9
 73
5
 74
3
 42
0.0000001
 43
0.0000001
 44
0.0000000001
 12
-0.1199868676
 22
0.0599059461
 32
0.0
 13
-0.1209684762
 23
-0.0578981739
 33
0.0
 40
0.0
 40
0.0
 40
0.0
 40
0.0
 40
0.4650398515
 40
1.0
 40
1.0
 40
1.0
 40
1.0
 10
6.0474649178
 20
-21.9059537644
 30
0.0
 10
6.0288653594
 20
-21.896667547
 30
0.0
 10
5.9825036978
 20
-21.8885599738
 30
0.0
 10
5.9386204816
 20
-21.9023569024
 30
0.0
 10
5.9170493769
 20
-21.9126813076
 30
0.0
 11
6.0474649178
 21
-21.9059537644
 31
0.0
 11
5.9862813127
 21
-21.8938639705
 31
0.0
 11
5.9170493769
 21
-21.9126813076
 31
0.0
  0
SPLINE
  5
45A
100
AcDbEntity
  8
RACCORDO
100
AcDbSpline
 62
7
  6
CONTINUOUS
 70
0
 71
3
 72
11
 73
7
 74
5
 42
0.0000001
 43
0.0000001
 44
0.0000000001
 12
-0.0000124808
 22
-0.1402926118
 32
0.0
 13
-0.1245837348
 23
-0.064505117
 33
0.0
 40
0.0
 40
0.0
 40
0.0
 40
0.0
 40
0.2077729763
 40
0.4361383275
 40
0.6987155742
 40
1.0
 40
1.0
 40
1.0
 40
1.0
 10
6.2133471167
 20
-22.1743008218
 30
0.0
 10
6.2133462523
 20
-22.1840171597
 30
0.0
 10
6.2091664503
 20
-22.2045648928
 30
0.0
 10
6.191656856
 20
-22.2327439801
 30
0.0
 10
6.1642718133
 20
-22.2581631769
 30
0.0
 10
6.1416608155
 20
-22.2720210925
 30
0.0
 10
6.1291491025
 20
-22.2784992216
 30
0.0
 11
6.2133471167
 21
-22.1743008218
 31
0.0
 11
6.2078319609
 21
-22.2029233314
 31
0.0
 11
6.1915042567
 21
-22.2304884852
 31
0.0
 11
6.1649332459
 21
-22.2560030631
 31
0.0
 11
6.1291491025
 21
-22.2784992216
 31
0.0
  0
SPLINE
  5
45B
100
AcDbEntity
  8
RACCORDO
100
AcDbSpline
 62
7
  6
CONTINUOUS
 70
0
 71
3
 72
11
 73
7
 74
5
 42
0.0000001
 43
0.0000001
 44
0.0000000001
 12
-0.0000085169
 22
-0.116911279
 32
0.0
 13
-0.1038204618
 23
-0.0537546177
 33
0.0
 40
0.0
 40
0.0
 40
0.0
 40
0.0
 40
0.2077778344
 40
0.4361450685
 40
0.6987172548
 40
1.0
 40
1.0
 40
1.0
 40
1.0
 10
-28.4641565953
 20
15.1896937295
 30
0.0
 10
-28.4641571852
 20
15.1815965387
 30
0.0
 10
-28.467640572
 20
15.1644730457
 30
0.0
 10
-28.4822318406
 20
15.1409901946
 30
0.0
 10
-28.505052707
 20
15.1198074582
 30
0.0
 10
-28.5238951728
 20
15.1082593767
 30
0.0
 10
-28.5343216107
 20
15.1028609304
 30
0.0
 11
-28.4641565953
 21
15.1896937295
 31
0.0
 11
-28.4687526516
 21
15.165840915
 31
0.0
 11
-28.4823592086
 21
15.1428695746
 31
0.0
 11
-28.5045014147
 21
15.1216076735
 31
0.0
 11
-28.5343216107
 21
15.1028609304
 31
0.0
  0
SPLINE
  5
45C
100
AcDbEntity
  8
RACCORDO
100
AcDbSpline
 62
7
  6
CONTINUOUS
 70
0
 71
3
 72
11
 73
7
 74
5
 42
0.0000001
 43
0.0000001
 44
0.0000000001
 12
-0.0000085169
 22
-0.116911279
 32
0.0
 13
-0.1038204618
 23
-0.0537546177
 33
0.0
 40
0.0
 40
0.0
 40
0.0
 40
0.0
 40
0.2077778344
 40
0.4361450684
 40
0.6987172547
 40
1.0
 40
1.0
 40
1.0
 40
1.0
 10
-28.4641565953
 20
20.6751858624
 30
0.0
 10
-28.4641571852
 20
20.6670886716
 30
0.0
 10
-28.467640572
 20
20.6499651786
 30
0.0
 10
-28.4822318406
 20
20.6264823275
 30
0.0
 10
-28.505052707
 20
20.6052995911
 30
0.0
 10
-28.5238951728
 20
20.5937515096
 30
0.0
 10
-28.5343216107
 20
20.5883530634
 30
0.0
 11
-28.4641565953
 21
20.6751858624
 31
0.0
 11
-28.4687526517
 21
20.651333048
 31
0.0
 11
-28.4823592085
 21
20.6283617075
 31
0.0
 11
-28.5045014147
 21
20.6070998065
 31
0.0
 11
-28.5343216107
 21
20.5883530634
 31
0.0
  0
SPLINE
  5
45D
100
AcDbEntity
  8
RACCORDO
100
AcDbSpline
 62
7
  6
CONTINUOUS
 70
0
 71
3
 72
9
 73
5
 74
3
 42
0.0000001
 43
0.0000001
 44
0.0000000001
 12
-0.0999894024
 22
0.0499208791
 32
0.0
 13
-0.1008070436
 23
-0.0482484687
 33
0.0
 40
0.0
 40
0.0
 40
0.0
 40
0.0
 40
0.4650457659
 40
1.0
 40
1.0
 40
1.0
 40
1.0
 10
-28.6023917883
 20
20.8988075498
 30
0.0
 10
-28.617891671
 20
20.9065460476
 30
0.0
 10
-28.6565263485
 20
20.9133024682
 30
0.0
 10
-28.6930956638
 20
20.9018048992
 30
0.0
 10
-28.7110713821
 20
20.893201325
 30
0.0
 11
-28.6023917883
 21
20.8988075498
 31
0.0
 11
-28.6533787865
 21
20.9088823913
 31
0.0
 11
-28.7110713821
 21
20.893201325
 31
0.0
  0
SPLINE
  5
45E
100
AcDbEntity
  8
RACCORDO
100
AcDbSpline
 62
7
  6
CONTINUOUS
 70
0
 71
3
 72
9
 73
5
 74
3
 42
0.0000001
 43
0.0000001
 44
0.0000000001
 12
-0.1000017657
 22
0.0499760996
 32
0.0
 13
-0.1008392778
 23
-0.0482638967
 33
0.0
 40
0.0
 40
0.0
 40
0.0
 40
0.0
 40
0.4650416511
 40
1.0
 40
1.0
 40
1.0
 40
1.0
 10
-28.9800250135
 20
21.0876241787
 30
0.0
 10
-28.9955266756
 20
21.095371168
 30
0.0
 10
-29.0341735244
 20
21.102141004
 30
0.0
 10
-29.0707560179
 20
21.0906408367
 30
0.0
 10
-29.0887376224
 20
21.0820344452
 30
0.0
 11
-28.9800250135
 21
21.0876241787
 31
0.0
 11
-29.0310250192
 21
21.0977165402
 31
0.0
 11
-29.0887376224
 21
21.0820344452
 31
0.0
  0
SPLINE
  5
45F
100
AcDbEntity
  8
RACCORDO
100
AcDbSpline
 62
7
  6
CONTINUOUS
 70
0
 71
3
 72
9
 73
5
 74
3
 42
0.0000001
 43
0.0000001
 44
0.0000000001
 12
0.0969325573
 22
0.0343663119
 32
0.0
 13
0.0913430154
 23
-0.0472590478
 33
0.0
 40
0.0
 40
0.0
 40
0.0
 40
0.0
 40
0.4660991936
 40
1.0
 40
1.0
 40
1.0
 40
1.0
 10
-29.1886783903
 20
21.0942205911
 30
0.0
 10
-29.1736183281
 20
21.0995599612
 30
0.0
 10
-29.1379878976
 20
21.1023094244
 30
0.0
 10
-29.104993659
 20
21.0904449931
 30
0.0
 10
-29.0887376224
 20
21.0820344452
 30
0.0
 11
-29.1886783903
 21
21.0942205911
 31
0.0
 11
-29.1409764069
 21
21.0989481603
 31
0.0
 11
-29.0887376224
 21
21.0820344452
 31
0.0
  0
SPLINE
  5
460
100
AcDbEntity
  8
RACCORDO
100
AcDbSpline
 62
7
  6
CONTINUOUS
 70
0
 71
3
 72
10
 73
6
 74
4
 42
0.0000001
 43
0.0000001
 44
0.0000000001
 12
-0.1719057115
 22
0.0858473227
 32
0.0
 13
-0.1728448914
 23
-0.0839403357
 33
0.0
 40
0.0
 40
0.0
 40
0.0
 40
0.0
 40
0.4083746967
 40
0.6803982949
 40
1.0
 40
1.0
 40
1.0
 40
1.0
 10
-31.2984537639
 20
-3.3210120254
 30
0.0
 10
-31.3218544115
 20
-3.3093260673
 30
0.0
 10
-31.3688759654
 20
-3.308223218
 30
0.0
 10
-31.4304189761
 20
-3.324395723
 30
0.0
 10
-31.4655919268
 20
-3.3391939152
 30
0.0
 10
-31.4840057675
 20
-3.3481364067
 30
0.0
 11
-31.2984537639
 21
-3.3210120254
 31
0.0
 11
-31.3764445967
 21
-3.3123634804
 31
0.0
 11
-31.42722927
 21
-3.3247319525
 31
0.0
 11
-31.4840057675
 21
-3.3481364067
 31
0.0
  0
SPLINE
  5
461
100
AcDbEntity
  8
DRAFT
100
AcDbSpline
 62
7
  6
CONTINUOUS
 70
0
 71
3
 72
11
 73
7
 74
5
 42
0.0000001
 43
0.0000001
 44
0.0000000001
 12
0.0
 22
-0.9568012632
 32
0.0
 13
-0.8650231053
 23
-0.4089054714
 33
0.0
 40
0.0
 40
0.0
 40
0.0
 40
0.0
 40
0.2901625027
 40
0.5498879963
 40
0.78281024
 40
1.0
 40
1.0
 40
1.0
 40
1.0
 10
51.7425387133
 20
-68.2317735919
 30
0.0
 10
51.7425387133
 20
-68.3243162083
 30
0.0
 10
51.7274105411
 20
-68.5003864822
 30
0.0
 10
51.6509392823
 20
-68.7407161636
 30
0.0
 10
51.5231530026
 20
-68.9319763029
 30
0.0
 10
51.404188744
 20
-69.0188950591
 30
0.0
 10
51.3415640238
 20
-69.0484984195
 30
0.0
 11
51.7425387133
 21
-68.2317735919
 31
0.0
 11
51.7158282972
 21
-68.5081135569
 31
0.0
 11
51.6370471156
 21
-68.7438010589
 31
0.0
 11
51.5101627169
 21
-68.9270142171
 31
0.0
 11
51.3415640238
 21
-69.0484984195
 31
0.0
  0
SPLINE
  5
462
100
AcDbEntity
  8
SMUSSO
100
AcDbSpline
 62
7
  6
CONTINUOUS
 70
0
 71
3
 72
11
 73
7
 74
5
 42
0.0000001
 43
0.0000001
 44
0.0000000001
 12
0.5212902236
 22
-0.3908910505
 32
0.0
 13
0.0000000005
 23
-0.6515668121
 33
0.0
 40
0.0
 40
0.0
 40
0.0
 40
0.0
 40
0.2409201141
 40
0.4999921995
 40
0.7590683138
 40
1.0
 40
1.0
 40
1.0
 40
1.0
 10
51.4596668121
 20
22.1550521775
 30
0.0
 10
51.5015299121
 20
22.1236610053
 30
0.0
 10
51.5791023305
 20
22.0457968024
 30
0.0
 10
51.6679629983
 20
21.9056370859
 30
0.0
 10
51.7267841855
 20
21.7504535276
 30
0.0
 10
51.7425387133
 20
21.6416749356
 30
0.0
 10
51.7425387133
 20
21.5893472387
 30
0.0
 11
51.4596668121
 21
22.1550521775
 31
0.0
 11
51.5718653054
 21
22.0452668341
 31
0.0
 11
51.6628361352
 21
21.9030744144
 31
0.0
 11
51.7220176924
 21
21.7449832836
 31
0.0
 11
51.7425387133
 21
21.5893472387
 31
0.0
  0
SPLINE
  5
463
100
AcDbEntity
  8
DRAFT
100
AcDbSpline
 62
7
  6
CONTINUOUS
 70
0
 71
3
 72
11
 73
7
 74
5
 42
0.0000001
 43
0.0000001
 44
0.0000000001
 12
0.6261200182
 22
0.330537926
 32
0.0
 13
0.6332655671
 23
-0.3166327829
 33
0.0
 40
0.0
 40
0.0
 40
0.0
 40
0.0
 40
0.2272052889
 40
0.4644991273
 40
0.7204661003
 40
1.0
 40
1.0
 40
1.0
 40
1.0
 10
-47.1564608855
 20
71.3267702449
 30
0.0
 10
-47.1090416256
 20
71.3518035665
 30
0.0
 10
-47.0040639398
 20
71.3890183603
 30
0.0
 10
-46.8325079786
 20
71.3997146803
 30
0.0
 10
-46.6516084676
 20
71.366860127
 30
0.0
 10
-46.5335995923
 20
71.3193477159
 30
0.0
 10
-46.4745931944
 20
71.2898445171
 30
0.0
 11
-47.1564608855
 21
71.3267702449
 31
0.0
 11
-47.0049974429
 21
71.380956093
 31
0.0
 11
-46.8374147997
 21
71.3928894619
 31
0.0
 11
-46.6588030247
 21
71.3622080575
 31
0.0
 11
-46.4745931944
 21
71.2898445171
 31
0.0
  0
SPLINE
  5
464
100
AcDbEntity
  8
DRAFT
100
AcDbSpline
 62
7
  6
CONTINUOUS
 70
0
 71
3
 72
9
 73
5
 74
3
 42
0.0000001
 43
0.0000001
 44
0.0000000001
 12
-0.2861906195
 22
-0.1510842187
 32
0.0
 13
-0.1691987991
 23
-0.2758682262
 33
0.0
 40
0.0
 40
0.0
 40
0.0
 40
0.0
 40
0.4874623104
 40
1.0
 40
1.0
 40
1.0
 40
1.0
 10
-48.8287044036
 20
70.4439769369
 30
0.0
 10
-48.8752067838
 20
70.4194276495
 30
0.0
 10
-48.9635987117
 20
70.3547337562
 30
0.0
 10
-49.030848483
 20
70.2687241653
 30
0.0
 10
-49.0597554035
 20
70.2215932109
 30
0.0
 11
-48.8287044036
 21
70.4439769369
 31
0.0
 11
-48.9563584618
 21
70.3512909546
 31
0.0
 11
-49.0597554035
 21
70.2215932109
 31
0.0
  0
SPLINE
  5
465
100
AcDbEntity
  8
DRAFT
100
AcDbSpline
 62
7
  6
CONTINUOUS
 70
0
 71
3
 72
9
 73
5
 74
3
 42
0.0000001
 43
0.0000001
 44
0.0000000001
 12
0.2402653643
 22
0.0068427983
 32
0.0
 13
0.2173067401
 23
0.1027231711
 33
0.0
 40
0.0
 40
0.0
 40
0.0
 40
0.0
 40
0.5075499171
 40
1.0
 40
1.0
 40
1.0
 40
1.0
 10
49.3991494201
 20
-69.9108544749
 30
0.0
 10
49.4397983087
 20
-69.9096967876
 30
0.0
 10
49.5199230974
 20
-69.8998818553
 30
0.0
 10
49.5963113874
 20
-69.8734797473
 30
0.0
 10
49.6319822947
 20
-69.8566177359
 30
0.0
 11
49.3991494201
 21
-69.9108544749
 31
0.0
 11
49.5201704205
 21
-69.8954606802
 31
0.0
 11
49.6319822947
 21
-69.8566177359
 31
0.0
  0
SPLINE
  5
466
100
AcDbEntity
  8
DRAFT
100
AcDbSpline
 62
7
  6
CONTINUOUS
 70
0
 71
3
 72
9
 73
5
 74
3
 42
0.0000001
 43
0.0000001
 44
0.0000000001
 12
0.2237767483
 22
-0.1118883742
 32
0.0
 13
0.200153488
 23
-0.1501120336
 33
0.0
 40
0.0
 40
0.0
 40
0.0
 40
0.0
 40
0.2413233768
 40
1.0
 40
1.0
 40
1.0
 40
1.0
 10
50.6818785415
 20
22.7116086491
 30
0.0
 10
50.6998793951
 20
22.7026082223
 30
0.0
 10
50.7735319666
 20
22.6634442008
 30
0.0
 10
50.8433811659
 20
22.6172688994
 30
0.0
 10
50.8939984233
 20
22.5793067358
 30
0.0
 11
50.6818785415
 21
22.7116086491
 31
0.0
 11
50.7352060727
 21
22.6832975188
 31
0.0
 11
50.8939984233
 21
22.5793067358
 31
0.0
  0
SPLINE
  5
467
100
AcDbEntity
  8
DRAFT
100
AcDbSpline
 62
7
  6
CONTINUOUS
 70
0
 71
3
 72
11
 73
7
 74
5
 42
0.0000001
 43
0.0000001
 44
0.0000000001
 12
1.5637021623
 22
-1.1727525407
 32
0.0
 13
0.0000000014
 23
-1.9546132544
 33
0.0
 40
0.0
 40
0.0
 40
0.0
 40
0.0
 40
0.2409247476
 40
0.4999964389
 40
0.7590688621
 40
1.0
 40
1.0
 40
1.0
 40
1.0
 10
50.8939984233
 20
22.5793067358
 30
0.0
 10
51.0195766063
 20
22.4851250326
 30
0.0
 10
51.2522743062
 20
22.2515319433
 30
0.0
 10
51.5188340895
 20
21.8310645643
 30
0.0
 10
51.6952801142
 20
21.3655346298
 30
0.0
 10
51.7425387132
 20
21.0392161906
 30
0.0
 10
51.7425387133
 20
20.8822404587
 30
0.0
 11
50.8939984233
 21
22.5793067358
 31
0.0
 11
51.2305675253
 21
22.2499408315
 31
0.0
 11
51.5034555995
 21
21.82337568
 31
0.0
 11
51.6809815619
 21
21.3491271052
 31
0.0
 11
51.7425387133
 21
20.8822404587
 31
0.0
  0
SPLINE
  5
468
100
AcDbEntity
  8
DRAFT
100
AcDbSpline
 62
7
  6
CONTINUOUS
 70
0
 71
3
 72
11
 73
7
 74
5
 42
0.0000001
 43
0.0000001
 44
0.0000000001
 12
0.8409477092
 22
0.3975247863
 32
0.0
 13
-0.0000000007
 23
0.9301714925
 33
0.0
 40
0.0
 40
0.0
 40
0.0
 40
0.0
 40
0.2171897601
 40
0.4501120043
 40
0.7098374977
 40
1.0
 40
1.0
 40
1.0
 40
1.0
 10
49.6319822947
 20
-69.8566177359
 30
0.0
 10
49.6928640385
 20
-69.8278382982
 30
0.0
 10
49.8085172737
 20
-69.7433386712
 30
0.0
 10
49.9327469945
 20
-69.5574016991
 30
0.0
 10
50.0070898985
 20
-69.3237608928
 30
0.0
 10
50.0217970219
 20
-69.1525910212
 30
0.0
 10
50.0217970219
 20
-69.0626240586
 30
0.0
 11
49.6319822947
 21
-69.8566177359
 31
0.0
 11
49.7958885347
 21
-69.7385146908
 31
0.0
 11
49.9192414759
 21
-69.5604007352
 31
0.0
 11
49.9958300126
 21
-69.3312729069
 31
0.0
 11
50.0217970219
 21
-69.0626240586
 31
0.0
  0
SPLINE
  5
469
100
AcDbEntity
  8
DRAFT
100
AcDbSpline
 62
7
  6
CONTINUOUS
 70
0
 71
3
 72
12
 73
8
 74
6
 42
0.0000001
 43
0.0000001
 44
0.0000000001
 12
0.0
 22
2.1421545657
 32
0.0
 13
-1.9160012917
 23
0.9580006437
 33
0.0
 40
0.0
 40
0.0
 40
0.0
 40
0.0
 40
0.2466626604
 40
0.5115167918
 40
0.6433273505
 40
0.7704456967
 40
1.0
 40
1.0
 40
1.0
 40
1.0
 10
50.0217970219
 20
20.0513899896
 30
0.0
 10
50.0217970219
 20
20.2275198377
 30
0.0
 10
49.9609902155
 20
20.5933302153
 30
0.0
 10
49.7771653445
 20
21.0187701946
 30
0.0
 10
49.5701341859
 20
21.331493896
 30
0.0
 10
49.3424578969
 20
21.59603373
 30
0.0
 10
49.1372660075
 20
21.7565386713
 30
0.0
 10
48.990657227
 20
21.8298430614
 30
0.0
 11
50.0217970219
 21
20.0513899896
 31
0.0
 11
49.9433049069
 21
20.5739170209
 31
0.0
 11
49.7197813424
 21
21.09538885
 31
0.0
 11
49.5635270752
 21
21.3305717094
 31
0.0
 11
49.3852544897
 21
21.5364116153
 31
0.0
 11
48.990657227
 21
21.8298430614
 31
0.0
  0
SPLINE
  5
46A
100
AcDbEntity
  8
DRAFT
100
AcDbSpline
 62
7
  6
CONTINUOUS
 70
0
 71
3
 72
11
 73
7
 74
5
 42
0.0000001
 43
0.0000001
 44
0.0000000001
 12
-0.6156404704
 22
0.3078202352
 32
0.0
 13
-0.6086937973
 23
-0.3213383687
 33
0.0
 40
0.0
 40
0.0
 40
0.0
 40
0.0
 40
0.2795338996
 40
0.5355008721
 40
0.7727947109
 40
1.0
 40
1.0
 40
1.0
 40
1.0
 10
-48.1658145071
 20
70.4080789284
 30
0.0
 10
-48.2231786343
 20
70.436760992
 30
0.0
 10
-48.3379030772
 20
70.482951034
 30
0.0
 10
-48.5137677788
 20
70.514891177
 30
0.0
 10
-48.6805489813
 20
70.504492558
 30
0.0
 10
-48.7826049202
 20
70.4683135292
 30
0.0
 10
-48.8287044036
 20
70.4439769369
 30
0.0
 11
-48.1658145071
 21
70.4080789284
 31
0.0
 11
-48.344897395
 21
70.4784284413
 31
0.0
 11
-48.5185380328
 21
70.5082559186
 31
0.0
 11
-48.681456503
 21
70.4966546803
 31
0.0
 11
-48.8287044036
 21
70.4439769369
 31
0.0
  0
SPLINE
  5
46B
100
AcDbEntity
  8
SMUSSO
100
AcDbSpline
 62
7
  6
CONTINUOUS
 70
0
 71
3
 72
11
 73
7
 74
5
 42
0.0000001
 43
0.0000001
 44
0.0000000001
 12
0.5211626276
 22
-0.3908665127
 32
0.0
 13
0.0000000002
 23
-0.6514500097
 33
0.0
 40
0.0
 40
0.0
 40
0.0
 40
0.0
 40
0.2409429556
 40
0.5000138533
 40
0.7590645364
 40
1.0
 40
1.0
 40
1.0
 40
1.0
 10
49.0909533196
 20
21.0579835716
 30
0.0
 10
49.1328101409
 20
21.026591394
 30
0.0
 10
49.2103482497
 20
20.948713444
 30
0.0
 10
49.2991859316
 20
20.8085782462
 30
0.0
 10
49.3579819068
 20
20.6534216655
 30
0.0
 10
49.3737309963
 20
20.5446677594
 30
0.0
 10
49.3737309964
 20
20.4923486227
 30
0.0
 11
49.0909533196
 21
21.0579835716
 31
0.0
 11
49.2031209701
 21
20.9481856713
 31
0.0
 11
49.2940615363
 21
20.8060107324
 31
0.0
 11
49.3532164038
 21
20.6479596122
 31
0.0
 11
49.3737309964
 21
20.4923486227
 31
0.0
  0
SPLINE
  5
46C
100
AcDbEntity
  8
SMUSSO
100
AcDbSpline
 62
7
  6
CONTINUOUS
 70
0
 71
3
 72
9
 73
5
 74
3
 42
0.0000001
 43
0.0000001
 44
0.0000000001
 12
0.1334376539
 22
-0.1000702419
 32
0.0
 13
0.14918354
 23
-0.0745917702
 33
0.0
 40
0.0
 40
0.0
 40
0.0
 40
0.0
 40
0.258699887
 40
1.0
 40
1.0
 40
1.0
 40
1.0
 10
-51.1768439315
 20
-22.2688455312
 30
0.0
 10
-51.1653371628
 20
-22.2774749179
 30
0.0
 10
-51.1201880648
 20
-22.3099184317
 30
0.0
 10
-51.0722951905
 20
-22.3386260248
 30
0.0
 10
-51.0354319321
 20
-22.357057654
 30
0.0
 11
-51.1768439315
 21
-22.2688455312
 31
0.0
 11
-51.1417934008
 21
-22.2940111558
 31
0.0
 11
-51.0354319321
 21
-22.357057654
 31
0.0
  0
SPLINE
  5
46D
100
AcDbEntity
  8
SMUSSO
100
AcDbSpline
 62
7
  6
CONTINUOUS
 70
0
 71
3
 72
11
 73
7
 74
5
 42
0.0000001
 43
0.0000001
 44
0.0000000001
 12
0.4148284081
 22
0.2074204088
 32
0.0
 13
0.41483089
 23
-0.2074154449
 33
0.0
 40
0.0
 40
0.0
 40
0.0
 40
0.0
 40
0.2271156206
 40
0.4646633313
 40
0.7207940344
 40
1.0
 40
1.0
 40
1.0
 40
1.0
 10
-49.7148768393
 20
70.3539173807
 30
0.0
 10
-49.6834721689
 20
70.3696201856
 30
0.0
 10
-49.6142672469
 20
70.3926440899
 30
0.0
 10
-49.5018232081
 20
70.398279569
 30
0.0
 10
-49.3834875275
 20
70.3760364448
 30
0.0
 10
-49.3062727322
 20
70.3448225001
 30
0.0
 10
-49.2676649792
 20
70.3255186236
 30
0.0
 11
-49.7148768393
 21
70.3539173807
 31
0.0
 11
-49.6150367257
 21
70.3874946705
 31
0.0
 11
-49.5050526174
 21
70.3939510415
 31
0.0
 11
-49.3881079308
 21
70.373082051
 31
0.0
 11
-49.2676649792
 21
70.3255186236
 31
0.0
  0
SPLINE
  5
46E
100
AcDbEntity
  8
SMUSSO
100
AcDbSpline
 62
7
  6
CONTINUOUS
 70
0
 71
3
 72
11
 73
7
 74
5
 42
0.0000001
 43
0.0000001
 44
0.0000000001
 12
-0.5632490194
 22
-0.2816005953
 32
0.0
 13
-0.0000000006
 23
-0.6297208533
 33
0.0
 40
0.0
 40
0.0
 40
0.0
 40
0.0
 40
0.2171542898
 40
0.4504213951
 40
0.7102377337
 40
1.0
 40
1.0
 40
1.0
 40
1.0
 10
-51.4826447912
 20
69.4700371704
 30
0.0
 10
-51.5234154381
 20
69.449653578
 30
0.0
 10
-51.6005650644
 20
69.3909585172
 30
0.0
 10
-51.683228144
 20
69.2641631267
 30
0.0
 10
-51.7327111968
 20
69.1057837844
 30
0.0
 10
-51.7425387133
 20
68.9899862478
 30
0.0
 10
-51.7425387133
 20
68.9291631339
 30
0.0
 11
-51.4826447912
 21
69.4700371704
 31
0.0
 11
-51.5920580519
 21
69.3880105479
 31
0.0
 11
-51.6742696725
 21
69.2662778487
 31
0.0
 11
-51.7252508049
 21
69.110811665
 31
0.0
 11
-51.7425387133
 21
68.9291631339
 31
0.0
  0
SPLINE
  5
46F
100
AcDbEntity
  8
SMUSSO
100
AcDbSpline
 62
7
  6
CONTINUOUS
 70
0
 71
3
 72
11
 73
7
 74
5
 42
0.0000001
 43
0.0000001
 44
0.0000000001
 12
-0.0000000006
 22
-0.6297204291
 32
0.0
 13
-0.5632357047
 23
-0.2816262768
 33
0.0
 40
0.0
 40
0.0
 40
0.0
 40
0.0
 40
0.2897540007
 40
0.5495824015
 40
0.7828478708
 40
1.0
 40
1.0
 40
1.0
 40
1.0
 10
49.3737309964
 20
-69.9278467615
 30
0.0
 10
49.3737309963
 20
-69.9886680994
 30
0.0
 10
49.3639187743
 20
-70.1044686886
 30
0.0
 10
49.3144170078
 20
-70.2628430175
 30
0.0
 10
49.2317573727
 20
-70.3896420231
 30
0.0
 10
49.1546053528
 20
-70.4483322832
 30
0.0
 10
49.1138360753
 20
-70.4687175318
 30
0.0
 11
49.3737309964
 21
-69.9278467615
 31
0.0
 11
49.35645213
 21
-70.1094908009
 31
0.0
 11
49.3054606165
 21
-70.2649614579
 31
0.0
 11
49.2232488703
 21
-70.3866927098
 31
0.0
 11
49.1138360753
 21
-70.4687175318
 31
0.0
  0
SPLINE
  5
470
100
AcDbEntity
  8
SMUSSO
100
AcDbSpline
 62
7
  6
CONTINUOUS
 70
0
 71
3
 72
11
 73
7
 74
5
 42
0.0000001
 43
0.0000001
 44
0.0000000001
 12
0.4148320327
 22
-0.2074160141
 32
0.0
 13
0.4148390773
 23
0.2074019244
 33
0.0
 40
0.0
 40
0.0
 40
0.0
 40
0.0
 40
0.2792430017
 40
0.5353250678
 40
0.7728906288
 40
1.0
 40
1.0
 40
1.0
 40
1.0
 10
46.8988572622
 20
-71.3242022512
 30
0.0
 10
46.9374702429
 20
-71.3435087413
 30
0.0
 10
47.0146877141
 20
-71.374711874
 30
0.0
 10
47.13302141
 20
-71.3969633133
 30
0.0
 10
47.2454619594
 20
-71.3913336449
 30
0.0
 10
47.3146668744
 20
-71.3683045644
 30
0.0
 10
47.3460714884
 20
-71.3526035909
 30
0.0
 11
46.8988572622
 21
-71.3242022512
 31
0.0
 11
47.0193192957
 21
-71.371765094
 31
0.0
 11
47.1362413744
 21
-71.3926342301
 31
0.0
 11
47.2462342844
 21
-71.386181349
 31
0.0
 11
47.3460714884
 21
-71.3526035909
 31
0.0
  0
SPLINE
  5
471
100
AcDbEntity
  8
SMUSSO
100
AcDbSpline
 62
7
  6
CONTINUOUS
 70
0
 71
3
 72
9
 73
5
 74
3
 42
0.0000001
 43
0.0000001
 44
0.0000000001
 12
0.1491934848
 22
-0.0745967426
 32
0.0
 13
0.1334480296
 23
-0.1000749384
 33
0.0
 40
0.0
 40
0.0
 40
0.0
 40
0.0
 40
0.241268694
 40
1.0
 40
1.0
 40
1.0
 40
1.0
 10
48.6666242152
 20
21.3583740264
 30
0.0
 10
48.6786227876
 20
21.3523747402
 30
0.0
 10
48.7277265243
 20
21.3262619829
 30
0.0
 10
48.7742950909
 20
21.2954764676
 30
0.0
 10
48.8080454901
 20
21.2701664713
 30
0.0
 11
48.6666242152
 21
21.3583740264
 31
0.0
 11
48.7021696027
 21
21.3395023545
 31
0.0
 11
48.8080454901
 21
21.2701664713
 31
0.0
  0
SPLINE
  5
472
100
AcDbEntity
  8
SMUSSO
100
AcDbSpline
 62
7
  6
CONTINUOUS
 70
0
 71
3
 72
11
 73
7
 74
5
 42
0.0000001
 43
0.0000001
 44
0.0000000001
 12
0.5632502642
 22
0.2816012163
 32
0.0
 13
-0.0000000006
 23
0.6297222444
 33
0.0
 40
0.0
 40
0.0
 40
0.0
 40
0.0
 40
0.2171526606
 40
0.4504138247
 40
0.7102544983
 40
1.0
 40
1.0
 40
1.0
 40
1.0
 10
47.3460714884
 20
-71.3526035909
 30
0.0
 10
47.3868419196
 20
-71.3322201064
 30
0.0
 10
47.4639926978
 20
-71.2735266803
 30
0.0
 10
47.5466464287
 20
-71.1467237599
 30
0.0
 10
47.5961655841
 20
-70.9883537292
 30
0.0
 10
47.6059640434
 20
-70.8725499672
 30
0.0
 10
47.6059640434
 20
-70.811730238
 30
0.0
 11
47.3460714884
 21
-71.3526035909
 31
0.0
 11
47.4554840911
 21
-71.2705772973
 31
0.0
 11
47.5376922038
 21
-71.1488463521
 31
0.0
 11
47.5886932738
 21
-70.9933701997
 31
0.0
 11
47.6059640434
 21
-70.811730238
 31
0.0
  0
SPLINE
  5
473
100
AcDbEntity
  8
SMUSSO
100
AcDbSpline
 62
7
  6
CONTINUOUS
 70
0
 71
3
 72
11
 73
7
 74
5
 42
0.0000001
 43
0.0000001
 44
0.0000000001
 12
1.0424932166
 22
-0.7817833261
 32
0.0
 13
0.0000000004
 23
-1.3030645708
 33
0.0
 40
0.0
 40
0.0
 40
0.0
 40
0.0
 40
0.240927342
 40
0.4999984982
 40
0.7590654985
 40
1.0
 40
1.0
 40
1.0
 40
1.0
 10
48.8080454901
 20
21.2701664713
 30
0.0
 10
48.8917671967
 20
21.2073821451
 30
0.0
 10
49.0468909072
 20
21.0516448637
 30
0.0
 10
49.2245947669
 20
20.7713386409
 30
0.0
 10
49.3422260692
 20
20.4609893088
 30
0.0
 10
49.3737309963
 20
20.243446303
 30
0.0
 10
49.3737309964
 20
20.1387952321
 30
0.0
 11
48.8080454901
 21
21.2701664713
 31
0.0
 11
49.0324225935
 21
21.0505857857
 31
0.0
 11
49.2143440032
 21
20.7662106664
 31
0.0
 11
49.3326924677
 21
20.4500547042
 31
0.0
 11
49.3737309964
 21
20.1387952321
 31
0.0
  0
SPLINE
  5
474
100
AcDbEntity
  8
SMUSSO
100
AcDbSpline
 62
7
  6
CONTINUOUS
 70
0
 71
3
 72
11
 73
7
 74
5
 42
0.0000001
 43
0.0000001
 44
0.0000000001
 12
-0.4148339059
 22
0.2074169551
 32
0.0
 13
-0.4148409518
 23
-0.2074028626
 33
0.0
 40
0.0
 40
0.0
 40
0.0
 40
0.0
 40
0.2792071299
 40
0.5353281238
 40
0.7728865369
 40
1.0
 40
1.0
 40
1.0
 40
1.0
 10
-51.0354319321
 20
69.4416351471
 30
0.0
 10
-51.0740401269
 20
69.4609392447
 30
0.0
 10
-51.1512481599
 20
69.4921717876
 30
0.0
 10
-51.2695896502
 20
69.5143894464
 30
0.0
 10
-51.3820344877
 20
69.5087703879
 30
0.0
 10
-51.4512394694
 20
69.4857384979
 30
0.0
 10
-51.4826447912
 20
69.4700371704
 30
0.0
 11
-51.0354319321
 21
69.4416351471
 31
0.0
 11
-51.1558724611
 21
69.4892087423
 31
0.0
 11
-51.2728152747
 21
69.5100675109
 31
0.0
 11
-51.3828054431
 21
69.5036160006
 31
0.0
 11
-51.4826447912
 21
69.4700371704
 31
0.0
  0
SPLINE
  5
475
100
AcDbEntity
  8
SMUSSO
100
AcDbSpline
 62
7
  6
CONTINUOUS
 70
0
 71
3
 72
11
 73
7
 74
5
 42
0.0000001
 43
0.0000001
 44
0.0000000001
 12
0.0000000064
 22
1.4682168624
 32
0.0
 13
-1.3132130846
 23
0.6566065408
 33
0.0
 40
0.0
 40
0.0
 40
0.0
 40
0.0
 40
0.2467918265
 40
0.5117852553
 40
0.770325913
 40
1.0
 40
1.0
 40
1.0
 40
1.0
 10
47.6059640434
 20
19.2549117556
 30
0.0
 10
47.6059640439
 20
19.3756930626
 30
0.0
 10
47.5642792517
 20
19.6265934105
 30
0.0
 10
47.4133441868
 20
19.9755356223
 30
0.0
 10
47.1915027605
 20
20.273921859
 30
0.0
 10
46.9993942676
 20
20.4242220474
 30
0.0
 10
46.8988572622
 20
20.47449055
 30
0.0
 11
47.6059640434
 21
19.2549117556
 31
0.0
 11
47.5521369905
 21
19.6132353043
 31
0.0
 11
47.3988557188
 21
19.9708365078
 31
0.0
 11
47.1694513278
 21
20.2732683893
 31
0.0
 11
46.8988572622
 21
20.47449055
 31
0.0
  0
ELLIPSE
  5
476
100
AcDbEntity
  8
RACCORDO
100
AcDbEllipse
 62
7
  6
CONTINUOUS
 10
-36.5106624216
 20
37.7074313583
 30
0.0
 11
-0.313181275
 21
0.626269159
 31
0.0
 40
0.6121897086
 41
-0.6846338794
 42
0.0188552051
  0
ELLIPSE
  5
477
100
AcDbEntity
  8
RACCORDO
100
AcDbEllipse
 62
7
  6
CONTINUOUS
 10
-33.4222694695
 20
-4.2155077577
 30
0.0
 11
-0.1341484654
 21
0.2683369961
 31
0.0
 40
0.6125552124
 41
0.8862964655
 42
2.4567882058
  0
ELLIPSE
  5
478
100
AcDbEntity
  8
RACCORDO
100
AcDbEllipse
 62
7
  6
CONTINUOUS
 10
-32.4081351382
 20
-3.7268429672
 30
0.0
 11
-0.1340229113
 21
0.2684080287
 31
0.0
 40
0.6140178746
 41
0.8880524522
 42
2.4561097232
  0
ELLIPSE
  5
479
100
AcDbEntity
  8
RACCORDO
100
AcDbEllipse
 62
7
  6
CONTINUOUS
 10
30.9598741892
 20
-40.2971052435
 30
0.0
 11
-0.313181275
 21
0.626269159
 31
0.0
 40
0.6121897086
 41
-3.1605525579
 42
-2.2557347926
  0
ELLIPSE
  5
47A
100
AcDbEntity
  8
RACCORDO
100
AcDbEllipse
 62
7
  6
CONTINUOUS
 10
30.9598741892
 20
3.9721630529
 30
0.0
 11
-0.3130130858
 21
0.6261196575
 31
0.0
 40
0.6125552124
 41
-2.255296188
 42
-0.6848044477
  0
ELLIPSE
  5
47B
100
AcDbEntity
  8
RACCORDO
100
AcDbEllipse
 62
7
  6
CONTINUOUS
 10
-15.978510459
 20
-11.7849871624
 30
0.0
 11
-0.1342205464
 21
0.2684010681
 31
0.0
 40
0.6121897086
 41
-0.6846338794
 42
0.0192594208
  0
ELLIPSE
  5
47C
100
AcDbEntity
  8
RACCORDO
100
AcDbEllipse
 62
7
  6
CONTINUOUS
 10
-2.1899282259
 20
-18.679278279
 30
0.0
 11
-0.1342205464
 21
0.2684010681
 31
0.0
 40
0.6121897086
 41
-0.6846338794
 42
0.0192594208
  0
ELLIPSE
  5
47D
100
AcDbEntity
  8
RACCORDO
100
AcDbEllipse
 62
7
  6
CONTINUOUS
 10
11.5986540072
 20
-25.5735693956
 30
0.0
 11
-0.1342205464
 21
0.2684010681
 31
0.0
 40
0.6121897086
 41
-0.6846338794
 42
0.0192594208
  0
ELLIPSE
  5
47E
100
AcDbEntity
  8
RACCORDO
100
AcDbEllipse
 62
7
  6
CONTINUOUS
 10
3.3242704079
 20
-21.3641552648
 30
0.0
 11
-0.1342205464
 21
0.2684010681
 31
0.0
 40
0.6121897086
 41
-0.6846338794
 42
0.019259411
  0
ELLIPSE
  5
47F
100
AcDbEntity
  8
RACCORDO
100
AcDbEllipse
 62
7
  6
CONTINUOUS
 10
26.3220499297
 20
-32.8630450257
 30
0.0
 11
-0.1341371037
 21
0.2683722998
 31
0.0
 40
0.6123537661
 41
-0.6845550499
 42
0.0106825902
  0
ELLIPSE
  5
480
100
AcDbEntity
  8
RACCORDO
100
AcDbEllipse
 62
7
  6
CONTINUOUS
 10
-5.4977552237
 20
-16.953142449
 30
0.0
 11
-0.1341371037
 21
0.2683722998
 31
0.0
 40
0.6123537661
 41
-0.6845550499
 42
0.0106825902
  0
ELLIPSE
  5
481
100
AcDbEntity
  8
RACCORDO
100
AcDbEllipse
 62
7
  6
CONTINUOUS
 10
-21.4076578004
 20
-8.9981911607
 30
0.0
 11
-0.1341371037
 21
0.2683722998
 31
0.0
 40
0.6123537661
 41
-0.6845550499
 42
0.0106825902
  0
ELLIPSE
  5
482
100
AcDbEntity
  8
RACCORDO
100
AcDbEllipse
 62
7
  6
CONTINUOUS
 10
17.112852641
 20
-28.2584463814
 30
0.0
 11
-0.1342205464
 21
0.2684010681
 31
0.0
 40
0.6121897086
 41
-0.6846338794
 42
0.019259411
  0
ELLIPSE
  5
483
100
AcDbEntity
  8
ASSI
100
AcDbEllipse
 62
7
  6
CONTINUOUS
 10
25.6075315693
 20
-30.8365412983
 30
0.0
 11
0.0974129977
 21
0.1748074534
 31
0.0
 40
0.6437101552
 41
0.6611775963
 42
0.7135374739
  0
ELLIPSE
  5
484
100
AcDbEntity
  8
ASSI
100
AcDbEllipse
 62
7
  6
CONTINUOUS
 10
-22.1221761608
 20
-6.9716874333
 30
0.0
 11
0.0974129977
 21
0.1748074534
 31
0.0
 40
0.6437101552
 41
0.6611775963
 42
0.7135374739
  0
ELLIPSE
  5
485
100
AcDbEntity
  8
ASSI
100
AcDbEllipse
 62
7
  6
CONTINUOUS
 10
9.6976289926
 20
-22.9681925503
 30
0.0
 11
0.0974129977
 21
0.1748074534
 31
0.0
 40
0.6437101552
 41
0.6611775963
 42
0.7135374739
  0
ELLIPSE
  5
486
100
AcDbEntity
  8
ASSI
100
AcDbEllipse
 62
7
  6
CONTINUOUS
 10
-6.2122735841
 20
-15.013241262
 30
0.0
 11
0.0974129977
 21
0.1748074534
 31
0.0
 40
0.6437101552
 41
0.6611775963
 42
0.7135374739
  0
ELLIPSE
  5
487
100
AcDbEntity
  8
RACCORDO
100
AcDbEllipse
 62
7
  6
CONTINUOUS
 10
21.6551451738
 20
-30.5295926478
 30
0.0
 11
-0.1341371037
 21
0.2683722998
 31
0.0
 40
0.6123537661
 41
-2.2553513767
 42
-0.6845550499
  0
ELLIPSE
  5
488
100
AcDbEntity
  8
RACCORDO
100
AcDbEllipse
 62
7
  6
CONTINUOUS
 10
-16.8653652676
 20
-11.2693374271
 30
0.0
 11
-0.1341484654
 21
0.2683369961
 31
0.0
 40
0.6125552124
 41
-2.255296188
 42
-0.6848044477
  0
ELLIPSE
  5
489
100
AcDbEntity
  8
RACCORDO
100
AcDbEllipse
 62
7
  6
CONTINUOUS
 10
5.7452425971
 20
-22.5746413594
 30
0.0
 11
-0.1341371037
 21
0.2683722998
 31
0.0
 40
0.6123537661
 41
-2.2553513767
 42
-0.6845550499
  0
ELLIPSE
  5
48A
100
AcDbEntity
  8
RACCORDO
100
AcDbEllipse
 62
7
  6
CONTINUOUS
 10
-26.0745625563
 20
-6.6647387827
 30
0.0
 11
-0.1341371037
 21
0.2683722998
 31
0.0
 40
0.6123537661
 41
-2.2553513767
 42
-0.6845550499
  0
ELLIPSE
  5
48B
100
AcDbEntity
  8
RACCORDO
100
AcDbEllipse
 62
7
  6
CONTINUOUS
 10
-32.0496471709
 20
21.5880705206
 30
0.0
 11
-0.1341484654
 21
0.2683369961
 31
0.0
 40
0.6125552124
 41
-2.255296188
 42
-0.6848044477
  0
ELLIPSE
  5
48C
100
AcDbEntity
  8
RACCORDO
100
AcDbEllipse
 62
7
  6
CONTINUOUS
 10
-32.0496471709
 20
10.8947842546
 30
0.0
 11
-0.1342205464
 21
0.2684010681
 31
0.0
 40
0.6121897086
 41
-3.160544254
 42
-2.2557347926
  0
ELLIPSE
  5
48D
100
AcDbEntity
  8
RACCORDO
100
AcDbEllipse
 62
7
  6
CONTINUOUS
 10
-32.0496471709
 20
29.9473431379
 30
0.0
 11
-0.1342205464
 21
0.2684010681
 31
0.0
 40
0.6121897086
 41
-3.160544254
 42
-2.2557347926
  0
ELLIPSE
  5
48E
100
AcDbEntity
  8
RACCORDO
100
AcDbEllipse
 62
7
  6
CONTINUOUS
 10
-32.0496471709
 20
2.5355116374
 30
0.0
 11
-0.1341484654
 21
0.2683369961
 31
0.0
 40
0.6125552124
 41
-2.255296188
 42
-0.6848044477
  0
ELLIPSE
  5
48F
100
AcDbEntity
  8
RACCORDO
100
AcDbEllipse
 62
7
  6
CONTINUOUS
 10
-3.0767830345
 20
-18.1636285436
 30
0.0
 11
-0.1341484654
 21
0.2683369961
 31
0.0
 40
0.6125552124
 41
-2.255296188
 42
-0.6848044477
  0
ELLIPSE
  5
490
100
AcDbEntity
  8
RACCORDO
100
AcDbEllipse
 62
7
  6
CONTINUOUS
 10
-32.1215921085
 20
28.4800238886
 30
0.0
 11
-0.1341484654
 21
0.2683369961
 31
0.0
 40
0.6125552124
 41
-2.255296188
 42
-0.6848044477
  0
ELLIPSE
  5
491
100
AcDbEntity
  8
RACCORDO
100
AcDbEllipse
 62
7
  6
CONTINUOUS
 10
-32.1215921085
 20
22.9859133513
 30
0.0
 11
-0.1342205464
 21
0.2684010681
 31
0.0
 40
0.6121897086
 41
-3.160544254
 42
-2.2557347926
  0
ELLIPSE
  5
492
100
AcDbEntity
  8
RACCORDO
100
AcDbEllipse
 62
7
  6
CONTINUOUS
 10
-32.1215921085
 20
3.933354468
 30
0.0
 11
-0.1342205464
 21
0.2684010681
 31
0.0
 40
0.6121897086
 41
-3.160544254
 42
-2.2557347926
  0
ELLIPSE
  5
493
100
AcDbEntity
  8
RACCORDO
100
AcDbEllipse
 62
7
  6
CONTINUOUS
 10
-32.1215921085
 20
9.4274650054
 30
0.0
 11
-0.1341484654
 21
0.2683369961
 31
0.0
 40
0.6125552124
 41
-2.255296188
 42
-0.6848044477
  0
ELLIPSE
  5
494
100
AcDbEntity
  8
RACCORDO
100
AcDbEllipse
 62
7
  6
CONTINUOUS
 10
-11.4925879901
 20
-14.0279483969
 30
0.0
 11
-0.1341484654
 21
0.2683369961
 31
0.0
 40
0.6125552124
 41
-2.255296188
 42
-0.6848044477
  0
ELLIPSE
  5
495
100
AcDbEntity
  8
RACCORDO
100
AcDbEllipse
 62
7
  6
CONTINUOUS
 10
2.2959942431
 20
-20.9222395135
 30
0.0
 11
-0.1341484654
 21
0.2683369961
 31
0.0
 40
0.6125552124
 41
-2.255296188
 42
-0.6848044477
  0
ELLIPSE
  5
496
100
AcDbEntity
  8
RACCORDO
100
AcDbEllipse
 62
7
  6
CONTINUOUS
 10
16.0845764762
 20
-27.8165306301
 30
0.0
 11
-0.1341484654
 21
0.2683369961
 31
0.0
 40
0.6125552124
 41
-2.255296188
 42
-0.6848044477
  0
ELLIPSE
  5
497
100
AcDbEntity
  8
RACCORDO
100
AcDbEllipse
 62
7
  6
CONTINUOUS
 10
-32.6252066717
 20
29.6815306871
 30
0.0
 11
-0.1342205464
 21
0.2684010681
 31
0.0
 40
0.6121897086
 41
2.4785816461
 42
4.0274505145
  0
ELLIPSE
  5
498
100
AcDbEntity
  8
RACCORDO
100
AcDbEllipse
 62
7
  6
CONTINUOUS
 10
-32.6252066717
 20
10.6289718038
 30
0.0
 11
-0.1342205464
 21
0.2684010681
 31
0.0
 40
0.6121897086
 41
2.4785816461
 42
4.0274505145
  0
ELLIPSE
  5
499
100
AcDbEntity
  8
RACCORDO
100
AcDbEllipse
 62
7
  6
CONTINUOUS
 10
15.1492922875
 20
-28.2877788398
 30
0.0
 11
-0.1341484654
 21
0.2683369961
 31
0.0
 40
0.6125552124
 41
4.3463944586
 42
5.5983808594
  0
ELLIPSE
  5
49A
100
AcDbEntity
  8
RACCORDO
100
AcDbEllipse
 62
7
  6
CONTINUOUS
 10
10.6954605649
 20
-26.0608629785
 30
0.0
 11
-0.1342205464
 21
0.2684010681
 31
0.0
 40
0.6121897086
 41
-0.6846338794
 42
0.8858578609
  0
ELLIPSE
  5
49B
100
AcDbEntity
  8
RACCORDO
100
AcDbEllipse
 62
7
  6
CONTINUOUS
 10
1.3607100543
 20
-21.3934877232
 30
0.0
 11
-0.1341484654
 21
0.2683369961
 31
0.0
 40
0.6125552124
 41
4.3463944586
 42
5.5983808594
  0
ELLIPSE
  5
49C
100
AcDbEntity
  8
RACCORDO
100
AcDbEllipse
 62
7
  6
CONTINUOUS
 10
-3.0931216682
 20
-19.1665718619
 30
0.0
 11
-0.1342205464
 21
0.2684010681
 31
0.0
 40
0.6121897086
 41
-0.6846338794
 42
0.8858578609
  0
ELLIPSE
  5
49D
100
AcDbEntity
  8
ASSI
100
AcDbEllipse
 62
7
  6
CONTINUOUS
 10
-17.8647123153
 20
-9.100419356
 30
0.0
 11
0.0823576675
 21
0.1823694112
 31
0.0
 40
0.5796795686
 41
0.6094740628
 42
0.6618339404
  0
ELLIPSE
  5
49E
100
AcDbEntity
  8
RACCORDO
100
AcDbEllipse
 62
7
  6
CONTINUOUS
 10
-12.4278721788
 20
-14.4991966066
 30
0.0
 11
-0.1341484654
 21
0.2683369961
 31
0.0
 40
0.6125552124
 41
4.3463944586
 42
5.5983808594
  0
ELLIPSE
  5
49F
100
AcDbEntity
  8
RACCORDO
100
AcDbEllipse
 62
7
  6
CONTINUOUS
 10
-16.8817039014
 20
-12.2722807453
 30
0.0
 11
-0.1342205464
 21
0.2684010681
 31
0.0
 40
0.6121897086
 41
-0.6846338794
 42
0.8858578609
  0
ELLIPSE
  5
4A0
100
AcDbEntity
  8
ASSI
100
AcDbEllipse
 62
7
  6
CONTINUOUS
 10
13.9550928381
 20
-25.0969244731
 30
0.0
 11
0.0823576675
 21
0.1823694112
 31
0.0
 40
0.5796795686
 41
0.6094740628
 42
0.6618339404
  0
ELLIPSE
  5
4A1
100
AcDbEntity
  8
ASSI
100
AcDbEllipse
 62
7
  6
CONTINUOUS
 10
-1.9548097386
 20
-17.1419731848
 30
0.0
 11
0.0823576675
 21
0.1823694112
 31
0.0
 40
0.5796795686
 41
0.6094740628
 42
0.6618339404
  0
ELLIPSE
  5
4A2
100
AcDbEntity
  8
RACCORDO
100
AcDbEllipse
 62
7
  6
CONTINUOUS
 10
-33.0568762973
 20
22.5539681186
 30
0.0
 11
-0.1342205464
 21
0.2684010681
 31
0.0
 40
0.6121897086
 41
2.4569587742
 42
4.0274505145
  0
ELLIPSE
  5
4A3
100
AcDbEntity
  8
RACCORDO
100
AcDbEllipse
 62
7
  6
CONTINUOUS
 10
-33.0568762973
 20
3.5014092354
 30
0.0
 11
-0.1342205464
 21
0.2684010681
 31
0.0
 40
0.6121897086
 41
2.4569587742
 42
4.0274505145
  0
ELLIPSE
  5
4A4
100
AcDbEntity
  8
RACCORDO
100
AcDbEllipse
 62
7
  6
CONTINUOUS
 10
-32.6252066717
 20
21.2980716223
 30
0.0
 11
-0.1341484654
 21
0.2683369961
 31
0.0
 40
0.6125552124
 41
-2.255296188
 42
-0.7064273196
  0
ELLIPSE
  5
4A5
100
AcDbEntity
  8
RACCORDO
100
AcDbEllipse
 62
7
  6
CONTINUOUS
 10
-21.9733432254
 20
-9.2931270968
 30
0.0
 11
-0.1341371037
 21
0.2683722998
 31
0.0
 40
0.6123537661
 41
-0.6845550499
 42
0.5377482072
  0
ELLIPSE
  5
4A6
100
AcDbEntity
  8
RACCORDO
100
AcDbEllipse
 62
7
  6
CONTINUOUS
 10
-17.4409247684
 20
-11.5593363254
 30
0.0
 11
-0.1341484654
 21
0.2683369961
 31
0.0
 40
0.6125552124
 41
-1.9071044661
 42
-0.6848044477
  0
ELLIPSE
  5
4A7
100
AcDbEntity
  8
RACCORDO
100
AcDbEllipse
 62
7
  6
CONTINUOUS
 10
-32.6252066717
 20
2.2455127391
 30
0.0
 11
-0.1341484654
 21
0.2683369961
 31
0.0
 40
0.6125552124
 41
-2.255296188
 42
-0.7064273196
  0
ELLIPSE
  5
4A8
100
AcDbEntity
  8
RACCORDO
100
AcDbEllipse
 62
7
  6
CONTINUOUS
 10
-26.6402479812
 20
-6.9596747189
 30
0.0
 11
-0.1341371037
 21
0.2683722998
 31
0.0
 40
0.6123537661
 41
-1.9068583071
 42
-0.6845550499
  0
ELLIPSE
  5
4A9
100
AcDbEntity
  8
RACCORDO
100
AcDbEllipse
 62
7
  6
CONTINUOUS
 10
25.7563645047
 20
-33.1579809619
 30
0.0
 11
-0.1341371037
 21
0.2683722998
 31
0.0
 40
0.6123537661
 41
-0.6845550499
 42
0.5377482072
  0
ELLIPSE
  5
4AA
100
AcDbEntity
  8
RACCORDO
100
AcDbEllipse
 62
7
  6
CONTINUOUS
 10
16.5570412919
 20
-28.5583193555
 30
0.0
 11
-0.1342205464
 21
0.2684010681
 31
0.0
 40
0.6121897086
 41
-0.6846338794
 42
0.5376661363
  0
ELLIPSE
  5
4AB
100
AcDbEntity
  8
RACCORDO
100
AcDbEllipse
 62
7
  6
CONTINUOUS
 10
21.0894597489
 20
-30.824528584
 30
0.0
 11
-0.1341371037
 21
0.2683722998
 31
0.0
 40
0.6123537661
 41
-1.9068583071
 42
-0.6845550499
  0
ELLIPSE
  5
4AC
100
AcDbEntity
  8
RACCORDO
100
AcDbEllipse
 62
7
  6
CONTINUOUS
 10
2.7684590587
 20
-21.6640282389
 30
0.0
 11
-0.1342205464
 21
0.2684010681
 31
0.0
 40
0.6121897086
 41
-0.6846338794
 42
0.5376661363
  0
ELLIPSE
  5
4AD
100
AcDbEntity
  8
RACCORDO
100
AcDbEllipse
 62
7
  6
CONTINUOUS
 10
5.1795571722
 20
-22.8695772956
 30
0.0
 11
-0.1341371037
 21
0.2683722998
 31
0.0
 40
0.6123537661
 41
-1.9068583071
 42
-0.6845550499
  0
ELLIPSE
  5
4AE
100
AcDbEntity
  8
RACCORDO
100
AcDbEllipse
 62
7
  6
CONTINUOUS
 10
-6.0634406487
 20
-17.2480783852
 30
0.0
 11
-0.1341371037
 21
0.2683722998
 31
0.0
 40
0.6123537661
 41
-0.6845550499
 42
0.5377482072
  0
ELLIPSE
  5
4AF
100
AcDbEntity
  8
RACCORDO
100
AcDbEllipse
 62
7
  6
CONTINUOUS
 10
-3.6523425352
 20
-18.4536274419
 30
0.0
 11
-0.1341484654
 21
0.2683369961
 31
0.0
 40
0.6125552124
 41
-1.9071044661
 42
-0.6848044477
  0
ELLIPSE
  5
4B0
100
AcDbEntity
  8
RACCORDO
100
AcDbEllipse
 62
7
  6
CONTINUOUS
 10
-33.0568762973
 20
8.9562167957
 30
0.0
 11
-0.1341484654
 21
0.2683369961
 31
0.0
 40
0.6125552124
 41
-2.255296188
 42
-0.6848044477
  0
ELLIPSE
  5
4B1
100
AcDbEntity
  8
RACCORDO
100
AcDbEllipse
 62
7
  6
CONTINUOUS
 10
-33.0568762973
 20
28.0087756789
 30
0.0
 11
-0.1341484654
 21
0.2683369961
 31
0.0
 40
0.6125552124
 41
-2.255296188
 42
-0.6848044477
  0
ELLIPSE
  5
4B2
100
AcDbEntity
  8
ASSI
100
AcDbEllipse
 62
7
  6
CONTINUOUS
 10
-2.0964251738
 20
-17.4967636441
 30
0.0
 11
0.1997674032
 21
0.1243735635
 31
0.0
 40
0.0775313764
 41
5.4495541764
 42
6.9679906257
  0
ELLIPSE
  5
4B3
100
AcDbEntity
  8
ASSI
100
AcDbEllipse
 62
7
  6
CONTINUOUS
 10
13.8134774029
 20
-25.4517149325
 30
0.0
 11
0.1997674032
 21
0.1243735635
 31
0.0
 40
0.0775313764
 41
5.4495541764
 42
6.9679906257
  0
ELLIPSE
  5
4B4
100
AcDbEntity
  8
ASSI
100
AcDbEllipse
 62
7
  6
CONTINUOUS
 10
-18.0063277505
 20
-9.5418123558
 30
0.0
 11
0.1997674032
 21
0.1243735635
 31
0.0
 40
0.0775313764
 41
5.4495541764
 42
6.9679906257
  0
ENDSEC
  0
SECTION
  2
OBJECTS
  0
DICTIONARY
  5
C
100
AcDbDictionary
280
0
281
1
  3
ACAD_GROUP
350
D
  3
ACAD_MLINESTYLE
350
17
  3
ACAD_LAYOUT
350
1A
  3
ACAD_PLOTSETTINGS
350
19
  3
ACAD_PLOTSTYLENAME
350
E
  0
DICTIONARY
  5
D
102
{ACAD_REACTORS
330
C
102
}
100
AcDbDictionary
280
0
281
1
  0
ACDBDICTIONARYWDFLT
  5
E
102
{ACAD_REACTORS
330
C
102
}
100
AcDbDictionary
281
1
  3
Normal
350
F
100
AcDbDictionaryWithDefault
340
F
  0
DICTIONARY
  5
17
102
{ACAD_REACTORS
330
C
102
}
100
AcDbDictionary
280
0
281
1
  3
Standard
350
18
  0
DICTIONARY
  5
19
102
{ACAD_REACTORS
330
C
102
}
100
AcDbDictionary
281
1
  0
DICTIONARY
  5
1A
102
{ACAD_REACTORS
330
C
102
}
100
AcDbDictionary
281
1
  3
Model
350
4B5
  3
Layout1
350
4B6
  0
ACDBPLACEHOLDER
  5
F
102
{ACAD_REACTORS
330
E
102
}
  0
MLINESTYLE
  5
18
102
{ACAD_REACTORS
330
17
102
}
100
AcDbMlineStyle
  2
STANDARD
 70
0
  3

 62
256
 51
90.0
 52
90.0
 71
2
 49
0.5
 62
256
  6
BYLAYER
 49
-0.5
 62
256
  6
BYLAYER
  0
LAYOUT
  5
4B5
102
{ACAD_REACTORS
330
1A
102
}
100
AcDbPlotSettings
  1

  2
none_device
  4
ISO_A4_(297.00_x_210.00_MM)
  6

 40
0.0
 41
0.0
 42
0.0
 43
0.0
 44
297.0
 45
210.0
 46
0.0
 47
0.0
 48
0.0
 49
0.0
140
0.0
141
0.0
142
1.0
143
1.0
 70
1024
 72
1
 73
0
 74
0
  7

 75
0
147
1.0
148
0.0
149
0.0
100
AcDbLayout
  1
Model
 70
0
 71
0
 10
0.0
 20
0.0
 11
297.0
 21
210.0
 12
0.0
 22
0.0
 32
0.0
 14
0.0
 24
0.0
 34
0.0
 15
0.0
 25
0.0
 35
0.0
146
0.0
 13
0.0
 23
0.0
 33
0.0
 16
1.0
 26
0.0
 36
0.0
 17
0.0
 27
1.0
 37
0.0
 76
0
330
212
345
0
346
0
  0
LAYOUT
  5
4B6
102
{ACAD_REACTORS
330
1A
102
}
100
AcDbPlotSettings
  1

  2
none_device
  4
ISO_A4_(297.00_x_210.00_MM)
  6

 40
0.0
 41
0.0
 42
0.0
 43
0.0
 44
297.0
 45
210.0
 46
0.0
 47
0.0
 48
0.0
 49
0.0
140
0.0
141
0.0
142
1.0
143
1.0
 70
0
 72
1
 73
0
 74
0
  7

 75
0
147
1.0
148
0.0
149
0.0
100
AcDbLayout
  1
Layout1
 70
0
 71
1
 10
0.0
 20
0.0
 11
297.0
 21
210.0
 12
0.0
 22
0.0
 32
0.0
 14
0.0
 24
0.0
 34
0.0
 15
0.0
 25
0.0
 35
0.0
146
0.0
 13
0.0
 23
0.0
 33
0.0
 16
1.0
 26
0.0
 36
0.0
 17
0.0
 27
1.0
 37
0.0
 76
0
330
213
345
0
346
0
  0
ENDSEC
  0
EOF
