  0
SECTION
  2
HEADER
  9
$ACADVER
  1
AC1015
  9
$DWGCODEPAGE
  3
ANSI_1252
  9
$EXTMAX
 10
297.0
 20
210.0
 30
0.0
  9
$EXTMIN
 10
0.0
 20
0.0
 30
0.0
  9
$LIMMIN
 10
0.0
 20
0.0
  9
$LIMMAX
 10
297.0
 20
210.0
  9
$VIEWCTR
 10
148.5
 20
105.0
  9
$VIEWSIZE
 40
210.0
  9
$CLAYER
  8
0
  9
$LTSCALE
 40
16.335
  9
$CELTYPE
  6
BYLAYER
  9
$DIMSCALE
 40
1.0
  9
$DIMASZ
 40
3.0
  9
$DIMEXO
 40
1.85625
  9
$DIMDLI
 40
11.286
  9
$DIMEXE
 40
5.346
  9
$DIMCEN
 40
2.673
  9
$DIMLFAC
 40
1.0
  9
$DIMBLK
  1
_FILLED
  9
$DIMTXT
 40
3.0
  9
$DIMTOL
 70
1
  9
$DIMLIM
 70
0
  9
$DIMTFAC
 40
1.0
  9
$DIMTP
 40
0.01
  9
$DIMTM
 40
0.01
  9
$PDMODE
 70
3
  9
$PDSIZE
 40
3.0
  9
$HANDSEED
  5
4B2
  9
$TILEMODE
 70
1
  9
$MEASUREMENT
 70
1
  9
$INSUNITS
 70
4
  0
ENDSEC
  0
SECTION
  2
CLASSES
  0
CLASS
  1
ACDBDICTIONARYWDFLT
  2
AcDbDictionaryWithDefault
  3
AutoCAD 2000
 90
0
280
0
281
0
  0
CLASS
  1
ACDBPLACEHOLDER
  2
AcDbPlaceHolder
  3
AutoCAD 2000
 90
0
280
0
281
0
  0
CLASS
  1
LAYOUT
  2
AcDbLayout
  3
AutoCAD 2000
 90
0
280
0
281
0
  0
ENDSEC
  0
SECTION
  2
TABLES
  0
TABLE
  2
VPORT
  5
8
100
AcDbSymbolTable
 70
2
  0
VPORT
  5
1F4
100
AcDbSymbolTableRecord
100
AcDbViewportTableRecord
  2
*ACTIVE
 70
0
 10
0.0
 20
0.0
 11
1.0
 21
1.0
 12
148.5
 22
105.0
 13
0.0
 23
0.0
 14
1.0
 24
1.0
 15
0.0
 25
0.0
 16
0.0
 26
0.0
 36
1.0
 17
0.0
 27
0.0
 37
0.0
 40
210.0
 41
1.4142857143
 42
50.0
 43
0.0
 44
0.0
 50
0.0
 51
0.0
 71
0
 72
100
 73
1
 74
1
 75
0
 76
0
 77
0
 78
0
  0
ENDTAB
  0
TABLE
  2
LTYPE
  5
5
100
AcDbSymbolTable
 70
6
  0
LTYPE
  5
14
100
AcDbSymbolTableRecord
100
AcDbLinetypeTableRecord
  2
BYBLOCK
 70
0
  3

 72
65
 73
0
 40
0.0
  0
LTYPE
  5
15
100
AcDbSymbolTableRecord
100
AcDbLinetypeTableRecord
  2
BYLAYER
 70
0
  3

 72
65
 73
0
 40
0.0
  0
LTYPE
  5
16
100
AcDbSymbolTableRecord
100
AcDbLinetypeTableRecord
  2
CONTINUOUS
 70
64
  3
Solid line
 72
65
 73
0
 40
0.0
  0
LTYPE
  5
1F5
100
AcDbSymbolTableRecord
100
AcDbLinetypeTableRecord
  2
CENTER
 70
64
  3
____ _ ____ _ ____ _ ____ _ ____ _ ____ _ ____
 72
65
 73
4
 40
0.6
 49
0.375
 74
0
 49
-0.075
 74
0
 49
0.075
 74
0
 49
-0.075
 74
0
  0
LTYPE
  5
1F6
100
AcDbSymbolTableRecord
100
AcDbLinetypeTableRecord
  2
HIDDEN
 70
64
  3
- - - - - - - - - - - - - - - - - - - -
 72
65
 73
2
 40
0.2
 49
0.1
 74
0
 49
-0.1
 74
0
  0
LTYPE
  5
1F7
100
AcDbSymbolTableRecord
100
AcDbLinetypeTableRecord
  2
PHANTOM
 70
64
  3
_____ _ _ _____ _ _ _____ _ _ _____
 72
65
 73
6
 40
0.8
 49
0.45
 74
0
 49
-0.05
 74
0
 49
0.1
 74
0
 49
-0.05
 74
0
 49
0.1
 74
0
 49
-0.05
 74
0
  0
LTYPE
  5
1F8
100
AcDbSymbolTableRecord
100
AcDbLinetypeTableRecord
  2
DOT
 70
64
  3
. . . . . . . . . . . . . . . . . . . .
 72
65
 73
2
 40
0.2
 49
0.1
 74
0
 49
-0.1
 74
0
  0
LTYPE
  5
1F9
100
AcDbSymbolTableRecord
100
AcDbLinetypeTableRecord
  2
DASHED
 70
64
  3
- - - - - - - - - - - - - - - - - - - -
 72
65
 73
2
 40
0.2
 49
0.1
 74
0
 49
-0.1
 74
0
  0
ENDTAB
  0
TABLE
  2
LAYER
  5
2
100
AcDbSymbolTable
 70
36
  0
LAYER
  5
10
100
AcDbSymbolTableRecord
100
AcDbLayerTableRecord
  2
0
 70
0
 62
7
  6
CONTINUOUS
370
-3
390
F
  0
LAYER
  5
1FA
100
AcDbSymbolTableRecord
100
AcDbLayerTableRecord
  2
DEFAULT_1
 70
0
 62
7
  6
CENTER
370
-3
390
F
  0
LAYER
  5
1FB
100
AcDbSymbolTableRecord
100
AcDbLayerTableRecord
  2
DEFAULT_2
 70
0
 62
7
  6
HIDDEN
370
-3
390
F
  0
LAYER
  5
1FC
100
AcDbSymbolTableRecord
100
AcDbLayerTableRecord
  2
DEFAULT_3
 70
0
 62
7
  6
PHANTOM
370
-3
390
F
  0
LAYER
  5
1FD
100
AcDbSymbolTableRecord
100
AcDbLayerTableRecord
  2
ASSI
 70
0
 62
7
  6
CONTINUOUS
370
-3
390
F
  0
LAYER
  5
1FE
100
AcDbSymbolTableRecord
100
AcDbLayerTableRecord
  2
COORDINATE
 70
0
 62
7
  6
CONTINUOUS
370
-3
390
F
  0
LAYER
  5
1FF
100
AcDbSymbolTableRecord
100
AcDbLayerTableRecord
  2
COORD_ORIGINE
 70
0
 62
7
  6
CONTINUOUS
370
-3
390
F
  0
LAYER
  5
200
100
AcDbSymbolTableRecord
100
AcDbLayerTableRecord
  2
COPY_PUBLISH
 70
0
 62
7
  6
CONTINUOUS
370
-3
390
F
  0
LAYER
  5
201
100
AcDbSymbolTableRecord
100
AcDbLayerTableRecord
  2
COSMETIC
 70
0
 62
7
  6
CONTINUOUS
370
-3
390
F
  0
LAYER
  5
202
100
AcDbSymbolTableRecord
100
AcDbLayerTableRecord
  2
COSMETICI
 70
0
 62
7
  6
CONTINUOUS
370
-3
390
F
  0
LAYER
  5
203
100
AcDbSymbolTableRecord
100
AcDbLayerTableRecord
  2
CURVE
 70
0
 62
7
  6
CONTINUOUS
370
-3
390
F
  0
LAYER
  5
204
100
AcDbSymbolTableRecord
100
AcDbLayerTableRecord
  2
DRAFT
 70
0
 62
7
  6
CONTINUOUS
370
-3
390
F
  0
LAYER
  5
205
100
AcDbSymbolTableRecord
100
AcDbLayerTableRecord
  2
IMPORT_IGES
 70
0
 62
7
  6
CONTINUOUS
370
-3
390
F
  0
LAYER
  5
206
100
AcDbSymbolTableRecord
100
AcDbLayerTableRecord
  2
INTFCLR_2
 70
0
 62
7
  6
CONTINUOUS
370
-3
390
F
  0
LAYER
  5
207
100
AcDbSymbolTableRecord
100
AcDbLayerTableRecord
  2
NOTE
 70
0
 62
7
  6
CONTINUOUS
370
-3
390
F
  0
LAYER
  5
208
100
AcDbSymbolTableRecord
100
AcDbLayerTableRecord
  2
PIANI
 70
0
 62
7
  6
CONTINUOUS
370
-3
390
F
  0
LAYER
  5
209
100
AcDbSymbolTableRecord
100
AcDbLayerTableRecord
  2
PIANI_ORIGINE
 70
0
 62
7
  6
CONTINUOUS
370
-3
390
F
  0
LAYER
  5
20A
100
AcDbSymbolTableRecord
100
AcDbLayerTableRecord
  2
PIANI_RIFERIMENTO
 70
0
 62
7
  6
CONTINUOUS
370
-3
390
F
  0
LAYER
  5
20B
100
AcDbSymbolTableRecord
100
AcDbLayerTableRecord
  2
PUNTI
 70
0
 62
7
  6
CONTINUOUS
370
-3
390
F
  0
LAYER
  5
20C
100
AcDbSymbolTableRecord
100
AcDbLayerTableRecord
  2
RACCORDO
 70
0
 62
7
  6
CONTINUOUS
370
-3
390
F
  0
LAYER
  5
20D
100
AcDbSymbolTableRecord
100
AcDbLayerTableRecord
  2
SIMBOLI
 70
0
 62
7
  6
CONTINUOUS
370
-3
390
F
  0
LAYER
  5
20E
100
AcDbSymbolTableRecord
100
AcDbLayerTableRecord
  2
SMUSSO
 70
0
 62
7
  6
CONTINUOUS
370
-3
390
F
  0
LAYER
  5
20F
100
AcDbSymbolTableRecord
100
AcDbLayerTableRecord
  2
SNAPLINE
 70
0
 62
7
  6
CONTINUOUS
370
-3
390
F
  0
LAYER
  5
210
100
AcDbSymbolTableRecord
100
AcDbLayerTableRecord
  2
SUPERFICI
 70
0
 62
7
  6
CONTINUOUS
370
-3
390
F
  0
LAYER
  5
211
100
AcDbSymbolTableRecord
100
AcDbLayerTableRecord
  2
TRASH
 70
0
 62
7
  6
CONTINUOUS
370
-3
390
F
  0
LAYER
  5
212
100
AcDbSymbolTableRecord
100
AcDbLayerTableRecord
  2
XSEC_DATUMS
 70
0
 62
7
  6
CONTINUOUS
370
-3
390
F
  0
ENDTAB
  0
TABLE
  2
STYLE
  5
3
100
AcDbSymbolTable
 70
1
  0
STYLE
  5
11
100
AcDbSymbolTableRecord
100
AcDbTextStyleTableRecord
  2
STANDARD
 70
0
 40
0.0
 41
0.8
 50
0.0
 71
0
 42
0.2
  3
txt
  4

  0
STYLE
  5
213
100
AcDbSymbolTableRecord
100
AcDbTextStyleTableRecord
  2
TEXTSTYLE_1
 70
0
 40
0.0
 41
0.8
 50
0.0
 71
0
 42
0.2
  3
gdt
  4

  0
ENDTAB
  0
TABLE
  2
VIEW
  5
6
100
AcDbSymbolTable
 70
0
  0
ENDTAB
  0
TABLE
  2
UCS
  5
7
100
AcDbSymbolTable
 70
0
  0
ENDTAB
  0
TABLE
  2
APPID
  5
9
100
AcDbSymbolTable
 70
1
  0
APPID
  5
214
100
AcDbSymbolTableRecord
100
AcDbRegAppTableRecord
  2
ACAD
 70
0
  0
ENDTAB
  0
TABLE
  2
BLOCK_RECORD
  5
1
100
AcDbSymbolTable
 70
0
  0
BLOCK_RECORD
  5
215
100
AcDbSymbolTableRecord
100
AcDbBlockTableRecord
  2
*Model_Space
  0
BLOCK_RECORD
  5
216
100
AcDbSymbolTableRecord
100
AcDbBlockTableRecord
  2
*Paper_Space
  0
ENDTAB
  0
TABLE
  2
DIMSTYLE
  5
A
100
AcDbSymbolTable
 70
1
100
AcDbDimStyleTable
 71
0
  0
DIMSTYLE
105
217
100
AcDbSymbolTableRecord
100
AcDbDimStyleTableRecord
  2
STANDARD
 70
0
  3

  4

 40
1.0
 41
3.0
 42
0.0625
 43
0.38
 44
0.18
 45
0.0
 46
0.0
 47
0.01
 48
0.01
140
3.0
141
0.09
142
0.0
143
25.4
144
1.0
145
0.0
146
1.0
147
0.09
 71
1.0
 72
0.0
 73
0
 74
0
 75
0
 76
0
 77
1
 78
8
170
0
171
2
172
0
173
0
174
0
175
0
176
0
177
0
178
0
270
2
271
2
272
2
273
2
274
2
275
0
280
0
281
0
282
0
283
1
284
8
285
0
286
0
287
3
288
0
340
11
  0
ENDTAB
  0
ENDSEC
  0
SECTION
  2
BLOCKS
  0
BLOCK
  5
20
100
AcDbEntity
  8
0
100
AcDbBlockBegin
  2
*Model_Space
 70
0
 10
0.0
 20
0.0
 30
0.0
  3
*Model_Space
  1

  0
ENDBLK
  5
21
100
AcDbEntity
  8
0
100
AcDbBlockEnd
  0
BLOCK
  5
1C
100
AcDbEntity
  8
0
100
AcDbBlockBegin
  2
*Paper_Space
 70
0
 10
0.0
 20
0.0
 30
0.0
  3
*Paper_Space
  1

  0
ENDBLK
  5
1D
100
AcDbEntity
  8
0
100
AcDbBlockEnd
  0
ENDSEC
  0
SECTION
  2
ENTITIES
  0
LINE
  5
218
100
AcDbEntity
  8
RACCORDO
100
AcDbLine
 62
7
  6
CONTINUOUS
 10
-50.8108940855
 20
69.71305254
 11
-48.0178222998
 21
71.1095884328
  0
LINE
  5
219
100
AcDbEntity
  8
RACCORDO
100
AcDbLine
 62
7
  6
CONTINUOUS
 10
-50.36368049
 20
69.6846507527
 11
-47.5706087043
 21
71.0811866456
  0
LINE
  5
21A
100
AcDbEntity
  8
RACCORDO
100
AcDbLine
 62
7
  6
CONTINUOUS
 10
-51.2172338806
 20
68.9954020442
 11
-51.2172338806
 21
-21.0712399493
  0
LINE
  5
21B
100
AcDbEntity
  8
RACCORDO
100
AcDbLine
 62
7
  6
CONTINUOUS
 10
-51.0707872712
 20
68.818625349
 11
-51.0707872712
 21
-21.2480166446
  0
LWPOLYLINE
  5
21C
100
AcDbEntity
  8
RACCORDO
100
AcDbPolyline
 62
7
  6
CONTINUOUS
 90
15
 70
0
 10
-37.1898155028
 20
38.0575030412
 10
-37.2161441116
 20
38.0421224837
 10
-37.2475720637
 20
38.0203993322
 10
-37.277270495
 20
37.9959270075
 10
-37.3050211291
 20
37.9688513239
 10
-37.3307639899
 20
37.9391703115
 10
-37.3543097535
 20
37.906998533
 10
-37.3754687926
 20
37.8724920918
 10
-37.3941768969
 20
37.8356372845
 10
-37.4102879951
 20
37.7965291578
 10
-37.423640774
 20
37.7553112466
 10
-37.4341394733
 20
37.7119467764
 10
-37.4416488865
 20
37.6664535218
 10
-37.4459964684
 20
37.6189601698
 10
-37.4470955293
 20
37.5793661294
  0
LINE
  5
21D
100
AcDbEntity
  8
RACCORDO
100
AcDbLine
 62
7
  6
CONTINUOUS
 10
-37.189800208
 20
38.0575157422
 11
-35.8298761338
 21
38.7912259843
  0
LINE
  5
21E
100
AcDbEntity
  8
RACCORDO
100
AcDbLine
 62
7
  6
CONTINUOUS
 10
-36.8680041898
 20
38.0422175026
 11
-35.5095764342
 21
38.7751204414
  0
LINE
  5
21F
100
AcDbEntity
  8
DRAFT
100
AcDbLine
 62
7
  6
CONTINUOUS
 10
-32.9592885233
 20
28.2812471433
 11
-33.4953276314
 21
27.9835812724
  0
LINE
  5
220
100
AcDbEntity
  8
RACCORDO
100
AcDbLine
 62
7
  6
CONTINUOUS
 10
-32.7665957143
 20
29.3057325563
 11
-32.1910362135
 21
29.5715450072
  0
LINE
  5
221
100
AcDbEntity
  8
RACCORDO
100
AcDbLine
 62
7
  6
CONTINUOUS
 10
-32.8477330588
 20
29.1419581775
 11
-32.2721735581
 21
29.4077706283
  0
LINE
  5
222
100
AcDbEntity
  8
RACCORDO
100
AcDbLine
 62
7
  6
CONTINUOUS
 10
-50.5872872878
 20
-22.128242942
 11
47.3470019066
 21
-71.0953875392
  0
LINE
  5
223
100
AcDbEntity
  8
RACCORDO
100
AcDbLine
 62
7
  6
CONTINUOUS
 10
-50.7172338806
 20
-21.8578060418
 11
47.2170553137
 21
-70.824950639
  0
LWPOLYLINE
  5
224
100
AcDbEntity
  8
RACCORDO
100
AcDbPolyline
 62
7
  6
CONTINUOUS
 90
14
 70
0
 10
-37.446504038
 20
-6.7196090708
 10
-37.4427611389
 20
-6.7705793646
 10
-37.4356894276
 20
-6.8214984872
 10
-37.4254219606
 20
-6.8722291798
 10
-37.4120810008
 20
-6.9225455907
 10
-37.3957656095
 20
-6.9723113206
 10
-37.3765554273
 20
-7.0213680031
 10
-37.35458018
 20
-7.0693984522
 10
-37.3298846703
 20
-7.116305217
 10
-37.3025492328
 20
-7.1618429443
 10
-37.2728435695
 20
-7.2055177564
 10
-37.2408084637
 20
-7.2472173507
 10
-37.2065305471
 20
-7.2867222047
 10
-37.1704189375
 20
-7.3235123448
  0
LINE
  5
225
100
AcDbEntity
  8
RACCORDO
100
AcDbLine
 62
7
  6
CONTINUOUS
 10
-37.4470955407
 20
-6.6900306141
 11
-37.446504038
 21
-6.7196090708
  0
LINE
  5
226
100
AcDbEntity
  8
RACCORDO
100
AcDbLine
 62
7
  6
CONTINUOUS
 10
-37.4471016095
 20
37.5793429693
 11
-37.4471016095
 21
-6.690136375
  0
LINE
  5
227
100
AcDbEntity
  8
RACCORDO
100
AcDbLine
 62
7
  6
CONTINUOUS
 10
-37.3592336439
 20
37.473276957
 11
-37.3592336439
 21
-6.7962023953
  0
LINE
  5
228
100
AcDbEntity
  8
RACCORDO
100
AcDbLine
 62
7
  6
CONTINUOUS
 10
-35.6569100299
 20
-5.2824487345
 11
-35.6569100299
 21
34.2571996821
  0
LINE
  5
229
100
AcDbEntity
  8
RACCORDO
100
AcDbLine
 62
7
  6
CONTINUOUS
 10
-35.2727050646
 20
-5.2992556753
 11
-35.2727050646
 21
34.2403930442
  0
LINE
  5
22A
100
AcDbEntity
  8
DRAFT
100
AcDbLine
 62
7
  6
CONTINUOUS
 10
-32.9592885233
 20
21.786056615
 11
-33.4953276314
 21
21.488390744
  0
LINE
  5
22B
100
AcDbEntity
  8
RACCORDO
100
AcDbLine
 62
7
  6
CONTINUOUS
 10
-32.4750808767
 20
28.4702019638
 11
-33.4103650655
 21
27.9989537541
  0
LINE
  5
22C
100
AcDbEntity
  8
RACCORDO
100
AcDbLine
 62
7
  6
CONTINUOUS
 10
-32.2629811511
 20
28.1043840498
 11
-33.1982653399
 21
27.6331358401
  0
LWPOLYLINE
  5
22D
100
AcDbEntity
  8
RACCORDO
100
AcDbPolyline
 62
7
  6
CONTINUOUS
 90
20
 70
0
 10
-31.4851289014
 20
-3.8606434072
 10
-31.4851554022
 20
-3.8566230168
 10
-31.4858475893
 20
-3.8397906534
 10
-31.487511681
 20
-3.8227443648
 10
-31.4901898589
 20
-3.8055465571
 10
-31.493919778
 20
-3.7882673149
 10
-31.4987376003
 20
-3.7709700689
 10
-31.5046794148
 20
-3.7537162805
 10
-31.5117718149
 20
-3.7365909938
 10
-31.5200394374
 20
-3.7196748333
 10
-31.5295142365
 20
-3.7030334812
 10
-31.5402108521
 20
-3.6867647103
 10
-31.5521364629
 20
-3.6709704358
 10
-31.5653094566
 20
-3.6557354536
 10
-31.5797247319
 20
-3.6411723735
 10
-31.5953643469
 20
-3.6273998815
 10
-31.6122195075
 20
-3.6145241647
 10
-31.6302579804
 20
-3.6026677704
 10
-31.6494251256
 20
-3.5919606844
 10
-31.6519697484
 20
-3.5906731704
  0
LINE
  5
22E
100
AcDbEntity
  8
RACCORDO
100
AcDbLine
 62
7
  6
CONTINUOUS
 10
-34.0971035157
 20
33.8741401323
 11
-34.0971035157
 21
-4.429660099
  0
LINE
  5
22F
100
AcDbEntity
  8
RACCORDO
100
AcDbLine
 62
7
  6
CONTINUOUS
 10
-34.0365625486
 20
33.8438696487
 11
-34.0365625486
 21
-4.404707038
  0
LINE
  5
230
100
AcDbEntity
  8
RACCORDO
100
AcDbLine
 62
7
  6
CONTINUOUS
 10
-33.7411169645
 20
-4.2558451153
 11
-33.7411169645
 21
33.6961468567
  0
LINE
  5
231
100
AcDbEntity
  8
DRAFT
100
AcDbLine
 62
7
  6
CONTINUOUS
 10
-33.4953276314
 20
2.4358318608
 11
-33.4953276314
 21
8.9310223892
  0
LINE
  5
232
100
AcDbEntity
  8
DRAFT
100
AcDbLine
 62
7
  6
CONTINUOUS
 10
-33.4953276314
 20
21.488390744
 11
-33.4953276314
 21
27.9835812724
  0
LINE
  5
233
100
AcDbEntity
  8
RACCORDO
100
AcDbLine
 62
7
  6
CONTINUOUS
 10
-33.1982653399
 20
27.6331358401
 11
-33.1982653399
 21
22.1781699879
  0
LINE
  5
234
100
AcDbEntity
  8
RACCORDO
100
AcDbLine
 62
7
  6
CONTINUOUS
 10
-33.1982653399
 20
8.5805769568
 11
-33.1982653399
 21
3.1256111047
  0
LINE
  5
235
100
AcDbEntity
  8
RACCORDO
100
AcDbLine
 62
7
  6
CONTINUOUS
 10
-32.9592885233
 20
33.3052326361
 11
-32.9592885233
 21
28.2812471433
  0
LINE
  5
236
100
AcDbEntity
  8
DRAFT
100
AcDbLine
 62
7
  6
CONTINUOUS
 10
-32.9592885233
 20
21.786056615
 11
-32.9592885233
 21
9.2286882601
  0
LINE
  5
237
100
AcDbEntity
  8
RACCORDO
100
AcDbLine
 62
7
  6
CONTINUOUS
 10
-32.9592885233
 20
2.7334977317
 11
-32.9592885233
 21
-3.8802377967
  0
LINE
  5
238
100
AcDbEntity
  8
RACCORDO
100
AcDbLine
 62
7
  6
CONTINUOUS
 10
-32.7665957143
 20
-4.0830671613
 11
-32.7665957143
 21
1.8698729003
  0
LINE
  5
239
100
AcDbEntity
  8
RACCORDO
100
AcDbLine
 62
7
  6
CONTINUOUS
 10
-32.7665957143
 20
10.2531736731
 11
-32.7665957143
 21
20.9224317835
  0
LINE
  5
23A
100
AcDbEntity
  8
RACCORDO
100
AcDbLine
 62
7
  6
CONTINUOUS
 10
-32.7665957143
 20
29.3057325563
 11
-32.7665957143
 21
33.2088862316
  0
LINE
  5
23B
100
AcDbEntity
  8
RACCORDO
100
AcDbLine
 62
7
  6
CONTINUOUS
 10
-32.6569355626
 20
29.230074784
 11
-32.6569355626
 21
28.5611293067
  0
LINE
  5
23C
100
AcDbEntity
  8
RACCORDO
100
AcDbLine
 62
7
  6
CONTINUOUS
 10
-32.6569355626
 20
22.3018715538
 11
-32.6569355626
 21
21.7051484075
  0
LINE
  5
23D
100
AcDbEntity
  8
RACCORDO
100
AcDbLine
 62
7
  6
CONTINUOUS
 10
-32.6569355626
 20
10.1775159008
 11
-32.6569355626
 21
9.5085704235
  0
LINE
  5
23E
100
AcDbEntity
  8
RACCORDO
100
AcDbLine
 62
7
  6
CONTINUOUS
 10
-32.6569355626
 20
3.2493126705
 11
-32.6569355626
 21
2.6525895243
  0
LINE
  5
23F
100
AcDbEntity
  8
RACCORDO
100
AcDbLine
 62
7
  6
CONTINUOUS
 10
-32.5166054628
 20
29.2948838745
 11
-32.5166054628
 21
28.6769427598
  0
LINE
  5
240
100
AcDbEntity
  8
RACCORDO
100
AcDbLine
 62
7
  6
CONTINUOUS
 10
-32.5166054628
 20
22.3666806442
 11
-32.5166054628
 21
21.6349833576
  0
LINE
  5
241
100
AcDbEntity
  8
RACCORDO
100
AcDbLine
 62
7
  6
CONTINUOUS
 10
-32.5166054628
 20
10.2423249913
 11
-32.5166054628
 21
9.6243838765
  0
LINE
  5
242
100
AcDbEntity
  8
RACCORDO
100
AcDbLine
 62
7
  6
CONTINUOUS
 10
-32.5166054628
 20
3.314121761
 11
-32.5166054628
 21
2.5824244744
  0
LINE
  5
243
100
AcDbEntity
  8
RACCORDO
100
AcDbLine
 62
7
  6
CONTINUOUS
 10
-32.2629811511
 20
28.1043840498
 11
-32.2629811511
 21
22.6101152206
  0
LINE
  5
244
100
AcDbEntity
  8
RACCORDO
100
AcDbLine
 62
7
  6
CONTINUOUS
 10
-32.2629811511
 20
9.0518251665
 11
-32.2629811511
 21
3.5575563373
  0
LINE
  5
245
100
AcDbEntity
  8
RACCORDO
100
AcDbLine
 62
7
  6
CONTINUOUS
 10
-32.1910362135
 20
-3.793068263
 11
-32.1910362135
 21
2.1598717986
  0
LINE
  5
246
100
AcDbEntity
  8
RACCORDO
100
AcDbLine
 62
7
  6
CONTINUOUS
 10
-32.1910362135
 20
10.5189861239
 11
-32.1910362135
 21
21.2124306818
  0
LINE
  5
247
100
AcDbEntity
  8
RACCORDO
100
AcDbLine
 62
7
  6
CONTINUOUS
 10
-32.1910362135
 20
29.5715450072
 11
-32.1910362135
 21
32.9211064812
  0
LINE
  5
248
100
AcDbEntity
  8
RACCORDO
100
AcDbLine
 62
7
  6
CONTINUOUS
 10
-31.6254594325
 20
-3.9835911314
 11
-31.6254594325
 21
-4.0758566536
  0
LINE
  5
249
100
AcDbEntity
  8
RACCORDO
100
AcDbLine
 62
7
  6
CONTINUOUS
 10
-31.4851293326
 20
-3.8614033208
 11
-31.4851293326
 21
-4.1460217035
  0
LINE
  5
24A
100
AcDbEntity
  8
RACCORDO
100
AcDbLine
 62
7
  6
CONTINUOUS
 10
-28.8878750013
 20
20.3187162526
 11
-28.8878750013
 21
14.8332241197
  0
LINE
  5
24B
100
AcDbEntity
  8
RACCORDO
100
AcDbLine
 62
7
  6
CONTINUOUS
 10
-28.8177099514
 20
20.4055485489
 11
-28.8177099514
 21
14.920056416
  0
LINE
  5
24C
100
AcDbEntity
  8
RACCORDO
100
AcDbLine
 62
7
  6
CONTINUOUS
 10
-32.9592885233
 20
21.2980279818
 11
-32.4031359391
 21
21.5782485958
  0
LINE
  5
24D
100
AcDbEntity
  8
RACCORDO
100
AcDbLine
 62
7
  6
CONTINUOUS
 10
-32.7665957143
 20
20.9224317835
 11
-32.1910362135
 21
21.2124306818
  0
LINE
  5
24E
100
AcDbEntity
  8
RACCORDO
100
AcDbLine
 62
7
  6
CONTINUOUS
 10
-29.0646247727
 20
20.6235645143
 11
-32.1910362135
 21
19.0728413914
  0
LINE
  5
24F
100
AcDbEntity
  8
RACCORDO
100
AcDbLine
 62
7
  6
CONTINUOUS
 10
-28.8878750013
 20
20.3187162526
 11
-32.1910362135
 21
18.6803239401
  0
LINE
  5
250
100
AcDbEntity
  8
RACCORDO
100
AcDbLine
 62
7
  6
CONTINUOUS
 10
-33.1982653399
 20
22.1781699879
 11
-32.2629811511
 21
22.6101152206
  0
LINE
  5
251
100
AcDbEntity
  8
RACCORDO
100
AcDbLine
 62
7
  6
CONTINUOUS
 10
-33.2794026844
 20
22.014395609
 11
-32.3441184956
 21
22.4463408417
  0
LINE
  5
252
100
AcDbEntity
  8
RACCORDO
100
AcDbLine
 62
7
  6
CONTINUOUS
 10
-29.5501958693
 20
20.821346061
 11
-31.8447555497
 21
19.7616423615
  0
LINE
  5
253
100
AcDbEntity
  8
RACCORDO
100
AcDbLine
 62
7
  6
CONTINUOUS
 10
-29.442291013
 20
20.8123976344
 11
-31.7836405156
 21
19.7310848445
  0
LWPOLYLINE
  5
254
100
AcDbEntity
  8
RACCORDO
100
AcDbPolyline
 62
7
  6
CONTINUOUS
 90
5
 70
0
 10
-37.1325564788
 20
-7.3574565567
 10
-37.092992505
 20
-7.3884360929
 10
-37.052119012
 20
-7.4160815635
 10
-37.0101323907
 20
-7.4402279092
 10
-36.9984362067
 20
-7.4462290239
  0
LINE
  5
255
100
AcDbEntity
  8
RACCORDO
100
AcDbLine
 62
7
  6
CONTINUOUS
 10
-37.1704189375
 20
-7.3235123448
 11
-37.1325564788
 21
-7.3574565567
  0
LINE
  5
256
100
AcDbEntity
  8
RACCORDO
100
AcDbLine
 62
7
  6
CONTINUOUS
 10
-26.2159839125
 20
-7.0404416107
 11
-26.2159839125
 21
-7.511341666
  0
LINE
  5
257
100
AcDbEntity
  8
DRAFT
100
AcDbLine
 62
7
  6
CONTINUOUS
 10
-32.9592885233
 20
9.2286882601
 11
-33.4953276314
 21
8.9310223892
  0
LINE
  5
258
100
AcDbEntity
  8
RACCORDO
100
AcDbLine
 62
7
  6
CONTINUOUS
 10
-28.8878750013
 20
14.8332241197
 11
-32.1910362135
 21
13.0510928656
  0
LINE
  5
259
100
AcDbEntity
  8
RACCORDO
100
AcDbLine
 62
7
  6
CONTINUOUS
 10
-28.9490039963
 20
14.7000361982
 11
-32.1910362135
 21
12.9508854394
  0
LINE
  5
25A
100
AcDbEntity
  8
RACCORDO
100
AcDbLine
 62
7
  6
CONTINUOUS
 10
-32.4750808767
 20
9.4176430805
 11
-33.4103650655
 21
8.9463948708
  0
LINE
  5
25B
100
AcDbEntity
  8
RACCORDO
100
AcDbLine
 62
7
  6
CONTINUOUS
 10
-32.2629811511
 20
9.0518251665
 11
-33.1982653399
 21
8.5805769568
  0
LINE
  5
25C
100
AcDbEntity
  8
RACCORDO
100
AcDbLine
 62
7
  6
CONTINUOUS
 10
-32.7665957143
 20
10.2531736731
 11
-32.1910362135
 21
10.5189861239
  0
LINE
  5
25D
100
AcDbEntity
  8
RACCORDO
100
AcDbLine
 62
7
  6
CONTINUOUS
 10
-32.8477330588
 20
10.0893992942
 11
-32.2721735581
 21
10.355211745
  0
LWPOLYLINE
  5
25E
100
AcDbEntity
  8
RACCORDO
100
AcDbPolyline
 62
7
  6
CONTINUOUS
 90
13
 70
0
 10
30.4722900354
 20
-41.181592248
 10
30.4868571012
 20
-41.1886377556
 10
30.5267299612
 20
-41.205557468
 10
30.5670531878
 20
-41.2192388444
 10
30.6076687862
 20
-41.229629983
 10
30.648317644
 20
-41.2366828095
 10
30.688810053
 20
-41.2403863126
 10
30.7289461339
 20
-41.2407463971
 10
30.768370908
 20
-41.2378149221
 10
30.8068250534
 20
-41.2316899368
 10
30.8441074847
 20
-41.2224866324
 10
30.8799263247
 20
-41.2103790613
 10
30.9070618402
 20
-41.198891234
  0
LINE
  5
25F
100
AcDbEntity
  8
RACCORDO
100
AcDbLine
 62
7
  6
CONTINUOUS
 10
-36.9984660518
 20
-7.4462217552
 11
30.4722428805
 21
-41.1815762214
  0
LINE
  5
260
100
AcDbEntity
  8
RACCORDO
100
AcDbLine
 62
7
  6
CONTINUOUS
 10
-37.0764340097
 20
-7.283959614
 11
30.3942749275
 21
-41.0193140826
  0
LINE
  5
261
100
AcDbEntity
  8
0
100
AcDbLine
 62
7
  6
CONTINUOUS
 10
-5.9197049319
 20
-22.8359436483
 11
-5.646573624
 21
-22.9725093023
  0
LINE
  5
262
100
AcDbEntity
  8
0
100
AcDbLine
 62
7
  6
CONTINUOUS
 10
-5.0542818922
 20
-23.2686551682
 11
-4.7443456763
 21
-23.4236232761
  0
LINE
  5
263
100
AcDbEntity
  8
0
100
AcDbLine
 62
7
  6
CONTINUOUS
 10
-4.5774974673
 20
-23.5070473806
 11
-4.2809899163
 21
-23.6553011561
  0
LINE
  5
264
100
AcDbEntity
  8
0
100
AcDbLine
 62
7
  6
CONTINUOUS
 10
-3.8505132074
 20
-23.8705395106
 11
-3.8070452322
 21
-23.8922734982
  0
LINE
  5
265
100
AcDbEntity
  8
0
100
AcDbLine
 62
7
  6
CONTINUOUS
 10
-3.3748537894
 20
-24.1083692196
 11
-3.0716541798
 21
-24.2599690244
  0
LINE
  5
266
100
AcDbEntity
  8
0
100
AcDbLine
 62
7
  6
CONTINUOUS
 10
-3.0229861414
 20
-24.2843030436
 11
-2.7164129253
 21
-24.4375896516
  0
LINE
  5
267
100
AcDbEntity
  8
0
100
AcDbLine
 62
7
  6
CONTINUOUS
 10
-2.1285186906
 20
-24.731536769
 11
-1.8018593993
 21
-24.8948664146
  0
LINE
  5
268
100
AcDbEntity
  8
0
100
AcDbLine
 62
7
  6
CONTINUOUS
 10
-1.7108470661
 20
-24.9403729257
 11
-1.4021582689
 21
-25.0947173243
  0
LINE
  5
269
100
AcDbEntity
  8
0
100
AcDbLine
 62
7
  6
CONTINUOUS
 10
-0.9275342119
 20
-25.3320293528
 11
-0.6294119155
 21
-25.4810905009
  0
LINE
  5
26A
100
AcDbEntity
  8
0
100
AcDbLine
 62
7
  6
CONTINUOUS
 10
-2.6308897744
 20
-24.1173142439
 11
-2.2088085443
 21
-24.3283548589
  0
LINE
  5
26B
100
AcDbEntity
  8
ASSI
100
AcDbLine
 62
7
  6
CONTINUOUS
 10
-18.211252176
 20
-9.1931938006
 11
-18.211252176
 21
-9.7053199355
  0
LINE
  5
26C
100
AcDbEntity
  8
ASSI
100
AcDbLine
 62
7
  6
CONTINUOUS
 10
-18.1598811411
 20
-9.1774353687
 11
-18.1598811411
 21
-9.6879861532
  0
LINE
  5
26D
100
AcDbEntity
  8
DRAFT
100
AcDbLine
 62
7
  6
CONTINUOUS
 10
-17.4125044867
 20
-12.3108459172
 11
-17.4125044867
 21
-11.9130813789
  0
LINE
  5
26E
100
AcDbEntity
  8
RACCORDO
100
AcDbLine
 62
7
  6
CONTINUOUS
 10
-17.0067543102
 20
-12.0777571906
 11
-17.0067543102
 21
-11.6449772659
  0
LINE
  5
26F
100
AcDbEntity
  8
ASSI
100
AcDbLine
 62
7
  6
CONTINUOUS
 10
-24.693811607
 20
-8.2724278187
 11
-24.6603489939
 21
-8.2147133484
  0
LINE
  5
270
100
AcDbEntity
  8
ASSI
100
AcDbLine
 62
7
  6
CONTINUOUS
 10
-24.4021467768
 20
-8.2023931007
 11
-24.3067956033
 21
-8.0379366531
  0
LINE
  5
271
100
AcDbEntity
  8
ASSI
100
AcDbLine
 62
7
  6
CONTINUOUS
 10
-24.0485933863
 20
-8.0256164054
 11
-23.9532422127
 21
-7.8611599578
  0
LINE
  5
272
100
AcDbEntity
  8
DRAFT
100
AcDbLine
 62
7
  6
CONTINUOUS
 10
-32.9592885233
 20
2.7334977317
 11
-33.4953276314
 21
2.4358318608
  0
LINE
  5
273
100
AcDbEntity
  8
RACCORDO
100
AcDbLine
 62
7
  6
CONTINUOUS
 10
-32.9592885233
 20
2.2454690986
 11
-32.4031359391
 21
2.5256897125
  0
LINE
  5
274
100
AcDbEntity
  8
RACCORDO
100
AcDbLine
 62
7
  6
CONTINUOUS
 10
-33.1982653399
 20
3.1256111047
 11
-32.2629811511
 21
3.5575563373
  0
LINE
  5
275
100
AcDbEntity
  8
RACCORDO
100
AcDbLine
 62
7
  6
CONTINUOUS
 10
5.6939557163
 20
-22.1756080524
 11
5.6939133684
 21
-22.1755868907
  0
LINE
  5
276
100
AcDbEntity
  8
RACCORDO
100
AcDbLine
 62
7
  6
CONTINUOUS
 10
-3.3570110828
 20
-17.6501246528
 11
-3.3570534308
 21
-17.6501034911
  0
LINE
  5
277
100
AcDbEntity
  8
0
100
AcDbLine
 62
7
  6
CONTINUOUS
 10
-2.270748977
 20
-24.0164676522
 11
-2.5674905804
 21
-23.8680968505
  0
LINE
  5
278
100
AcDbEntity
  8
0
100
AcDbLine
 62
7
  6
CONTINUOUS
 10
-1.4021582689
 20
-24.3830566959
 11
-1.2359780533
 21
-24.4661468037
  0
LINE
  5
279
100
AcDbEntity
  8
0
100
AcDbLine
 62
7
  6
CONTINUOUS
 10
-2.3005936068
 20
-23.8601239811
 11
-2.4260692241
 21
-23.7973861724
  0
LINE
  5
27A
100
AcDbEntity
  8
0
100
AcDbLine
 62
7
  6
CONTINUOUS
 10
-1.2353099921
 20
-24.1686544001
 11
-1.4124352765
 21
-24.0800917578
  0
LINE
  5
27B
100
AcDbEntity
  8
0
100
AcDbLine
 62
7
  6
CONTINUOUS
 10
-1.0938886359
 20
-24.0979437219
 11
-1.2710139203
 21
-24.0093810797
  0
LINE
  5
27C
100
AcDbEntity
  8
0
100
AcDbLine
 62
7
  6
CONTINUOUS
 10
-2.2574327421
 20
-22.8485796818
 11
-2.5572580381
 21
-22.6986670338
  0
LINE
  5
27D
100
AcDbEntity
  8
0
100
AcDbLine
 62
7
  6
CONTINUOUS
 10
-3.210499546
 20
-22.3720462798
 11
-3.5171505438
 21
-22.2187207809
  0
LINE
  5
27E
100
AcDbEntity
  8
0
100
AcDbLine
 62
7
  6
CONTINUOUS
 10
-4.1337490712
 20
-21.9104215172
 11
-4.4434286074
 21
-21.7555817491
  0
LINE
  5
27F
100
AcDbEntity
  8
0
100
AcDbLine
 62
7
  6
CONTINUOUS
 10
-5.1692991741
 20
-21.3926464658
 11
-5.4790239651
 21
-21.2377840703
  0
LINE
  5
280
100
AcDbEntity
  8
0
100
AcDbLine
 62
7
  6
CONTINUOUS
 10
-6.0537292441
 20
-20.9504314307
 11
-6.3904153096
 21
-20.782088398
  0
LINE
  5
281
100
AcDbEntity
  8
0
100
AcDbLine
 62
7
  6
CONTINUOUS
 10
-4.7443456763
 20
-21.6050140955
 11
-5.0542818922
 21
-21.4500459875
  0
LINE
  5
282
100
AcDbEntity
  8
0
100
AcDbLine
 62
7
  6
CONTINUOUS
 10
-2.1160113858
 20
-22.7778690037
 11
-2.4158366819
 21
-22.6279563556
  0
LINE
  5
283
100
AcDbEntity
  8
0
100
AcDbLine
 62
7
  6
CONTINUOUS
 10
-3.0690781898
 20
-22.3013356017
 11
-3.3757291876
 21
-22.1480101028
  0
LINE
  5
284
100
AcDbEntity
  8
0
100
AcDbLine
 62
7
  6
CONTINUOUS
 10
-3.992327715
 20
-21.8397108391
 11
-4.3020072511
 21
-21.684871071
  0
LINE
  5
285
100
AcDbEntity
  8
0
100
AcDbLine
 62
7
  6
CONTINUOUS
 10
-5.0278778179
 20
-21.3219357876
 11
-5.3376026089
 21
-21.1670733922
  0
LINE
  5
286
100
AcDbEntity
  8
0
100
AcDbLine
 62
7
  6
CONTINUOUS
 10
-5.9123078879
 20
-20.8797207526
 11
-6.2489939533
 21
-20.7113777199
  0
LINE
  5
287
100
AcDbEntity
  8
0
100
AcDbLine
 62
7
  6
CONTINUOUS
 10
-4.6029243201
 20
-21.5343034174
 11
-4.912860536
 21
-21.3793353094
  0
LINE
  5
288
100
AcDbEntity
  8
RACCORDO
100
AcDbLine
 62
7
  6
CONTINUOUS
 10
28.5695281759
 20
-37.9157897068
 11
-35.2516872581
 21
-6.0051819898
  0
LINE
  5
289
100
AcDbEntity
  8
RACCORDO
100
AcDbLine
 62
7
  6
CONTINUOUS
 10
28.7091103093
 20
-37.6018628636
 11
-35.1121018778
 21
-5.69125677
  0
LINE
  5
28A
100
AcDbEntity
  8
RACCORDO
100
AcDbLine
 62
7
  6
CONTINUOUS
 10
-33.9073333824
 20
-4.8378852197
 11
28.886882982
 21
-36.2349934019
  0
LINE
  5
28B
100
AcDbEntity
  8
RACCORDO
100
AcDbLine
 62
7
  6
CONTINUOUS
 10
-33.7925813585
 20
-4.7544612964
 11
28.886882982
 21
-36.0941934667
  0
LINE
  5
28C
100
AcDbEntity
  8
RACCORDO
100
AcDbLine
 62
7
  6
CONTINUOUS
 10
28.886882982
 20
-35.8296131397
 11
-33.5290172389
 21
-4.6216630293
  0
LINE
  5
28D
100
AcDbEntity
  8
DRAFT
100
AcDbLine
 62
7
  6
CONTINUOUS
 10
14.9022754135
 20
-28.5998475793
 11
9.5989745546
 21
-25.9481971499
  0
LINE
  5
28E
100
AcDbEntity
  8
DRAFT
100
AcDbLine
 62
7
  6
CONTINUOUS
 10
1.1136931804
 20
-21.7055564628
 11
-4.1896076785
 21
-19.0539060333
  0
LINE
  5
28F
100
AcDbEntity
  8
DRAFT
100
AcDbLine
 62
7
  6
CONTINUOUS
 10
-12.6748890528
 20
-14.8112653462
 11
-17.9781899117
 21
-12.1596149168
  0
LINE
  5
290
100
AcDbEntity
  8
RACCORDO
100
AcDbLine
 62
7
  6
CONTINUOUS
 10
-17.2353219144
 20
-12.2820380478
 11
-12.781360947
 21
-14.5090185315
  0
LINE
  5
291
100
AcDbEntity
  8
RACCORDO
100
AcDbLine
 62
7
  6
CONTINUOUS
 10
-3.4467396812
 20
-19.1763291644
 11
1.0072212861
 21
-21.403309648
  0
LINE
  5
292
100
AcDbEntity
  8
RACCORDO
100
AcDbLine
 62
7
  6
CONTINUOUS
 10
10.3418425519
 20
-26.0706202809
 11
14.7958035193
 21
-28.2976007646
  0
LINE
  5
293
100
AcDbEntity
  8
RACCORDO
100
AcDbLine
 62
7
  6
CONTINUOUS
 10
-32.7474472085
 20
-4.245610018
 11
-17.4125044867
 21
-11.9130813789
  0
LINE
  5
294
100
AcDbEntity
  8
DRAFT
100
AcDbLine
 62
7
  6
CONTINUOUS
 10
-12.1092036278
 20
-14.5647318083
 11
-3.6239222536
 21
-18.8073724954
  0
LINE
  5
295
100
AcDbEntity
  8
DRAFT
100
AcDbLine
 62
7
  6
CONTINUOUS
 10
1.6793786053
 20
-21.4590229249
 11
10.1646599796
 21
-25.701663612
  0
LINE
  5
296
100
AcDbEntity
  8
RACCORDO
100
AcDbLine
 62
7
  6
CONTINUOUS
 10
15.4679608385
 20
-28.3533140414
 11
28.886882982
 21
-35.0627751132
  0
LINE
  5
297
100
AcDbEntity
  8
ASSI
100
AcDbLine
 62
7
  6
CONTINUOUS
 10
25.2510078914
 20
-33.1703917911
 11
23.0693587362
 21
-32.0795672135
  0
LINE
  5
298
100
AcDbEntity
  8
ASSI
100
AcDbLine
 62
7
  6
CONTINUOUS
 10
-22.4786998387
 20
-9.305537926
 11
-24.6603489939
 21
-8.2147133484
  0
LINE
  5
299
100
AcDbEntity
  8
RACCORDO
100
AcDbLine
 62
7
  6
CONTINUOUS
 10
28.886882982
 20
-34.9098065095
 11
25.4028111141
 21
-33.1677705755
  0
LINE
  5
29A
100
AcDbEntity
  8
RACCORDO
100
AcDbLine
 62
7
  6
CONTINUOUS
 10
20.7359063583
 20
-30.8343181976
 11
16.2034232789
 21
-28.5680766579
  0
LINE
  5
29B
100
AcDbEntity
  8
RACCORDO
100
AcDbLine
 62
7
  6
CONTINUOUS
 10
4.8260037816
 20
-22.8793669093
 11
2.4148410458
 21
-21.6737855413
  0
LINE
  5
29C
100
AcDbEntity
  8
RACCORDO
100
AcDbLine
 62
7
  6
CONTINUOUS
 10
-4.0058313034
 20
-18.4634493668
 11
-6.4169940393
 21
-17.2578679988
  0
LINE
  5
29D
100
AcDbEntity
  8
RACCORDO
100
AcDbLine
 62
7
  6
CONTINUOUS
 10
-17.7944135366
 20
-11.5691582502
 11
-22.326896616
 21
-9.3029167105
  0
LINE
  5
29E
100
AcDbEntity
  8
RACCORDO
100
AcDbLine
 62
7
  6
CONTINUOUS
 10
-26.9938013718
 20
-6.9694643326
 11
-32.7665957143
 21
-4.0830671613
  0
LINE
  5
29F
100
AcDbEntity
  8
ASSI
100
AcDbLine
 62
7
  6
CONTINUOUS
 10
25.3875559755
 20
-33.0972444769
 11
23.2107800924
 21
-32.0088565354
  0
LINE
  5
2A0
100
AcDbEntity
  8
ASSI
100
AcDbLine
 62
7
  6
CONTINUOUS
 10
-22.3421517546
 20
-9.2323906118
 11
-24.5189276376
 21
-8.1440026703
  0
LINE
  5
2A1
100
AcDbEntity
  8
ASSI
100
AcDbLine
 62
7
  6
CONTINUOUS
 10
25.5952479701
 20
-32.9889584398
 11
23.4229121268
 21
-31.9027905182
  0
LINE
  5
2A2
100
AcDbEntity
  8
ASSI
100
AcDbLine
 62
7
  6
CONTINUOUS
 10
-22.13445976
 20
-9.1241045748
 11
-24.3067956033
 21
-8.0379366531
  0
LINE
  5
2A3
100
AcDbEntity
  8
ASSI
100
AcDbLine
 62
7
  6
CONTINUOUS
 10
25.7337092999
 20
-32.9167677485
 11
23.564333483
 21
-31.8320798401
  0
LINE
  5
2A4
100
AcDbEntity
  8
ASSI
100
AcDbLine
 62
7
  6
CONTINUOUS
 10
-21.9959984302
 20
-9.0519138834
 11
-24.1653742471
 21
-7.967225975
  0
LINE
  5
2A5
100
AcDbEntity
  8
RACCORDO
100
AcDbLine
 62
7
  6
CONTINUOUS
 10
-16.332128472
 20
-11.7947444649
 11
-11.8460767583
 21
-14.0377703218
  0
LINE
  5
2A6
100
AcDbEntity
  8
RACCORDO
100
AcDbLine
 62
7
  6
CONTINUOUS
 10
-2.5435462389
 20
-18.6890355814
 11
1.9425054749
 21
-20.9320614383
  0
LINE
  5
2A7
100
AcDbEntity
  8
RACCORDO
100
AcDbLine
 62
7
  6
CONTINUOUS
 10
11.2450359942
 20
-25.583326698
 11
15.731087708
 21
-27.8263525549
  0
LINE
  5
2A8
100
AcDbEntity
  8
RACCORDO
100
AcDbLine
 62
7
  6
CONTINUOUS
 10
28.886882982
 20
-34.3320278608
 11
25.9684965391
 21
-32.8728346393
  0
LINE
  5
2A9
100
AcDbEntity
  8
RACCORDO
100
AcDbLine
 62
7
  6
CONTINUOUS
 10
21.3015917832
 20
-30.5393822614
 11
16.759234628
 21
-28.2682036838
  0
LINE
  5
2AA
100
AcDbEntity
  8
RACCORDO
100
AcDbLine
 62
7
  6
CONTINUOUS
 10
5.3916892065
 20
-22.5844309731
 11
2.9706523949
 21
-21.3739125672
  0
LINE
  5
2AB
100
AcDbEntity
  8
RACCORDO
100
AcDbLine
 62
7
  6
CONTINUOUS
 10
-3.4302718027
 20
-18.1734504685
 11
-5.8513086143
 21
-16.9629320626
  0
LINE
  5
2AC
100
AcDbEntity
  8
RACCORDO
100
AcDbLine
 62
7
  6
CONTINUOUS
 10
-17.2188540358
 20
-11.2791593519
 11
-21.761211191
 21
-9.0079807743
  0
LINE
  5
2AD
100
AcDbEntity
  8
RACCORDO
100
AcDbLine
 62
7
  6
CONTINUOUS
 10
-26.4281159468
 20
-6.6745283964
 11
-32.1910039048
 21
-3.7930844174
  0
LINE
  5
2AE
100
AcDbEntity
  8
ASSI
100
AcDbLine
 62
7
  6
CONTINUOUS
 10
27.6655528139
 20
-33.6705574711
 11
23.7764655174
 21
-31.7260138229
  0
LINE
  5
2AF
100
AcDbEntity
  8
ASSI
100
AcDbLine
 62
7
  6
CONTINUOUS
 10
-20.0641549162
 20
-9.8057036061
 11
-23.9532422127
 21
-7.8611599578
  0
LINE
  5
2B0
100
AcDbEntity
  8
ASSI
100
AcDbLine
 62
7
  6
CONTINUOUS
 10
27.8069741702
 20
-33.599846793
 11
23.9178868736
 21
-31.6553031448
  0
LINE
  5
2B1
100
AcDbEntity
  8
ASSI
100
AcDbLine
 62
7
  6
CONTINUOUS
 10
-19.9227335599
 20
-9.734992928
 11
-23.8118208565
 21
-7.7904492797
  0
LINE
  5
2B2
100
AcDbEntity
  8
RACCORDO
100
AcDbLine
 62
7
  6
CONTINUOUS
 10
-32.1910362135
 20
-3.4410346897
 11
-31.8375591581
 21
-3.6177732174
  0
LINE
  5
2B3
100
AcDbEntity
  8
ASSI
100
AcDbLine
 62
7
  6
CONTINUOUS
 10
28.0191062045
 20
-33.4937807759
 11
24.130018908
 21
-31.5492371276
  0
LINE
  5
2B4
100
AcDbEntity
  8
ASSI
100
AcDbLine
 62
7
  6
CONTINUOUS
 10
-19.7106015256
 20
-9.6289269108
 11
-23.5996888221
 21
-7.6843832625
  0
LINE
  5
2B5
100
AcDbEntity
  8
RACCORDO
100
AcDbLine
 62
7
  6
CONTINUOUS
 10
-32.1910362135
 20
-3.3211348048
 11
-31.6522081057
 21
-3.5905488587
  0
LINE
  5
2B6
100
AcDbEntity
  8
RACCORDO
100
AcDbLine
 62
7
  6
CONTINUOUS
 10
-5.0257614715
 20
-16.8876893894
 11
-3.4874708129
 21
-17.6568347188
  0
LINE
  5
2B7
100
AcDbEntity
  8
RACCORDO
100
AcDbLine
 62
7
  6
CONTINUOUS
 10
4.0252053277
 20
-21.413172789
 11
5.5634959863
 21
-22.1823181183
  0
LINE
  5
2B8
100
AcDbEntity
  8
ASSI
100
AcDbLine
 62
7
  6
CONTINUOUS
 10
28.1605275608
 20
-33.4230700977
 11
24.2714402642
 21
-31.4785264495
  0
LINE
  5
2B9
100
AcDbEntity
  8
ASSI
100
AcDbLine
 62
7
  6
CONTINUOUS
 10
-19.5691801693
 20
-9.5582162327
 11
-23.4582674659
 21
-7.6136725844
  0
LINE
  5
2BA
100
AcDbEntity
  8
RACCORDO
100
AcDbLine
 62
7
  6
CONTINUOUS
 10
-4.8952996073
 20
-16.8809803906
 11
-3.3570089487
 21
-17.6501257199
  0
LINE
  5
2BB
100
AcDbEntity
  8
RACCORDO
100
AcDbLine
 62
7
  6
CONTINUOUS
 10
4.1556671919
 20
-21.4064637902
 11
5.6939578505
 21
-22.1756091195
  0
LINE
  5
2BC
100
AcDbEntity
  8
ASSI
100
AcDbLine
 62
7
  6
CONTINUOUS
 10
28.3726595951
 20
-33.3170040806
 11
24.4835722986
 21
-31.3724604323
  0
LINE
  5
2BD
100
AcDbEntity
  8
ASSI
100
AcDbLine
 62
7
  6
CONTINUOUS
 10
-19.357048135
 20
-9.4521502155
 11
-23.2461354315
 21
-7.5076065672
  0
LINE
  5
2BE
100
AcDbEntity
  8
ASSI
100
AcDbLine
 62
7
  6
CONTINUOUS
 10
28.5140809513
 20
-33.2462934024
 11
24.6249936548
 21
-31.3017497542
  0
LINE
  5
2BF
100
AcDbEntity
  8
ASSI
100
AcDbLine
 62
7
  6
CONTINUOUS
 10
-19.2156267787
 20
-9.3814395374
 11
-23.1047140753
 21
-7.4368958891
  0
LINE
  5
2C0
100
AcDbEntity
  8
ASSI
100
AcDbLine
 62
7
  6
CONTINUOUS
 10
28.7262129857
 20
-33.1402273853
 11
24.8371256892
 21
-31.195683737
  0
LINE
  5
2C1
100
AcDbEntity
  8
ASSI
100
AcDbLine
 62
7
  6
CONTINUOUS
 10
-19.0034947444
 20
-9.2753735202
 11
-22.8925820409
 21
-7.3308298719
  0
LINE
  5
2C2
100
AcDbEntity
  8
ASSI
100
AcDbLine
 62
7
  6
CONTINUOUS
 10
-19.9227335599
 20
-9.734992928
 11
-19.8166675428
 21
-9.81186373
  0
LINE
  5
2C3
100
AcDbEntity
  8
ASSI
100
AcDbLine
 62
7
  6
CONTINUOUS
 10
-19.5691801693
 20
-9.5582162327
 11
-19.4631141522
 21
-9.6350870347
  0
LINE
  5
2C4
100
AcDbEntity
  8
ASSI
100
AcDbLine
 62
7
  6
CONTINUOUS
 10
-19.2156267787
 20
-9.3814395374
 11
-19.1095607616
 21
-9.4583103394
  0
LINE
  5
2C5
100
AcDbEntity
  8
ASSI
100
AcDbLine
 62
7
  6
CONTINUOUS
 10
-18.8620733882
 20
-9.2046628421
 11
-18.756007371
 21
-9.2815336441
  0
LINE
  5
2C6
100
AcDbEntity
  8
ASSI
100
AcDbLine
 62
7
  6
CONTINUOUS
 10
-18.5085199976
 20
-9.0278861468
 11
-18.4024539804
 21
-9.1047569488
  0
LINE
  5
2C7
100
AcDbEntity
  8
RACCORDO
100
AcDbLine
 62
7
  6
CONTINUOUS
 10
-11.6339770326
 20
-14.4035882357
 11
-11.6339770326
 21
-14.8023451059
  0
LINE
  5
2C8
100
AcDbEntity
  8
DRAFT
100
AcDbLine
 62
7
  6
CONTINUOUS
 10
-18.7377198218
 20
-10.2618625366
 11
-18.68067617
 21
-10.0296486632
  0
LINE
  5
2C9
100
AcDbEntity
  8
ASSI
100
AcDbLine
 62
7
  6
CONTINUOUS
 10
-23.6950399957
 20
-7.8488397101
 11
-23.5996888221
 21
-7.6843832625
  0
LINE
  5
2CA
100
AcDbEntity
  8
ASSI
100
AcDbLine
 62
7
  6
CONTINUOUS
 10
-23.3414866051
 20
-7.6720630148
 11
-23.2461354315
 21
-7.5076065672
  0
LINE
  5
2CB
100
AcDbEntity
  8
ASSI
100
AcDbLine
 62
7
  6
CONTINUOUS
 10
-22.9879332145
 20
-7.4952863195
 11
-22.8925820409
 21
-7.3308298719
  0
LINE
  5
2CC
100
AcDbEntity
  8
ASSI
100
AcDbLine
 62
7
  6
CONTINUOUS
 10
-22.6343798239
 20
-7.3185096242
 11
-22.5390286503
 21
-7.1540531767
  0
LINE
  5
2CD
100
AcDbEntity
  8
ASSI
100
AcDbLine
 62
7
  6
CONTINUOUS
 10
-20.0869913799
 20
-9.8450906798
 11
-20.0641549162
 21
-9.8057036061
  0
LINE
  5
2CE
100
AcDbEntity
  8
ASSI
100
AcDbLine
 62
7
  6
CONTINUOUS
 10
-19.8166675428
 20
-9.81186373
 11
-19.7106015256
 21
-9.6289269108
  0
LINE
  5
2CF
100
AcDbEntity
  8
ASSI
100
AcDbLine
 62
7
  6
CONTINUOUS
 10
-19.4631141522
 20
-9.6350870347
 11
-19.357048135
 21
-9.4521502155
  0
LINE
  5
2D0
100
AcDbEntity
  8
ASSI
100
AcDbLine
 62
7
  6
CONTINUOUS
 10
-19.1095607616
 20
-9.4583103394
 11
-19.0034947444
 21
-9.2753735202
  0
LINE
  5
2D1
100
AcDbEntity
  8
ASSI
100
AcDbLine
 62
7
  6
CONTINUOUS
 10
-18.756007371
 20
-9.2815336441
 11
-18.6499413538
 21
-9.0985968249
  0
LINE
  5
2D2
100
AcDbEntity
  8
RACCORDO
100
AcDbLine
 62
7
  6
CONTINUOUS
 10
-35.2727050646
 20
-5.2992556753
 11
-34.0964456521
 21
-4.4416975975
  0
LINE
  5
2D3
100
AcDbEntity
  8
RACCORDO
100
AcDbLine
 62
7
  6
CONTINUOUS
 10
-35.1121018778
 20
-5.69125677
 11
-33.9264933358
 21
-4.8267995127
  0
LINE
  5
2D4
100
AcDbEntity
  8
RACCORDO
100
AcDbLine
 62
7
  6
CONTINUOUS
 10
-32.7665957143
 20
1.8698729003
 11
-32.1910362135
 21
2.1598717986
  0
LINE
  5
2D5
100
AcDbEntity
  8
RACCORDO
100
AcDbLine
 62
7
  6
CONTINUOUS
 10
-34.0365625486
 20
-4.404707038
 11
-33.7411169645
 21
-4.2558451153
  0
LINE
  5
2D6
100
AcDbEntity
  8
RACCORDO
100
AcDbLine
 62
7
  6
CONTINUOUS
 10
-32.7665957143
 20
-4.0830671613
 11
-32.1910362135
 21
-3.793068263
  0
LINE
  5
2D7
100
AcDbEntity
  8
RACCORDO
100
AcDbLine
 62
7
  6
CONTINUOUS
 10
-33.7925813585
 20
-4.7544612964
 11
-33.5290172389
 21
-4.6216630293
  0
LINE
  5
2D8
100
AcDbEntity
  8
RACCORDO
100
AcDbLine
 62
7
  6
CONTINUOUS
 10
-33.7389153464
 20
-4.2603606046
 11
-32.9592885233
 21
-3.8802377967
  0
LINE
  5
2D9
100
AcDbEntity
  8
RACCORDO
100
AcDbLine
 62
7
  6
CONTINUOUS
 10
-33.2794026844
 20
2.9618367258
 11
-32.3441184956
 21
3.3937819584
  0
LINE
  5
2DA
100
AcDbEntity
  8
ASSI
100
AcDbLine
 62
7
  6
CONTINUOUS
 10
28.8676343419
 20
-33.0695167071
 11
24.9785470454
 21
-31.1249730589
  0
LINE
  5
2DB
100
AcDbEntity
  8
ASSI
100
AcDbLine
 62
7
  6
CONTINUOUS
 10
-18.8620733882
 20
-9.2046628421
 11
-22.7511606847
 21
-7.2601191938
  0
LINE
  5
2DC
100
AcDbEntity
  8
ASSI
100
AcDbLine
 62
7
  6
CONTINUOUS
 10
28.886882982
 20
-32.8670089928
 11
25.1906790798
 21
-31.0189070417
  0
LINE
  5
2DD
100
AcDbEntity
  8
ASSI
100
AcDbLine
 62
7
  6
CONTINUOUS
 10
-18.6499413538
 20
-9.0985968249
 11
-22.5390286503
 21
-7.1540531767
  0
LINE
  5
2DE
100
AcDbEntity
  8
ASSI
100
AcDbLine
 62
7
  6
CONTINUOUS
 10
-6.5658269747
 20
-15.109672992
 11
-2.3083631292
 21
-17.2384049148
  0
LINE
  5
2DF
100
AcDbEntity
  8
ASSI
100
AcDbLine
 62
7
  6
CONTINUOUS
 10
9.344075602
 20
-23.0646242803
 11
13.6015394475
 21
-25.1933562031
  0
LINE
  5
2E0
100
AcDbEntity
  8
ASSI
100
AcDbLine
 62
7
  6
CONTINUOUS
 10
-6.4440234061
 20
-15.1201730593
 11
-2.2512812595
 21
-17.2165441326
  0
LINE
  5
2E1
100
AcDbEntity
  8
ASSI
100
AcDbLine
 62
7
  6
CONTINUOUS
 10
9.4658791705
 20
-23.0751243476
 11
13.6586213172
 21
-25.1714954209
  0
LINE
  5
2E2
100
AcDbEntity
  8
ASSI
100
AcDbLine
 62
7
  6
CONTINUOUS
 10
-22.4757295514
 20
-7.0681191633
 11
-22.4214450875
 21
-7.0952613952
  0
LINE
  5
2E3
100
AcDbEntity
  8
ASSI
100
AcDbLine
 62
7
  6
CONTINUOUS
 10
-18.4024539804
 20
-9.1047569488
 11
-18.2182657059
 21
-9.196851086
  0
LINE
  5
2E4
100
AcDbEntity
  8
ASSI
100
AcDbLine
 62
7
  6
CONTINUOUS
 10
25.2539781787
 20
-30.9329730283
 11
25.3082626426
 21
-30.9601152603
  0
LINE
  5
2E5
100
AcDbEntity
  8
ASSI
100
AcDbLine
 62
7
  6
CONTINUOUS
 10
28.886882982
 20
-32.7255876366
 11
25.332100436
 21
-30.9481963636
  0
LINE
  5
2E6
100
AcDbEntity
  8
ASSI
100
AcDbLine
 62
7
  6
CONTINUOUS
 10
-18.5085199976
 20
-9.0278861468
 11
-22.3976072941
 21
-7.0833424985
  0
LINE
  5
2E7
100
AcDbEntity
  8
ASSI
100
AcDbLine
 62
7
  6
CONTINUOUS
 10
-22.3539270291
 20
-7.0786187074
 11
-18.1611827899
 21
-9.174990827
  0
LINE
  5
2E8
100
AcDbEntity
  8
ASSI
100
AcDbLine
 62
7
  6
CONTINUOUS
 10
25.3757807009
 20
-30.9434725724
 11
28.886882982
 21
-32.699023713
  0
LINE
  5
2E9
100
AcDbEntity
  8
DRAFT
100
AcDbLine
 62
7
  6
CONTINUOUS
 10
-33.4953276314
 20
3.0015172857
 11
-32.9592885233
 21
2.7334977317
  0
LINE
  5
2EA
100
AcDbEntity
  8
RACCORDO
100
AcDbLine
 62
7
  6
CONTINUOUS
 10
-33.4103650655
 20
2.9718929163
 11
-33.4953276314
 21
3.0143741992
  0
LINE
  5
2EB
100
AcDbEntity
  8
RACCORDO
100
AcDbLine
 62
7
  6
CONTINUOUS
 10
-32.4031359391
 20
2.5256897125
 11
-33.2786081406
 21
2.9634258133
  0
LINE
  5
2EC
100
AcDbEntity
  8
RACCORDO
100
AcDbLine
 62
7
  6
CONTINUOUS
 10
-26.9938013718
 20
-6.9694643326
 11
-26.4281159468
 21
-6.6745283964
  0
LINE
  5
2ED
100
AcDbEntity
  8
RACCORDO
100
AcDbLine
 62
7
  6
CONTINUOUS
 10
-26.6770277716
 20
-7.2808197364
 11
-26.2159839125
 21
-7.0404416107
  0
LINE
  5
2EE
100
AcDbEntity
  8
RACCORDO
100
AcDbLine
 62
7
  6
CONTINUOUS
 10
-31.8375591581
 20
-3.6177732174
 11
-32.1910039048
 21
-3.7930844174
  0
LINE
  5
2EF
100
AcDbEntity
  8
RACCORDO
100
AcDbLine
 62
7
  6
CONTINUOUS
 10
-31.6254594325
 20
-3.9835911314
 11
-31.7180948132
 21
-4.0295389632
  0
LINE
  5
2F0
100
AcDbEntity
  8
RACCORDO
100
AcDbLine
 62
7
  6
CONTINUOUS
 10
-33.5270408221
 20
-4.6257166338
 11
-32.7474472085
 21
-4.245610018
  0
LINE
  5
2F1
100
AcDbEntity
  8
RACCORDO
100
AcDbLine
 62
7
  6
CONTINUOUS
 10
-33.4103650655
 20
8.9463948708
 11
-33.4405058541
 21
8.9614652651
  0
LINE
  5
2F2
100
AcDbEntity
  8
RACCORDO
100
AcDbLine
 62
7
  6
CONTINUOUS
 10
-32.9592885233
 20
9.6597469038
 11
-32.4750808767
 21
9.4176430805
  0
LINE
  5
2F3
100
AcDbEntity
  8
ASSI
100
AcDbLine
 62
7
  6
CONTINUOUS
 10
27.8069741702
 20
-33.599846793
 11
27.9130401873
 21
-33.676717595
  0
LINE
  5
2F4
100
AcDbEntity
  8
ASSI
100
AcDbLine
 62
7
  6
CONTINUOUS
 10
28.1605275608
 20
-33.4230700977
 11
28.2665935779
 21
-33.4999408997
  0
LINE
  5
2F5
100
AcDbEntity
  8
ASSI
100
AcDbLine
 62
7
  6
CONTINUOUS
 10
28.5140809513
 20
-33.2462934024
 11
28.6201469685
 21
-33.3231642044
  0
LINE
  5
2F6
100
AcDbEntity
  8
ASSI
100
AcDbLine
 62
7
  6
CONTINUOUS
 10
28.8676343419
 20
-33.0695167071
 11
28.886882982
 21
-33.0834670603
  0
LINE
  5
2F7
100
AcDbEntity
  8
0
100
AcDbLine
 62
7
  6
CONTINUOUS
 10
-4.214105393
 20
-22.5012970155
 11
-3.8505132074
 21
-23.8705395106
  0
LINE
  5
2F8
100
AcDbEntity
  8
0
100
AcDbLine
 62
7
  6
CONTINUOUS
 10
-3.8270867597
 20
-23.0733893374
 11
-4.1337490712
 21
-21.9104215172
  0
LINE
  5
2F9
100
AcDbEntity
  8
0
100
AcDbLine
 62
7
  6
CONTINUOUS
 10
-3.7344092681
 20
-22.8178253408
 11
-3.992327715
 21
-21.8397108391
  0
LINE
  5
2FA
100
AcDbEntity
  8
0
100
AcDbLine
 62
7
  6
CONTINUOUS
 10
-6.3904153096
 20
-20.782088398
 11
-5.9197049319
 21
-22.8359436483
  0
LINE
  5
2FB
100
AcDbEntity
  8
0
100
AcDbLine
 62
7
  6
CONTINUOUS
 10
-1.8018593993
 20
-24.8948664146
 11
-2.2574327421
 21
-22.8485796818
  0
LINE
  5
2FC
100
AcDbEntity
  8
0
100
AcDbLine
 62
7
  6
CONTINUOUS
 10
-1.7108470661
 20
-24.5977348614
 11
-2.1160113858
 21
-22.7778690037
  0
LINE
  5
2FD
100
AcDbEntity
  8
0
100
AcDbLine
 62
7
  6
CONTINUOUS
 10
-5.7706991484
 20
-22.3436762146
 11
-6.0537292441
 21
-20.9504314307
  0
LINE
  5
2FE
100
AcDbEntity
  8
0
100
AcDbLine
 62
7
  6
CONTINUOUS
 10
-5.6826958103
 20
-22.0100098426
 11
-5.9123078879
 21
-20.8797207526
  0
LINE
  5
2FF
100
AcDbEntity
  8
0
100
AcDbLine
 62
7
  6
CONTINUOUS
 10
-2.2088085443
 20
-24.3283548589
 11
-2.1285186906
 21
-24.731536769
  0
LINE
  5
300
100
AcDbEntity
  8
0
100
AcDbLine
 62
7
  6
CONTINUOUS
 10
-2.413168768
 20
-23.2703892742
 11
-2.270748977
 21
-24.0164676522
  0
LINE
  5
301
100
AcDbEntity
  8
0
100
AcDbLine
 62
7
  6
CONTINUOUS
 10
-3.0716541798
 20
-24.2599690244
 11
-3.210499546
 21
-22.3720462798
  0
LINE
  5
302
100
AcDbEntity
  8
0
100
AcDbLine
 62
7
  6
CONTINUOUS
 10
-2.9432164483
 20
-24.0127160448
 11
-3.0690781898
 21
-22.3013356017
  0
LINE
  5
303
100
AcDbEntity
  8
0
100
AcDbLine
 62
7
  6
CONTINUOUS
 10
-3.4385308764
 20
-22.894034475
 11
-3.3748537894
 21
-24.1083692196
  0
LINE
  5
304
100
AcDbEntity
  8
0
100
AcDbLine
 62
7
  6
CONTINUOUS
 10
-5.0542818922
 20
-21.4500459875
 11
-5.0542818922
 21
-23.2686551682
  0
LINE
  5
305
100
AcDbEntity
  8
0
100
AcDbLine
 62
7
  6
CONTINUOUS
 10
-4.7443456763
 20
-23.4236232761
 11
-4.7443456763
 21
-21.6050140955
  0
LINE
  5
306
100
AcDbEntity
  8
0
100
AcDbLine
 62
7
  6
CONTINUOUS
 10
-4.6029243201
 20
-23.352912598
 11
-4.6029243201
 21
-21.5343034174
  0
LINE
  5
307
100
AcDbEntity
  8
DRAFT
100
AcDbLine
 62
7
  6
CONTINUOUS
 10
-3.6239222536
 20
-19.2051370338
 11
-3.6239222536
 21
-18.8073724954
  0
LINE
  5
308
100
AcDbEntity
  8
RACCORDO
100
AcDbLine
 62
7
  6
CONTINUOUS
 10
-3.2753710872
 20
-18.0226526327
 11
-3.2753710872
 21
-18.3335674326
  0
LINE
  5
309
100
AcDbEntity
  8
RACCORDO
100
AcDbLine
 62
7
  6
CONTINUOUS
 10
-3.218172077
 20
-18.9720483071
 11
-3.218172077
 21
-18.5392683825
  0
LINE
  5
30A
100
AcDbEntity
  8
RACCORDO
100
AcDbLine
 62
7
  6
CONTINUOUS
 10
-3.1911730273
 20
-17.9184538772
 11
-3.1911730273
 21
-18.9574817004
  0
LINE
  5
30B
100
AcDbEntity
  8
ASSI
100
AcDbLine
 62
7
  6
CONTINUOUS
 10
-2.3013495993
 20
-17.2347476293
 11
-2.3013495993
 21
-17.6602712238
  0
LINE
  5
30C
100
AcDbEntity
  8
ASSI
100
AcDbLine
 62
7
  6
CONTINUOUS
 10
-2.2499785644
 20
-17.2189888016
 11
-2.2499785644
 21
-17.642937431
  0
LINE
  5
30D
100
AcDbEntity
  8
0
100
AcDbLine
 62
7
  6
CONTINUOUS
 10
-1.7108470661
 20
-23.1431185804
 11
-1.7108470661
 21
-24.9403729257
  0
LINE
  5
30E
100
AcDbEntity
  8
0
100
AcDbLine
 62
7
  6
CONTINUOUS
 10
-1.4124352765
 20
-24.0800917578
 11
-1.4124352765
 21
-23.5808779252
  0
LINE
  5
30F
100
AcDbEntity
  8
0
100
AcDbLine
 62
7
  6
CONTINUOUS
 10
-1.4021582689
 20
-25.0947173243
 11
-1.4021582689
 21
-24.3830566959
  0
LINE
  5
310
100
AcDbEntity
  8
0
100
AcDbLine
 62
7
  6
CONTINUOUS
 10
-1.2710139203
 20
-24.0093810797
 11
-1.2710139203
 21
-23.6346022625
  0
LINE
  5
311
100
AcDbEntity
  8
0
100
AcDbLine
 62
7
  6
CONTINUOUS
 10
-1.2607369127
 20
-25.0240066461
 11
-1.2607369127
 21
-24.453767374
  0
LINE
  5
312
100
AcDbEntity
  8
0
100
AcDbLine
 62
7
  6
CONTINUOUS
 10
-0.9140171076
 20
-24.4899280204
 11
-0.9140171076
 21
-24.4791822681
  0
LINE
  5
313
100
AcDbEntity
  8
0
100
AcDbLine
 62
7
  6
CONTINUOUS
 10
-4.2809899163
 20
-23.6553011561
 11
-4.214105393
 21
-22.5012970155
  0
LINE
  5
314
100
AcDbEntity
  8
0
100
AcDbLine
 62
7
  6
CONTINUOUS
 10
-4.1395685601
 20
-23.584590478
 11
-4.1013852041
 21
-22.9257870863
  0
LINE
  5
315
100
AcDbEntity
  8
0
100
AcDbLine
 62
7
  6
CONTINUOUS
 10
-4.4434286074
 20
-21.7555817491
 11
-4.5774974673
 21
-23.5070473806
  0
LINE
  5
316
100
AcDbEntity
  8
0
100
AcDbLine
 62
7
  6
CONTINUOUS
 10
-5.4790239651
 20
-21.2377840703
 11
-5.7706991484
 21
-22.3436762146
  0
LINE
  5
317
100
AcDbEntity
  8
ASSI
100
AcDbLine
 62
7
  6
CONTINUOUS
 10
-18.4731646585
 20
-9.9239094678
 11
-18.2184597849
 21
-9.739313417
  0
LINE
  5
318
100
AcDbEntity
  8
ASSI
100
AcDbLine
 62
7
  6
CONTINUOUS
 10
-18.2182657059
 20
-9.196851086
 11
-19.7179274578
 21
-10.0296226409
  0
LINE
  5
319
100
AcDbEntity
  8
RACCORDO
100
AcDbLine
 62
7
  6
CONTINUOUS
 10
-21.8970845184
 20
-9.0003423458
 11
-22.4627699433
 21
-9.295278282
  0
LINE
  5
31A
100
AcDbEntity
  8
RACCORDO
100
AcDbLine
 62
7
  6
CONTINUOUS
 10
-21.761211191
 20
-9.0079807743
 11
-22.326896616
 21
-9.3029167105
  0
LINE
  5
31B
100
AcDbEntity
  8
ASSI
100
AcDbLine
 62
7
  6
CONTINUOUS
 10
-18.4731646585
 20
-9.9239094678
 11
-19.1943658354
 21
-10.2914034521
  0
LINE
  5
31C
100
AcDbEntity
  8
DRAFT
100
AcDbLine
 62
7
  6
CONTINUOUS
 10
-18.9950066781
 20
-10.3910830307
 11
-18.7377198218
 21
-10.2618625366
  0
LINE
  5
31D
100
AcDbEntity
  8
ASSI
100
AcDbLine
 62
7
  6
CONTINUOUS
 10
-24.6603489939
 20
-8.2147133484
 11
-24.5189276376
 21
-8.1440026703
  0
LINE
  5
31E
100
AcDbEntity
  8
ASSI
100
AcDbLine
 62
7
  6
CONTINUOUS
 10
-24.3067956033
 20
-8.0379366531
 11
-24.1653742471
 21
-7.967225975
  0
LINE
  5
31F
100
AcDbEntity
  8
ASSI
100
AcDbLine
 62
7
  6
CONTINUOUS
 10
-23.9532422127
 20
-7.8611599578
 11
-23.8118208565
 21
-7.7904492797
  0
LINE
  5
320
100
AcDbEntity
  8
ASSI
100
AcDbLine
 62
7
  6
CONTINUOUS
 10
-23.5996888221
 20
-7.6843832625
 11
-23.4582674659
 21
-7.6136725844
  0
LINE
  5
321
100
AcDbEntity
  8
ASSI
100
AcDbLine
 62
7
  6
CONTINUOUS
 10
-23.2461354315
 20
-7.5076065672
 11
-23.1047140753
 21
-7.4368958891
  0
LINE
  5
322
100
AcDbEntity
  8
ASSI
100
AcDbLine
 62
7
  6
CONTINUOUS
 10
-22.8925820409
 20
-7.3308298719
 11
-22.7511606847
 21
-7.2601191938
  0
LINE
  5
323
100
AcDbEntity
  8
ASSI
100
AcDbLine
 62
7
  6
CONTINUOUS
 10
-22.5390286503
 20
-7.1540531767
 11
-22.3976072941
 21
-7.0833424985
  0
LINE
  5
324
100
AcDbEntity
  8
ASSI
100
AcDbLine
 62
7
  6
CONTINUOUS
 10
-20.0641549162
 20
-9.8057036061
 11
-19.9227335599
 21
-9.734992928
  0
LINE
  5
325
100
AcDbEntity
  8
ASSI
100
AcDbLine
 62
7
  6
CONTINUOUS
 10
-19.7106015256
 20
-9.6289269108
 11
-19.5691801693
 21
-9.5582162327
  0
LINE
  5
326
100
AcDbEntity
  8
ASSI
100
AcDbLine
 62
7
  6
CONTINUOUS
 10
-19.357048135
 20
-9.4521502155
 11
-19.2156267787
 21
-9.3814395374
  0
LINE
  5
327
100
AcDbEntity
  8
ASSI
100
AcDbLine
 62
7
  6
CONTINUOUS
 10
-19.0034947444
 20
-9.2753735202
 11
-18.8620733882
 21
-9.2046628421
  0
LINE
  5
328
100
AcDbEntity
  8
ASSI
100
AcDbLine
 62
7
  6
CONTINUOUS
 10
-18.6499413538
 20
-9.0985968249
 11
-18.5085199976
 21
-9.0278861468
  0
LINE
  5
329
100
AcDbEntity
  8
ASSI
100
AcDbLine
 62
7
  6
CONTINUOUS
 10
-18.4024539804
 20
-9.1047569488
 11
-19.9850564112
 21
-9.8960581642
  0
LINE
  5
32A
100
AcDbEntity
  8
ASSI
100
AcDbLine
 62
7
  6
CONTINUOUS
 10
-18.211252176
 20
-9.7053199355
 11
-19.2908311353
 21
-10.2431708021
  0
LINE
  5
32B
100
AcDbEntity
  8
ASSI
100
AcDbLine
 62
7
  6
CONTINUOUS
 10
-22.4757295514
 20
-7.0681191633
 11
-24.9103167543
 21
-8.1641752451
  0
LINE
  5
32C
100
AcDbEntity
  8
RACCORDO
100
AcDbLine
 62
7
  6
CONTINUOUS
 10
2.1546052005
 20
-21.2978793523
 11
2.1546052005
 21
-21.6966362225
  0
LINE
  5
32D
100
AcDbEntity
  8
RACCORDO
100
AcDbLine
 62
7
  6
CONTINUOUS
 10
5.6038212409
 20
-22.9503441874
 11
5.6038212409
 21
-23.4212442427
  0
LINE
  5
32E
100
AcDbEntity
  8
RACCORDO
100
AcDbLine
 62
7
  6
CONTINUOUS
 10
5.7755957119
 20
-22.5481360323
 11
5.7755957119
 21
-23.5071314782
  0
LINE
  5
32F
100
AcDbEntity
  8
RACCORDO
100
AcDbLine
 62
7
  6
CONTINUOUS
 10
5.8597937718
 20
-22.4439372768
 11
5.8597937718
 21
-23.5492305081
  0
LINE
  5
330
100
AcDbEntity
  8
ASSI
100
AcDbLine
 62
7
  6
CONTINUOUS
 10
-2.8533330181
 20
-18.3206836907
 11
-2.7707735933
 21
-17.9845999515
  0
LINE
  5
331
100
AcDbEntity
  8
0
100
AcDbLine
 62
7
  6
CONTINUOUS
 10
-2.5674905804
 20
-23.8680968505
 11
-2.413168768
 21
-23.2703892742
  0
LINE
  5
332
100
AcDbEntity
  8
0
100
AcDbLine
 62
7
  6
CONTINUOUS
 10
-2.4260692241
 20
-23.7973861724
 11
-2.3608150621
 21
-23.5446486854
  0
LINE
  5
333
100
AcDbEntity
  8
0
100
AcDbLine
 62
7
  6
CONTINUOUS
 10
-2.7164129253
 20
-24.4375896516
 11
-2.6308897744
 21
-24.1173142439
  0
LINE
  5
334
100
AcDbEntity
  8
0
100
AcDbLine
 62
7
  6
CONTINUOUS
 10
-2.5749915691
 20
-24.3668789735
 11
-2.5227840321
 21
-24.171367115
  0
LINE
  5
335
100
AcDbEntity
  8
0
100
AcDbLine
 62
7
  6
CONTINUOUS
 10
-2.5572580381
 20
-22.6986670338
 11
-3.0229861414
 21
-24.2843030436
  0
LINE
  5
336
100
AcDbEntity
  8
0
100
AcDbLine
 62
7
  6
CONTINUOUS
 10
-5.646573624
 20
-22.9725093023
 11
-5.1692991741
 21
-21.3926464658
  0
LINE
  5
337
100
AcDbEntity
  8
0
100
AcDbLine
 62
7
  6
CONTINUOUS
 10
-5.5051522678
 20
-22.9017986242
 11
-5.0278778179
 21
-21.3219357876
  0
LINE
  5
338
100
AcDbEntity
  8
0
100
AcDbLine
 62
7
  6
CONTINUOUS
 10
-3.5171505438
 20
-22.2187207809
 11
-3.8270867597
 21
-23.0733893374
  0
LINE
  5
339
100
AcDbEntity
  8
0
100
AcDbLine
 62
7
  6
CONTINUOUS
 10
-3.8070452322
 20
-23.8922734982
 11
-3.4385308764
 21
-22.894034475
  0
LINE
  5
33A
100
AcDbEntity
  8
0
100
AcDbLine
 62
7
  6
CONTINUOUS
 10
-3.665623876
 20
-23.82156282
 11
-3.4241879759
 21
-23.1675564475
  0
LINE
  5
33B
100
AcDbEntity
  8
RACCORDO
100
AcDbLine
 62
7
  6
CONTINUOUS
 10
-16.4694220578
 20
-11.7878541131
 11
-17.3726155001
 21
-12.275147696
  0
LINE
  5
33C
100
AcDbEntity
  8
RACCORDO
100
AcDbLine
 62
7
  6
CONTINUOUS
 10
-16.332128472
 20
-11.7947444649
 11
-17.2353219144
 21
-12.2820380478
  0
LINE
  5
33D
100
AcDbEntity
  8
RACCORDO
100
AcDbLine
 62
7
  6
CONTINUOUS
 10
-17.7944135366
 20
-11.5691582502
 11
-17.2188540358
 21
-11.2791593519
  0
LINE
  5
33E
100
AcDbEntity
  8
RACCORDO
100
AcDbLine
 62
7
  6
CONTINUOUS
 10
-17.4759245617
 20
-11.8813713413
 11
-17.0067543102
 21
-11.6449772659
  0
LINE
  5
33F
100
AcDbEntity
  8
DRAFT
100
AcDbLine
 62
7
  6
CONTINUOUS
 10
-18.9241470119
 20
-10.4265128638
 11
-18.8170187932
 21
-10.3726527953
  0
LINE
  5
340
100
AcDbEntity
  8
RACCORDO
100
AcDbLine
 62
7
  6
CONTINUOUS
 10
47.5706087043
 20
20.7175061556
 11
50.36368049
 21
22.1140420484
  0
LINE
  5
341
100
AcDbEntity
  8
RACCORDO
100
AcDbLine
 62
7
  6
CONTINUOUS
 10
48.2777154855
 20
19.4979273612
 11
51.0707872712
 21
20.894463254
  0
LINE
  5
342
100
AcDbEntity
  8
DRAFT
100
AcDbLine
 62
7
  6
CONTINUOUS
 10
-17.4125044867
 20
-11.9130813789
 11
-17.9781899117
 21
-12.1596149168
  0
LINE
  5
343
100
AcDbEntity
  8
RACCORDO
100
AcDbLine
 62
7
  6
CONTINUOUS
 10
-28.9559106021
 20
20.6291573713
 11
-28.9559436154
 21
20.6291738678
  0
LINE
  5
344
100
AcDbEntity
  8
RACCORDO
100
AcDbLine
 62
7
  6
CONTINUOUS
 10
-32.1910362135
 20
19.9347826934
 11
-31.7836405156
 21
19.7310848445
  0
LINE
  5
345
100
AcDbEntity
  8
DRAFT
100
AcDbLine
 62
7
  6
CONTINUOUS
 10
-33.4953276314
 20
22.054076169
 11
-32.9592885233
 21
21.786056615
  0
LINE
  5
346
100
AcDbEntity
  8
RACCORDO
100
AcDbLine
 62
7
  6
CONTINUOUS
 10
-33.4103650655
 20
22.0244517996
 11
-33.4953276314
 21
22.0669330825
  0
LINE
  5
347
100
AcDbEntity
  8
RACCORDO
100
AcDbLine
 62
7
  6
CONTINUOUS
 10
-32.4031359391
 20
21.5782485958
 11
-33.2786081406
 21
22.0159846966
  0
LINE
  5
348
100
AcDbEntity
  8
RACCORDO
100
AcDbLine
 62
7
  6
CONTINUOUS
 10
-29.442291013
 20
20.8123976344
 11
-29.0646247727
 21
20.6235645143
  0
LINE
  5
349
100
AcDbEntity
  8
RACCORDO
100
AcDbLine
 62
7
  6
CONTINUOUS
 10
-29.3335727929
 20
20.8179884668
 11
-28.9559065525
 21
20.6291553467
  0
LINE
  5
34A
100
AcDbEntity
  8
DRAFT
100
AcDbLine
 62
7
  6
CONTINUOUS
 10
10.1646599796
 20
-26.0994281503
 11
10.1646599796
 21
-25.701663612
  0
LINE
  5
34B
100
AcDbEntity
  8
RACCORDO
100
AcDbLine
 62
7
  6
CONTINUOUS
 10
-5.9871819417
 20
-16.9552936341
 11
-6.5528673666
 21
-17.2502295703
  0
LINE
  5
34C
100
AcDbEntity
  8
RACCORDO
100
AcDbLine
 62
7
  6
CONTINUOUS
 10
-5.8513086143
 20
-16.9629320626
 11
-6.4169940393
 21
-17.2578679988
  0
LINE
  5
34D
100
AcDbEntity
  8
RACCORDO
100
AcDbLine
 62
7
  6
CONTINUOUS
 10
-11.8460767583
 20
-14.0377703218
 11
-12.781360947
 21
-14.5090185315
  0
LINE
  5
34E
100
AcDbEntity
  8
RACCORDO
100
AcDbLine
 62
7
  6
CONTINUOUS
 10
-11.6339770326
 20
-14.4035882357
 11
-12.0312023466
 21
-14.6037324489
  0
LINE
  5
34F
100
AcDbEntity
  8
RACCORDO
100
AcDbLine
 62
7
  6
CONTINUOUS
 10
30.6027047474
 20
4.306863034
 11
32.0093978674
 21
5.0156332906
  0
LINE
  5
350
100
AcDbEntity
  8
RACCORDO
100
AcDbLine
 62
7
  6
CONTINUOUS
 10
31.0976041071
 20
3.4532879014
 11
32.5042972271
 21
4.1620581579
  0
LINE
  5
351
100
AcDbEntity
  8
ASSI
100
AcDbLine
 62
7
  6
CONTINUOUS
 10
-6.5658269747
 20
-15.109672992
 11
-8.9092729904
 21
-16.164697127
  0
LINE
  5
352
100
AcDbEntity
  8
DRAFT
100
AcDbLine
 62
7
  6
CONTINUOUS
 10
-12.1092036278
 20
-14.5647318083
 11
-12.6748890528
 21
-14.8112653462
  0
LINE
  5
353
100
AcDbEntity
  8
RACCORDO
100
AcDbLine
 62
7
  6
CONTINUOUS
 10
-33.4103650655
 20
27.9989537541
 11
-33.4405058541
 21
28.0140241484
  0
LINE
  5
354
100
AcDbEntity
  8
RACCORDO
100
AcDbLine
 62
7
  6
CONTINUOUS
 10
-32.9592885233
 20
28.7123057871
 11
-32.4750808767
 21
28.4702019638
  0
LINE
  5
355
100
AcDbEntity
  8
ASSI
100
AcDbLine
 62
7
  6
CONTINUOUS
 10
13.6085529774
 20
-25.1896989177
 11
13.6085529774
 21
-25.6152225122
  0
LINE
  5
356
100
AcDbEntity
  8
ASSI
100
AcDbLine
 62
7
  6
CONTINUOUS
 10
13.6599240123
 20
-25.1739400899
 11
13.6599240123
 21
-25.5978887194
  0
LINE
  5
357
100
AcDbEntity
  8
RACCORDO
100
AcDbLine
 62
7
  6
CONTINUOUS
 10
15.9431874336
 20
-28.1921704689
 11
15.9431874336
 21
-28.590927339
  0
LINE
  5
358
100
AcDbEntity
  8
ASSI
100
AcDbLine
 62
7
  6
CONTINUOUS
 10
-2.5632620818
 20
-17.8788607562
 11
-2.3085572082
 21
-17.6942647053
  0
LINE
  5
359
100
AcDbEntity
  8
ASSI
100
AcDbLine
 62
7
  6
CONTINUOUS
 10
-2.3083631292
 20
-17.2384049148
 11
-3.2396061542
 21
-17.7555299938
  0
LINE
  5
35A
100
AcDbEntity
  8
RACCORDO
100
AcDbLine
 62
7
  6
CONTINUOUS
 10
-2.6808398247
 20
-18.6821452297
 11
-3.584033267
 21
-19.1694388126
  0
LINE
  5
35B
100
AcDbEntity
  8
RACCORDO
100
AcDbLine
 62
7
  6
CONTINUOUS
 10
-2.5435462389
 20
-18.6890355814
 11
-3.4467396812
 21
-19.1763291644
  0
LINE
  5
35C
100
AcDbEntity
  8
ASSI
100
AcDbLine
 62
7
  6
CONTINUOUS
 10
-2.5632620818
 20
-17.8788607562
 11
-3.1911730273
 21
-18.1988179367
  0
LINE
  5
35D
100
AcDbEntity
  8
RACCORDO
100
AcDbLine
 62
7
  6
CONTINUOUS
 10
-4.0058313034
 20
-18.4634493668
 11
-3.4302718027
 21
-18.1734504685
  0
LINE
  5
35E
100
AcDbEntity
  8
RACCORDO
100
AcDbLine
 62
7
  6
CONTINUOUS
 10
-3.6873423286
 20
-18.7756624579
 11
-3.218172077
 21
-18.5392683825
  0
LINE
  5
35F
100
AcDbEntity
  8
ASSI
100
AcDbLine
 62
7
  6
CONTINUOUS
 10
-2.9238507282
 20
-18.4192054649
 11
-3.1911730273
 21
-18.5536051359
  0
LINE
  5
360
100
AcDbEntity
  8
ASSI
100
AcDbLine
 62
7
  6
CONTINUOUS
 10
-2.8533330181
 20
-18.3206836907
 11
-3.1911730273
 21
-18.4903614331
  0
LINE
  5
361
100
AcDbEntity
  8
0
100
AcDbLine
 62
7
  6
CONTINUOUS
 10
-6.2489939533
 20
-20.7113777199
 11
-6.3904153096
 21
-20.782088398
  0
LINE
  5
362
100
AcDbEntity
  8
0
100
AcDbLine
 62
7
  6
CONTINUOUS
 10
-5.9123078879
 20
-20.8797207526
 11
-6.0537292441
 21
-20.9504314307
  0
LINE
  5
363
100
AcDbEntity
  8
0
100
AcDbLine
 62
7
  6
CONTINUOUS
 10
-5.3376026089
 20
-21.1670733922
 11
-5.4790239651
 21
-21.2377840703
  0
LINE
  5
364
100
AcDbEntity
  8
0
100
AcDbLine
 62
7
  6
CONTINUOUS
 10
-5.0278778179
 20
-21.3219357876
 11
-5.1692991741
 21
-21.3926464658
  0
LINE
  5
365
100
AcDbEntity
  8
0
100
AcDbLine
 62
7
  6
CONTINUOUS
 10
-4.912860536
 20
-21.3793353094
 11
-5.0542818922
 21
-21.4500459875
  0
LINE
  5
366
100
AcDbEntity
  8
0
100
AcDbLine
 62
7
  6
CONTINUOUS
 10
-4.6029243201
 20
-21.5343034174
 11
-4.7443456763
 21
-21.6050140955
  0
LINE
  5
367
100
AcDbEntity
  8
0
100
AcDbLine
 62
7
  6
CONTINUOUS
 10
-4.3020072511
 20
-21.684871071
 11
-4.4434286074
 21
-21.7555817491
  0
LINE
  5
368
100
AcDbEntity
  8
0
100
AcDbLine
 62
7
  6
CONTINUOUS
 10
-3.992327715
 20
-21.8397108391
 11
-4.1337490712
 21
-21.9104215172
  0
LINE
  5
369
100
AcDbEntity
  8
0
100
AcDbLine
 62
7
  6
CONTINUOUS
 10
-5.5051522678
 20
-22.9017986242
 11
-5.646573624
 21
-22.9725093023
  0
LINE
  5
36A
100
AcDbEntity
  8
0
100
AcDbLine
 62
7
  6
CONTINUOUS
 10
-3.3757291876
 20
-22.1480101028
 11
-3.5171505438
 21
-22.2187207809
  0
LINE
  5
36B
100
AcDbEntity
  8
ASSI
100
AcDbLine
 62
7
  6
CONTINUOUS
 10
-2.3013495993
 20
-17.6602712238
 11
-3.1911730273
 21
-18.1035850712
  0
LINE
  5
36C
100
AcDbEntity
  8
RACCORDO
100
AcDbLine
 62
7
  6
CONTINUOUS
 10
-3.4874708129
 20
-17.6568347188
 11
-3.9774433354
 21
-17.8998647021
  0
LINE
  5
36D
100
AcDbEntity
  8
RACCORDO
100
AcDbLine
 62
7
  6
CONTINUOUS
 10
-3.2753710872
 20
-18.0226526327
 11
-3.5045342439
 21
-18.1363192478
  0
LINE
  5
36E
100
AcDbEntity
  8
RACCORDO
100
AcDbLine
 62
7
  6
CONTINUOUS
 10
-5.155247299
 20
-16.8769512776
 11
-5.6064809124
 21
-17.0853459136
  0
LINE
  5
36F
100
AcDbEntity
  8
RACCORDO
100
AcDbLine
 62
7
  6
CONTINUOUS
 10
-5.0257614715
 20
-16.8876893894
 11
-5.5331428715
 21
-17.122014934
  0
LINE
  5
370
100
AcDbEntity
  8
DRAFT
100
AcDbLine
 62
7
  6
CONTINUOUS
 10
-3.6239222536
 20
-18.8073724954
 11
-4.1896076785
 21
-19.0539060333
  0
LINE
  5
371
100
AcDbEntity
  8
RACCORDO
100
AcDbLine
 62
7
  6
CONTINUOUS
 10
-35.1737193024
 20
34.4124480256
 11
28.6474961506
 21
2.5018402991
  0
LINE
  5
372
100
AcDbEntity
  8
RACCORDO
100
AcDbLine
 62
7
  6
CONTINUOUS
 10
-35.2516872581
 20
34.5747101657
 11
28.5695281759
 21
2.6641024487
  0
LINE
  5
373
100
AcDbEntity
  8
RACCORDO
100
AcDbLine
 62
7
  6
CONTINUOUS
 10
30.3942749275
 20
3.9428800729
 11
-37.0764340097
 21
37.6782345415
  0
LINE
  5
374
100
AcDbEntity
  8
RACCORDO
100
AcDbLine
 62
7
  6
CONTINUOUS
 10
30.6027047474
 20
4.306863034
 11
-36.8680041898
 21
38.0422175026
  0
LWPOLYLINE
  5
375
100
AcDbEntity
  8
RACCORDO
100
AcDbPolyline
 62
7
  6
CONTINUOUS
 90
24
 70
0
 10
28.6475032155
 20
2.5018368798
 10
28.649991303
 20
2.5005670306
 10
28.6612422173
 20
2.4942212396
 10
28.6739575508
 20
2.485949792
 10
28.6877820218
 20
2.4757199041
 10
28.7024958634
 20
2.4634628289
 10
28.717854281
 20
2.4491679378
 10
28.7334997322
 20
2.4329862302
 10
28.7491724162
 20
2.4150473184
 10
28.7646847004
 20
2.3954467651
 10
28.7798458139
 20
2.3743163354
 10
28.794460372
 20
2.3518399477
 10
28.8083652388
 20
2.3282021129
 10
28.8214505391
 20
2.3035262942
 10
28.8335719085
 20
2.2780326564
 10
28.8446119123
 20
2.2519444925
 10
28.8545105713
 20
2.2253843744
 10
28.8631778546
 20
2.1985780441
 10
28.870540274
 20
2.1717702709
 10
28.8765627577
 20
2.145138472
 10
28.8812135668
 20
2.1189030188
 10
28.8844725661
 20
2.0933314475
 10
28.8863448665
 20
2.0687331711
 10
28.886882216
 20
2.0475197524
  0
LINE
  5
376
100
AcDbEntity
  8
RACCORDO
100
AcDbLine
 62
7
  6
CONTINUOUS
 10
21.5137238176
 20
-30.9052954757
 11
21.5137238176
 21
-31.376195531
  0
LINE
  5
377
100
AcDbEntity
  8
ASSI
100
AcDbLine
 62
7
  6
CONTINUOUS
 10
13.0565695586
 20
-26.2756349791
 11
13.1391289834
 21
-25.9395512399
  0
LINE
  5
378
100
AcDbEntity
  8
RACCORDO
100
AcDbLine
 62
7
  6
CONTINUOUS
 10
2.2775474601
 20
-21.6668951895
 11
2.8333588092
 21
-21.3670222154
  0
LINE
  5
379
100
AcDbEntity
  8
RACCORDO
100
AcDbLine
 62
7
  6
CONTINUOUS
 10
2.4148410458
 20
-21.6737855413
 11
2.9706523949
 21
-21.3739125672
  0
LINE
  5
37A
100
AcDbEntity
  8
RACCORDO
100
AcDbLine
 62
7
  6
CONTINUOUS
 10
4.8260037816
 20
-22.8793669093
 11
5.3916892065
 21
-22.5844309731
  0
LINE
  5
37B
100
AcDbEntity
  8
RACCORDO
100
AcDbLine
 62
7
  6
CONTINUOUS
 10
5.1427773818
 20
-23.1907223131
 11
5.6038212409
 21
-22.9503441874
  0
LINE
  5
37C
100
AcDbEntity
  8
RACCORDO
100
AcDbLine
 62
7
  6
CONTINUOUS
 10
1.9425054749
 20
-20.9320614383
 11
1.0072212861
 21
-21.403309648
  0
LINE
  5
37D
100
AcDbEntity
  8
RACCORDO
100
AcDbLine
 62
7
  6
CONTINUOUS
 10
2.1546052005
 20
-21.2978793523
 11
1.7573798865
 21
-21.4980235655
  0
LINE
  5
37E
100
AcDbEntity
  8
0
100
AcDbLine
 62
7
  6
CONTINUOUS
 10
-3.0690781898
 20
-22.3013356017
 11
-3.210499546
 21
-22.3720462798
  0
LINE
  5
37F
100
AcDbEntity
  8
0
100
AcDbLine
 62
7
  6
CONTINUOUS
 10
-4.6029243201
 20
-23.352912598
 11
-4.7443456763
 21
-23.4236232761
  0
LINE
  5
380
100
AcDbEntity
  8
0
100
AcDbLine
 62
7
  6
CONTINUOUS
 10
-2.4158366819
 20
-22.6279563556
 11
-2.5572580381
 21
-22.6986670338
  0
LINE
  5
381
100
AcDbEntity
  8
0
100
AcDbLine
 62
7
  6
CONTINUOUS
 10
-4.1395685601
 20
-23.584590478
 11
-4.2809899163
 21
-23.6553011561
  0
LINE
  5
382
100
AcDbEntity
  8
0
100
AcDbLine
 62
7
  6
CONTINUOUS
 10
-2.1160113858
 20
-22.7778690037
 11
-2.2574327421
 21
-22.8485796818
  0
LINE
  5
383
100
AcDbEntity
  8
0
100
AcDbLine
 62
7
  6
CONTINUOUS
 10
-3.665623876
 20
-23.82156282
 11
-3.8070452322
 21
-23.8922734982
  0
LINE
  5
384
100
AcDbEntity
  8
0
100
AcDbLine
 62
7
  6
CONTINUOUS
 10
-1.5694257098
 20
-23.0724079023
 11
-1.7108470661
 21
-23.1431185804
  0
LINE
  5
385
100
AcDbEntity
  8
0
100
AcDbLine
 62
7
  6
CONTINUOUS
 10
-2.4260692241
 20
-23.7973861724
 11
-2.5674905804
 21
-23.8680968505
  0
LINE
  5
386
100
AcDbEntity
  8
0
100
AcDbLine
 62
7
  6
CONTINUOUS
 10
-3.0062308612
 20
-24.227257365
 11
-3.0716541798
 21
-24.2599690244
  0
LINE
  5
387
100
AcDbEntity
  8
0
100
AcDbLine
 62
7
  6
CONTINUOUS
 10
-0.8045513439
 20
-23.4739910704
 11
-0.9459727001
 21
-23.5447017485
  0
LINE
  5
388
100
AcDbEntity
  8
0
100
AcDbLine
 62
7
  6
CONTINUOUS
 10
-2.5749915691
 20
-24.3668789735
 11
-2.7164129253
 21
-24.4375896516
  0
LINE
  5
389
100
AcDbEntity
  8
0
100
AcDbLine
 62
7
  6
CONTINUOUS
 10
-1.2710139203
 20
-24.0093810797
 11
-1.4124352765
 21
-24.0800917578
  0
LINE
  5
38A
100
AcDbEntity
  8
0
100
AcDbLine
 62
7
  6
CONTINUOUS
 10
-1.0938886359
 20
-24.0979437219
 11
-1.2353099921
 21
-24.1686544001
  0
LINE
  5
38B
100
AcDbEntity
  8
0
100
AcDbLine
 62
7
  6
CONTINUOUS
 10
-1.7108470661
 20
-24.849360248
 11
-1.8018593993
 21
-24.8948664146
  0
LINE
  5
38C
100
AcDbEntity
  8
0
100
AcDbLine
 62
7
  6
CONTINUOUS
 10
-0.9097188067
 20
-24.4877788699
 11
-0.9140171076
 21
-24.4899280204
  0
LINE
  5
38D
100
AcDbEntity
  8
0
100
AcDbLine
 62
7
  6
CONTINUOUS
 10
-0.8709858197
 20
-24.4724896284
 11
-0.7295644635
 21
-24.4017789503
  0
LINE
  5
38E
100
AcDbEntity
  8
0
100
AcDbLine
 62
7
  6
CONTINUOUS
 10
-1.2607369127
 20
-25.0240066461
 11
-1.4021582689
 21
-25.0947173243
  0
LINE
  5
38F
100
AcDbEntity
  8
0
100
AcDbLine
 62
7
  6
CONTINUOUS
 10
-0.5939450606
 20
-24.8652116614
 11
-0.7353664168
 21
-24.9359223395
  0
LINE
  5
390
100
AcDbEntity
  8
0
100
AcDbLine
 62
7
  6
CONTINUOUS
 10
-0.4879905593
 20
-25.4103798228
 11
-0.6294119155
 21
-25.4810905009
  0
LINE
  5
391
100
AcDbEntity
  8
RACCORDO
100
AcDbLine
 62
7
  6
CONTINUOUS
 10
5.5634959863
 20
-22.1823181183
 11
5.0735234637
 21
-22.4253481017
  0
LINE
  5
392
100
AcDbEntity
  8
RACCORDO
100
AcDbLine
 62
7
  6
CONTINUOUS
 10
5.7755957119
 20
-22.5481360323
 11
5.5054441288
 21
-22.6821332092
  0
LINE
  5
393
100
AcDbEntity
  8
RACCORDO
100
AcDbLine
 62
7
  6
CONTINUOUS
 10
3.8957195002
 20
-21.4024346771
 11
3.4444858868
 21
-21.6108293132
  0
LINE
  5
394
100
AcDbEntity
  8
RACCORDO
100
AcDbLine
 62
7
  6
CONTINUOUS
 10
4.0252053277
 20
-21.413172789
 11
3.5178239277
 21
-21.6474983336
  0
LINE
  5
395
100
AcDbEntity
  8
DRAFT
100
AcDbLine
 62
7
  6
CONTINUOUS
 10
1.6793786053
 20
-21.4590229249
 11
1.1136931804
 21
-21.7055564628
  0
LINE
  5
396
100
AcDbEntity
  8
RACCORDO
100
AcDbLine
 62
7
  6
CONTINUOUS
 10
32.0093978674
 20
5.0156332906
 11
-35.5095764342
 21
38.7751204414
  0
LINE
  5
397
100
AcDbEntity
  8
RACCORDO
100
AcDbLine
 62
7
  6
CONTINUOUS
 10
28.886882982
 20
2.0474352105
 11
28.886882982
 21
-37.4922132133
  0
LINE
  5
398
100
AcDbEntity
  8
RACCORDO
100
AcDbLine
 62
7
  6
CONTINUOUS
 10
28.9747509477
 20
1.9413691934
 11
28.9747509477
 21
-37.5982792232
  0
LWPOLYLINE
  5
399
100
AcDbEntity
  8
RACCORDO
100
AcDbPolyline
 62
7
  6
CONTINUOUS
 90
8
 70
0
 10
28.8868831645
 20
-37.4923550163
 10
28.8867403961
 20
-37.5028468561
 10
28.8858395463
 20
-37.5202385273
 10
28.8841680036
 20
-37.5361746576
 10
28.8818587776
 20
-37.550226944
 10
28.8792155135
 20
-37.5616699941
 10
28.87658534
 20
-37.5702851503
 10
28.8760892064
 20
-37.5716757164
  0
LINE
  5
39A
100
AcDbEntity
  8
ASSI
100
AcDbLine
 62
7
  6
CONTINUOUS
 10
13.3466404949
 20
-25.8338120445
 11
13.6013453685
 21
-25.6492159937
  0
LINE
  5
39B
100
AcDbEntity
  8
ASSI
100
AcDbLine
 62
7
  6
CONTINUOUS
 10
13.6015394475
 20
-25.1933562031
 11
12.1155042701
 21
-26.0185608359
  0
LINE
  5
39C
100
AcDbEntity
  8
RACCORDO
100
AcDbLine
 62
7
  6
CONTINUOUS
 10
11.1077424085
 20
-25.5764363462
 11
10.2045489661
 21
-26.0637299292
  0
LINE
  5
39D
100
AcDbEntity
  8
RACCORDO
100
AcDbLine
 62
7
  6
CONTINUOUS
 10
11.2450359942
 20
-25.583326698
 11
10.3418425519
 21
-26.0706202809
  0
LINE
  5
39E
100
AcDbEntity
  8
ASSI
100
AcDbLine
 62
7
  6
CONTINUOUS
 10
13.3466404949
 20
-25.8338120445
 11
12.5539007677
 21
-26.2377590847
  0
LINE
  5
39F
100
AcDbEntity
  8
ASSI
100
AcDbLine
 62
7
  6
CONTINUOUS
 10
12.9860518485
 20
-26.3741567533
 11
12.9065934933
 21
-26.4141054475
  0
LINE
  5
3A0
100
AcDbEntity
  8
ASSI
100
AcDbLine
 62
7
  6
CONTINUOUS
 10
13.0565695586
 20
-26.2756349791
 11
12.8435887499
 21
-26.3826030758
  0
LINE
  5
3A1
100
AcDbEntity
  8
ASSI
100
AcDbLine
 62
7
  6
CONTINUOUS
 10
13.6085529774
 20
-25.6152225122
 11
12.4566217632
 21
-26.1891195825
  0
LINE
  5
3A2
100
AcDbEntity
  8
ASSI
100
AcDbLine
 62
7
  6
CONTINUOUS
 10
9.344075602
 20
-23.0646242803
 11
7.0006295863
 21
-24.1196484154
  0
LINE
  5
3A3
100
AcDbEntity
  8
DRAFT
100
AcDbLine
 62
7
  6
CONTINUOUS
 10
10.1646599796
 20
-25.701663612
 11
9.5989745546
 21
-25.9481971499
  0
LWPOLYLINE
  5
3A4
100
AcDbEntity
  8
RACCORDO
100
AcDbPolyline
 62
7
  6
CONTINUOUS
 90
6
 70
0
 10
-35.1943890329
 20
34.4204518831
 10
-35.1943439009
 20
34.4204435853
 10
-35.192663964
 20
34.4200569663
 10
-35.1885317106
 20
34.4187944551
 10
-35.1822305064
 20
34.4163782619
 10
-35.1737245104
 20
34.4124507605
  0
LINE
  5
3A5
100
AcDbEntity
  8
RACCORDO
100
AcDbLine
 62
7
  6
CONTINUOUS
 10
30.6770745616
 20
-40.8143564981
 11
30.6770745616
 21
3.4551228542
  0
LINE
  5
3A6
100
AcDbEntity
  8
RACCORDO
100
AcDbLine
 62
7
  6
CONTINUOUS
 10
31.0976041071
 20
-40.816191451
 11
31.0976041071
 21
3.4532879014
  0
LINE
  5
3A7
100
AcDbEntity
  8
RACCORDO
100
AcDbLine
 62
7
  6
CONTINUOUS
 10
32.5042972271
 20
-40.1665339519
 11
32.5042972271
 21
4.1620581579
  0
LINE
  5
3A8
100
AcDbEntity
  8
RACCORDO
100
AcDbLine
 62
7
  6
CONTINUOUS
 10
16.0661296932
 20
-28.5611863061
 11
16.6219410423
 21
-28.261313332
  0
LINE
  5
3A9
100
AcDbEntity
  8
RACCORDO
100
AcDbLine
 62
7
  6
CONTINUOUS
 10
16.2034232789
 20
-28.5680766579
 11
16.759234628
 21
-28.2682036838
  0
LINE
  5
3AA
100
AcDbEntity
  8
RACCORDO
100
AcDbLine
 62
7
  6
CONTINUOUS
 10
15.731087708
 20
-27.8263525549
 11
14.7958035193
 21
-28.2976007646
  0
LINE
  5
3AB
100
AcDbEntity
  8
RACCORDO
100
AcDbLine
 62
7
  6
CONTINUOUS
 10
15.9431874336
 20
-28.1921704689
 11
15.5459621197
 21
-28.3923146821
  0
LINE
  5
3AC
100
AcDbEntity
  8
DRAFT
100
AcDbLine
 62
7
  6
CONTINUOUS
 10
15.4679608385
 20
-28.3533140414
 11
14.9022754135
 21
-28.5998475793
  0
LINE
  5
3AD
100
AcDbEntity
  8
RACCORDO
100
AcDbLine
 62
7
  6
CONTINUOUS
 10
-34.8024794937
 20
34.2268281213
 11
-35.2727050646
 21
34.2403930442
  0
LINE
  5
3AE
100
AcDbEntity
  8
RACCORDO
100
AcDbLine
 62
7
  6
CONTINUOUS
 10
-35.1918986809
 20
34.4202777022
 11
-35.1918426906
 21
34.4202760869
  0
LWPOLYLINE
  5
3AF
100
AcDbEntity
  8
RACCORDO
100
AcDbPolyline
 62
7
  6
CONTINUOUS
 90
3
 70
0
 10
28.8760892064
 20
-37.5716757164
 10
28.8743413863
 20
-37.5760449956
 10
28.8730354903
 20
-37.5787354673
  0
LINE
  5
3B0
100
AcDbEntity
  8
ASSI
100
AcDbLine
 62
7
  6
CONTINUOUS
 10
23.0358961231
 20
-32.1372816838
 11
23.0693587362
 21
-32.0795672135
  0
LINE
  5
3B1
100
AcDbEntity
  8
ASSI
100
AcDbLine
 62
7
  6
CONTINUOUS
 10
23.3275609532
 20
-32.0672469658
 11
23.4229121268
 21
-31.9027905182
  0
LINE
  5
3B2
100
AcDbEntity
  8
ASSI
100
AcDbLine
 62
7
  6
CONTINUOUS
 10
23.6811143438
 20
-31.8904702705
 11
23.7764655174
 21
-31.7260138229
  0
LINE
  5
3B3
100
AcDbEntity
  8
ASSI
100
AcDbLine
 62
7
  6
CONTINUOUS
 10
24.0346677344
 20
-31.7136935752
 11
24.130018908
 21
-31.5492371276
  0
LINE
  5
3B4
100
AcDbEntity
  8
ASSI
100
AcDbLine
 62
7
  6
CONTINUOUS
 10
24.388221125
 20
-31.5369168799
 11
24.4835722986
 21
-31.3724604323
  0
LINE
  5
3B5
100
AcDbEntity
  8
ASSI
100
AcDbLine
 62
7
  6
CONTINUOUS
 10
24.7417745156
 20
-31.3601401846
 11
24.8371256892
 21
-31.195683737
  0
LINE
  5
3B6
100
AcDbEntity
  8
ASSI
100
AcDbLine
 62
7
  6
CONTINUOUS
 10
25.0953279062
 20
-31.1833634893
 11
25.1906790798
 21
-31.0189070417
  0
LINE
  5
3B7
100
AcDbEntity
  8
ASSI
100
AcDbLine
 62
7
  6
CONTINUOUS
 10
27.6427163502
 20
-33.7099445449
 11
27.6655528139
 21
-33.6705574711
  0
LINE
  5
3B8
100
AcDbEntity
  8
ASSI
100
AcDbLine
 62
7
  6
CONTINUOUS
 10
27.9130401873
 20
-33.676717595
 11
28.0191062045
 21
-33.4937807759
  0
LINE
  5
3B9
100
AcDbEntity
  8
ASSI
100
AcDbLine
 62
7
  6
CONTINUOUS
 10
28.2665935779
 20
-33.4999408997
 11
28.3726595951
 21
-33.3170040806
  0
LINE
  5
3BA
100
AcDbEntity
  8
ASSI
100
AcDbLine
 62
7
  6
CONTINUOUS
 10
28.6201469685
 20
-33.3231642044
 11
28.7262129857
 21
-33.1402273853
  0
LINE
  5
3BB
100
AcDbEntity
  8
RACCORDO
100
AcDbLine
 62
7
  6
CONTINUOUS
 10
20.7359063583
 20
-30.8343181976
 11
21.3015917832
 21
-30.5393822614
  0
LINE
  5
3BC
100
AcDbEntity
  8
RACCORDO
100
AcDbLine
 62
7
  6
CONTINUOUS
 10
21.0526799585
 20
-31.1456736015
 11
21.5137238176
 21
-30.9052954757
  0
LINE
  5
3BD
100
AcDbEntity
  8
RACCORDO
100
AcDbLine
 62
7
  6
CONTINUOUS
 10
25.8326232117
 20
-32.8651962108
 11
25.2669377868
 21
-33.160132147
  0
LINE
  5
3BE
100
AcDbEntity
  8
RACCORDO
100
AcDbLine
 62
7
  6
CONTINUOUS
 10
25.9684965391
 20
-32.8728346393
 11
25.4028111141
 21
-33.1677705755
  0
LINE
  5
3BF
100
AcDbEntity
  8
ASSI
100
AcDbLine
 62
7
  6
CONTINUOUS
 10
23.0693587362
 20
-32.0795672135
 11
23.2107800924
 21
-32.0088565354
  0
LINE
  5
3C0
100
AcDbEntity
  8
ASSI
100
AcDbLine
 62
7
  6
CONTINUOUS
 10
23.4229121268
 20
-31.9027905182
 11
23.564333483
 21
-31.8320798401
  0
LINE
  5
3C1
100
AcDbEntity
  8
ASSI
100
AcDbLine
 62
7
  6
CONTINUOUS
 10
23.7764655174
 20
-31.7260138229
 11
23.9178868736
 21
-31.6553031448
  0
LINE
  5
3C2
100
AcDbEntity
  8
ASSI
100
AcDbLine
 62
7
  6
CONTINUOUS
 10
24.130018908
 20
-31.5492371276
 11
24.2714402642
 21
-31.4785264495
  0
LINE
  5
3C3
100
AcDbEntity
  8
ASSI
100
AcDbLine
 62
7
  6
CONTINUOUS
 10
24.4835722986
 20
-31.3724604323
 11
24.6249936548
 21
-31.3017497542
  0
LINE
  5
3C4
100
AcDbEntity
  8
ASSI
100
AcDbLine
 62
7
  6
CONTINUOUS
 10
24.8371256892
 20
-31.195683737
 11
24.9785470454
 21
-31.1249730589
  0
LINE
  5
3C5
100
AcDbEntity
  8
ASSI
100
AcDbLine
 62
7
  6
CONTINUOUS
 10
25.1906790798
 20
-31.0189070417
 11
25.332100436
 21
-30.9481963636
  0
LINE
  5
3C6
100
AcDbEntity
  8
ASSI
100
AcDbLine
 62
7
  6
CONTINUOUS
 10
25.2539781787
 20
-30.9329730283
 11
22.8193909758
 21
-32.0290291101
  0
LINE
  5
3C7
100
AcDbEntity
  8
RACCORDO
100
AcDbLine
 62
7
  6
CONTINUOUS
 10
47.2170553137
 20
20.1077167584
 11
-50.7172338806
 21
69.0748613555
  0
LINE
  5
3C8
100
AcDbEntity
  8
RACCORDO
100
AcDbLine
 62
7
  6
CONTINUOUS
 10
47.5706087043
 20
20.7175061556
 11
-50.36368049
 21
69.6846507527
  0
LINE
  5
3C9
100
AcDbEntity
  8
RACCORDO
100
AcDbLine
 62
7
  6
CONTINUOUS
 10
28.8731877663
 20
-37.5785310193
 11
28.8743872933
 21
-37.5769179815
  0
LINE
  5
3CA
100
AcDbEntity
  8
RACCORDO
100
AcDbLine
 62
7
  6
CONTINUOUS
 10
28.7091103093
 20
-37.6018628636
 11
28.886882982
 21
-37.3787083735
  0
LINE
  5
3CB
100
AcDbEntity
  8
RACCORDO
100
AcDbLine
 62
7
  6
CONTINUOUS
 10
28.8743913556
 20
-37.5769174626
 11
28.8743700908
 21
-37.5769441355
  0
LINE
  5
3CC
100
AcDbEntity
  8
ASSI
100
AcDbLine
 62
7
  6
CONTINUOUS
 10
28.886882982
 20
-33.4085264954
 11
28.0117802723
 21
-33.8944765059
  0
LINE
  5
3CD
100
AcDbEntity
  8
ASSI
100
AcDbLine
 62
7
  6
CONTINUOUS
 10
28.886882982
 20
-33.9771266682
 11
28.5353418947
 21
-34.1562573171
  0
LINE
  5
3CE
100
AcDbEntity
  8
DRAFT
100
AcDbLine
 62
7
  6
CONTINUOUS
 10
28.8055607182
 20
-34.2913667289
 11
28.886882982
 21
-34.250480931
  0
LINE
  5
3CF
100
AcDbEntity
  8
DRAFT
100
AcDbLine
 62
7
  6
CONTINUOUS
 10
28.734701052
 20
-34.2559368958
 11
28.8842276247
 21
-34.1808382379
  0
LINE
  5
3D0
100
AcDbEntity
  8
ASSI
100
AcDbLine
 62
7
  6
CONTINUOUS
 10
27.6655528139
 20
-33.6705574711
 11
27.8069741702
 21
-33.599846793
  0
LINE
  5
3D1
100
AcDbEntity
  8
ASSI
100
AcDbLine
 62
7
  6
CONTINUOUS
 10
28.0191062045
 20
-33.4937807759
 11
28.1605275608
 21
-33.4230700977
  0
LINE
  5
3D2
100
AcDbEntity
  8
ASSI
100
AcDbLine
 62
7
  6
CONTINUOUS
 10
28.3726595951
 20
-33.3170040806
 11
28.5140809513
 21
-33.2462934024
  0
LINE
  5
3D3
100
AcDbEntity
  8
ASSI
100
AcDbLine
 62
7
  6
CONTINUOUS
 10
28.7262129857
 20
-33.1402273853
 11
28.8676343419
 21
-33.0695167071
  0
LINE
  5
3D4
100
AcDbEntity
  8
ASSI
100
AcDbLine
 62
7
  6
CONTINUOUS
 10
28.886882982
 20
-33.1897961977
 11
27.7446513189
 21
-33.7609120292
  0
LINE
  5
3D5
100
AcDbEntity
  8
ASSI
100
AcDbLine
 62
7
  6
CONTINUOUS
 10
28.886882982
 20
-33.8848259641
 11
28.4388765948
 21
-34.1080246672
  0
LINE
  5
3D6
100
AcDbEntity
  8
RACCORDO
100
AcDbLine
 62
7
  6
CONTINUOUS
 10
-47.5706087043
 20
71.0811866456
 11
50.36368049
 21
22.1140420484
  0
LINE
  5
3D7
100
AcDbEntity
  8
RACCORDO
100
AcDbLine
 62
7
  6
CONTINUOUS
 10
-47.3470019066
 20
71.0953875392
 11
50.5872872878
 21
22.128242942
  0
LINE
  5
3D8
100
AcDbEntity
  8
RACCORDO
100
AcDbLine
 62
7
  6
CONTINUOUS
 10
47.5706087043
 20
-70.5687146324
 11
47.5706087043
 21
19.4979273612
  0
LINE
  5
3D9
100
AcDbEntity
  8
RACCORDO
100
AcDbLine
 62
7
  6
CONTINUOUS
 10
48.2777154855
 20
-70.5687146324
 11
48.2777154855
 21
19.4979273612
  0
LINE
  5
3DA
100
AcDbEntity
  8
RACCORDO
100
AcDbLine
 62
7
  6
CONTINUOUS
 10
51.0707872712
 20
20.894463254
 11
51.0707872712
 21
-69.1721787395
  0
LINE
  5
3DB
100
AcDbEntity
  8
RACCORDO
100
AcDbLine
 62
7
  6
CONTINUOUS
 10
51.2172338806
 20
21.0712399493
 11
51.2172338806
 21
-68.9954020442
  0
LINE
  5
3DC
100
AcDbEntity
  8
RACCORDO
100
AcDbLine
 62
7
  6
CONTINUOUS
 10
31.0976041071
 20
-40.816191451
 11
32.5042972271
 21
-40.1665339519
  0
LINE
  5
3DD
100
AcDbEntity
  8
RACCORDO
100
AcDbLine
 62
7
  6
CONTINUOUS
 10
30.9068666471
 20
-41.1989860811
 11
32.3150715336
 21
-40.5486303981
  0
LINE
  5
3DE
100
AcDbEntity
  8
RACCORDO
100
AcDbLine
 62
7
  6
CONTINUOUS
 10
48.2777154855
 20
-70.5687146324
 11
51.0707872712
 21
-69.1721787395
  0
LINE
  5
3DF
100
AcDbEntity
  8
RACCORDO
100
AcDbLine
 62
7
  6
CONTINUOUS
 10
48.0178222998
 20
-71.1095884328
 11
50.8108940855
 21
-69.71305254
  0
ARC
  5
3E0
100
AcDbEntity
  8
RACCORDO
100
AcDbCircle
 62
7
  6
CONTINUOUS
 10
50.6426792651
 20
-69.3766561489
 40
0.376106549
100
AcDbArc
 50
296.5673172924
 51
300.3024823317
  0
ARC
  5
3E1
100
AcDbEntity
  8
0
100
AcDbCircle
 62
7
  6
CONTINUOUS
 10
-1.1356981724
 20
-24.7140275916
 40
0.3152191497
100
AcDbArc
 50
42.2221289167
 51
45.3108453725
  0
ARC
  5
3E2
100
AcDbEntity
  8
RACCORDO
100
AcDbCircle
 62
7
  6
CONTINUOUS
 10
-3.4911593778
 20
-17.9184498527
 40
0.2999860163
100
AcDbArc
 50
359.9999782123
 51
63.4464452758
  0
ARC
  5
3E3
100
AcDbEntity
  8
RACCORDO
100
AcDbCircle
 62
7
  6
CONTINUOUS
 10
5.5598074214
 20
-22.4439332523
 40
0.2999860163
100
AcDbArc
 50
359.9999782123
 51
63.4464452758
  0
ARC
  5
3E4
100
AcDbEntity
  8
RACCORDO
100
AcDbCircle
 62
7
  6
CONTINUOUS
 10
-5.0294535388
 20
-17.1492452909
 40
0.2999366603
100
AcDbArc
 50
63.4376202806
 51
114.7714837855
  0
ARC
  5
3E5
100
AcDbEntity
  8
RACCORDO
100
AcDbCircle
 62
7
  6
CONTINUOUS
 10
4.0215132603
 20
-21.6747286905
 40
0.2999366603
100
AcDbArc
 50
63.4376202806
 51
114.7714837855
  0
ARC
  5
3E6
100
AcDbEntity
  8
RACCORDO
100
AcDbCircle
 62
7
  6
CONTINUOUS
 10
-29.0677129137
 20
14.9200583638
 40
0.2500031208
100
AcDbArc
 50
298.3482651455
 51
0.0019330358
  0
ARC
  5
3E7
100
AcDbEntity
  8
RACCORDO
100
AcDbCircle
 62
7
  6
CONTINUOUS
 10
-29.0676985783
 20
20.4055519025
 40
0.2499883484
100
AcDbArc
 50
359.9999783872
 51
63.4464435507
  0
ARC
  5
3E8
100
AcDbEntity
  8
RACCORDO
100
AcDbCircle
 62
7
  6
CONTINUOUS
 10
-29.4457601234
 20
20.5951079651
 40
0.2491796562
100
AcDbArc
 50
63.4508113348
 51
114.7789325735
  0
ARC
  5
3E9
100
AcDbEntity
  8
RACCORDO
100
AcDbCircle
 62
7
  6
CONTINUOUS
 10
-33.8295382416
 20
-4.6813278037
 40
0.1748207895
100
AcDbArc
 50
236.3170348631
 51
243.5767016674
  0
ARC
  5
3EA
100
AcDbEntity
  8
RACCORDO
100
AcDbCircle
 62
7
  6
CONTINUOUS
 10
-33.9878569089
 20
-4.4297263684
 40
0.1092466269
100
AcDbArc
 50
179.96524416
 51
186.2910963855
  0
ARC
  5
3EB
100
AcDbEntity
  8
RACCORDO
100
AcDbCircle
 62
7
  6
CONTINUOUS
 10
-29.5109278978
 20
20.7362799259
 40
0.0936883334
100
AcDbArc
 50
109.5195127963
 51
114.778830694
  0
ARC
  5
3EC
100
AcDbEntity
  8
ASSI
100
AcDbCircle
 62
7
  6
CONTINUOUS
 10
-22.4356439904
 20
-7.1461671935
 40
0.0874961196
100
AcDbArc
 50
105.061869074
 51
111.6611297249
  0
ARC
  5
3ED
100
AcDbEntity
  8
ASSI
100
AcDbCircle
 62
7
  6
CONTINUOUS
 10
25.2940637397
 20
-31.0110210585
 40
0.0874961196
100
AcDbArc
 50
105.061869074
 51
111.6611297249
  0
SPLINE
  5
3EE
100
AcDbEntity
  8
0
100
AcDbSpline
 62
7
  6
CONTINUOUS
 70
0
 71
3
 72
10
 73
6
 74
4
 42
0.0000001
 43
0.0000001
 44
0.0000000001
 12
0.2763115484
 22
-0.1381557742
 32
0.0
 13
0.0793323206
 23
-0.2985656924
 33
0.0
 40
0.0
 40
0.0
 40
0.0
 40
0.0
 40
0.2224105364
 40
0.6042534692
 40
1.0
 40
1.0
 40
1.0
 40
1.0
 10
-1.2359780533
 20
-24.4661468037
 30
0.0
 10
-1.2154931867
 20
-24.476389237
 30
0.0
 10
-1.1638876886
 20
-24.5128494509
 30
0.0
 10
-1.1029118258
 20
-24.5982468251
 30
0.0
 10
-1.0735267178
 20
-24.6734513201
 30
0.0
 10
-1.0630615542
 20
-24.7128367658
 30
0.0
 11
-1.2359780533
 21
-24.4661468037
 31
0.0
 11
-1.1795035656
 21
-24.5052807662
 31
0.0
 11
-1.1081071373
 21
-24.5991816197
 31
0.0
 11
-1.0630615542
 21
-24.7128367658
 31
0.0
  0
SPLINE
  5
3EF
100
AcDbEntity
  8
0
100
AcDbSpline
 62
7
  6
CONTINUOUS
 70
0
 71
3
 72
9
 73
5
 74
3
 42
0.0000001
 43
0.0000001
 44
0.0000000001
 12
0.1629167104
 22
-0.6125703128
 32
0.0
 13
0.1303220388
 23
-0.6203228263
 33
0.0
 40
0.0
 40
0.0
 40
0.0
 40
0.0
 40
0.5011449125
 40
1.0
 40
1.0
 40
1.0
 40
1.0
 10
-1.0630615542
 20
-24.7128367658
 30
0.0
 10
-1.035846594
 20
-24.8151655977
 30
0.0
 10
-0.9939158975
 20
-25.0224296662
 30
0.0
 10
-0.9492048159
 20
-25.2288789535
 30
0.0
 10
-0.9275342119
 20
-25.3320293528
 30
0.0
 11
-1.0630615542
 21
-24.7128367658
 31
0.0
 11
-0.9931216003
 21
-25.0226996355
 31
0.0
 11
-0.9275342119
 21
-25.3320293528
 31
0.0
  0
SPLINE
  5
3F0
100
AcDbEntity
  8
0
100
AcDbSpline
 62
7
  6
CONTINUOUS
 70
0
 71
3
 72
9
 73
5
 74
3
 42
0.0000001
 43
0.0000001
 44
0.0000000001
 12
0.0421357026
 22
-0.014409079
 32
0.0
 13
0.0398300541
 23
0.0199149638
 33
0.0
 40
0.0
 40
0.0
 40
0.0
 40
0.0
 40
0.5094570831
 40
1.0
 40
1.0
 40
1.0
 40
1.0
 10
-0.9140171076
 20
-24.4791822681
 30
0.0
 10
-0.9068616635
 20
-24.4816292039
 30
0.0
 10
-0.8910971391
 20
-24.4821574769
 30
0.0
 10
-0.8774989387
 20
-24.4757461776
 30
0.0
 10
-0.8709861551
 20
-24.4724897961
 30
0.0
 11
-0.9140171076
 21
-24.4791822681
 31
0.0
 11
-0.8913612282
 21
-24.4803663269
 31
0.0
 11
-0.8709861551
 21
-24.4724897961
 31
0.0
  0
SPLINE
  5
3F1
100
AcDbEntity
  8
0
100
AcDbSpline
 62
7
  6
CONTINUOUS
 70
0
 71
3
 72
11
 73
7
 74
5
 42
0.0000001
 43
0.0000001
 44
0.0000000001
 12
0.3138156219
 22
-0.2015300707
 32
0.0
 13
0.0047321734
 23
-0.3729238803
 33
0.0
 40
0.0
 40
0.0
 40
0.0
 40
0.0
 40
0.2339806254
 40
0.4918424311
 40
0.7556842856
 40
1.0
 40
1.0
 40
1.0
 40
1.0
 10
-1.1696284449
 20
-23.691576499
 30
0.0
 10
-1.1451528531
 20
-23.707294543
 30
0.0
 10
-1.0984094308
 20
-23.7477970977
 30
0.0
 10
-1.0422576497
 20
-23.8241691792
 30
0.0
 10
-1.0058657715
 20
-23.9130243575
 30
0.0
 10
-0.9949372629
 20
-23.9760688733
 30
0.0
 10
-0.9945518814
 20
-24.0064392614
 30
0.0
 11
-1.1696284449
 21
-23.691576499
 31
0.0
 11
-1.1029866592
 21
-23.7479136618
 31
0.0
 11
-1.0461175009
 21
-23.8254680091
 31
0.0
 11
-1.008500093
 21
-23.9163946708
 31
0.0
 11
-0.9945518814
 21
-24.0064392614
 31
0.0
  0
SPLINE
  5
3F2
100
AcDbEntity
  8
0
100
AcDbSpline
 62
7
  6
CONTINUOUS
 70
0
 71
3
 72
11
 73
7
 74
5
 42
0.0000001
 43
0.0000001
 44
0.0000000001
 12
0.0026069209
 22
-0.2082217894
 32
0.0
 13
-0.1862538365
 23
-0.093126892
 33
0.0
 40
0.0
 40
0.0
 40
0.0
 40
0.0
 40
0.2862348139
 40
0.5536263913
 40
0.791049786
 40
1.0
 40
1.0
 40
1.0
 40
1.0
 10
-0.9945518814
 20
-24.0064392614
 30
0.0
 10
-0.9943031509
 20
-24.0263060365
 30
0.0
 10
-0.9967540075
 20
-24.0648523958
 30
0.0
 10
-1.0097150498
 20
-24.1185492114
 30
0.0
 10
-1.0320182581
 20
-24.1634271696
 30
0.0
 10
-1.0558235312
 20
-24.1851914362
 30
0.0
 10
-1.0687961242
 20
-24.1916777308
 30
0.0
 11
-0.9945518814
 21
-24.0064392614
 31
0.0
 11
-0.998607027
 21
-24.0659061543
 31
0.0
 11
-1.0123111029
 21
-24.1198745247
 31
0.0
 11
-1.0356967123
 21
-24.1634346676
 31
0.0
 11
-1.0687961242
 21
-24.1916777308
 31
0.0
  0
SPLINE
  5
3F3
100
AcDbEntity
  8
0
100
AcDbSpline
 62
7
  6
CONTINUOUS
 70
0
 71
3
 72
10
 73
6
 74
4
 42
0.0000001
 43
0.0000001
 44
0.0000000001
 12
0.257046478
 22
-0.0748047261
 32
0.0
 13
0.2252633536
 23
-0.1446549704
 33
0.0
 40
0.0
 40
0.0
 40
0.0
 40
0.0
 40
0.2362920832
 40
0.4814109498
 40
1.0
 40
1.0
 40
1.0
 40
1.0
 10
-1.4124352765
 20
-23.5808779252
 30
0.0
 10
-1.3921892606
 20
-23.5867698468
 30
0.0
 10
-1.3511610251
 20
-23.5996395134
 30
0.0
 10
-1.2684656914
 20
-23.6333996079
 30
0.0
 10
-1.2085681478
 20
-23.6665710044
 30
0.0
 10
-1.1696284449
 20
-23.691576499
 30
0.0
 11
-1.4124352765
 21
-23.5808779252
 31
0.0
 11
-1.3522066746
 21
-23.6002185201
 31
0.0
 11
-1.2914159735
 21
-23.6249283569
 31
0.0
 11
-1.1696284449
 21
-23.691576499
 31
0.0
  0
SPLINE
  5
3F4
100
AcDbEntity
  8
RACCORDO
100
AcDbSpline
 62
7
  6
CONTINUOUS
 70
0
 71
3
 72
11
 73
7
 74
5
 42
0.0000001
 43
0.0000001
 44
0.0000000001
 12
0.0000149278
 22
-0.1443839731
 32
0.0
 13
0.1291409503
 23
-0.0645704799
 33
0.0
 40
0.0
 40
0.0
 40
0.0
 40
0.0
 40
0.2065459694
 40
0.4344524034
 40
0.6976951635
 40
1.0
 40
1.0
 40
1.0
 40
1.0
 10
-37.447088337
 20
-6.6901363848
 30
0.0
 10
-37.4470873093
 20
-6.7000770274
 30
0.0
 10
-37.4427185547
 20
-6.7211500426
 30
0.0
 10
-37.4243737133
 20
-6.7499105345
 30
0.0
 10
-37.3957797319
 20
-6.7757105176
 30
0.0
 10
-37.3722469551
 20
-6.7896957392
 30
0.0
 10
-37.3592336439
 20
-6.7962023953
 30
0.0
 11
-37.447088337
 21
-6.6901363848
 31
0.0
 11
-37.441338881
 21
-6.7193988375
 31
0.0
 11
-37.4242723695
 21
-6.7475331836
 31
0.0
 11
-37.396504533
 21
-6.7734861804
 31
0.0
 11
-37.3592336439
 21
-6.7962023953
 31
0.0
  0
SPLINE
  5
3F5
100
AcDbEntity
  8
RACCORDO
100
AcDbSpline
 62
7
  6
CONTINUOUS
 70
0
 71
3
 72
11
 73
7
 74
5
 42
0.0000001
 43
0.0000001
 44
0.0000000001
 12
0.0000149287
 22
-0.1443839671
 32
0.0
 13
0.1291409498
 23
-0.0645704674
 33
0.0
 40
0.0
 40
0.0
 40
0.0
 40
0.0
 40
0.2065459738
 40
0.4344524071
 40
0.6976951646
 40
1.0
 40
1.0
 40
1.0
 40
1.0
 10
-37.447088337
 20
37.5793429587
 30
0.0
 10
-37.4470873092
 20
37.5694023164
 30
0.0
 10
-37.4427185547
 20
37.5483293018
 30
0.0
 10
-37.4243737131
 20
37.5195688115
 30
0.0
 10
-37.3957797317
 20
37.493768831
 30
0.0
 10
-37.3722469551
 20
37.4797836118
 30
0.0
 10
-37.3592336439
 20
37.473276957
 30
0.0
 11
-37.447088337
 21
37.5793429587
 31
0.0
 11
-37.4413388809
 21
37.5500805067
 31
0.0
 11
-37.4242723693
 21
37.5219461624
 31
0.0
 11
-37.3965045329
 21
37.4959931684
 31
0.0
 11
-37.3592336439
 21
37.473276957
 31
0.0
  0
SPLINE
  5
3F6
100
AcDbEntity
  8
0
100
AcDbSpline
 62
7
  6
CONTINUOUS
 70
0
 71
3
 72
18
 73
14
 74
12
 42
0.0000001
 43
0.0000001
 44
0.0000000001
 12
0.9412007038
 22
0.4705988568
 32
0.0
 13
-0.7660299754
 23
0.7214708072
 33
0.0
 40
0.0
 40
0.0
 40
0.0
 40
0.0
 40
0.0457943108
 40
0.0910579325
 40
0.1389648728
 40
0.1905315915
 40
0.3034454653
 40
0.4295779073
 40
0.5663525061
 40
0.7114676852
 40
0.8584344009
 40
0.9305901785
 40
1.0
 40
1.0
 40
1.0
 40
1.0
 10
-0.8709861551
 20
-24.4724897961
 30
0.0
 10
-0.8566189426
 20
-24.4653062127
 30
0.0
 10
-0.8285305624
 20
-24.4499296661
 30
0.0
 10
-0.7902016477
 20
-24.4191592313
 30
0.0
 10
-0.7593397488
 20
-24.3782885293
 30
0.0
 10
-0.7260816463
 20
-24.3112732503
 30
0.0
 10
-0.7033342255
 20
-24.2105028346
 30
0.0
 10
-0.7022757662
 20
-24.0781032639
 30
0.0
 10
-0.7242031415
 20
-23.9359553346
 30
0.0
 10
-0.7737162513
 20
-23.7930845853
 30
0.0
 10
-0.8354872546
 20
-23.6804891741
 30
0.0
 10
-0.8951015705
 20
-23.5986137751
 30
0.0
 10
-0.9282493655
 20
-23.5613941351
 30
0.0
 10
-0.9459727001
 20
-23.5447017485
 30
0.0
 11
-0.8709861551
 21
-24.4724897961
 31
0.0
 11
-0.829118808
 21
-24.4486295521
 31
0.0
 11
-0.7923070638
 21
-24.4184042007
 31
0.0
 11
-0.7614268156
 21
-24.3785570259
 31
0.0
 11
-0.7369542422
 21
-24.330125605
 31
0.0
 11
-0.7083934241
 21
-24.2147907463
 31
0.0
 11
-0.7057281958
 21
-24.0820891332
 31
0.0
 11
-0.727850436
 21
-23.9398723896
 31
0.0
 11
-0.7774055644
 21
-23.7954330019
 31
0.0
 11
-0.8518237833
 21
-23.6598630337
 31
0.0
 11
-0.8966817475
 21
-23.5986014076
 31
0.0
 11
-0.9459727001
 21
-23.5447017485
 31
0.0
  0
SPLINE
  5
3F7
100
AcDbEntity
  8
RACCORDO
100
AcDbSpline
 62
7
  6
CONTINUOUS
 70
0
 71
3
 72
15
 73
11
 74
9
 42
0.0000001
 43
0.0000001
 44
0.0000000001
 12
-0.000001415
 22
0.4373931235
 32
0.0
 13
0.3912229003
 23
-0.195594956
 33
0.0
 40
0.0
 40
0.0
 40
0.0
 40
0.0
 40
0.14879548
 40
0.2840515227
 40
0.4066342785
 40
0.5199167541
 40
0.6296856686
 40
0.7427994542
 40
0.8650889314
 40
1.0
 40
1.0
 40
1.0
 40
1.0
 10
-37.3592336439
 20
37.473276957
 30
0.0
 10
-37.359233714
 20
37.4949709969
 30
0.0
 10
-37.3560828115
 20
37.5365045928
 30
0.0
 10
-37.3404507896
 20
37.5941236848
 30
0.0
 10
-37.3143900704
 20
37.6422222191
 30
0.0
 10
-37.2784068711
 20
37.6786198376
 30
0.0
 10
-37.2338717921
 20
37.701123447
 30
0.0
 10
-37.1832777649
 20
37.7084520681
 30
0.0
 10
-37.1292394572
 20
37.7008297411
 30
0.0
 10
-37.0940274429
 20
37.6870305163
 30
0.0
 10
-37.0764340097
 20
37.6782345415
 30
0.0
 11
-37.3592336439
 21
37.473276957
 31
0.0
 11
-37.3538008755
 21
37.5381319286
 31
0.0
 11
-37.3377088034
 21
37.5950613434
 31
0.0
 11
-37.3115781641
 21
37.6418796813
 31
0.0
 11
-37.2764087436
 21
37.6767825876
 31
0.0
 11
-37.2335528545
 21
37.6984283975
 31
0.0
 11
-37.1846580697
 21
37.705984497
 31
0.0
 11
-37.1316057655
 21
37.6991668117
 31
0.0
 11
-37.0764340097
 21
37.6782345415
 31
0.0
  0
SPLINE
  5
3F8
100
AcDbEntity
  8
RACCORDO
100
AcDbSpline
 62
7
  6
CONTINUOUS
 70
0
 71
3
 72
11
 73
7
 74
5
 42
0.0000001
 43
0.0000001
 44
0.0000000001
 12
-0.1689125338
 22
0.0845958674
 32
0.0
 13
0.0000000046
 23
0.1889124264
 33
0.0
 40
0.0
 40
0.0
 40
0.0
 40
0.0
 40
0.2171672857
 40
0.4503628451
 40
0.7104284797
 40
1.0
 40
1.0
 40
1.0
 40
1.0
 10
30.4722449816
 20
-41.1815720172
 30
0.0
 10
30.4600175562
 20
-41.1754481989
 30
0.0
 10
30.4368719084
 20
-41.1578540196
 30
0.0
 10
30.4120565114
 20
-41.1198078847
 30
0.0
 10
30.3972373269
 20
-41.0722880291
 30
0.0
 10
30.394274927
 20
-41.0375486354
 30
0.0
 10
30.3942749275
 20
-41.0193140826
 30
0.0
 11
30.4722449816
 21
-41.1815720172
 31
0.0
 11
30.4394196625
 21
-41.1569631126
 31
0.0
 11
30.4147590246
 21
-41.1204587671
 31
0.0
 11
30.3994620656
 21
-41.0737712571
 31
0.0
 11
30.3942749275
 21
-41.0193140826
 31
0.0
  0
SPLINE
  5
3F9
100
AcDbEntity
  8
RACCORDO
100
AcDbSpline
 62
7
  6
CONTINUOUS
 70
0
 71
3
 72
11
 73
7
 74
5
 42
0.0000001
 43
0.0000001
 44
0.0000000001
 12
-0.1689125381
 22
0.0845958697
 32
0.0
 13
-0.0000000074
 23
0.1889124313
 33
0.0
 40
0.0
 40
0.0
 40
0.0
 40
0.0
 40
0.2171672809
 40
0.4503628408
 40
0.7104284776
 40
1.0
 40
1.0
 40
1.0
 40
1.0
 10
-36.9984639489
 20
-7.4462175519
 30
0.0
 10
-37.0106913744
 20
-7.4400937336
 30
0.0
 10
-37.0338370223
 20
-7.4224995539
 30
0.0
 10
-37.0586524204
 20
-7.3844534186
 30
0.0
 10
-37.0734716071
 20
-7.336933562
 30
0.0
 10
-37.076434009
 20
-7.3021941674
 30
0.0
 10
-37.0764340097
 20
-7.283959614
 30
0.0
 11
-36.9984639489
 21
-7.4462175519
 31
0.0
 11
-37.0312892681
 21
-7.4216086472
 31
0.0
 11
-37.0559499072
 21
-7.3851043011
 31
0.0
 11
-37.0712468684
 21
-7.33841679
 31
0.0
 11
-37.0764340097
 21
-7.283959614
 31
0.0
  0
SPLINE
  5
3FA
100
AcDbEntity
  8
0
100
AcDbSpline
 62
7
  6
CONTINUOUS
 70
0
 71
3
 72
9
 73
5
 74
3
 42
0.0000001
 43
0.0000001
 44
0.0000000001
 12
-0.0819613901
 22
0.0180243518
 32
0.0
 13
-0.075872067
 23
0.0358605099
 33
0.0
 40
0.0
 40
0.0
 40
0.0
 40
0.0
 40
0.242384651
 40
1.0
 40
1.0
 40
1.0
 40
1.0
 10
-1.0149842065
 20
-24.1262027473
 30
0.0
 10
-1.0216062675
 20
-24.1247464719
 30
0.0
 10
-1.0486812533
 20
-24.1176181313
 30
0.0
 10
-1.0747280217
 20
-24.1069998795
 30
0.0
 10
-1.0938886359
 20
-24.0979437219
 30
0.0
 11
-1.0149842065
 21
-24.1262027473
 31
0.0
 11
-1.0346709814
 21
-24.1210858378
 31
0.0
 11
-1.0938886359
 21
-24.0979437219
 31
0.0
  0
SPLINE
  5
3FB
100
AcDbEntity
  8
0
100
AcDbSpline
 62
7
  6
CONTINUOUS
 70
0
 71
3
 72
10
 73
6
 74
4
 42
0.0000001
 43
0.0000001
 44
0.0000000001
 12
-0.1538658195
 22
-0.076932888
 32
0.0
 13
-0.1555300041
 23
0.0735103903
 33
0.0
 40
0.0
 40
0.0
 40
0.0
 40
0.0
 40
0.4571693219
 40
0.7225207019
 40
1.0
 40
1.0
 40
1.0
 40
1.0
 10
-1.0687961242
 20
-24.1916777308
 30
0.0
 10
-1.0922437016
 20
-24.2034015163
 30
0.0
 10
-1.137404386
 20
-24.2033030487
 30
0.0
 10
-1.1920545124
 20
-24.1875633252
 30
0.0
 10
-1.22092454
 20
-24.1754536039
 30
0.0
 10
-1.2353099921
 20
-24.1686544001
 30
0.0
 11
-1.0687961242
 21
-24.1916777308
 31
0.0
 11
-1.1471218484
 21
-24.1987632951
 31
0.0
 11
-1.1912015756
 21
-24.1869021738
 31
0.0
 11
-1.2353099921
 21
-24.1686544001
 31
0.0
  0
SPLINE
  5
3FC
100
AcDbEntity
  8
RACCORDO
100
AcDbSpline
 62
7
  6
CONTINUOUS
 70
0
 71
3
 72
11
 73
7
 74
5
 42
0.0000001
 43
0.0000001
 44
0.0000000001
 12
0.5252094582
 22
-0.2626021805
 32
0.0
 13
0.0000165042
 23
-0.5872008855
 33
0.0
 40
0.0
 40
0.0
 40
0.0
 40
0.0
 40
0.2296744152
 40
0.4882138292
 40
0.7532078385
 40
1.0
 40
1.0
 40
1.0
 40
1.0
 10
30.3942749275
 20
3.9428800729
 30
0.0
 10
30.4344839859
 20
3.9227757388
 30
0.0
 10
30.5113178944
 20
3.8626676943
 30
0.0
 10
30.6000458712
 20
3.7433332956
 30
0.0
 10
30.6604070118
 20
3.6037740837
 30
0.0
 10
30.6770732039
 20
3.5034283795
 30
0.0
 10
30.6770745616
 20
3.4551228542
 30
0.0
 11
30.3942749275
 21
3.9428800729
 31
0.0
 11
30.5024989419
 21
3.8624056277
 31
0.0
 11
30.5942497031
 21
3.7414533132
 31
0.0
 11
30.655550018
 21
3.5984319885
 31
0.0
 11
30.6770745616
 21
3.4551228542
 31
0.0
  0
SPLINE
  5
3FD
100
AcDbEntity
  8
RACCORDO
100
AcDbSpline
 62
7
  6
CONTINUOUS
 70
0
 71
3
 72
15
 73
11
 74
9
 42
0.0000001
 43
0.0000001
 44
0.0000000001
 12
0.000001415
 22
-0.4373931235
 32
0.0
 13
-0.3912229003
 23
0.195594956
 33
0.0
 40
0.0
 40
0.0
 40
0.0
 40
0.0
 40
0.14879548
 40
0.2840515227
 40
0.4066342785
 40
0.5199167541
 40
0.6296856686
 40
0.7427994542
 40
0.8650889314
 40
1.0
 40
1.0
 40
1.0
 40
1.0
 10
30.6770745616
 20
-40.8143564981
 30
0.0
 10
30.6770746318
 20
-40.836050538
 30
0.0
 10
30.6739237293
 20
-40.8775841339
 30
0.0
 10
30.6582917073
 20
-40.9352032259
 30
0.0
 10
30.6322309882
 20
-40.9833017602
 30
0.0
 10
30.5962477889
 20
-41.0196993787
 30
0.0
 10
30.5517127099
 20
-41.0422029882
 30
0.0
 10
30.5011186827
 20
-41.0495316092
 30
0.0
 10
30.447080375
 20
-41.0419092822
 30
0.0
 10
30.4118683607
 20
-41.0281100574
 30
0.0
 10
30.3942749275
 20
-41.0193140826
 30
0.0
 11
30.6770745616
 21
-40.8143564981
 31
0.0
 11
30.6716417933
 21
-40.8792114697
 31
0.0
 11
30.6555497212
 21
-40.9361408845
 31
0.0
 11
30.6294190818
 21
-40.9829592224
 31
0.0
 11
30.5942496613
 21
-41.0178621287
 31
0.0
 11
30.5513937723
 21
-41.0395079386
 31
0.0
 11
30.5024989875
 21
-41.0470640381
 31
0.0
 11
30.4494466833
 21
-41.0402463528
 31
0.0
 11
30.3942749275
 21
-41.0193140826
 31
0.0
  0
SPLINE
  5
3FE
100
AcDbEntity
  8
RACCORDO
100
AcDbSpline
 62
7
  6
CONTINUOUS
 70
0
 71
3
 72
9
 73
5
 74
3
 42
0.0000001
 43
0.0000001
 44
0.0000000001
 12
-0.1260316343
 22
-0.0657101216
 32
0.0
 13
-0.1032641788
 23
-0.0976642324
 33
0.0
 40
0.0
 40
0.0
 40
0.0
 40
0.0
 40
0.2371046482
 40
1.0
 40
1.0
 40
1.0
 40
1.0
 10
-33.7925813585
 20
-4.7544612964
 30
0.0
 10
-33.802542254
 20
-4.7596546882
 30
0.0
 10
-33.8436569725
 20
-4.7832681771
 30
0.0
 10
-33.8810734617
 20
-4.8130493567
 30
0.0
 10
-33.9073333824
 20
-4.8378852197
 30
0.0
 11
-33.7925813585
 21
-4.7544612964
 31
0.0
 11
-33.8218313264
 21
-4.7711991632
 31
0.0
 11
-33.9073333824
 21
-4.8378852197
 31
0.0
  0
SPLINE
  5
3FF
100
AcDbEntity
  8
RACCORDO
100
AcDbSpline
 62
7
  6
CONTINUOUS
 70
0
 71
3
 72
9
 73
5
 74
3
 42
0.0000001
 43
0.0000001
 44
0.0000000001
 12
-0.1370512165
 22
-0.0578502863
 32
0.0
 13
-0.1164661161
 23
-0.092549097
 33
0.0
 40
0.0
 40
0.0
 40
0.0
 40
0.0
 40
0.2394516602
 40
1.0
 40
1.0
 40
1.0
 40
1.0
 10
-33.7993058345
 20
-4.7500950811
 30
0.0
 10
-33.8102448816
 20
-4.7547125301
 30
0.0
 10
-33.8551735597
 20
-4.7757708803
 30
0.0
 10
-33.8969109562
 20
-4.8033736601
 30
0.0
 10
-33.9264369933
 20
-4.8268363474
 30
0.0
 11
-33.7993058345
 21
-4.7500950811
 31
0.0
 11
-33.8315783959
 21
-4.7651726825
 31
0.0
 11
-33.9264369933
 21
-4.8268363474
 31
0.0
  0
SPLINE
  5
400
100
AcDbEntity
  8
RACCORDO
100
AcDbSpline
 62
7
  6
CONTINUOUS
 70
0
 71
3
 72
9
 73
5
 74
3
 42
0.0000001
 43
0.0000001
 44
0.0000000001
 12
-0.0583420294
 22
-0.036153318
 32
0.0
 13
-0.0621163817
 23
-0.02919606
 33
0.0
 40
0.0
 40
0.0
 40
0.0
 40
0.0
 40
0.243506666
 40
1.0
 40
1.0
 40
1.0
 40
1.0
 10
-34.0360750677
 20
-4.4090951703
 30
0.0
 10
-34.0408106254
 20
-4.4120296949
 30
0.0
 10
-34.0604457464
 20
-4.4237764435
 30
0.0
 10
-34.0807868061
 20
-4.4343320386
 30
0.0
 10
-34.096450349
 20
-4.4416942468
 30
0.0
 11
-34.0360750677
 21
-4.4090951703
 31
0.0
 11
-34.0504150501
 21
-4.417679888
 31
0.0
 11
-34.096450349
 21
-4.4416942468
 31
0.0
  0
SPLINE
  5
401
100
AcDbEntity
  8
RACCORDO
100
AcDbSpline
 62
7
  6
CONTINUOUS
 70
0
 71
3
 72
9
 73
5
 74
3
 42
0.0000001
 43
0.0000001
 44
0.0000000001
 12
-0.0589857589
 22
-0.0284808214
 32
0.0
 13
-0.0618223221
 23
-0.0216443395
 33
0.0
 40
0.0
 40
0.0
 40
0.0
 40
0.0
 40
0.2421760207
 40
1.0
 40
1.0
 40
1.0
 40
1.0
 10
-34.0365625486
 20
-4.404707038
 30
0.0
 10
-34.0413241941
 20
-4.407006162
 30
0.0
 10
-34.0611334324
 20
-4.4161933683
 30
0.0
 10
-34.081486703
 20
-4.4241925658
 30
0.0
 10
-34.0971035157
 20
-4.429660099
 30
0.0
 11
-34.0365625486
 21
-4.404707038
 31
0.0
 11
-34.0509507462
 21
-4.4113863284
 31
0.0
 11
-34.0971035157
 21
-4.429660099
 31
0.0
  0
SPLINE
  5
402
100
AcDbEntity
  8
RACCORDO
100
AcDbSpline
 62
7
  6
CONTINUOUS
 70
0
 71
3
 72
11
 73
7
 74
5
 42
0.0000001
 43
0.0000001
 44
0.0000000001
 12
-0.5252094582
 22
0.2626021805
 32
0.0
 13
-0.0000165042
 23
0.5872008855
 33
0.0
 40
0.0
 40
0.0
 40
0.0
 40
0.0
 40
0.2296744152
 40
0.4882138292
 40
0.7532078385
 40
1.0
 40
1.0
 40
1.0
 40
1.0
 10
-37.0764340097
 20
-7.283959614
 30
0.0
 10
-37.1166430681
 20
-7.2638552799
 30
0.0
 10
-37.1934769766
 20
-7.2037472354
 30
0.0
 10
-37.2822049534
 20
-7.0844128368
 30
0.0
 10
-37.342566094
 20
-6.9448536248
 30
0.0
 10
-37.3592322862
 20
-6.8445079206
 30
0.0
 10
-37.3592336439
 20
-6.7962023953
 30
0.0
 11
-37.0764340097
 21
-7.283959614
 31
0.0
 11
-37.1846580241
 21
-7.2034851688
 31
0.0
 11
-37.2764087853
 21
-7.0825328543
 31
0.0
 11
-37.3377091002
 21
-6.9395115296
 31
0.0
 11
-37.3592336439
 21
-6.7962023953
 31
0.0
  0
SPLINE
  5
403
100
AcDbEntity
  8
RACCORDO
100
AcDbSpline
 62
7
  6
CONTINUOUS
 70
0
 71
3
 72
15
 73
11
 74
9
 42
0.0000001
 43
0.0000001
 44
0.0000000001
 12
0.0000198666
 22
-0.6465603367
 32
0.0
 13
-0.5782783253
 23
0.28919621
 33
0.0
 40
0.0
 40
0.0
 40
0.0
 40
0.0
 40
0.1488156354
 40
0.2853524865
 40
0.4094989621
 40
0.5236308894
 40
0.6329815813
 40
0.7448415681
 40
0.8659257345
 40
1.0
 40
1.0
 40
1.0
 40
1.0
 10
28.9747509477
 20
-37.5982792232
 30
0.0
 10
28.9747519331
 20
-37.6303519857
 30
0.0
 10
28.9706010008
 20
-37.6919894065
 30
0.0
 10
28.9498096552
 20
-37.7782825836
 30
0.0
 10
28.9143843743
 20
-37.8517380992
 30
0.0
 10
28.8642546784
 20
-37.9089349703
 30
0.0
 10
28.8004212158
 20
-37.945758518
 30
0.0
 10
28.7264856503
 20
-37.9590799998
 30
0.0
 10
28.6470655326
 20
-37.948881994
 30
0.0
 10
28.5953722565
 20
-37.9287142967
 30
0.0
 10
28.5695281759
 20
-37.9157897068
 30
0.0
 11
28.9747509477
 21
-37.5982792232
 31
0.0
 11
28.9676109027
 21
-37.6942322252
 31
0.0
 11
28.9460524782
 21
-37.7798387164
 31
0.0
 11
28.9102237693
 21
-37.8516668827
 31
0.0
 11
28.8608753562
 21
-37.906531873
 31
0.0
 11
28.7995125332
 21
-37.941650975
 31
0.0
 11
28.7284569552
 21
-37.9551379761
 31
0.0
 11
28.6506694347
 21
-37.9462978995
 31
0.0
 11
28.5695281759
 21
-37.9157897068
 31
0.0
  0
SPLINE
  5
404
100
AcDbEntity
  8
0
100
AcDbSpline
 62
7
  6
CONTINUOUS
 70
0
 71
3
 72
9
 73
5
 74
3
 42
0.0000001
 43
0.0000001
 44
0.0000000001
 12
-0.1087199623
 22
0.5446236221
 32
0.0
 13
-0.1090135263
 23
0.5445649374
 33
0.0
 40
0.0
 40
0.0
 40
0.0
 40
0.0
 40
0.4998343578
 40
1.0
 40
1.0
 40
1.0
 40
1.0
 10
-0.4879905593
 20
-25.4103798228
 30
0.0
 10
-0.5061045501
 20
-25.31963929
 30
0.0
 10
-0.5405059177
 20
-25.1377373459
 30
0.0
 10
-0.5757701205
 20
-24.956002552
 30
0.0
 10
-0.5939450606
 20
-24.8652116614
 30
0.0
 11
-0.4879905593
 21
-25.4103798228
 31
0.0
 11
-0.540710087
 21
-25.1378393671
 31
0.0
 11
-0.5939450606
 21
-24.8652116614
 31
0.0
  0
SPLINE
  5
405
100
AcDbEntity
  8
0
100
AcDbSpline
 62
7
  6
CONTINUOUS
 70
0
 71
3
 72
11
 73
7
 74
5
 42
0.0000001
 43
0.0000001
 44
0.0000000001
 12
-0.0752832336
 22
0.3760871424
 32
0.0
 13
-0.1936604655
 23
0.3310660479
 33
0.0
 40
0.0
 40
0.0
 40
0.0
 40
0.0
 40
0.2349492004
 40
0.484046258
 40
0.7442106415
 40
1.0
 40
1.0
 40
1.0
 40
1.0
 10
-0.5939450606
 20
-24.8652116614
 30
0.0
 10
-0.5998409724
 20
-24.8357578703
 30
0.0
 10
-0.6115352318
 20
-24.7749825904
 30
0.0
 10
-0.6344884139
 20
-24.6825635999
 30
0.0
 10
-0.6656382112
 20
-24.5897251083
 30
0.0
 10
-0.6937910574
 20
-24.5297497584
 30
0.0
 10
-0.7103031528
 20
-24.5015220344
 30
0.0
 11
-0.5939450606
 21
-24.8652116614
 31
0.0
 11
-0.611955557
 21
-24.7769155102
 31
0.0
 11
-0.6353500975
 21
-24.6842833404
 31
0.0
 11
-0.6676330875
 21
-24.5898642599
 31
0.0
 11
-0.7103031528
 21
-24.5015220344
 31
0.0
  0
SPLINE
  5
406
100
AcDbEntity
  8
0
100
AcDbSpline
 62
7
  6
CONTINUOUS
 70
0
 71
3
 72
9
 73
5
 74
3
 42
0.0000001
 43
0.0000001
 44
0.0000000001
 12
-0.0503073496
 22
0.0860013187
 32
0.0
 13
-0.0699924945
 23
0.0709091458
 33
0.0
 40
0.0
 40
0.0
 40
0.0
 40
0.0
 40
0.2578689696
 40
1.0
 40
1.0
 40
1.0
 40
1.0
 10
-0.7103031528
 20
-24.5015220344
 30
0.0
 10
-0.7146273876
 20
-24.4941296773
 30
0.0
 10
-0.7320800592
 20
-24.4658854999
 30
0.0
 10
-0.7526259761
 20
-24.4394157279
 30
0.0
 10
-0.7699405101
 20
-24.4218744354
 30
0.0
 11
-0.7103031528
 21
-24.5015220344
 31
0.0
 11
-0.7238340822
 21
-24.479681075
 31
0.0
 11
-0.7699405101
 21
-24.4218744354
 31
0.0
  0
SPLINE
  5
407
100
AcDbEntity
  8
0
100
AcDbSpline
 62
7
  6
CONTINUOUS
 70
0
 71
3
 72
11
 73
7
 74
5
 42
0.0000001
 43
0.0000001
 44
0.0000000001
 12
-0.6333494509
 22
0.5969143223
 32
0.0
 13
-0.8289470693
 23
0.2651131674
 33
0.0
 40
0.0
 40
0.0
 40
0.0
 40
0.0
 40
0.2725542141
 40
0.5262218346
 40
0.7671916502
 40
1.0
 40
1.0
 40
1.0
 40
1.0
 10
-0.8045513439
 20
-23.4739910704
 30
0.0
 10
-0.8620920312
 20
-23.4197605657
 30
0.0
 10
-0.9853304626
 20
-23.3278631007
 30
0.0
 10
-1.1805677519
 20
-23.2203226685
 30
0.0
 10
-1.374934843
 20
-23.1373552787
 30
0.0
 10
-1.5050971101
 20
-23.092981422
 30
0.0
 10
-1.5694257098
 20
-23.0724079023
 30
0.0
 11
-0.8045513439
 21
-23.4739910704
 31
0.0
 11
-0.9926176608
 21
-23.3294297844
 31
0.0
 11
-1.1854523215
 21
-23.2219408548
 31
0.0
 11
-1.378039785
 21
-23.1389238695
 31
0.0
 11
-1.5694257098
 21
-23.0724079023
 31
0.0
  0
SPLINE
  5
408
100
AcDbEntity
  8
RACCORDO
100
AcDbSpline
 62
7
  6
CONTINUOUS
 70
0
 71
3
 72
9
 73
5
 74
3
 42
0.0000001
 43
0.0000001
 44
0.0000000001
 12
0.1989366211
 22
-0.099481222
 32
0.0
 13
0.1498422628
 23
-0.164376364
 33
0.0
 40
0.0
 40
0.0
 40
0.0
 40
0.0
 40
0.2331595132
 40
1.0
 40
1.0
 40
1.0
 40
1.0
 10
28.5695281759
 20
2.6641024487
 30
0.0
 10
28.5849894978
 20
2.6563707843
 30
0.0
 10
28.6494473941
 20
2.6195188264
 30
0.0
 10
28.7059951074
 20
2.5697048718
 30
0.0
 10
28.7442968119
 20
2.5276880548
 30
0.0
 11
28.5695281759
 21
2.6641024487
 31
0.0
 11
28.6146174171
 21
2.6384813575
 31
0.0
 11
28.7442968119
 21
2.5276880548
 31
0.0
  0
SPLINE
  5
409
100
AcDbEntity
  8
RACCORDO
100
AcDbSpline
 62
7
  6
CONTINUOUS
 70
0
 71
3
 72
9
 73
5
 74
3
 42
0.0000001
 43
0.0000001
 44
0.0000000001
 12
0.4311233148
 22
-0.4729405552
 32
0.0
 13
0.0000022423
 23
-0.6399531868
 33
0.0
 40
0.0
 40
0.0
 40
0.0
 40
0.0
 40
0.5119288184
 40
1.0
 40
1.0
 40
1.0
 40
1.0
 10
28.7442968119
 20
2.5276880548
 30
0.0
 10
28.8178649616
 20
2.4469840882
 30
0.0
 10
28.9293815317
 20
2.2591247708
 30
0.0
 10
28.9747505828
 20
2.0454834294
 30
0.0
 10
28.9747509477
 20
1.9413691934
 30
0.0
 11
28.7442968119
 21
2.5276880548
 31
0.0
 11
28.9147066995
 21
2.2478861677
 31
0.0
 11
28.9747509477
 21
1.9413691934
 31
0.0
  0
SPLINE
  5
40A
100
AcDbEntity
  8
RACCORDO
100
AcDbSpline
 62
7
  6
CONTINUOUS
 70
0
 71
3
 72
11
 73
7
 74
5
 42
0.0000001
 43
0.0000001
 44
0.0000000001
 12
-0.1291394801
 22
0.0645697401
 32
0.0
 13
0.0000513271
 23
0.144382319
 33
0.0
 40
0.0
 40
0.0
 40
0.0
 40
0.0
 40
0.3021491765
 40
0.5655722792
 40
0.7935305764
 40
1.0
 40
1.0
 40
1.0
 40
1.0
 10
28.9747509477
 20
1.9413691934
 30
0.0
 10
28.9617444851
 20
1.9478724246
 30
0.0
 10
28.9382196693
 20
1.961868104
 30
0.0
 10
28.9096039896
 20
1.9876546205
 30
0.0
 10
28.8912809622
 20
2.0164326957
 30
0.0
 10
28.8868834096
 20
2.0374983655
 30
0.0
 10
28.8868869421
 20
2.0474352102
 30
0.0
 11
28.9747509477
 21
1.9413691934
 31
0.0
 11
28.9375020804
 21
1.9640774
 31
0.0
 11
28.9097097036
 21
1.9900416375
 31
0.0
 11
28.8926466129
 21
2.0181863768
 31
0.0
 11
28.8868869421
 21
2.0474352102
 31
0.0
  0
SPLINE
  5
40B
100
AcDbEntity
  8
RACCORDO
100
AcDbSpline
 62
7
  6
CONTINUOUS
 70
0
 71
3
 72
15
 73
11
 74
9
 42
0.0000001
 43
0.0000001
 44
0.0000000001
 12
-0.0000103451
 22
0.6465660531
 32
0.0
 13
0.5783199222
 23
-0.289125801
 33
0.0
 40
0.0
 40
0.0
 40
0.0
 40
0.0
 40
0.1488103064
 40
0.2853464
 40
0.4094914164
 40
0.5236242843
 40
0.632974012
 40
0.7448323333
 40
0.8659164603
 40
1.0
 40
1.0
 40
1.0
 40
1.0
 10
-35.6569100299
 20
34.2571996821
 30
0.0
 10
-35.656910543
 20
34.2892715796
 30
0.0
 10
-35.6527544229
 20
34.3509078142
 30
0.0
 10
-35.6319643753
 20
34.4372001526
 30
0.0
 10
-35.5965381467
 20
34.5106558246
 30
0.0
 10
-35.546410853
 20
34.5678541979
 30
0.0
 10
-35.4825822487
 20
34.6046864653
 30
0.0
 10
-35.4086478849
 20
34.6180148023
 30
0.0
 10
-35.3292223559
 20
34.6078206696
 30
0.0
 10
-35.2775349855
 20
34.5876325027
 30
0.0
 10
-35.2516872581
 20
34.5747101657
 30
0.0
 11
-35.6569100299
 21
34.2571996821
 31
0.0
 11
-35.6497659141
 21
34.353149779
 31
0.0
 11
-35.6282068349
 21
34.4387564051
 31
0.0
 11
-35.5923784
 21
34.5105844469
 31
0.0
 11
-35.5430316633
 21
34.5654526402
 31
0.0
 11
-35.481672774
 21
34.6005786182
 31
0.0
 11
-35.4106188744
 21
34.6140721138
 31
0.0
 11
-35.3328307197
 21
34.6052317136
 31
0.0
 11
-35.2516872581
 21
34.5747101657
 31
0.0
  0
SPLINE
  5
40C
100
AcDbEntity
  8
RACCORDO
100
AcDbSpline
 62
7
  6
CONTINUOUS
 70
0
 71
3
 72
11
 73
7
 74
5
 42
0.0000001
 43
0.0000001
 44
0.0000000001
 12
0.0000000577
 22
-0.1889139717
 32
0.0
 13
0.1689716096
 23
-0.0844812632
 33
0.0
 40
0.0
 40
0.0
 40
0.0
 40
0.0
 40
0.289595635
 40
0.5496518077
 40
0.7828348723
 40
1.0
 40
1.0
 40
1.0
 40
1.0
 10
28.5695281759
 20
2.6641024487
 30
0.0
 10
28.5695281815
 20
2.6458662282
 30
0.0
 10
28.5724859335
 20
2.6111247466
 30
0.0
 10
28.5873170329
 20
2.5636071329
 30
0.0
 10
28.6121255635
 20
2.5255629678
 30
0.0
 10
28.6352640716
 20
2.5079547574
 30
0.0
 10
28.647495652
 20
2.501839296
 30
0.0
 11
28.5695281759
 21
2.6641024487
 31
0.0
 11
28.5747145146
 21
2.6096401724
 31
0.0
 11
28.5900167068
 21
2.5629558354
 31
0.0
 11
28.6146719839
 21
2.5264502826
 31
0.0
 11
28.647495652
 21
2.501839296
 31
0.0
  0
SPLINE
  5
40D
100
AcDbEntity
  8
RACCORDO
100
AcDbSpline
 62
7
  6
CONTINUOUS
 70
0
 71
3
 72
11
 73
7
 74
5
 42
0.0000001
 43
0.0000001
 44
0.0000000001
 12
0.0
 22
-0.1889081527
 32
0.0
 13
0.1689619601
 23
-0.0844875505
 33
0.0
 40
0.0
 40
0.0
 40
0.0
 40
0.0
 40
0.2895946005
 40
0.5496510084
 40
0.7828349031
 40
1.0
 40
1.0
 40
1.0
 40
1.0
 10
-35.2516872581
 20
34.5747101657
 30
0.0
 10
-35.2516872581
 20
34.5564745721
 30
0.0
 10
-35.2487297072
 20
34.5217342215
 30
0.0
 10
-35.2338996641
 20
34.4742179305
 30
0.0
 10
-35.209092924
 20
34.4361742817
 30
0.0
 10
-35.1859559446
 20
34.41856557
 30
0.0
 10
-35.1737250645
 20
34.4124496543
 30
0.0
 11
-35.2516872581
 21
34.5747101657
 31
0.0
 11
-35.2465013066
 21
34.5202497416
 31
0.0
 11
-35.231200206
 21
34.4735665926
 31
0.0
 11
-35.2065466145
 21
34.4370613495
 31
0.0
 11
-35.1737250645
 21
34.4124496543
 31
0.0
  0
SPLINE
  5
40E
100
AcDbEntity
  8
RACCORDO
100
AcDbSpline
 62
7
  6
CONTINUOUS
 70
0
 71
3
 72
11
 73
7
 74
5
 42
0.0000001
 43
0.0000001
 44
0.0000000001
 12
-0.7724879909
 22
0.3864015895
 32
0.0
 13
0.0000139491
 23
0.8637383193
 33
0.0
 40
0.0
 40
0.0
 40
0.0
 40
0.0
 40
0.2302628935
 40
0.48993639
 40
0.754312077
 40
1.0
 40
1.0
 40
1.0
 40
1.0
 10
-35.2516872581
 20
-6.0051819898
 30
0.0
 10
-35.3109790314
 20
-5.9755240072
 30
0.0
 10
-35.4241103894
 20
-5.8860787804
 30
0.0
 10
-35.5515854269
 20
-5.7076947228
 30
0.0
 10
-35.6352507403
 20
-5.500379277
 30
0.0
 10
-35.6569111722
 20
-5.3531854257
 30
0.0
 10
-35.6569100299
 20
-5.2824487345
 30
0.0
 11
-35.2516872581
 21
-6.0051819898
 31
0.0
 11
-35.4106187038
 21
-5.8856128114
 31
0.0
 11
-35.5430316509
 21
-5.7045802372
 31
0.0
 11
-35.6282067966
 21
-5.4927086683
 31
0.0
 11
-35.6569100299
 21
-5.2824487345
 31
0.0
  0
SPLINE
  5
40F
100
AcDbEntity
  8
RACCORDO
100
AcDbSpline
 62
7
  6
CONTINUOUS
 70
0
 71
3
 72
11
 73
7
 74
5
 42
0.0000001
 43
0.0000001
 44
0.0000000001
 12
0.3513449618
 22
-0.1756719593
 32
0.0
 13
0.3707502259
 23
0.1298005757
 33
0.0
 40
0.0
 40
0.0
 40
0.0
 40
0.0
 40
0.2301996126
 40
0.4886872628
 40
0.7531669781
 40
1.0
 40
1.0
 40
1.0
 40
1.0
 10
-35.6569100299
 20
34.2571996821
 30
0.0
 10
-35.6299502052
 20
34.2437198098
 30
0.0
 10
-35.5685250702
 20
34.223457537
 30
0.0
 10
-35.4702638704
 20
34.2109073529
 30
0.0
 10
-35.3691042129
 20
34.2151278095
 30
0.0
 10
-35.3032095308
 20
34.2297132032
 30
0.0
 10
-35.2727050646
 20
34.2403928926
 30
0.0
 11
-35.6569100299
 21
34.2571996821
 31
0.0
 11
-35.5715634801
 21
34.2273196154
 31
0.0
 11
-35.4709247282
 21
34.2138366068
 31
0.0
 11
-35.3671322876
 21
34.2183769077
 31
0.0
 11
-35.2727050646
 21
34.2403928926
 31
0.0
  0
SPLINE
  5
410
100
AcDbEntity
  8
RACCORDO
100
AcDbSpline
 62
7
  6
CONTINUOUS
 70
0
 71
3
 72
11
 73
7
 74
5
 42
0.0000001
 43
0.0000001
 44
0.0000000001
 12
0.351344799
 22
-0.1756723995
 32
0.0
 13
0.3707501259
 23
0.1298010165
 33
0.0
 40
0.0
 40
0.0
 40
0.0
 40
0.0
 40
0.2301996678
 40
0.4886873034
 40
0.7531669766
 40
1.0
 40
1.0
 40
1.0
 40
1.0
 10
-35.6569100299
 20
-5.2824487345
 30
0.0
 10
-35.6299502112
 20
-5.2959286438
 30
0.0
 10
-35.5685250765
 20
-5.3161909732
 30
0.0
 10
-35.4702638643
 20
-5.3287411854
 30
0.0
 10
-35.3691041993
 20
-5.324520699
 30
0.0
 10
-35.3032095228
 20
-5.3099352497
 30
0.0
 10
-35.2727050646
 20
-5.2992555239
 30
0.0
 11
-35.6569100299
 21
-5.2824487345
 31
0.0
 11
-35.571563474
 21
-5.3123288853
 31
0.0
 11
-35.4709247183
 21
-5.325811922
 31
0.0
 11
-35.367132282
 21
-5.3212715912
 31
0.0
 11
-35.2727050646
 21
-5.2992555239
 31
0.0
  0
SPLINE
  5
411
100
AcDbEntity
  8
RACCORDO
100
AcDbSpline
 62
7
  6
CONTINUOUS
 70
0
 71
3
 72
9
 73
5
 74
3
 42
0.0000001
 43
0.0000001
 44
0.0000000001
 12
-0.0000001069
 22
0.3499495
 32
0.0
 13
0.2542495784
 23
0.2404616486
 33
0.0
 40
0.0
 40
0.0
 40
0.0
 40
0.0
 40
0.4929880368
 40
1.0
 40
1.0
 40
1.0
 40
1.0
 10
-35.2516872581
 20
-6.0051819898
 30
0.0
 10
-35.2516872757
 20
-5.9476750175
 30
0.0
 10
-35.2219135153
 20
-5.8311497414
 30
0.0
 10
-35.1550778452
 20
-5.7318923602
 30
0.0
 10
-35.1121086525
 20
-5.6912533827
 30
0.0
 11
-35.2516872581
 21
-6.0051819898
 31
0.0
 11
-35.2133236374
 21
-5.8369806242
 31
0.0
 11
-35.1121086525
 21
-5.6912533827
 31
0.0
  0
SPLINE
  5
412
100
AcDbEntity
  8
RACCORDO
100
AcDbSpline
 62
7
  6
CONTINUOUS
 70
0
 71
3
 72
9
 73
5
 74
3
 42
0.0000001
 43
0.0000001
 44
0.0000000001
 12
0.0
 22
0.3499494896
 32
0.0
 13
0.2542494972
 23
0.2404617193
 33
0.0
 40
0.0
 40
0.0
 40
0.0
 40
0.0
 40
0.4929880284
 40
1.0
 40
1.0
 40
1.0
 40
1.0
 10
28.5695281759
 20
-37.9157897068
 30
0.0
 10
28.5695281759
 20
-37.8582827372
 30
0.0
 10
28.599301953
 20
-37.7417574748
 30
0.0
 10
28.6661376018
 20
-37.6425000898
 30
0.0
 10
28.7091067815
 20
-37.6018610997
 30
0.0
 11
28.5695281759
 21
-37.9157897068
 31
0.0
 11
28.6078918207
 21
-37.747588355
 31
0.0
 11
28.7091067815
 21
-37.6018610997
 31
0.0
  0
SPLINE
  5
413
100
AcDbEntity
  8
RACCORDO
100
AcDbSpline
 62
7
  6
CONTINUOUS
 70
0
 71
3
 72
11
 73
7
 74
5
 42
0.0000001
 43
0.0000001
 44
0.0000000001
 12
-0.1290144688
 22
0.0645072211
 32
0.0
 13
-0.0002209872
 23
0.1442423859
 33
0.0
 40
0.0
 40
0.0
 40
0.0
 40
0.0
 40
0.302101686
 40
0.5655340995
 40
0.7935296933
 40
1.0
 40
1.0
 40
1.0
 40
1.0
 10
28.9747509477
 20
-37.5982792232
 30
0.0
 10
28.9617591181
 20
-37.5917833098
 30
0.0
 10
28.9382579723
 20
-37.577804093
 30
0.0
 10
28.9096611732
 20
-37.5520539618
 30
0.0
 10
28.8913304787
 20
-37.5233200303
 30
0.0
 10
28.8869022346
 20
-37.5022822714
 30
0.0
 10
28.8868870255
 20
-37.4923550149
 30
0.0
 11
28.9747509477
 21
-37.5982792232
 31
0.0
 11
28.9375415675
 21
-37.5756005381
 31
0.0
 11
28.9097640515
 21
-37.5496723661
 31
0.0
 11
28.8926881923
 21
-37.5215663543
 31
0.0
 11
28.8868870255
 21
-37.4923550149
 31
0.0
  0
SPLINE
  5
414
100
AcDbEntity
  8
RACCORDO
100
AcDbSpline
 62
7
  6
CONTINUOUS
 70
0
 71
3
 72
9
 73
5
 74
3
 42
0.0000001
 43
0.0000001
 44
0.0000000001
 12
-0.0370302827
 22
-0.0464503171
 32
0.0
 13
-0.052087852
 23
-0.0285609782
 33
0.0
 40
0.0
 40
0.0
 40
0.0
 40
0.0
 40
0.2638306818
 40
1.0
 40
1.0
 40
1.0
 40
1.0
 10
28.8743708299
 20
-37.5769428476
 30
0.0
 10
28.871114255
 20
-37.5810278539
 30
0.0
 10
28.8581942923
 20
-37.5960144394
 30
0.0
 10
28.8425815669
 20
-37.6088970902
 30
0.0
 10
28.8297997407
 20
-37.6159056621
 30
0.0
 11
28.8743708299
 21
-37.5769428476
 31
0.0
 11
28.8641094557
 21
-37.5887892483
 31
0.0
 11
28.8297997407
 21
-37.6159056621
 31
0.0
  0
SPLINE
  5
415
100
AcDbEntity
  8
RACCORDO
100
AcDbSpline
 62
7
  6
CONTINUOUS
 70
0
 71
3
 72
10
 73
6
 74
4
 42
0.0000001
 43
0.0000001
 44
0.0000000001
 12
-0.1122910515
 22
-0.0615717898
 32
0.0
 13
-0.1024031095
 23
0.0769023324
 33
0.0
 40
0.0
 40
0.0
 40
0.0
 40
0.0
 40
0.2455578271
 40
0.4860287336
 40
1.0
 40
1.0
 40
1.0
 40
1.0
 10
28.8297997407
 20
-37.6159056621
 30
0.0
 10
28.8206084252
 20
-37.6209454738
 30
0.0
 10
28.8008547018
 20
-37.6284713898
 30
0.0
 10
28.757477165
 20
-37.6300383423
 30
0.0
 10
28.7266541693
 20
-37.6150383427
 30
0.0
 10
28.709110084
 20
-37.6018631464
 30
0.0
 11
28.8297997407
 21
-37.6159056621
 31
0.0
 11
28.8003087107
 21
-37.6268234912
 31
0.0
 11
28.7695342571
 21
-37.627965749
 31
0.0
 11
28.709110084
 21
-37.6018631464
 31
0.0
  0
SPLINE
  5
416
100
AcDbEntity
  8
RACCORDO
100
AcDbSpline
 62
7
  6
CONTINUOUS
 70
0
 71
3
 72
13
 73
9
 74
7
 42
0.0000001
 43
0.0000001
 44
0.0000000001
 12
-0.0675144161
 22
0.2266503352
 32
0.0
 13
0.2363936884
 23
-0.0068260473
 33
0.0
 40
0.0
 40
0.0
 40
0.0
 40
0.0
 40
0.2946022688
 40
0.4247656415
 40
0.5434738158
 40
0.6533585017
 40
0.7606215203
 40
1.0
 40
1.0
 40
1.0
 40
1.0
 10
-35.272705104
 20
34.2403930453
 30
0.0
 10
-35.2793350707
 20
34.2626502797
 30
0.0
 10
-35.2863373792
 20
34.2958428282
 30
0.0
 10
-35.2855574916
 20
34.3388640991
 30
0.0
 10
-35.2794304108
 20
34.3667287454
 30
0.0
 10
-35.2669171655
 20
34.3905278812
 30
0.0
 10
-35.2399550196
 20
34.41551151
 30
0.0
 10
-35.2107583123
 20
34.4208183111
 30
0.0
 10
-35.1918957917
 20
34.4202736415
 30
0.0
 11
-35.272705104
 21
34.2403930453
 31
0.0
 11
-35.2853866342
 21
34.3089003241
 31
0.0
 11
-35.2844760745
 21
34.339669479
 31
0.0
 11
-35.2780357741
 21
34.3669943265
 31
0.0
 11
-35.2656071964
 21
34.3898164222
 31
0.0
 11
-35.2469223244
 21
34.4069731594
 31
0.0
 11
-35.1918957917
 21
34.4202736415
 31
0.0
  0
SPLINE
  5
417
100
AcDbEntity
  8
RACCORDO
100
AcDbSpline
 62
7
  6
CONTINUOUS
 70
0
 71
3
 72
12
 73
8
 74
6
 42
0.0000001
 43
0.0000001
 44
0.0000000001
 12
-0.4414327396
 22
0.1388875994
 32
0.0
 13
0.1107439614
 23
0.4493199348
 33
0.0
 40
0.0
 40
0.0
 40
0.0
 40
0.0
 40
0.1130800292
 40
0.2327462536
 40
0.4871196871
 40
0.7477368935
 40
1.0
 40
1.0
 40
1.0
 40
1.0
 10
-35.1121012608
 20
-5.69125632
 30
0.0
 10
-35.1287403365
 20
-5.6860211821
 30
0.0
 10
-35.1617340314
 20
-5.6707382224
 30
0.0
 10
-35.2203867989
 20
-5.6226552812
 30
0.0
 10
-35.271169975
 20
-5.5351413183
 30
0.0
 10
-35.2911035168
 20
-5.4167056595
 30
0.0
 10
-35.2820173092
 20
-5.3370379848
 30
0.0
 10
-35.272705104
 20
-5.299255704
 30
0.0
 11
-35.1121012608
 21
-5.69125632
 31
0.0
 11
-35.1596273634
 21
-5.6693551978
 31
0.0
 11
-35.2026207259
 21
-5.6344519379
 31
0.0
 11
-35.2638809856
 21
-5.5339327502
 31
0.0
 11
-35.2855337929
 21
-5.4152875356
 31
0.0
 11
-35.272705104
 21
-5.299255704
 31
0.0
  0
SPLINE
  5
418
100
AcDbEntity
  8
RACCORDO
100
AcDbSpline
 62
7
  6
CONTINUOUS
 70
0
 71
3
 72
11
 73
7
 74
5
 42
0.0000001
 43
0.0000001
 44
0.0000000001
 12
-0.0850089234
 22
-0.4356542777
 32
0.0
 13
0.3929040964
 23
-0.2065128028
 33
0.0
 40
0.0
 40
0.0
 40
0.0
 40
0.0
 40
0.2512628255
 40
0.4489234485
 40
0.6470765568
 40
1.0
 40
1.0
 40
1.0
 40
1.0
 10
-34.0964456521
 20
-4.4416975975
 30
0.0
 10
-34.1035655129
 20
-4.4781855057
 30
0.0
 10
-34.1032975843
 20
-4.5460605907
 30
0.0
 10
-34.0798791325
 20
-4.6395061601
 30
0.0
 10
-34.0318222112
 20
-4.7395185148
 30
0.0
 10
-33.972715693
 20
-4.8025055864
 30
0.0
 10
-33.9264940042
 20
-4.8267999895
 30
0.0
 11
-34.0964456521
 21
-4.4416975975
 31
0.0
 11
-34.0982598901
 21
-4.5532110376
 31
0.0
 11
-34.0771338607
 21
-4.6383653274
 31
0.0
 11
-34.0386870349
 21
-4.7174716458
 31
0.0
 11
-33.9264940042
 21
-4.8267999895
 31
0.0
  0
SPLINE
  5
419
100
AcDbEntity
  8
RACCORDO
100
AcDbSpline
 62
7
  6
CONTINUOUS
 70
0
 71
3
 72
12
 73
8
 74
6
 42
0.0000001
 43
0.0000001
 44
0.0000000001
 12
0.1077501471
 22
-0.4047047557
 32
0.0
 13
0.312513104
 23
-0.2788038617
 33
0.0
 40
0.0
 40
0.0
 40
0.0
 40
0.0
 40
0.1121557558
 40
0.2349995989
 40
0.5039208998
 40
0.7737663569
 40
1.0
 40
1.0
 40
1.0
 40
1.0
 10
-34.036070454
 20
-4.4090974559
 30
0.0
 10
-34.0320421876
 20
-4.4242274451
 30
0.0
 10
-34.0200391464
 20
-4.4549433121
 30
0.0
 10
-33.9878604516
 20
-4.5175277772
 30
0.0
 10
-33.9372097245
 20
-4.5950703325
 30
0.0
 10
-33.8708443446
 20
-4.6788391744
 30
0.0
 10
-33.8228728342
 20
-4.7290706194
 30
0.0
 10
-33.7993058415
 20
-4.7500955571
 30
0.0
 11
-34.036070454
 21
-4.4090974559
 31
0.0
 11
-34.0199009921
 21
-4.4531977965
 31
0.0
 11
-33.9966992665
 21
-4.4991163443
 31
0.0
 11
-33.9359119488
 21
-4.5939283118
 31
0.0
 11
-33.8656005364
 21
-4.6824045401
 31
0.0
 11
-33.7993058415
 21
-4.7500955571
 31
0.0
  0
SPLINE
  5
41A
100
AcDbEntity
  8
0
100
AcDbSpline
 62
7
  6
CONTINUOUS
 70
0
 71
3
 72
18
 73
14
 74
12
 42
0.0000001
 43
0.0000001
 44
0.0000000001
 12
0.9412018931
 22
0.470597542
 32
0.0
 13
-0.7660303218
 23
0.7214711334
 33
0.0
 40
0.0
 40
0.0
 40
0.0
 40
0.0
 40
0.0457943347
 40
0.0910579538
 40
0.1389648722
 40
0.1905315713
 40
0.3034454178
 40
0.4295778457
 40
0.5663524447
 40
0.7114676369
 40
0.8584343766
 40
0.9305901667
 40
1.0
 40
1.0
 40
1.0
 40
1.0
 10
-0.7295652272
 20
-24.4017793321
 30
0.0
 10
-0.715197989
 20
-24.394595765
 30
0.0
 10
-0.6871095828
 20
-24.3792192225
 30
0.0
 10
-0.6487805836
 20
-24.3484488625
 30
0.0
 10
-0.6179186063
 20
-24.3075782061
 30
0.0
 10
-0.5846604151
 20
-24.2405629593
 30
0.0
 10
-0.5619129016
 20
-24.1397925337
 30
0.0
 10
-0.5608543829
 20
-24.0073929166
 30
0.0
 10
-0.5827817156
 20
-23.8652449147
 30
0.0
 10
-0.6322948152
 20
-23.7223740745
 30
0.0
 10
-0.6940658379
 20
-23.6097785868
 30
0.0
 10
-0.7536801843
 20
-23.5279031324
 30
0.0
 10
-0.7868279982
 20
-23.4906834674
 30
0.0
 10
-0.8045513439
 20
-23.4739910704
 30
0.0
 11
-0.7295652272
 21
-24.4017793321
 31
0.0
 11
-0.6876978115
 21
-24.3779191135
 31
0.0
 11
-0.6508859962
 21
-24.3476938192
 31
0.0
 11
-0.6200056783
 21
-24.3078466988
 31
0.0
 11
-0.59553304
 21
-24.2594153062
 31
0.0
 11
-0.5669721139
 21
-24.1440804486
 31
0.0
 11
-0.5643068169
 21
-24.0113787916
 31
0.0
 11
-0.5864290147
 21
-23.8691619753
 31
0.0
 11
-0.6359841319
 21
-23.7247224962
 31
0.0
 11
-0.7104023754
 21
-23.589152433
 31
0.0
 11
-0.7552603627
 21
-23.5278907649
 31
0.0
 11
-0.8045513439
 21
-23.4739910704
 31
0.0
  0
SPLINE
  5
41B
100
AcDbEntity
  8
RACCORDO
100
AcDbSpline
 62
7
  6
CONTINUOUS
 70
0
 71
3
 72
8
 73
4
 74
2
 42
0.0000001
 43
0.0000001
 44
0.0000000001
 12
0.0059647387
 22
-0.0053572607
 32
0.0
 13
0.0072567529
 23
-0.0034085023
 33
0.0
 40
0.0
 40
0.0
 40
0.0
 40
0.0
 40
1.0
 40
1.0
 40
1.0
 40
1.0
 10
-33.7993058415
 20
-4.7500955571
 30
0.0
 10
-33.7973175952
 20
-4.7518813107
 30
0.0
 10
-33.7950002762
 20
-4.753325129
 30
0.0
 10
-33.7925813585
 20
-4.7544612964
 30
0.0
 11
-33.7993058415
 21
-4.7500955571
 31
0.0
 11
-33.7925813585
 21
-4.7544612964
 31
0.0
  0
SPLINE
  5
41C
100
AcDbEntity
  8
RACCORDO
100
AcDbSpline
 62
7
  6
CONTINUOUS
 70
0
 71
3
 72
8
 73
4
 74
2
 42
0.0000001
 43
0.0000001
 44
0.0000000001
 12
-0.0001037943
 22
-0.0044166903
 32
0.0
 13
0.0011249435
 23
-0.0042722861
 33
0.0
 40
0.0
 40
0.0
 40
0.0
 40
0.0
 40
1.0
 40
1.0
 40
1.0
 40
1.0
 10
-34.0365625486
 20
-4.404707038
 30
0.0
 10
-34.0365971467
 20
-4.4061792681
 30
0.0
 10
-34.0364454352
 20
-4.4076733605
 30
0.0
 10
-34.036070454
 20
-4.4090974559
 30
0.0
 11
-34.0365625486
 21
-4.404707038
 31
0.0
 11
-34.036070454
 21
-4.4090974559
 31
0.0
  0
SPLINE
  5
41D
100
AcDbEntity
  8
RACCORDO
100
AcDbSpline
 62
7
  6
CONTINUOUS
 70
0
 71
3
 72
11
 73
7
 74
5
 42
0.0000001
 43
0.0000001
 44
0.0000000001
 12
0.4079949568
 22
0.1888862649
 32
0.0
 13
0.0027806954
 23
0.449588894
 33
0.0
 40
0.0
 40
0.0
 40
0.0
 40
0.0
 40
0.2166758208
 40
0.4494767836
 40
0.7094274039
 40
1.0
 40
1.0
 40
1.0
 40
1.0
 10
30.9070738209
 20
-41.1988879121
 30
0.0
 10
30.9365413683
 20
-41.1852455499
 30
0.0
 10
30.9926493501
 20
-41.1448233474
 30
0.0
 10
31.0531431425
 20
-41.0553206125
 30
0.0
 10
31.0897219002
 20
-40.9425210757
 30
0.0
 10
31.0973347758
 20
-40.8597375217
 30
0.0
 10
31.0976041071
 20
-40.816191451
 30
0.0
 11
30.9070738209
 21
-41.1988879121
 31
0.0
 11
30.9865045474
 21
-41.142489213
 31
0.0
 11
31.0465853652
 21
-41.05678379
 31
0.0
 11
31.0842574987
 21
-40.9461486107
 31
0.0
 11
31.0976041071
 21
-40.816191451
 31
0.0
  0
SPLINE
  5
41E
100
AcDbEntity
  8
RACCORDO
100
AcDbSpline
 62
7
  6
CONTINUOUS
 70
0
 71
3
 72
11
 73
7
 74
5
 42
0.0000001
 43
0.0000001
 44
0.0000000001
 12
-0.0064027244
 22
1.0264962609
 32
0.0
 13
-0.9153131695
 23
0.4646906178
 33
0.0
 40
0.0
 40
0.0
 40
0.0
 40
0.0
 40
0.2466706816
 40
0.5119105748
 40
0.7706373212
 40
1.0
 40
1.0
 40
1.0
 40
1.0
 10
31.0976041071
 20
3.4532879014
 30
0.0
 10
31.0970776523
 20
3.5376900788
 30
0.0
 10
31.0670657637
 20
3.7129487082
 30
0.0
 10
30.9611175388
 20
3.9567788315
 30
0.0
 10
30.8063744635
 20
4.165626107
 30
0.0
 10
30.6726843075
 20
4.2713354724
 30
0.0
 10
30.6027047474
 20
4.306863034
 30
0.0
 11
31.0976041071
 21
3.4532879014
 31
0.0
 11
31.0587817138
 21
3.703505535
 31
0.0
 11
30.9511011178
 21
3.9535805351
 31
0.0
 11
30.7909492098
 21
4.1654482517
 31
0.0
 11
30.6027047474
 21
4.306863034
 31
0.0
  0
SPLINE
  5
41F
100
AcDbEntity
  8
RACCORDO
100
AcDbSpline
 62
7
  6
CONTINUOUS
 70
0
 71
3
 72
11
 73
7
 74
5
 42
0.0000001
 43
0.0000001
 44
0.0000000001
 12
-0.2996813813
 22
0.1475650247
 32
0.0
 13
-0.2939897903
 23
-0.1586012926
 33
0.0
 40
0.0
 40
0.0
 40
0.0
 40
0.0
 40
0.279823212
 40
0.5359571133
 40
0.7731398267
 40
1.0
 40
1.0
 40
1.0
 40
1.0
 10
-36.8680041898
 20
38.0422175026
 30
0.0
 10
-36.895956792
 20
38.0559815423
 30
0.0
 10
-36.9518170409
 20
38.0780758597
 30
0.0
 10
-37.0372995581
 20
38.0930606887
 30
0.0
 10
-37.1181775361
 20
38.0874685273
 30
0.0
 10
-37.1675246715
 20
38.0695302697
 30
0.0
 10
-37.1897561964
 20
38.0575368308
 30
0.0
 11
-36.8680041898
 21
38.0422175026
 31
0.0
 11
-36.9552123379
 21
38.0758613691
 31
0.0
 11
-37.0396259745
 21
38.089817836
 31
0.0
 11
-37.1186141158
 21
38.0836434173
 31
0.0
 11
-37.1897561964
 21
38.0575368308
 31
0.0
  0
SPLINE
  5
420
100
AcDbEntity
  8
RACCORDO
100
AcDbSpline
 62
7
  6
CONTINUOUS
 70
0
 71
3
 72
11
 73
7
 74
5
 42
0.0000001
 43
0.0000001
 44
0.0000000001
 12
-0.3869291792
 22
-0.2017363431
 32
0.0
 13
0.000000017
 23
-0.436361939
 33
0.0
 40
0.0
 40
0.0
 40
0.0
 40
0.0
 40
0.2307483936
 40
0.4893409366
 40
0.7537520358
 40
1.0
 40
1.0
 40
1.0
 40
1.0
 10
30.6027047473
 20
4.306863034
 30
0.0
 10
30.5729436518
 20
4.291346255
 30
0.0
 10
30.5162707951
 20
4.2459822631
 30
0.0
 10
30.450896595
 20
4.1568154843
 30
0.0
 10
30.406494142
 20
4.053105278
 30
0.0
 10
30.3942749261
 20
3.9786978193
 30
0.0
 10
30.3942749275
 20
3.9428800729
 30
0.0
 11
30.6027047473
 21
4.306863034
 31
0.0
 11
30.5226600509
 21
4.245778783
 31
0.0
 11
30.4551104139
 21
4.1553912873
 31
0.0
 11
30.4100723041
 21
4.0491657327
 31
0.0
 11
30.3942749275
 21
3.9428800729
 31
0.0
  0
SPLINE
  5
421
100
AcDbEntity
  8
RACCORDO
100
AcDbSpline
 62
7
  6
CONTINUOUS
 70
0
 71
3
 72
11
 73
7
 74
5
 42
0.0000001
 43
0.0000001
 44
0.0000000001
 12
-0.3869291622
 22
-0.2017363657
 32
0.0
 13
-0.0000000107
 23
-0.4363619344
 33
0.0
 40
0.0
 40
0.0
 40
0.0
 40
0.0
 40
0.2307483903
 40
0.489340935
 40
0.7537520367
 40
1.0
 40
1.0
 40
1.0
 40
1.0
 10
-36.8680041896
 20
38.0422175024
 30
0.0
 10
-36.8977652833
 20
38.0267007219
 30
0.0
 10
-36.9544381368
 20
37.981336728
 30
0.0
 10
-37.0198123347
 20
37.8921699492
 30
0.0
 10
-37.0642147894
 20
37.7884597447
 30
0.0
 10
-37.0764340088
 20
37.7140522873
 30
0.0
 10
-37.0764340097
 20
37.6782345415
 30
0.0
 11
-36.8680041896
 21
38.0422175024
 31
0.0
 11
-36.948048881
 21
37.9811332491
 31
0.0
 11
-37.0155985164
 21
37.8907457527
 31
0.0
 11
-37.0606366281
 21
37.7845201991
 31
0.0
 11
-37.0764340097
 21
37.6782345415
 31
0.0
  0
SPLINE
  5
422
100
AcDbEntity
  8
RACCORDO
100
AcDbSpline
 62
7
  6
CONTINUOUS
 70
0
 71
3
 72
11
 73
7
 74
5
 42
0.0000001
 43
0.0000001
 44
0.0000000001
 12
-0.3888881866
 22
-0.1877724931
 32
0.0
 13
-0.3862564178
 23
0.1931282231
 33
0.0
 40
0.0
 40
0.0
 40
0.0
 40
0.0
 40
0.2366411434
 40
0.5012534759
 40
0.7651925789
 40
1.0
 40
1.0
 40
1.0
 40
1.0
 10
31.0976041071
 20
3.453287901
 30
0.0
 10
31.0669284588
 20
3.4384763352
 30
0.0
 10
30.9969702505
 20
3.4174180902
 30
0.0
 10
30.886670504
 20
3.4076745381
 30
0.0
 10
30.7767231601
 20
3.4183257011
 30
0.0
 10
30.7073065194
 20
3.4400068742
 30
0.0
 10
30.6770745616
 20
3.4551228542
 30
0.0
 11
31.0976041071
 21
3.453287901
 31
0.0
 11
31.0003624398
 21
3.421864039
 31
0.0
 11
30.8865887457
 21
3.4112012495
 31
0.0
 11
30.7732045649
 21
3.4228552299
 31
0.0
 11
30.6770745616
 21
3.4551228542
 31
0.0
  0
SPLINE
  5
423
100
AcDbEntity
  8
RACCORDO
100
AcDbSpline
 62
7
  6
CONTINUOUS
 70
0
 71
3
 72
11
 73
7
 74
5
 42
0.0000001
 43
0.0000001
 44
0.0000000001
 12
-0.3888881974
 22
-0.1877724611
 32
0.0
 13
-0.3862564288
 23
0.1931281918
 33
0.0
 40
0.0
 40
0.0
 40
0.0
 40
0.0
 40
0.2366411417
 40
0.5012534766
 40
0.7651925816
 40
1.0
 40
1.0
 40
1.0
 40
1.0
 10
31.0976041071
 20
-40.8161914509
 30
0.0
 10
31.0669284581
 20
-40.8310030141
 30
0.0
 10
30.9969702496
 20
-40.852061255
 30
0.0
 10
30.8866705039
 20
-40.8618048051
 30
0.0
 10
30.7767231608
 20
-40.8511536444
 30
0.0
 10
30.7073065199
 20
-40.8294724755
 30
0.0
 10
30.6770745616
 20
-40.8143564981
 30
0.0
 11
31.0976041071
 21
-40.8161914509
 31
0.0
 11
31.0003624397
 21
-40.8476153069
 31
0.0
 11
30.8865887455
 21
-40.8582780945
 31
0.0
 11
30.7732045647
 21
-40.8466241163
 31
0.0
 11
30.6770745616
 21
-40.8143564981
 31
0.0
  0
SPLINE
  5
424
100
AcDbEntity
  8
0
100
AcDbSpline
 62
7
  6
CONTINUOUS
 70
0
 71
3
 72
9
 73
5
 74
3
 42
0.0000001
 43
0.0000001
 44
0.0000000001
 12
-0.1087199623
 22
0.5446236221
 32
0.0
 13
-0.1090135263
 23
0.5445649374
 33
0.0
 40
0.0
 40
0.0
 40
0.0
 40
0.0
 40
0.4998343578
 40
1.0
 40
1.0
 40
1.0
 40
1.0
 10
-0.6294119155
 20
-25.4810905009
 30
0.0
 10
-0.6475259064
 20
-25.3903499681
 30
0.0
 10
-0.6819272739
 20
-25.2084480241
 30
0.0
 10
-0.7171914767
 20
-25.0267132301
 30
0.0
 10
-0.7353664168
 20
-24.9359223395
 30
0.0
 11
-0.6294119155
 21
-25.4810905009
 31
0.0
 11
-0.6821314432
 21
-25.2085500452
 31
0.0
 11
-0.7353664168
 21
-24.9359223395
 31
0.0
  0
SPLINE
  5
425
100
AcDbEntity
  8
0
100
AcDbSpline
 62
7
  6
CONTINUOUS
 70
0
 71
3
 72
11
 73
7
 74
5
 42
0.0000001
 43
0.0000001
 44
0.0000000001
 12
-0.092198631
 22
0.4605902008
 32
0.0
 13
-0.3158044674
 23
0.3477232505
 33
0.0
 40
0.0
 40
0.0
 40
0.0
 40
0.0
 40
0.2378385395
 40
0.4940954459
 40
0.7548551463
 40
1.0
 40
1.0
 40
1.0
 40
1.0
 10
-0.7353664168
 20
-24.9359223395
 30
0.0
 10
-0.7426758794
 20
-24.8994069727
 30
0.0
 10
-0.7573065926
 20
-24.823424308
 30
0.0
 10
-0.7886989823
 20
-24.7092571366
 30
0.0
 10
-0.8332126782
 20
-24.5982632281
 30
0.0
 10
-0.8764582267
 20
-24.5306124138
 30
0.0
 10
-0.9022641733
 20
-24.5021982254
 30
0.0
 11
-0.7353664168
 21
-24.9359223395
 31
0.0
 11
-0.758132315
 21
-24.8265472225
 31
0.0
 11
-0.7906477246
 21
-24.7106511254
 31
0.0
 11
-0.8377639264
 21
-24.5975897084
 31
0.0
 11
-0.9022641733
 21
-24.5021982254
 31
0.0
  0
SPLINE
  5
426
100
AcDbEntity
  8
0
100
AcDbSpline
 62
7
  6
CONTINUOUS
 70
0
 71
3
 72
11
 73
7
 74
5
 42
0.0000001
 43
0.0000001
 44
0.0000000001
 12
-0.6333494509
 22
0.5969143223
 32
0.0
 13
-0.8289470693
 23
0.2651131674
 33
0.0
 40
0.0
 40
0.0
 40
0.0
 40
0.0
 40
0.2725542141
 40
0.5262218346
 40
0.7671916502
 40
1.0
 40
1.0
 40
1.0
 40
1.0
 10
-0.9459727001
 20
-23.5447017485
 30
0.0
 10
-1.0035133874
 20
-23.4904712438
 30
0.0
 10
-1.1267518188
 20
-23.3985737788
 30
0.0
 10
-1.3219891081
 20
-23.2910333466
 30
0.0
 10
-1.5163561992
 20
-23.2080659568
 30
0.0
 10
-1.6465184663
 20
-23.1636921001
 30
0.0
 10
-1.7108470661
 20
-23.1431185804
 30
0.0
 11
-0.9459727001
 21
-23.5447017485
 31
0.0
 11
-1.1340390171
 21
-23.4001404625
 31
0.0
 11
-1.3268736777
 21
-23.292651533
 31
0.0
 11
-1.5194611412
 21
-23.2096345476
 31
0.0
 11
-1.7108470661
 21
-23.1431185804
 31
0.0
  0
SPLINE
  5
427
100
AcDbEntity
  8
CURVE
100
AcDbSpline
 62
7
  6
CONTINUOUS
 70
0
 71
3
 72
47
 73
43
 74
41
 42
0.0000001
 43
0.0000001
 44
0.0000000001
 12
-0.1490074333
 22
-1.5785251846
 32
0.0
 13
-1.3669075595
 23
0.4776007164
 33
0.0
 40
0.0
 40
0.0
 40
0.0
 40
0.0
 40
0.0625
 40
0.09375
 40
0.125
 40
0.140625
 40
0.15625
 40
0.1875
 40
0.21875
 40
0.25
 40
0.265625
 40
0.28125
 40
0.3125
 40
0.34375
 40
0.375
 40
0.40625
 40
0.421875
 40
0.4296875
 40
0.4375
 40
0.453125
 40
0.46875
 40
0.5
 40
0.53125
 40
0.546875
 40
0.5625
 40
0.5703125
 40
0.578125
 40
0.59375
 40
0.625
 40
0.65625
 40
0.6875
 40
0.71875
 40
0.734375
 40
0.75
 40
0.78125
 40
0.8125
 40
0.84375
 40
0.859375
 40
0.875
 40
0.90625
 40
0.9375
 40
1.0
 40
1.0
 40
1.0
 40
1.0
 10
-32.0849701963
 20
17.6682894854
 30
0.0
 10
-32.0880745179
 20
17.635403544
 30
0.0
 10
-32.0928547251
 20
17.5861594736
 30
0.0
 10
-32.098733435
 20
17.5201613467
 30
0.0
 10
-32.1034386697
 20
17.4796195307
 30
0.0
 10
-32.1048520841
 20
17.4455740874
 30
0.0
 10
-32.1148437589
 20
17.4174109952
 30
0.0
 10
-32.1262162824
 20
17.3814362282
 30
0.0
 10
-32.1403953786
 20
17.3386542089
 30
0.0
 10
-32.1519271587
 20
17.3027380582
 30
0.0
 10
-32.1615684689
 20
17.27444601
 30
0.0
 10
-32.1697735416
 20
17.2446020465
 30
0.0
 10
-32.1902818058
 20
17.2183853667
 30
0.0
 10
-32.2124809588
 20
17.184314418
 30
0.0
 10
-32.2353607763
 20
17.1509934471
 30
0.0
 10
-32.254167379
 20
17.1229018228
 30
0.0
 10
-32.2675800252
 20
17.1035902823
 30
0.0
 10
-32.2748971835
 20
17.0920479097
 30
0.0
 10
-32.2856663758
 20
17.0855584022
 30
0.0
 10
-32.297945477
 20
17.0757155956
 30
0.0
 10
-32.3182552617
 20
17.0609392772
 30
0.0
 10
-32.3433978777
 20
17.0421012773
 30
0.0
 10
-32.3686899247
 20
17.02351847
 30
0.0
 10
-32.3887606199
 20
17.0083338435
 30
0.0
 10
-32.4016374449
 20
16.9995118071
 30
0.0
 10
-32.4111813034
 20
16.9909297207
 30
0.0
 10
-32.4234894553
 20
16.9879107796
 30
0.0
 10
-32.4445436113
 20
16.9816491231
 30
0.0
 10
-32.4748925251
 20
16.9732690241
 30
0.0
 10
-32.5111166136
 20
16.9627369011
 30
0.0
 10
-32.5476846573
 20
16.9532045953
 30
0.0
 10
-32.577173683
 20
16.9423249534
 30
0.0
 10
-32.6047736721
 20
16.9456028389
 30
0.0
 10
-32.6316726264
 20
16.9467829995
 30
0.0
 10
-32.665543119
 20
16.9490141378
 30
0.0
 10
-32.706054624
 20
16.9512095908
 30
0.0
 10
-32.7399287655
 20
16.9536375948
 30
0.0
 10
-32.7668196921
 20
16.954384651
 30
0.0
 10
-32.7956863873
 20
16.9665940749
 30
0.0
 10
-32.8310929606
 20
16.9779294429
 30
0.0
 10
-32.8881234333
 20
16.998270333
 30
0.0
 10
-32.9308107979
 20
17.0130300328
 30
0.0
 10
-32.9592880387
 20
17.0229800477
 30
0.0
 11
-32.0849701963
 21
17.6682894854
 31
0.0
 11
-32.0942831609
 21
17.5696316614
 31
0.0
 11
-32.0989396432
 21
17.5203027493
 31
0.0
 11
-32.1035961255
 21
17.4709738373
 31
0.0
 11
-32.1059243666
 21
17.4463093813
 31
0.0
 11
-32.1122713689
 21
17.4244003748
 31
0.0
 11
-32.1263049604
 21
17.3815008451
 31
0.0
 11
-32.1403385519
 21
17.3386013153
 31
0.0
 11
-32.1543721434
 21
17.2957017855
 31
0.0
 11
-32.1613889392
 21
17.2742520206
 31
0.0
 11
-32.1684057349
 21
17.2528022557
 31
0.0
 11
-32.1898800118
 21
17.2179502112
 31
0.0
 11
-32.2125944029
 21
17.1844394143
 31
0.0
 11
-32.2353087939
 21
17.1509286174
 31
0.0
 11
-32.258023185
 21
17.1174178204
 31
0.0
 11
-32.2693803805
 21
17.1006624219
 31
0.0
 11
-32.2753286878
 21
17.0926795178
 31
0.0
 11
-32.2828952518
 21
17.0870653843
 31
0.0
 11
-32.2980283798
 21
17.0758371171
 31
0.0
 11
-32.3131615079
 21
17.06460885
 31
0.0
 11
-32.3434277639
 21
17.0421523158
 31
0.0
 11
-32.37369402
 21
17.0196957816
 31
0.0
 11
-32.388827148
 21
17.0084675145
 31
0.0
 11
-32.403960276
 21
16.9972392474
 31
0.0
 11
-32.41152684
 21
16.9916251138
 31
0.0
 11
-32.4203893168
 21
16.9886189192
 31
0.0
 11
-32.4385462414
 21
16.9834758428
 31
0.0
 11
-32.4748600904
 21
16.9731896901
 31
0.0
 11
-32.5111739394
 21
16.9629035373
 31
0.0
 11
-32.5474877885
 21
16.9526173846
 31
0.0
 11
-32.5844077443
 21
16.9441428914
 31
0.0
 11
-32.6046860427
 21
16.9453406233
 31
0.0
 11
-32.6249643411
 21
16.9465383552
 31
0.0
 11
-32.6655209379
 21
16.948933819
 31
0.0
 11
-32.7060775348
 21
16.9513292828
 31
0.0
 11
-32.7466341316
 21
16.9537247466
 31
0.0
 11
-32.7670666632
 21
16.955817447
 31
0.0
 11
-32.7884245938
 21
16.9632799582
 31
0.0
 11
-32.831140455
 21
16.9782049805
 31
0.0
 11
-32.8738563162
 21
16.9931300029
 31
0.0
 11
-32.9592880387
 21
17.0229800477
 31
0.0
  0
SPLINE
  5
428
100
AcDbEntity
  8
CURVE
100
AcDbSpline
 62
7
  6
CONTINUOUS
 70
0
 71
3
 72
82
 73
78
 74
76
 42
0.0000001
 43
0.0000001
 44
0.0000000001
 12
0.4059573425
 22
3.0410408144
 32
0.0
 13
0.4160337618
 23
-3.4994130219
 33
0.0
 40
0.0
 40
0.0
 40
0.0
 40
0.0
 40
0.03125
 40
0.046875
 40
0.0546875
 40
0.0625
 40
0.06640625
 40
0.0703125
 40
0.078125
 40
0.09375
 40
0.109375
 40
0.125
 40
0.1328125
 40
0.140625
 40
0.15625
 40
0.171875
 40
0.1875
 40
0.203125
 40
0.2109375
 40
0.21875
 40
0.234375
 40
0.25
 40
0.2578125
 40
0.265625
 40
0.2734375
 40
0.28125
 40
0.296875
 40
0.3125
 40
0.3203125
 40
0.328125
 40
0.33203125
 40
0.3359375
 40
0.34375
 40
0.359375
 40
0.375
 40
0.40625
 40
0.421875
 40
0.4375
 40
0.453125
 40
0.46875
 40
0.4765625
 40
0.484375
 40
0.5
 40
0.515625
 40
0.5234375
 40
0.53125
 40
0.546875
 40
0.5625
 40
0.578125
 40
0.59375
 40
0.625
 40
0.640625
 40
0.65625
 40
0.6640625
 40
0.671875
 40
0.6875
 40
0.71875
 40
0.7265625
 40
0.734375
 40
0.7421875
 40
0.75
 40
0.765625
 40
0.78125
 40
0.796875
 40
0.8125
 40
0.828125
 40
0.84375
 40
0.859375
 40
0.8671875
 40
0.875
 40
0.890625
 40
0.90625
 40
0.921875
 40
0.9375
 40
0.953125
 40
0.96875
 40
1.0
 40
1.0
 40
1.0
 40
1.0
 10
-8.9260805156
 20
-16.1562839708
 30
0.0
 10
-8.9218517933
 20
-16.1246064623
 30
0.0
 10
-8.9155511898
 20
-16.0770554888
 30
0.0
 10
-8.9080518058
 20
-16.0217008407
 30
0.0
 10
-8.9039788434
 20
-15.9898960595
 30
0.0
 10
-8.9009376423
 20
-15.9704230299
 30
0.0
 10
-8.8996410204
 20
-15.9539160939
 30
0.0
 10
-8.8941955219
 20
-15.9407992403
 30
0.0
 10
-8.8860980492
 20
-15.9166722275
 30
0.0
 10
-8.8737167809
 20
-15.8828892004
 30
0.0
 10
-8.8594903346
 20
-15.8417457682
 30
0.0
 10
-8.8466159771
 20
-15.8085600615
 30
0.0
 10
-8.8384465186
 20
-15.7796722275
 30
0.0
 10
-8.8225721387
 20
-15.7592610785
 30
0.0
 10
-8.8046635189
 20
-15.731624128
 30
0.0
 10
-8.7824062232
 20
-15.6992796878
 30
0.0
 10
-8.760121767
 20
-15.6670524687
 30
0.0
 10
-8.7422810484
 20
-15.6391224652
 30
0.0
 10
-8.7222542189
 20
-15.625109734
 30
0.0
 10
-8.7032385611
 20
-15.6096301028
 30
0.0
 10
-8.6790780197
 20
-15.5908682246
 30
0.0
 10
-8.6552173905
 20
-15.5715893281
 30
0.0
 10
-8.635721873
 20
-15.5569369261
 30
0.0
 10
-8.6221413299
 20
-15.5439456898
 30
0.0
 10
-8.6045999139
 20
-15.5385768354
 30
0.0
 10
-8.5818230311
 20
-15.5302422665
 30
0.0
 10
-8.5531497855
 20
-15.5202063312
 30
0.0
 10
-8.5245205187
 20
-15.510111413
 30
0.0
 10
-8.5016732697
 20
-15.5018712168
 30
0.0
 10
-8.4872313385
 20
-15.4971612399
 30
0.0
 10
-8.4760535138
 20
-15.4923779739
 30
0.0
 10
-8.4635027289
 20
-15.4913037293
 30
0.0
 10
-8.4408991204
 20
-15.4911552078
 30
0.0
 10
-8.4089557902
 20
-15.4899788497
 30
0.0
 10
-8.3575718808
 20
-15.4889907906
 30
0.0
 10
-8.3067233321
 20
-15.4857234389
 30
0.0
 10
-8.2514233124
 20
-15.5020114261
 30
0.0
 10
-8.2105620501
 20
-15.5113928779
 30
0.0
 10
-8.1694715132
 20
-15.5223348146
 30
0.0
 10
-8.1354821876
 20
-15.5286135945
 30
0.0
 10
-8.1074515245
 20
-15.5439685997
 30
0.0
 10
-8.0795668283
 20
-15.5575116051
 30
0.0
 10
-8.0446652098
 20
-15.5751153843
 30
0.0
 10
-8.0097641254
 20
-15.5922840733
 30
0.0
 10
-7.9818785748
 20
-15.6065232231
 30
0.0
 10
-7.9538513291
 20
-15.6190936508
 30
0.0
 10
-7.9198358388
 20
-15.6466918529
 30
0.0
 10
-7.8787215926
 20
-15.6766999635
 30
0.0
 10
-7.8378342588
 20
-15.7080439629
 30
0.0
 10
-7.7825018244
 20
-15.7468575312
 30
0.0
 10
-7.7316115017
 20
-15.8008699076
 30
0.0
 10
-7.6800952678
 20
-15.8529698579
 30
0.0
 10
-7.648279063
 20
-15.8862831718
 30
0.0
 10
-7.6220671176
 20
-15.9116099014
 30
0.0
 10
-7.5985859457
 20
-15.9416316412
 30
0.0
 10
-7.5587893898
 20
-15.9963752534
 30
0.0
 10
-7.5183717831
 20
-16.0501542147
 30
0.0
 10
-7.4841335898
 20
-16.0967421708
 30
0.0
 10
-7.4665584403
 20
-16.1196039707
 30
0.0
 10
-7.4529253733
 20
-16.1461484406
 30
0.0
 10
-7.4333892785
 20
-16.1802629808
 30
0.0
 10
-7.4093039955
 20
-16.2232851284
 30
0.0
 10
-7.3808324535
 20
-16.2750097678
 30
0.0
 10
-7.3501019843
 20
-16.3257358022
 30
0.0
 10
-7.3279764262
 20
-16.3803581945
 30
0.0
 10
-7.3057482632
 20
-16.4349151315
 30
0.0
 10
-7.2833401366
 20
-16.4894678745
 30
0.0
 10
-7.2653520806
 20
-16.5349970199
 30
0.0
 10
-7.2494066988
 20
-16.5712579702
 30
0.0
 10
-7.2411560414
 20
-16.6083258954
 30
0.0
 10
-7.2281871241
 20
-16.6543851632
 30
0.0
 10
-7.2138291947
 20
-16.7097688878
 30
0.0
 10
-7.1989011329
 20
-16.7651432212
 30
0.0
 10
-7.1850488295
 20
-16.8204425164
 30
0.0
 10
-7.1805087755
 20
-16.8749552537
 30
0.0
 10
-7.1711879143
 20
-16.9479148887
 30
0.0
 10
-7.164932446
 20
-17.0025725183
 30
0.0
 10
-7.160598761
 20
-17.0390247373
 30
0.0
 11
-8.9260805156
 21
-16.1562839708
 31
0.0
 11
-8.9133943487
 21
-16.0612514453
 31
0.0
 11
-8.9070512652
 21
-16.0137351826
 31
0.0
 11
-8.9038797235
 21
-15.9899770512
 31
0.0
 11
-8.9007081817
 21
-15.9662189199
 31
0.0
 11
-8.8991224109
 21
-15.9543398542
 31
0.0
 11
-8.8956250942
 21
-15.9440226195
 31
0.0
 11
-8.8883573828
 21
-15.9236112687
 31
0.0
 11
-8.8738219601
 21
-15.8827885671
 31
0.0
 11
-8.8592865375
 21
-15.8419658655
 31
0.0
 11
-8.8447511148
 21
-15.8011431639
 31
0.0
 11
-8.8374834034
 21
-15.7807318132
 31
0.0
 11
-8.8266696907
 21
-15.7642223315
 31
0.0
 11
-8.8045356936
 21
-15.7317607781
 31
0.0
 11
-8.7824016964
 21
-15.6992992246
 31
0.0
 11
-8.7602676993
 21
-15.6668376712
 31
0.0
 11
-8.7367948198
 21
-15.636313555
 31
0.0
 11
-8.7223806154
 21
-15.6249263715
 31
0.0
 11
-8.707966411
 21
-15.613539188
 31
0.0
 11
-8.6791380021
 21
-15.5907648209
 31
0.0
 11
-8.6503095933
 21
-15.5679904538
 31
0.0
 11
-8.6358953889
 21
-15.5566032703
 31
0.0
 11
-8.6214811844
 21
-15.5452160868
 31
0.0
 11
-8.6046763729
 21
-15.5384298234
 31
0.0
 11
-8.5875037757
 21
-15.5323513938
 31
0.0
 11
-8.5531585813
 21
-15.5201945346
 31
0.0
 11
-8.5188133868
 21
-15.5080376755
 31
0.0
 11
-8.5016407896
 21
-15.5019592459
 31
0.0
 11
-8.4844681924
 21
-15.4958808164
 31
0.0
 11
-8.4758818937
 21
-15.4928416016
 31
0.0
 11
-8.4666099615
 21
-15.4916547384
 31
0.0
 11
-8.4473804635
 21
-15.4911333636
 31
0.0
 11
-8.4089214675
 21
-15.490090614
 31
0.0
 11
-8.3704624715
 21
-15.4890478643
 31
0.0
 11
-8.2925273712
 21
-15.4914250473
 31
0.0
 11
-8.2515256045
 21
-15.501539003
 31
0.0
 11
-8.2105238377
 21
-15.5116529587
 31
0.0
 11
-8.1695220709
 21
-15.5217669145
 31
0.0
 11
-8.1284045883
 21
-15.5333133442
 31
0.0
 11
-8.1074697704
 21
-15.5437420997
 31
0.0
 11
-8.0865349525
 21
-15.5541708553
 31
0.0
 11
-8.0446653166
 21
-15.5750283663
 31
0.0
 11
-8.0027956808
 21
-15.5958858773
 31
0.0
 11
-7.9818608629
 21
-15.6063146328
 31
0.0
 11
-7.960926045
 21
-15.6167433883
 31
0.0
 11
-7.9197865625
 21
-15.6461735642
 31
0.0
 11
-7.8787594113
 21
-15.6769226116
 31
0.0
 11
-7.8377322602
 21
-15.7076716591
 31
0.0
 11
-7.796705109
 21
-15.7384207065
 31
0.0
 11
-7.7186802839
 21
-15.8137355263
 31
0.0
 11
-7.6801715561
 21
-15.8531200269
 31
0.0
 11
-7.6416628282
 21
-15.8925045274
 31
0.0
 11
-7.6224084643
 21
-15.9121967777
 31
0.0
 11
-7.6045179289
 21
-15.9342312333
 31
0.0
 11
-7.5701006866
 21
-15.9806423498
 31
0.0
 11
-7.5012662021
 21
-16.0734645829
 31
0.0
 11
-7.484057581
 21
-16.0966701411
 31
0.0
 11
-7.4672154541
 21
-16.120217749
 31
0.0
 11
-7.4527555393
 21
-16.1459886798
 31
0.0
 11
-7.4382956246
 21
-16.1717596106
 31
0.0
 11
-7.4093757951
 21
-16.2233014721
 31
0.0
 11
-7.3804559656
 21
-16.2748433336
 31
0.0
 11
-7.3515361362
 21
-16.3263851952
 31
0.0
 11
-7.3279593254
 21
-16.3803472853
 31
0.0
 11
-7.3057182693
 21
-16.4349144325
 31
0.0
 11
-7.2834772132
 21
-16.4894815797
 31
0.0
 11
-7.2612361571
 21
-16.544048727
 31
0.0
 11
-7.2503685394
 21
-16.5713588421
 31
0.0
 11
-7.243041666
 21
-16.5990405382
 31
0.0
 11
-7.2283879193
 21
-16.6544039304
 31
0.0
 11
-7.2137341727
 21
-16.7097673226
 31
0.0
 11
-7.199080426
 21
-16.7651307148
 31
0.0
 11
-7.1866008711
 21
-16.8203114234
 31
0.0
 11
-7.1801003436
 21
-16.8749897519
 31
0.0
 11
-7.173599816
 21
-16.9296680803
 31
0.0
 11
-7.160598761
 21
-17.0390247373
 31
0.0
  0
SPLINE
  5
429
100
AcDbEntity
  8
CURVE
100
AcDbSpline
 62
7
  6
CONTINUOUS
 70
0
 71
3
 72
39
 73
35
 74
33
 42
0.0000001
 43
0.0000001
 44
0.0000000001
 12
1.3480007993
 22
-0.8743753952
 32
0.0
 13
0.1532753801
 23
-1.7528804783
 33
0.0
 40
0.0
 40
0.0
 40
0.0
 40
0.0
 40
0.0625
 40
0.09375
 40
0.125
 40
0.140625
 40
0.15625
 40
0.1875
 40
0.21875
 40
0.25
 40
0.265625
 40
0.28125
 40
0.3125
 40
0.34375
 40
0.375
 40
0.4375
 40
0.46875
 40
0.5
 40
0.53125
 40
0.5625
 40
0.625
 40
0.65625
 40
0.6875
 40
0.71875
 40
0.734375
 40
0.75
 40
0.78125
 40
0.8125
 40
0.84375
 40
0.859375
 40
0.875
 40
0.90625
 40
0.9375
 40
1.0
 40
1.0
 40
1.0
 40
1.0
 10
-32.9592880107
 20
19.1879167511
 30
0.0
 10
-32.9312046607
 20
19.169700597
 30
0.0
 10
-32.8890997361
 20
19.1422351421
 30
0.0
 10
-32.8328794352
 20
19.1061794308
 30
0.0
 10
-32.7979092499
 20
19.0824677463
 30
0.0
 10
-32.7695511955
 20
19.0661816506
 30
0.0
 10
-32.7425867636
 20
19.0401040392
 30
0.0
 10
-32.7086957283
 20
19.0087800539
 30
0.0
 10
-32.6681316689
 20
18.9705934366
 30
0.0
 10
-32.6342250035
 20
18.9390666669
 30
0.0
 10
-32.6072949578
 20
18.9134351811
 30
0.0
 10
-32.5796663914
 20
18.8892076464
 30
0.0
 10
-32.5501254811
 20
18.8489061826
 30
0.0
 10
-32.5134296348
 20
18.8029670974
 30
0.0
 10
-32.4653135129
 20
18.7404852731
 30
0.0
 10
-32.4148208601
 20
18.6805363706
 30
0.0
 10
-32.3760125701
 20
18.6086329213
 30
0.0
 10
-32.3452109442
 20
18.5563676671
 30
0.0
 10
-32.3153487706
 20
18.5034303551
 30
0.0
 10
-32.2727826714
 20
18.4342151369
 30
0.0
 10
-32.2448368743
 20
18.3581368475
 30
0.0
 10
-32.2138345729
 20
18.2834122812
 30
0.0
 10
-32.191589058
 20
18.2271358262
 30
0.0
 10
-32.1709706351
 20
18.1804514966
 30
0.0
 10
-32.1626807536
 20
18.1423895494
 30
0.0
 10
-32.1529540573
 20
18.1044515241
 30
0.0
 10
-32.1413157269
 20
18.0569926827
 30
0.0
 10
-32.1270087606
 20
18.0000304775
 30
0.0
 10
-32.1155294681
 20
17.9526490377
 30
0.0
 10
-32.1054528886
 20
17.9145407288
 30
0.0
 10
-32.1039495739
 20
17.8784127363
 30
0.0
 10
-32.0991336751
 20
17.8325743922
 30
0.0
 10
-32.0930769419
 20
17.7596138716
 30
0.0
 10
-32.0881634334
 20
17.7048077944
 30
0.0
 10
-32.0849701963
 20
17.6682894511
 30
0.0
 11
-32.9592880107
 21
19.1879167511
 31
0.0
 11
-32.8750379608
 21
19.1332682889
 31
0.0
 11
-32.8329129358
 21
19.1059440578
 31
0.0
 11
-32.7907879108
 21
19.0786198267
 31
0.0
 11
-32.7697253983
 21
19.0649577111
 31
0.0
 11
-32.7493155052
 21
19.0467083107
 31
0.0
 11
-32.7087132588
 21
19.0086804148
 31
0.0
 11
-32.6681110124
 21
18.9706525189
 31
0.0
 11
-32.627508766
 21
18.932624623
 31
0.0
 11
-32.6072076427
 21
18.913610675
 31
0.0
 11
-32.5869065195
 21
18.8945967271
 31
0.0
 11
-32.5499176888
 21
18.8493099612
 31
0.0
 11
-32.513531094
 21
18.8028133836
 31
0.0
 11
-32.4771444992
 21
18.756316806
 31
0.0
 11
-32.4060924845
 21
18.6615642961
 31
0.0
 11
-32.375730002
 21
18.6089099768
 31
0.0
 11
-32.3453675196
 21
18.5562556575
 31
0.0
 11
-32.3150050371
 21
18.5036013382
 31
0.0
 11
-32.2846425547
 21
18.4509470189
 31
0.0
 11
-32.2368315903
 21
18.3395685162
 31
0.0
 11
-32.2140022748
 21
18.2833734428
 31
0.0
 11
-32.1911729592
 21
18.2271783695
 31
0.0
 11
-32.1695819028
 21
18.1708764695
 31
0.0
 11
-32.1625011518
 21
18.1424050396
 31
0.0
 11
-32.1554204007
 21
18.1139336098
 31
0.0
 11
-32.1412588986
 21
18.0569907501
 31
0.0
 11
-32.1270973965
 21
18.0000478904
 31
0.0
 11
-32.1129358944
 21
17.9431050307
 31
0.0
 11
-32.1065245467
 21
17.9147882683
 31
0.0
 11
-32.1041296189
 21
17.8873995109
 31
0.0
 11
-32.0993397632
 21
17.8326219959
 31
0.0
 11
-32.0945499076
 21
17.777844481
 31
0.0
 11
-32.0849701963
 21
17.6682894511
 31
0.0
  0
SPLINE
  5
42A
100
AcDbEntity
  8
ASSI
100
AcDbSpline
 62
7
  6
CONTINUOUS
 70
0
 71
3
 72
9
 73
5
 74
3
 42
0.0000001
 43
0.0000001
 44
0.0000000001
 12
0.1108866591
 22
0.0557557172
 32
0.0
 13
0.0296087567
 23
0.1205316253
 33
0.0
 40
0.0
 40
0.0
 40
0.0
 40
0.0
 40
0.4684215498
 40
1.0
 40
1.0
 40
1.0
 40
1.0
 10
-2.9238617603
 20
-18.4192077202
 30
0.0
 10
-2.9065478601
 20
-18.4105019937
 30
0.0
 10
-2.8744207617
 20
-18.3814673177
 30
0.0
 10
-2.8585794771
 20
-18.3420410289
 30
0.0
 10
-2.8533330181
 20
-18.3206836907
 30
0.0
 11
-2.9238617603
 21
-18.4192077202
 31
0.0
 11
-2.8800232225
 21
-18.3810209432
 31
0.0
 11
-2.8533330181
 21
-18.3206836907
 31
0.0
  0
SPLINE
  5
42B
100
AcDbEntity
  8
ASSI
100
AcDbSpline
 62
7
  6
CONTINUOUS
 70
0
 71
3
 72
9
 73
5
 74
3
 42
0.0000001
 43
0.0000001
 44
0.0000000001
 12
0.1108866591
 22
0.0557557172
 32
0.0
 13
0.0296087567
 23
0.1205316253
 33
0.0
 40
0.0
 40
0.0
 40
0.0
 40
0.0
 40
0.4684215498
 40
1.0
 40
1.0
 40
1.0
 40
1.0
 10
12.9860408164
 20
-26.3741590085
 30
0.0
 10
13.0033547166
 20
-26.365453282
 30
0.0
 10
13.035481815
 20
-26.336418606
 30
0.0
 10
13.0513230996
 20
-26.2969923173
 30
0.0
 10
13.0565695586
 20
-26.2756349791
 30
0.0
 11
12.9860408164
 21
-26.3741590085
 31
0.0
 11
13.0298793542
 21
-26.3359722315
 31
0.0
 11
13.0565695586
 21
-26.2756349791
 31
0.0
  0
SPLINE
  5
42C
100
AcDbEntity
  8
ASSI
100
AcDbSpline
 62
7
  6
CONTINUOUS
 70
0
 71
3
 72
8
 73
4
 74
2
 42
0.0000001
 43
0.0000001
 44
0.0000000001
 12
0.0017199938
 22
-0.0008550042
 32
0.0
 13
0.0000082581
 23
-0.0019207661
 33
0.0
 40
0.0
 40
0.0
 40
0.0
 40
0.0
 40
1.0
 40
1.0
 40
1.0
 40
1.0
 10
-2.2509949044
 20
-17.2166873147
 30
0.0
 10
-2.2504215732
 20
-17.2169723161
 30
0.0
 10
-2.249979141
 20
-17.2176755665
 30
0.0
 10
-2.2499763883
 20
-17.2183158219
 30
0.0
 11
-2.2509949044
 21
-17.2166873147
 31
0.0
 11
-2.2499763883
 21
-17.2183158219
 31
0.0
  0
SPLINE
  5
42D
100
AcDbEntity
  8
ASSI
100
AcDbSpline
 62
7
  6
CONTINUOUS
 70
0
 71
3
 72
8
 73
4
 74
2
 42
0.0000001
 43
0.0000001
 44
0.0000000001
 12
-0.0322886643
 22
0.0161348252
 32
0.0
 13
-0.0345470447
 23
0.0104590691
 33
0.0
 40
0.0
 40
0.0
 40
0.0
 40
0.0
 40
1.0
 40
1.0
 40
1.0
 40
1.0
 10
-6.4443590454
 20
-15.1200052443
 30
0.0
 10
-6.4551219335
 20
-15.1146269692
 30
0.0
 10
-6.4663227713
 20
-15.1100001329
 30
0.0
 10
-6.4778384529
 20
-15.1065137765
 30
0.0
 11
-6.4443590454
 21
-15.1200052443
 31
0.0
 11
-6.4778384529
 21
-15.1065137765
 31
0.0
  0
SPLINE
  5
42E
100
AcDbEntity
  8
ASSI
100
AcDbSpline
 62
7
  6
CONTINUOUS
 70
0
 71
3
 72
9
 73
5
 74
3
 42
0.0000001
 43
0.0000001
 44
0.0000000001
 12
-0.0774879905
 22
0.0234593799
 32
0.0
 13
-0.075213758
 23
-0.0299603369
 33
0.0
 40
0.0
 40
0.0
 40
0.0
 40
0.0
 40
0.2646796662
 40
1.0
 40
1.0
 40
1.0
 40
1.0
 10
-6.4778384529
 20
-15.1065137765
 30
0.0
 10
-6.4846749514
 20
-15.1044440363
 30
0.0
 10
-6.510816635
 20
-15.0981310468
 30
0.0
 10
-6.5396022589
 20
-15.099060117
 30
0.0
 10
-6.5580376607
 20
-15.1064035986
 30
0.0
 11
-6.4778384529
 21
-15.1065137765
 31
0.0
 11
-6.4986985177
 21
-15.1016095412
 31
0.0
 11
-6.5580376607
 21
-15.1064035986
 31
0.0
  0
SPLINE
  5
42F
100
AcDbEntity
  8
ASSI
100
AcDbSpline
 62
7
  6
CONTINUOUS
 70
0
 71
3
 72
8
 73
4
 74
2
 42
0.0000001
 43
0.0000001
 44
0.0000000001
 12
0.0017199938
 22
-0.0008550042
 32
0.0
 13
0.0000082581
 23
-0.0019207661
 33
0.0
 40
0.0
 40
0.0
 40
0.0
 40
0.0
 40
1.0
 40
1.0
 40
1.0
 40
1.0
 10
13.6589076723
 20
-25.1716386031
 30
0.0
 10
13.6594810035
 20
-25.1719236045
 30
0.0
 10
13.6599234357
 20
-25.1726268549
 30
0.0
 10
13.6599261884
 20
-25.1732671103
 30
0.0
 11
13.6589076723
 21
-25.1716386031
 31
0.0
 11
13.6599261884
 21
-25.1732671103
 31
0.0
  0
SPLINE
  5
430
100
AcDbEntity
  8
ASSI
100
AcDbSpline
 62
7
  6
CONTINUOUS
 70
0
 71
3
 72
8
 73
4
 74
2
 42
0.0000001
 43
0.0000001
 44
0.0000000001
 12
-0.0322886643
 22
0.0161348252
 32
0.0
 13
-0.0345470447
 23
0.0104590691
 33
0.0
 40
0.0
 40
0.0
 40
0.0
 40
0.0
 40
1.0
 40
1.0
 40
1.0
 40
1.0
 10
9.4655435313
 20
-23.0749565326
 30
0.0
 10
9.4547806432
 20
-23.0695782575
 30
0.0
 10
9.4435798054
 20
-23.0649514213
 30
0.0
 10
9.4320641238
 20
-23.0614650649
 30
0.0
 11
9.4655435313
 21
-23.0749565326
 31
0.0
 11
9.4320641238
 21
-23.0614650649
 31
0.0
  0
SPLINE
  5
431
100
AcDbEntity
  8
ASSI
100
AcDbSpline
 62
7
  6
CONTINUOUS
 70
0
 71
3
 72
9
 73
5
 74
3
 42
0.0000001
 43
0.0000001
 44
0.0000000001
 12
-0.0774879905
 22
0.0234593799
 32
0.0
 13
-0.075213758
 23
-0.0299603369
 33
0.0
 40
0.0
 40
0.0
 40
0.0
 40
0.0
 40
0.2646796662
 40
1.0
 40
1.0
 40
1.0
 40
1.0
 10
9.4320641238
 20
-23.0614650649
 30
0.0
 10
9.4252276253
 20
-23.0593953246
 30
0.0
 10
9.3990859416
 20
-23.0530823352
 30
0.0
 10
9.3703003178
 20
-23.0540114053
 30
0.0
 10
9.351864916
 20
-23.061354887
 30
0.0
 11
9.4320641238
 21
-23.0614650649
 31
0.0
 11
9.411204059
 21
-23.0565608296
 31
0.0
 11
9.351864916
 21
-23.061354887
 31
0.0
  0
SPLINE
  5
432
100
AcDbEntity
  8
ASSI
100
AcDbSpline
 62
7
  6
CONTINUOUS
 70
0
 71
3
 72
8
 73
4
 74
2
 42
0.0000001
 43
0.0000001
 44
0.0000000001
 12
0.0017199875
 22
-0.0008550395
 32
0.0
 13
0.0000082235
 23
-0.0019207763
 33
0.0
 40
0.0
 40
0.0
 40
0.0
 40
0.0
 40
1.0
 40
1.0
 40
1.0
 40
1.0
 10
-18.1608974443
 20
-9.1751335038
 30
0.0
 10
-18.1603241151
 20
-9.175418517
 30
0.0
 10
-18.1598817026
 20
-9.1761217849
 30
0.0
 10
-18.1598789614
 20
-9.1767620436
 30
0.0
 11
-18.1608974443
 21
-9.1751335038
 31
0.0
 11
-18.1598789614
 21
-9.1767620436
 31
0.0
  0
SPLINE
  5
433
100
AcDbEntity
  8
ASSI
100
AcDbSpline
 62
7
  6
CONTINUOUS
 70
0
 71
3
 72
8
 73
4
 74
2
 42
0.0000001
 43
0.0000001
 44
0.0000000001
 12
-0.032268327
 22
0.0161247358
 32
0.0
 13
-0.0345239903
 23
0.0104568695
 33
0.0
 40
0.0
 40
0.0
 40
0.0
 40
0.0
 40
1.0
 40
1.0
 40
1.0
 40
1.0
 10
-22.3542612125
 20
-7.0784516197
 30
0.0
 10
-22.3650173215
 20
-7.0730767078
 30
0.0
 10
-22.3762107821
 20
-7.068452315
 30
0.0
 10
-22.3877187789
 20
-7.0649666918
 30
0.0
 11
-22.3542612125
 21
-7.0784516197
 31
0.0
 11
-22.3877187789
 21
-7.0649666918
 31
0.0
  0
SPLINE
  5
434
100
AcDbEntity
  8
ASSI
100
AcDbSpline
 62
7
  6
CONTINUOUS
 70
0
 71
3
 72
9
 73
5
 74
3
 42
0.0000001
 43
0.0000001
 44
0.0000000001
 12
-0.0479673986
 22
0.0145287038
 32
0.0
 13
-0.0500426309
 23
-0.0027730218
 33
0.0
 40
0.0
 40
0.0
 40
0.0
 40
0.0
 40
0.257878631
 40
1.0
 40
1.0
 40
1.0
 40
1.0
 10
-22.3877187789
 20
-7.0649666918
 30
0.0
 10
-22.3918420346
 20
-7.0637178111
 30
0.0
 10
-22.4079858048
 20
-7.0594429817
 30
0.0
 10
-22.424885869
 20
-7.0576772299
 30
0.0
 10
-22.4372651043
 20
-7.0583632029
 30
0.0
 11
-22.3877187789
 21
-7.0649666918
 31
0.0
 11
-22.4002185959
 21
-7.0616798939
 31
0.0
 11
-22.4372651043
 21
-7.0583632029
 31
0.0
  0
SPLINE
  5
435
100
AcDbEntity
  8
ASSI
100
AcDbSpline
 62
7
  6
CONTINUOUS
 70
0
 71
3
 72
8
 73
4
 74
2
 42
0.0000001
 43
0.0000001
 44
0.0000000001
 12
-0.0213414878
 22
-0.0011825999
 32
0.0
 13
-0.0206349063
 23
-0.005572996
 33
0.0
 40
0.0
 40
0.0
 40
0.0
 40
0.0
 40
1.0
 40
1.0
 40
1.0
 40
1.0
 10
-22.4372651043
 20
-7.0583632029
 30
0.0
 10
-22.4443789335
 20
-7.0587574028
 30
0.0
 10
-22.4515025978
 20
-7.059819269
 30
0.0
 10
-22.4583808999
 20
-7.0616769343
 30
0.0
 11
-22.4372651043
 21
-7.0583632029
 31
0.0
 11
-22.4583808999
 21
-7.0616769343
 31
0.0
  0
SPLINE
  5
436
100
AcDbEntity
  8
ASSI
100
AcDbSpline
 62
7
  6
CONTINUOUS
 70
0
 71
3
 72
8
 73
4
 74
2
 42
0.0000001
 43
0.0000001
 44
0.0000000001
 12
-0.032268327
 22
0.0161247358
 32
0.0
 13
-0.0345239903
 23
0.0104568695
 33
0.0
 40
0.0
 40
0.0
 40
0.0
 40
0.0
 40
1.0
 40
1.0
 40
1.0
 40
1.0
 10
25.3754465176
 20
-30.9433054847
 30
0.0
 10
25.3646904086
 20
-30.9379305728
 30
0.0
 10
25.353496948
 20
-30.9333061801
 30
0.0
 10
25.3419889512
 20
-30.9298205569
 30
0.0
 11
25.3754465176
 21
-30.9433054847
 31
0.0
 11
25.3419889512
 21
-30.9298205569
 31
0.0
  0
SPLINE
  5
437
100
AcDbEntity
  8
ASSI
100
AcDbSpline
 62
7
  6
CONTINUOUS
 70
0
 71
3
 72
9
 73
5
 74
3
 42
0.0000001
 43
0.0000001
 44
0.0000000001
 12
-0.0479673986
 22
0.0145287038
 32
0.0
 13
-0.0500426309
 23
-0.0027730218
 33
0.0
 40
0.0
 40
0.0
 40
0.0
 40
0.0
 40
0.257878631
 40
1.0
 40
1.0
 40
1.0
 40
1.0
 10
25.3419889512
 20
-30.9298205569
 30
0.0
 10
25.3378656955
 20
-30.9285716761
 30
0.0
 10
25.3217219253
 20
-30.9242968468
 30
0.0
 10
25.3048218611
 20
-30.922531095
 30
0.0
 10
25.2924426258
 20
-30.9232170679
 30
0.0
 11
25.3419889512
 21
-30.9298205569
 31
0.0
 11
25.3294891342
 21
-30.926533759
 31
0.0
 11
25.2924426258
 21
-30.9232170679
 31
0.0
  0
SPLINE
  5
438
100
AcDbEntity
  8
ASSI
100
AcDbSpline
 62
7
  6
CONTINUOUS
 70
0
 71
3
 72
8
 73
4
 74
2
 42
0.0000001
 43
0.0000001
 44
0.0000000001
 12
-0.0213414878
 22
-0.0011825999
 32
0.0
 13
-0.0206349063
 23
-0.005572996
 33
0.0
 40
0.0
 40
0.0
 40
0.0
 40
0.0
 40
1.0
 40
1.0
 40
1.0
 40
1.0
 10
25.2924426258
 20
-30.9232170679
 30
0.0
 10
25.2853287966
 20
-30.9236112679
 30
0.0
 10
25.2782051323
 20
-30.924673134
 30
0.0
 10
25.2713268301
 20
-30.9265307993
 30
0.0
 11
25.2924426258
 21
-30.9232170679
 31
0.0
 11
25.2713268301
 21
-30.9265307993
 31
0.0
  0
SPLINE
  5
439
100
AcDbEntity
  8
RACCORDO
100
AcDbSpline
 62
7
  6
CONTINUOUS
 70
0
 71
3
 72
9
 73
5
 74
3
 42
0.0000001
 43
0.0000001
 44
0.0000000001
 12
0.0354488864
 22
0.0257201477
 32
0.0
 13
0.0312928904
 23
0.0306415495
 33
0.0
 40
0.0
 40
0.0
 40
0.0
 40
0.0
 40
0.2592712118
 40
1.0
 40
1.0
 40
1.0
 40
1.0
 10
-32.6048541782
 20
28.5351191374
 30
0.0
 10
-32.601790553
 20
28.5373419687
 30
0.0
 10
-32.5901166594
 20
28.5461080452
 30
0.0
 10
-32.579034834
 20
28.5556768787
 30
0.0
 10
-32.5713083191
 20
28.5632425713
 30
0.0
 11
-32.6048541782
 21
28.5351191374
 31
0.0
 11
-32.5957769436
 21
28.5419415138
 31
0.0
 11
-32.5713083191
 21
28.5632425713
 31
0.0
  0
SPLINE
  5
43A
100
AcDbEntity
  8
RACCORDO
100
AcDbSpline
 62
7
  6
CONTINUOUS
 70
0
 71
3
 72
9
 73
5
 74
3
 42
0.0000001
 43
0.0000001
 44
0.0000000001
 12
0.0920051784
 22
0.0900901513
 32
0.0
 13
0.0000053934
 23
0.1287679625
 33
0.0
 40
0.0
 40
0.0
 40
0.0
 40
0.0
 40
0.5333183432
 40
1.0
 40
1.0
 40
1.0
 40
1.0
 10
-32.5713083191
 20
28.5632425713
 30
0.0
 10
-32.5549523026
 20
28.579258148
 30
0.0
 10
-32.5277023447
 20
28.6136531386
 30
0.0
 10
-32.5166085034
 20
28.6569024363
 30
0.0
 10
-32.5166076644
 20
28.6769336516
 30
0.0
 11
-32.5713083191
 21
28.5632425713
 31
0.0
 11
-32.5304817571
 21
28.6184635237
 31
0.0
 11
-32.5166076644
 21
28.6769336516
 31
0.0
  0
SPLINE
  5
43B
100
AcDbEntity
  8
RACCORDO
100
AcDbSpline
 62
7
  6
CONTINUOUS
 70
0
 71
3
 72
9
 73
5
 74
3
 42
0.0000001
 43
0.0000001
 44
0.0000000001
 12
0.0354488864
 22
0.0257201477
 32
0.0
 13
0.0312928904
 23
0.0306415495
 33
0.0
 40
0.0
 40
0.0
 40
0.0
 40
0.0
 40
0.2592712118
 40
1.0
 40
1.0
 40
1.0
 40
1.0
 10
-32.6048541782
 20
9.4825602542
 30
0.0
 10
-32.601790553
 20
9.4847830855
 30
0.0
 10
-32.5901166594
 20
9.4935491619
 30
0.0
 10
-32.579034834
 20
9.5031179954
 30
0.0
 10
-32.5713083191
 20
9.510683688
 30
0.0
 11
-32.6048541782
 21
9.4825602542
 31
0.0
 11
-32.5957769436
 21
9.4893826306
 31
0.0
 11
-32.5713083191
 21
9.510683688
 31
0.0
  0
SPLINE
  5
43C
100
AcDbEntity
  8
RACCORDO
100
AcDbSpline
 62
7
  6
CONTINUOUS
 70
0
 71
3
 72
9
 73
5
 74
3
 42
0.0000001
 43
0.0000001
 44
0.0000000001
 12
0.0920051784
 22
0.0900901513
 32
0.0
 13
0.0000053934
 23
0.1287679625
 33
0.0
 40
0.0
 40
0.0
 40
0.0
 40
0.0
 40
0.5333183432
 40
1.0
 40
1.0
 40
1.0
 40
1.0
 10
-32.5713083191
 20
9.510683688
 30
0.0
 10
-32.5549523026
 20
9.5266992648
 30
0.0
 10
-32.5277023447
 20
9.5610942554
 30
0.0
 10
-32.5166085034
 20
9.604343553
 30
0.0
 10
-32.5166076644
 20
9.6243747684
 30
0.0
 11
-32.5713083191
 21
9.510683688
 31
0.0
 11
-32.5304817571
 21
9.5659046405
 31
0.0
 11
-32.5166076644
 21
9.6243747684
 31
0.0
  0
SPLINE
  5
43D
100
AcDbEntity
  8
DRAFT
100
AcDbSpline
 62
7
  6
CONTINUOUS
 70
0
 71
3
 72
9
 73
5
 74
3
 42
0.0000001
 43
0.0000001
 44
0.0000000001
 12
-0.033283447
 22
-0.1354905919
 32
0.0
 13
-0.1246408007
 23
-0.0626909815
 33
0.0
 40
0.0
 40
0.0
 40
0.0
 40
0.0
 40
0.5315820734
 40
1.0
 40
1.0
 40
1.0
 40
1.0
 10
-18.7377198218
 20
-10.2618625366
 30
0.0
 10
-18.7436174498
 20
-10.2858706599
 30
0.0
 10
-18.7614217989
 20
-10.3301881013
 30
0.0
 10
-18.7975235033
 20
-10.3628409122
 30
0.0
 10
-18.8169848318
 20
-10.3726294387
 30
0.0
 11
-18.7377198218
 21
-10.2618625366
 31
0.0
 11
-18.7677168529
 21
-10.3296911892
 31
0.0
 11
-18.8169848318
 21
-10.3726294387
 31
0.0
  0
SPLINE
  5
43E
100
AcDbEntity
  8
RACCORDO
100
AcDbSpline
 62
7
  6
CONTINUOUS
 70
0
 71
3
 72
9
 73
5
 74
3
 42
0.0000001
 43
0.0000001
 44
0.0000000001
 12
0.1211461399
 22
0.0559349775
 32
0.0
 13
0.1185133153
 23
-0.0613164172
 33
0.0
 40
0.0
 40
0.0
 40
0.0
 40
0.0
 40
0.4648265797
 40
1.0
 40
1.0
 40
1.0
 40
1.0
 10
-5.1552453646
 20
-16.8769554427
 30
0.0
 10
-5.136474716
 20
-16.8682887546
 30
0.0
 10
-5.0901118049
 20
-16.8616588081
 30
0.0
 10
-5.0469031969
 20
-16.8767510839
 30
0.0
 10
-5.0257614715
 20
-16.8876893894
 30
0.0
 11
-5.1552453646
 21
-16.8769554427
 31
0.0
 11
-5.0940548198
 21
-16.8668185887
 31
0.0
 11
-5.0257614715
 21
-16.8876893894
 31
0.0
  0
SPLINE
  5
43F
100
AcDbEntity
  8
RACCORDO
100
AcDbSpline
 62
7
  6
CONTINUOUS
 70
0
 71
3
 72
9
 73
5
 74
3
 42
0.0000001
 43
0.0000001
 44
0.0000000001
 12
0.1211461399
 22
0.0559349775
 32
0.0
 13
0.1185133153
 23
-0.0613164172
 33
0.0
 40
0.0
 40
0.0
 40
0.0
 40
0.0
 40
0.4648265797
 40
1.0
 40
1.0
 40
1.0
 40
1.0
 10
3.8957214346
 20
-21.4024388423
 30
0.0
 10
3.9144920832
 20
-21.3937721542
 30
0.0
 10
3.9608549943
 20
-21.3871422077
 30
0.0
 10
4.0040636023
 20
-21.4022344835
 30
0.0
 10
4.0252053277
 20
-21.413172789
 30
0.0
 11
3.8957214346
 21
-21.4024388423
 31
0.0
 11
3.9569119794
 21
-21.3923019883
 31
0.0
 11
4.0252053277
 21
-21.413172789
 31
0.0
  0
SPLINE
  5
440
100
AcDbEntity
  8
RACCORDO
100
AcDbSpline
 62
7
  6
CONTINUOUS
 70
0
 71
3
 72
11
 73
7
 74
5
 42
0.0000001
 43
0.0000001
 44
0.0000000001
 12
0.1712669468
 22
0.0869973878
 32
0.0
 13
0.0003984659
 23
0.1920956891
 33
0.0
 40
0.0
 40
0.0
 40
0.0
 40
0.0
 40
0.3609436533
 40
0.647566348
 40
0.8565838892
 40
1.0
 40
1.0
 40
1.0
 40
1.0
 10
-31.6254594325
 20
-3.9835911314
 30
0.0
 10
-31.6048535267
 20
-3.9731240797
 30
0.0
 10
-31.5685357267
 20
-3.9530055657
 30
0.0
 10
-31.5237481247
 20
-3.9209371552
 30
0.0
 10
-31.4948009763
 20
-3.8918607675
 30
0.0
 10
-31.4851492946
 20
-3.8699141806
 30
0.0
 10
-31.4851302458
 20
-3.8607309751
 30
0.0
 11
-31.6254594325
 21
-3.9835911314
 31
0.0
 11
-31.5651314876
 21
-3.9494150902
 31
0.0
 11
-31.5208489661
 21
-3.9166956302
 31
0.0
 11
-31.4940497155
 21
-3.8867968091
 31
0.0
 11
-31.4851302458
 21
-3.8607309751
 31
0.0
  0
SPLINE
  5
441
100
AcDbEntity
  8
RACCORDO
100
AcDbSpline
 62
7
  6
CONTINUOUS
 70
0
 71
3
 72
11
 73
7
 74
5
 42
0.0000001
 43
0.0000001
 44
0.0000000001
 12
0.3974925818
 22
-0.1920748414
 32
0.0
 13
-0.0061350168
 23
-0.4414243523
 33
0.0
 40
0.0
 40
0.0
 40
0.0
 40
0.0
 40
0.230440651
 40
0.4885148136
 40
0.7528953886
 40
1.0
 40
1.0
 40
1.0
 40
1.0
 10
-3.4874708129
 20
-17.6568347188
 30
0.0
 10
-3.4569379964
 20
-17.6715886693
 30
0.0
 10
-3.398569866
 20
-17.7161654255
 30
0.0
 10
-3.3315186161
 20
-17.8056593834
 30
0.0
 10
-3.2865478742
 20
-17.9107048706
 30
0.0
 10
-3.2748657569
 20
-17.9862933017
 30
0.0
 10
-3.2753710872
 20
-18.0226526327
 30
0.0
 11
-3.4874708129
 21
-17.6568347188
 31
0.0
 11
-3.4051785941
 21
-17.7166459062
 31
0.0
 11
-3.3359837831
 21
-17.807157792
 31
0.0
 11
-3.2904028873
 21
-17.9146047184
 31
0.0
 11
-3.2753710872
 21
-18.0226526327
 31
0.0
  0
SPLINE
  5
442
100
AcDbEntity
  8
RACCORDO
100
AcDbSpline
 62
7
  6
CONTINUOUS
 70
0
 71
3
 72
14
 73
10
 74
8
 42
0.0000001
 43
0.0000001
 44
0.0000000001
 12
0.3943528897
 22
-0.2003465686
 32
0.0
 13
-0.0117720728
 23
-0.4421700662
 33
0.0
 40
0.0
 40
0.0
 40
0.0
 40
0.0
 40
0.1107719331
 40
0.2307901487
 40
0.3575288845
 40
0.4888703697
 40
0.752742191
 40
0.879807714
 40
1.0
 40
1.0
 40
1.0
 40
1.0
 10
-31.8375591565
 20
-3.6177732166
 30
0.0
 10
-31.8229980792
 20
-3.6251708088
 30
0.0
 10
-31.7937352285
 20
-3.6428502506
 30
0.0
 10
-31.753529954
 20
-3.6772908645
 30
0.0
 10
-31.7169691235
 20
-3.7196141444
 30
0.0
 10
-31.6741753709
 20
-3.7837418773
 30
0.0
 10
-31.6436794237
 20
-3.8555285901
 30
0.0
 10
-31.6277186996
 20
-3.9293103568
 30
0.0
 10
-31.6249877457
 20
-3.9658759632
 30
0.0
 10
-31.6254593831
 20
-3.9835911069
 30
0.0
 11
-31.8375591565
 21
-3.6177732166
 31
0.0
 11
-31.79567007
 21
-3.6431907012
 31
0.0
 11
-31.7552054871
 21
-3.677554569
 31
0.0
 11
-31.7183296509
 21
-3.719778836
 31
0.0
 11
-31.6860712678
 21
-3.7680957554
 31
0.0
 11
-31.6405293194
 21
-3.8755616599
 31
0.0
 11
-31.6288218957
 21
-3.9305332863
 31
0.0
 11
-31.6254593831
 21
-3.9835911069
 31
0.0
  0
SPLINE
  5
443
100
AcDbEntity
  8
RACCORDO
100
AcDbSpline
 62
7
  6
CONTINUOUS
 70
0
 71
3
 72
11
 73
7
 74
5
 42
0.0000001
 43
0.0000001
 44
0.0000000001
 12
0.3974925818
 22
-0.1920748414
 32
0.0
 13
-0.0061350168
 23
-0.4414243523
 33
0.0
 40
0.0
 40
0.0
 40
0.0
 40
0.0
 40
0.230440651
 40
0.4885148136
 40
0.7528953886
 40
1.0
 40
1.0
 40
1.0
 40
1.0
 10
5.5634959863
 20
-22.1823181183
 30
0.0
 10
5.5940288028
 20
-22.1970720688
 30
0.0
 10
5.6523969332
 20
-22.2416488251
 30
0.0
 10
5.7194481831
 20
-22.331142783
 30
0.0
 10
5.7644189249
 20
-22.4361882702
 30
0.0
 10
5.7761010423
 20
-22.5117767013
 30
0.0
 10
5.7755957119
 20
-22.5481360323
 30
0.0
 11
5.5634959863
 21
-22.1823181183
 31
0.0
 11
5.6457882051
 21
-22.2421293058
 31
0.0
 11
5.7149830161
 21
-22.3326411916
 31
0.0
 11
5.7605639119
 21
-22.440088118
 31
0.0
 11
5.7755957119
 21
-22.5481360323
 31
0.0
  0
SPLINE
  5
444
100
AcDbEntity
  8
RACCORDO
100
AcDbSpline
 62
7
  6
CONTINUOUS
 70
0
 71
3
 72
9
 73
5
 74
3
 42
0.0000001
 43
0.0000001
 44
0.0000000001
 12
-0.1200027248
 22
0.0599767827
 32
0.0
 13
-0.1210098253
 23
-0.0579179644
 33
0.0
 40
0.0
 40
0.0
 40
0.0
 40
0.0
 40
0.465035448
 40
1.0
 40
1.0
 40
1.0
 40
1.0
 10
-4.8953035802
 20
-16.8809830017
 30
0.0
 10
-4.9139054205
 20
-16.8716858917
 30
0.0
 10
-4.9602826948
 20
-16.8635611087
 30
0.0
 10
-5.0041828158
 20
-16.8773613701
 30
0.0
 10
-5.0257614715
 20
-16.8876893894
 30
0.0
 11
-4.8953035802
 21
-16.8809830017
 31
0.0
 11
-4.9565038695
 21
-16.8688707331
 31
0.0
 11
-5.0257614715
 21
-16.8876893894
 31
0.0
  0
SPLINE
  5
445
100
AcDbEntity
  8
ASSI
100
AcDbSpline
 62
7
  6
CONTINUOUS
 70
0
 71
3
 72
11
 73
7
 74
5
 42
0.0000001
 43
0.0000001
 44
0.0000000001
 12
0.0483159092
 22
0.0240461291
 32
0.0
 13
0.048326814
 23
-0.0240242057
 33
0.0
 40
0.0
 40
0.0
 40
0.0
 40
0.0
 40
0.4141056993
 40
0.7151930062
 40
0.9055096016
 40
1.0
 40
1.0
 40
1.0
 40
1.0
 10
-18.211252176
 20
-9.1931938006
 30
0.0
 10
-18.2045828782
 20
-9.1898745875
 30
0.0
 10
-18.192957163
 20
-9.1844786419
 30
0.0
 10
-18.1777295166
 20
-9.1782066403
 30
0.0
 10
-18.1679329057
 20
-9.1752115092
 30
0.0
 10
-18.1624195843
 20
-9.1743768182
 30
0.0
 10
-18.1608974443
 20
-9.1751335038
 30
0.0
 11
-18.211252176
 21
-9.1931938006
 31
0.0
 11
-18.1909854235
 21
-9.1837741873
 31
0.0
 11
-18.1758844106
 21
-9.1777741103
 31
0.0
 11
-18.1659952155
 21
-9.174999052
 31
0.0
 11
-18.1608974443
 21
-9.1751335038
 31
0.0
  0
SPLINE
  5
446
100
AcDbEntity
  8
ASSI
100
AcDbSpline
 62
7
  6
CONTINUOUS
 70
0
 71
3
 72
11
 73
7
 74
5
 42
0.0000001
 43
0.0000001
 44
0.0000000001
 12
0.048315538
 22
0.0240467905
 32
0.0
 13
0.0483272103
 23
-0.0240233238
 33
0.0
 40
0.0
 40
0.0
 40
0.0
 40
0.0
 40
0.4141046671
 40
0.7151915315
 40
0.9055086154
 40
1.0
 40
1.0
 40
1.0
 40
1.0
 10
13.6085529774
 20
-25.1896989177
 30
0.0
 10
13.6152222073
 20
-25.1863796216
 30
0.0
 10
13.6268479607
 20
-25.1809838247
 30
0.0
 10
13.642075547
 20
-25.1747117921
 30
0.0
 10
13.6518721813
 20
-25.1717166323
 30
0.0
 10
13.6573855039
 20
-25.1708819374
 30
0.0
 10
13.6589076723
 20
-25.1716386031
 30
0.0
 11
13.6085529774
 21
-25.1896989177
 31
0.0
 11
13.6288196677
 21
-25.1802793397
 31
0.0
 11
13.6439206429
 21
-25.1742792633
 31
0.0
 11
13.6538098506
 21
-25.1715041791
 31
0.0
 11
13.6589076723
 21
-25.1716386031
 31
0.0
  0
SPLINE
  5
447
100
AcDbEntity
  8
ASSI
100
AcDbSpline
 62
7
  6
CONTINUOUS
 70
0
 71
3
 72
11
 73
7
 74
5
 42
0.0000001
 43
0.0000001
 44
0.0000000001
 12
0.048315538
 22
0.0240467905
 32
0.0
 13
0.0483272103
 23
-0.0240233238
 33
0.0
 40
0.0
 40
0.0
 40
0.0
 40
0.0
 40
0.4141046671
 40
0.7151915315
 40
0.9055086154
 40
1.0
 40
1.0
 40
1.0
 40
1.0
 10
-2.3013495993
 20
-17.2347476293
 30
0.0
 10
-2.2946803694
 20
-17.2314283332
 30
0.0
 10
-2.283054616
 20
-17.2260325363
 30
0.0
 10
-2.2678270297
 20
-17.2197605037
 30
0.0
 10
-2.2580303954
 20
-17.2167653439
 30
0.0
 10
-2.2525170728
 20
-17.215930649
 30
0.0
 10
-2.2509949044
 20
-17.2166873147
 30
0.0
 11
-2.3013495993
 21
-17.2347476293
 31
0.0
 11
-2.281082909
 21
-17.2253280513
 31
0.0
 11
-2.2659819338
 21
-17.2193279749
 31
0.0
 11
-2.2560927261
 21
-17.2165528907
 31
0.0
 11
-2.2509949044
 21
-17.2166873147
 31
0.0
  0
SPLINE
  5
448
100
AcDbEntity
  8
RACCORDO
100
AcDbSpline
 62
7
  6
CONTINUOUS
 70
0
 71
3
 72
11
 73
7
 74
5
 42
0.0000001
 43
0.0000001
 44
0.0000000001
 12
0.0021654052
 22
-0.1535620513
 32
0.0
 13
-0.1351790738
 23
-0.0728876573
 33
0.0
 40
0.0
 40
0.0
 40
0.0
 40
0.0
 40
0.2885237755
 40
0.5479952821
 40
0.7816826091
 40
1.0
 40
1.0
 40
1.0
 40
1.0
 10
-28.8878750013
 20
14.8332241197
 30
0.0
 10
-28.8876667444
 20
14.8184553521
 30
0.0
 10
-28.889652988
 20
14.7902670835
 30
0.0
 10
-28.90109115
 20
14.75151765
 30
0.0
 10
-28.9206951331
 20
14.7201865052
 30
0.0
 10
-28.9391679891
 20
14.7053428358
 30
0.0
 10
-28.9490053034
 20
14.7000386214
 30
0.0
 11
-28.8878750013
 21
14.8332241197
 31
0.0
 11
-28.8914305427
 21
14.7890562928
 31
0.0
 11
-28.9032324316
 21
14.7509951146
 31
0.0
 11
-28.9227272836
 21
14.7208624695
 31
0.0
 11
-28.9490053034
 21
14.7000386214
 31
0.0
  0
SPLINE
  5
449
100
AcDbEntity
  8
RACCORDO
100
AcDbSpline
 62
7
  6
CONTINUOUS
 70
0
 71
3
 72
11
 73
7
 74
5
 42
0.0000001
 43
0.0000001
 44
0.0000000001
 12
0.3312438182
 22
-0.1600623678
 32
0.0
 13
-0.005112514
 23
-0.367853627
 33
0.0
 40
0.0
 40
0.0
 40
0.0
 40
0.0
 40
0.2304406468
 40
0.488514815
 40
0.7528953925
 40
1.0
 40
1.0
 40
1.0
 40
1.0
 10
-29.0646247727
 20
20.6235645143
 30
0.0
 10
-29.0391807594
 20
20.6112695557
 30
0.0
 10
-28.9905406505
 20
20.574122259
 30
0.0
 10
-28.9346646085
 20
20.4995439603
 30
0.0
 10
-28.8971889902
 20
20.4120060538
 30
0.0
 10
-28.8874538927
 20
20.3490156946
 30
0.0
 10
-28.8878750013
 20
20.3187162526
 30
0.0
 11
-29.0646247727
 21
20.6235645143
 31
0.0
 11
-28.9960479248
 21
20.5737218592
 31
0.0
 11
-28.9383855809
 21
20.4982952861
 31
0.0
 11
-28.900401501
 21
20.4087561798
 31
0.0
 11
-28.8878750013
 21
20.3187162526
 31
0.0
  0
SPLINE
  5
44A
100
AcDbEntity
  8
RACCORDO
100
AcDbSpline
 62
7
  6
CONTINUOUS
 70
0
 71
3
 72
9
 73
5
 74
3
 42
0.0000001
 43
0.0000001
 44
0.0000000001
 12
-0.1199868676
 22
0.0599059461
 32
0.0
 13
-0.1209684762
 23
-0.0578981739
 33
0.0
 40
0.0
 40
0.0
 40
0.0
 40
0.0
 40
0.4650398515
 40
1.0
 40
1.0
 40
1.0
 40
1.0
 10
-3.357055272
 20
-17.6501071756
 30
0.0
 10
-3.3756548304
 20
-17.6408209582
 30
0.0
 10
-3.422016492
 20
-17.632713385
 30
0.0
 10
-3.4658997082
 20
-17.6465103135
 30
0.0
 10
-3.4874708129
 20
-17.6568347188
 30
0.0
 11
-3.357055272
 21
-17.6501071756
 31
0.0
 11
-3.4182388771
 21
-17.6380173817
 31
0.0
 11
-3.4874708129
 21
-17.6568347188
 31
0.0
  0
SPLINE
  5
44B
100
AcDbEntity
  8
RACCORDO
100
AcDbSpline
 62
7
  6
CONTINUOUS
 70
0
 71
3
 72
11
 73
7
 74
5
 42
0.0000001
 43
0.0000001
 44
0.0000000001
 12
-0.0000124808
 22
-0.1402926118
 32
0.0
 13
-0.1245837348
 23
-0.064505117
 33
0.0
 40
0.0
 40
0.0
 40
0.0
 40
0.0
 40
0.2077729763
 40
0.4361383275
 40
0.6987155742
 40
1.0
 40
1.0
 40
1.0
 40
1.0
 10
-3.1911730731
 20
-17.918454233
 30
0.0
 10
-3.1911739375
 20
-17.9281705708
 30
0.0
 10
-3.1953537395
 20
-17.9487183039
 30
0.0
 10
-3.2128633338
 20
-17.9768973913
 30
0.0
 10
-3.2402483765
 20
-18.002316588
 30
0.0
 10
-3.2628593742
 20
-18.0161745037
 30
0.0
 10
-3.2753710872
 20
-18.0226526327
 30
0.0
 11
-3.1911730731
 21
-17.918454233
 31
0.0
 11
-3.1966882289
 21
-17.9470767425
 31
0.0
 11
-3.2130159331
 21
-17.9746418964
 31
0.0
 11
-3.2395869439
 21
-18.0001564743
 31
0.0
 11
-3.2753710872
 21
-18.0226526327
 31
0.0
  0
SPLINE
  5
44C
100
AcDbEntity
  8
RACCORDO
100
AcDbSpline
 62
7
  6
CONTINUOUS
 70
0
 71
3
 72
9
 73
5
 74
3
 42
0.0000001
 43
0.0000001
 44
0.0000000001
 12
-0.1200027248
 22
0.0599767827
 32
0.0
 13
-0.1210098253
 23
-0.0579179644
 33
0.0
 40
0.0
 40
0.0
 40
0.0
 40
0.0
 40
0.465035448
 40
1.0
 40
1.0
 40
1.0
 40
1.0
 10
4.1556632189
 20
-21.4064664013
 30
0.0
 10
4.1370613786
 20
-21.3971692913
 30
0.0
 10
4.0906841043
 20
-21.3890445083
 30
0.0
 10
4.0467839834
 20
-21.4028447697
 30
0.0
 10
4.0252053277
 20
-21.413172789
 30
0.0
 11
4.1556632189
 21
-21.4064664013
 31
0.0
 11
4.0944629297
 21
-21.3943541327
 31
0.0
 11
4.0252053277
 21
-21.413172789
 31
0.0
  0
SPLINE
  5
44D
100
AcDbEntity
  8
RACCORDO
100
AcDbSpline
 62
7
  6
CONTINUOUS
 70
0
 71
3
 72
9
 73
5
 74
3
 42
0.0000001
 43
0.0000001
 44
0.0000000001
 12
-0.1199868676
 22
0.0599059461
 32
0.0
 13
-0.1209684762
 23
-0.0578981739
 33
0.0
 40
0.0
 40
0.0
 40
0.0
 40
0.0
 40
0.4650398515
 40
1.0
 40
1.0
 40
1.0
 40
1.0
 10
5.6939115272
 20
-22.1755905752
 30
0.0
 10
5.6753119688
 20
-22.1663043578
 30
0.0
 10
5.6289503072
 20
-22.1581967846
 30
0.0
 10
5.585067091
 20
-22.1719937131
 30
0.0
 10
5.5634959863
 20
-22.1823181183
 30
0.0
 11
5.6939115272
 21
-22.1755905752
 31
0.0
 11
5.6327279221
 21
-22.1635007812
 31
0.0
 11
5.5634959863
 21
-22.1823181183
 31
0.0
  0
SPLINE
  5
44E
100
AcDbEntity
  8
RACCORDO
100
AcDbSpline
 62
7
  6
CONTINUOUS
 70
0
 71
3
 72
11
 73
7
 74
5
 42
0.0000001
 43
0.0000001
 44
0.0000000001
 12
-0.0000124808
 22
-0.1402926118
 32
0.0
 13
-0.1245837348
 23
-0.064505117
 33
0.0
 40
0.0
 40
0.0
 40
0.0
 40
0.0
 40
0.2077729763
 40
0.4361383275
 40
0.6987155742
 40
1.0
 40
1.0
 40
1.0
 40
1.0
 10
5.8597937261
 20
-22.4439376326
 30
0.0
 10
5.8597928617
 20
-22.4536539704
 30
0.0
 10
5.8556130597
 20
-22.4742017035
 30
0.0
 10
5.8381034654
 20
-22.5023807909
 30
0.0
 10
5.8107184227
 20
-22.5277999876
 30
0.0
 10
5.7881074249
 20
-22.5416579033
 30
0.0
 10
5.7755957119
 20
-22.5481360323
 30
0.0
 11
5.8597937261
 21
-22.4439376326
 31
0.0
 11
5.8542785703
 21
-22.4725601421
 31
0.0
 11
5.8379508661
 21
-22.500125296
 31
0.0
 11
5.8113798553
 21
-22.5256398739
 31
0.0
 11
5.7755957119
 21
-22.5481360323
 31
0.0
  0
SPLINE
  5
44F
100
AcDbEntity
  8
RACCORDO
100
AcDbSpline
 62
7
  6
CONTINUOUS
 70
0
 71
3
 72
11
 73
7
 74
5
 42
0.0000001
 43
0.0000001
 44
0.0000000001
 12
-0.0000085169
 22
-0.116911279
 32
0.0
 13
-0.1038204618
 23
-0.0537546177
 33
0.0
 40
0.0
 40
0.0
 40
0.0
 40
0.0
 40
0.2077778344
 40
0.4361450685
 40
0.6987172548
 40
1.0
 40
1.0
 40
1.0
 40
1.0
 10
-28.8177099859
 20
14.9200569187
 30
0.0
 10
-28.8177105758
 20
14.9119597279
 30
0.0
 10
-28.8211939626
 20
14.894836235
 30
0.0
 10
-28.8357852312
 20
14.8713533838
 30
0.0
 10
-28.8586060976
 20
14.8501706474
 30
0.0
 10
-28.8774485634
 20
14.838622566
 30
0.0
 10
-28.8878750013
 20
14.8332241197
 30
0.0
 11
-28.8177099859
 21
14.9200569187
 31
0.0
 11
-28.8223060422
 21
14.8962041043
 31
0.0
 11
-28.8359125991
 21
14.8732327638
 31
0.0
 11
-28.8580548053
 21
14.8519708628
 31
0.0
 11
-28.8878750013
 21
14.8332241197
 31
0.0
  0
SPLINE
  5
450
100
AcDbEntity
  8
RACCORDO
100
AcDbSpline
 62
7
  6
CONTINUOUS
 70
0
 71
3
 72
11
 73
7
 74
5
 42
0.0000001
 43
0.0000001
 44
0.0000000001
 12
-0.0000085169
 22
-0.116911279
 32
0.0
 13
-0.1038204618
 23
-0.0537546177
 33
0.0
 40
0.0
 40
0.0
 40
0.0
 40
0.0
 40
0.2077778344
 40
0.4361450684
 40
0.6987172547
 40
1.0
 40
1.0
 40
1.0
 40
1.0
 10
-28.8177099859
 20
20.4055490517
 30
0.0
 10
-28.8177105758
 20
20.3974518609
 30
0.0
 10
-28.8211939626
 20
20.3803283679
 30
0.0
 10
-28.8357852312
 20
20.3568455167
 30
0.0
 10
-28.8586060976
 20
20.3356627804
 30
0.0
 10
-28.8774485634
 20
20.3241146989
 30
0.0
 10
-28.8878750013
 20
20.3187162526
 30
0.0
 11
-28.8177099859
 21
20.4055490517
 31
0.0
 11
-28.8223060422
 21
20.3816962372
 31
0.0
 11
-28.8359125991
 21
20.3587248967
 31
0.0
 11
-28.8580548053
 21
20.3374629957
 31
0.0
 11
-28.8878750013
 21
20.3187162526
 31
0.0
  0
SPLINE
  5
451
100
AcDbEntity
  8
RACCORDO
100
AcDbSpline
 62
7
  6
CONTINUOUS
 70
0
 71
3
 72
9
 73
5
 74
3
 42
0.0000001
 43
0.0000001
 44
0.0000000001
 12
-0.0999894024
 22
0.0499208791
 32
0.0
 13
-0.1008070436
 23
-0.0482484687
 33
0.0
 40
0.0
 40
0.0
 40
0.0
 40
0.0
 40
0.4650457659
 40
1.0
 40
1.0
 40
1.0
 40
1.0
 10
-28.9559451789
 20
20.629170739
 30
0.0
 10
-28.9714450616
 20
20.6369092369
 30
0.0
 10
-29.0100797391
 20
20.6436656575
 30
0.0
 10
-29.0466490544
 20
20.6321680885
 30
0.0
 10
-29.0646247727
 20
20.6235645143
 30
0.0
 11
-28.9559451789
 21
20.629170739
 31
0.0
 11
-29.0069321771
 21
20.6392455806
 31
0.0
 11
-29.0646247727
 21
20.6235645143
 31
0.0
  0
SPLINE
  5
452
100
AcDbEntity
  8
RACCORDO
100
AcDbSpline
 62
7
  6
CONTINUOUS
 70
0
 71
3
 72
9
 73
5
 74
3
 42
0.0000001
 43
0.0000001
 44
0.0000000001
 12
-0.1000017657
 22
0.0499760996
 32
0.0
 13
-0.1008392778
 23
-0.0482638967
 33
0.0
 40
0.0
 40
0.0
 40
0.0
 40
0.0
 40
0.4650416511
 40
1.0
 40
1.0
 40
1.0
 40
1.0
 10
-29.3335784041
 20
20.817987368
 30
0.0
 10
-29.3490800662
 20
20.8257343572
 30
0.0
 10
-29.387726915
 20
20.8325041932
 30
0.0
 10
-29.4243094085
 20
20.8210040259
 30
0.0
 10
-29.442291013
 20
20.8123976344
 30
0.0
 11
-29.3335784041
 21
20.817987368
 31
0.0
 11
-29.3845784097
 21
20.8280797295
 31
0.0
 11
-29.442291013
 21
20.8123976344
 31
0.0
  0
SPLINE
  5
453
100
AcDbEntity
  8
RACCORDO
100
AcDbSpline
 62
7
  6
CONTINUOUS
 70
0
 71
3
 72
9
 73
5
 74
3
 42
0.0000001
 43
0.0000001
 44
0.0000000001
 12
0.0969325573
 22
0.0343663119
 32
0.0
 13
0.0913430154
 23
-0.0472590478
 33
0.0
 40
0.0
 40
0.0
 40
0.0
 40
0.0
 40
0.4660991936
 40
1.0
 40
1.0
 40
1.0
 40
1.0
 10
-29.5422317809
 20
20.8245837804
 30
0.0
 10
-29.5271717187
 20
20.8299231505
 30
0.0
 10
-29.4915412882
 20
20.8326726136
 30
0.0
 10
-29.4585470496
 20
20.8208081824
 30
0.0
 10
-29.442291013
 20
20.8123976344
 30
0.0
 11
-29.5422317809
 21
20.8245837804
 31
0.0
 11
-29.4945297975
 21
20.8293113495
 31
0.0
 11
-29.442291013
 21
20.8123976344
 31
0.0
  0
SPLINE
  5
454
100
AcDbEntity
  8
RACCORDO
100
AcDbSpline
 62
7
  6
CONTINUOUS
 70
0
 71
3
 72
10
 73
6
 74
4
 42
0.0000001
 43
0.0000001
 44
0.0000000001
 12
-0.1719057115
 22
0.0858473227
 32
0.0
 13
-0.1728448914
 23
-0.0839403357
 33
0.0
 40
0.0
 40
0.0
 40
0.0
 40
0.0
 40
0.4083746967
 40
0.6803982949
 40
1.0
 40
1.0
 40
1.0
 40
1.0
 10
-31.6520071545
 20
-3.5906488361
 30
0.0
 10
-31.6754078021
 20
-3.578962878
 30
0.0
 10
-31.722429356
 20
-3.5778600287
 30
0.0
 10
-31.7839723667
 20
-3.5940325338
 30
0.0
 10
-31.8191453174
 20
-3.6088307259
 30
0.0
 10
-31.8375591581
 20
-3.6177732174
 30
0.0
 11
-31.6520071545
 21
-3.5906488361
 31
0.0
 11
-31.7299979872
 21
-3.5820002912
 31
0.0
 11
-31.7807826606
 21
-3.5943687633
 31
0.0
 11
-31.8375591581
 21
-3.6177732174
 31
0.0
  0
SPLINE
  5
455
100
AcDbEntity
  8
RACCORDO
100
AcDbSpline
 62
7
  6
CONTINUOUS
 70
0
 71
3
 72
11
 73
7
 74
5
 42
0.0000001
 43
0.0000001
 44
0.0000000001
 12
0.6211759355
 22
0.3105879678
 32
0.0
 13
0.6211759355
 23
-0.3105879678
 33
0.0
 40
0.0
 40
0.0
 40
0.0
 40
0.0
 40
0.2503497383
 40
0.500266668
 40
0.7497886126
 40
1.0
 40
1.0
 40
1.0
 40
1.0
 10
-48.0178222998
 20
71.1095884328
 30
0.0
 10
-47.9659852222
 20
71.1355069716
 30
0.0
 10
-47.8552925583
 20
71.1742473518
 30
0.0
 10
-47.6807020696
 20
71.189378551
 30
0.0
 10
-47.5076559126
 20
71.1631858964
 30
0.0
 10
-47.3988103374
 20
71.1212917546
 30
0.0
 10
-47.3470019066
 20
71.0953875392
 30
0.0
 11
-48.0178222998
 21
71.1095884328
 31
0.0
 11
-47.8537453076
 21
71.1671072997
 31
0.0
 11
-47.6808623487
 21
71.1824933077
 31
0.0
 11
-47.5094382712
 21
71.1571184426
 31
0.0
 11
-47.3470019066
 21
71.0953875392
 31
0.0
  0
SPLINE
  5
456
100
AcDbEntity
  8
RACCORDO
100
AcDbSpline
 62
7
  6
CONTINUOUS
 70
0
 71
3
 72
11
 73
7
 74
5
 42
0.0000001
 43
0.0000001
 44
0.0000000001
 12
-0.0
 22
-0.8666274729
 32
0.0
 13
-0.7751351763
 23
-0.3875675881
 33
0.0
 40
0.0
 40
0.0
 40
0.0
 40
0.0
 40
0.2519644667
 40
0.5012041607
 40
0.7503330772
 40
1.0
 40
1.0
 40
1.0
 40
1.0
 10
51.2172338806
 20
-68.9954020443
 30
0.0
 10
51.2172338806
 20
-69.0681884873
 30
0.0
 10
51.2018175986
 20
-69.2136442658
 30
0.0
 10
51.1255507298
 20
-69.4192563717
 30
0.0
 10
50.9948031989
 20
-69.5951853533
 30
0.0
 10
50.8754026236
 20
-69.6807982709
 30
0.0
 10
50.8108940855
 20
-69.71305254
 30
0.0
 11
51.2172338806
 21
-68.9954020443
 31
0.0
 11
51.1927549221
 21
-69.2123849403
 31
0.0
 11
51.1164222692
 21
-69.4144454449
 31
0.0
 11
50.986860322
 21
-69.5871514366
 31
0.0
 11
50.8108940855
 21
-69.71305254
 31
0.0
  0
SPLINE
  5
457
100
AcDbEntity
  8
RACCORDO
100
AcDbSpline
 62
7
  6
CONTINUOUS
 70
0
 71
3
 72
12
 73
8
 74
6
 42
0.0000001
 43
0.0000001
 44
0.0000000001
 12
1.1507197858
 22
-0.5753598929
 32
0.0
 13
0.0
 23
-1.2865438321
 33
0.0
 40
0.0
 40
0.0
 40
0.0
 40
0.0
 40
0.2441431698
 40
0.4962282067
 40
0.62406458
 40
0.7513337464
 40
1.0
 40
1.0
 40
1.0
 40
1.0
 10
50.5872872878
 20
22.128242942
 30
0.0
 10
50.6809340798
 20
22.081419546
 30
0.0
 10
50.8552699659
 20
21.9524599361
 30
0.0
 10
51.0200086757
 20
21.7378410787
 30
0.0
 10
51.1188165449
 20
21.543481487
 30
0.0
 10
51.1921370334
 20
21.3399205691
 30
0.0
 10
51.2172338806
 20
21.1778799609
 30
0.0
 10
51.2172338806
 20
21.0712399493
 30
0.0
 11
50.5872872878
 21
22.128242942
 31
0.0
 11
50.8419881185
 21
21.9444309308
 31
0.0
 11
51.041239055
 21
21.6885373573
 31
0.0
 11
51.1157707279
 21
21.5419274808
 31
0.0
 11
51.1710740376
 21
21.3878123701
 31
0.0
 11
51.2172338806
 21
21.0712399493
 31
0.0
  0
SPLINE
  5
458
100
AcDbEntity
  8
RACCORDO
100
AcDbSpline
 62
7
  6
CONTINUOUS
 70
0
 71
3
 72
11
 73
7
 74
5
 42
0.0000001
 43
0.0000001
 44
0.0000000001
 12
-0.6211759355
 22
-0.3105879678
 32
0.0
 13
-0.6211759355
 23
0.3105879678
 33
0.0
 40
0.0
 40
0.0
 40
0.0
 40
0.0
 40
0.2503497383
 40
0.500266668
 40
0.7497886126
 40
1.0
 40
1.0
 40
1.0
 40
1.0
 10
48.0178222998
 20
-71.1095884328
 30
0.0
 10
47.9659852222
 20
-71.1355069716
 30
0.0
 10
47.8552925583
 20
-71.1742473518
 30
0.0
 10
47.6807020696
 20
-71.189378551
 30
0.0
 10
47.5076559126
 20
-71.1631858964
 30
0.0
 10
47.3988103374
 20
-71.1212917546
 30
0.0
 10
47.3470019066
 20
-71.0953875392
 30
0.0
 11
48.0178222998
 21
-71.1095884328
 31
0.0
 11
47.8537453076
 21
-71.1671072997
 31
0.0
 11
47.6808623487
 21
-71.1824933077
 31
0.0
 11
47.5094382712
 21
-71.1571184426
 31
0.0
 11
47.3470019066
 21
-71.0953875392
 31
0.0
  0
SPLINE
  5
459
100
AcDbEntity
  8
RACCORDO
100
AcDbSpline
 62
7
  6
CONTINUOUS
 70
0
 71
3
 72
12
 73
8
 74
6
 42
0.0000001
 43
0.0000001
 44
0.0000000001
 12
-1.1507197858
 22
0.5753598929
 32
0.0
 13
0.0
 23
1.2865438321
 33
0.0
 40
0.0
 40
0.0
 40
0.0
 40
0.0
 40
0.2441431698
 40
0.4962282067
 40
0.62406458
 40
0.7513337464
 40
1.0
 40
1.0
 40
1.0
 40
1.0
 10
-50.5872872878
 20
-22.128242942
 30
0.0
 10
-50.6809340798
 20
-22.081419546
 30
0.0
 10
-50.8552699659
 20
-21.9524599361
 30
0.0
 10
-51.0200086757
 20
-21.7378410787
 30
0.0
 10
-51.1188165449
 20
-21.543481487
 30
0.0
 10
-51.1921370334
 20
-21.3399205691
 30
0.0
 10
-51.2172338806
 20
-21.1778799609
 30
0.0
 10
-51.2172338806
 20
-21.0712399493
 30
0.0
 11
-50.5872872878
 21
-22.128242942
 31
0.0
 11
-50.8419881185
 21
-21.9444309308
 31
0.0
 11
-51.041239055
 21
-21.6885373573
 31
0.0
 11
-51.1157707279
 21
-21.5419274808
 31
0.0
 11
-51.1710740376
 21
-21.3878123701
 31
0.0
 11
-51.2172338806
 21
-21.0712399493
 31
0.0
  0
SPLINE
  5
45A
100
AcDbEntity
  8
RACCORDO
100
AcDbSpline
 62
7
  6
CONTINUOUS
 70
0
 71
3
 72
11
 73
7
 74
5
 42
0.0000001
 43
0.0000001
 44
0.0000000001
 12
0.0
 22
0.8666274729
 32
0.0
 13
0.7751351763
 23
0.3875675881
 33
0.0
 40
0.0
 40
0.0
 40
0.0
 40
0.0
 40
0.2519644667
 40
0.5012041607
 40
0.7503330772
 40
1.0
 40
1.0
 40
1.0
 40
1.0
 10
-51.2172338806
 20
68.9954020443
 30
0.0
 10
-51.2172338806
 20
69.0681884873
 30
0.0
 10
-51.2018175986
 20
69.2136442658
 30
0.0
 10
-51.1255507298
 20
69.4192563717
 30
0.0
 10
-50.9948031989
 20
69.5951853533
 30
0.0
 10
-50.8754026236
 20
69.6807982709
 30
0.0
 10
-50.8108940855
 20
69.71305254
 30
0.0
 11
-51.2172338806
 21
68.9954020443
 31
0.0
 11
-51.1927549221
 21
69.2123849403
 31
0.0
 11
-51.1164222692
 21
69.4144454449
 31
0.0
 11
-50.986860322
 21
69.5871514366
 31
0.0
 11
-50.8108940855
 21
69.71305254
 31
0.0
  0
SPLINE
  5
45B
100
AcDbEntity
  8
RACCORDO
100
AcDbSpline
 62
7
  6
CONTINUOUS
 70
0
 71
3
 72
15
 73
11
 74
9
 42
0.0000001
 43
0.0000001
 44
0.0000000001
 12
-0.4890795838
 22
0.2445397919
 32
0.0
 13
0.0
 23
-0.5468075979
 33
0.0
 40
0.0
 40
0.0
 40
0.0
 40
0.0
 40
0.1348982525
 40
0.2572075778
 40
0.3703121899
 40
0.4800840678
 40
0.5933696577
 40
0.7159400011
 40
0.8512182943
 40
1.0
 40
1.0
 40
1.0
 40
1.0
 10
-50.7172338806
 20
69.0748613555
 30
0.0
 10
-50.7392258743
 20
69.0858573524
 30
0.0
 10
-50.7832493214
 20
69.1031018362
 30
0.0
 10
-50.8508051742
 20
69.1126396113
 30
0.0
 10
-50.9140548684
 20
69.1034585054
 30
0.0
 10
-50.9697315552
 20
69.0753310825
 30
0.0
 10
-51.0147116391
 20
69.0298263035
 30
0.0
 10
-51.0473080799
 20
68.9697026462
 30
0.0
 10
-51.0668426326
 20
68.8976673068
 30
0.0
 10
-51.0707872712
 20
68.8457436713
 30
0.0
 10
-51.0707872712
 20
68.818625349
 30
0.0
 11
-50.7172338806
 21
69.0748613555
 31
0.0
 11
-50.7862014066
 21
69.10102465
 31
0.0
 11
-50.8525354948
 21
69.109549835
 31
0.0
 11
-50.9136548043
 21
69.1000938961
 31
0.0
 11
-50.9672326887
 21
69.0730328076
 31
0.0
 11
-51.0112010523
 21
69.0293977504
 31
0.0
 11
-51.0438736435
 21
68.9708784953
 31
0.0
 11
-51.0639936343
 21
68.8996961647
 31
0.0
 11
-51.0707872712
 21
68.818625349
 31
0.0
  0
SPLINE
  5
45C
100
AcDbEntity
  8
RACCORDO
100
AcDbSpline
 62
7
  6
CONTINUOUS
 70
0
 71
3
 72
11
 73
7
 74
5
 42
0.0000001
 43
0.0000001
 44
0.0000000001
 12
0.0
 22
0.7341091226
 32
0.0
 13
-0.6566071604
 23
0.3283035802
 33
0.0
 40
0.0
 40
0.0
 40
0.0
 40
0.0
 40
0.2467983468
 40
0.5117850385
 40
0.7703194491
 40
1.0
 40
1.0
 40
1.0
 40
1.0
 10
47.5706087043
 20
19.4979273612
 30
0.0
 10
47.5706087043
 20
19.5583196671
 30
0.0
 10
47.5497685225
 20
19.6837706738
 30
0.0
 10
47.4742963066
 20
19.8582378457
 30
0.0
 10
47.3633818388
 20
20.0074337587
 30
0.0
 10
47.2673252785
 20
20.082581776
 30
0.0
 10
47.2170553137
 20
20.1077167584
 30
0.0
 11
47.5706087043
 21
19.4979273612
 31
0.0
 11
47.5436950765
 21
19.6770941332
 31
0.0
 11
47.4670541152
 21
19.8558894138
 31
0.0
 11
47.3523569296
 21
20.0071036229
 31
0.0
 11
47.2170553137
 21
20.1077167584
 31
0.0
  0
SPLINE
  5
45D
100
AcDbEntity
  8
RACCORDO
100
AcDbSpline
 62
7
  6
CONTINUOUS
 70
0
 71
3
 72
11
 73
7
 74
5
 42
0.0000001
 43
0.0000001
 44
0.0000000001
 12
0.5632353699
 22
0.2816265021
 32
0.0
 13
-0.0000000001
 23
0.6297202304
 33
0.0
 40
0.0
 40
0.0
 40
0.0
 40
0.0
 40
0.2171520848
 40
0.4504175247
 40
0.7102459292
 40
1.0
 40
1.0
 40
1.0
 40
1.0
 10
48.0178207464
 20
-71.1095853131
 30
0.0
 10
48.0585899913
 20
-71.0892000524
 30
0.0
 10
48.1357419466
 20
-71.0305097901
 30
0.0
 10
48.218401522
 20
-70.9037108235
 30
0.0
 10
48.2679032662
 20
-70.745336534
 30
0.0
 10
48.2777154855
 20
-70.6295359658
 30
0.0
 10
48.2777154855
 20
-70.5687146324
 30
0.0
 11
48.0178207464
 21
-71.1095853131
 31
0.0
 11
48.1272334494
 21
-71.027560487
 31
0.0
 11
48.2094451344
 21
-70.9058292721
 31
0.0
 11
48.2604366223
 21
-70.7503586586
 31
0.0
 11
48.2777154855
 21
-70.5687146324
 31
0.0
  0
SPLINE
  5
45E
100
AcDbEntity
  8
RACCORDO
100
AcDbSpline
 62
7
  6
CONTINUOUS
 70
0
 71
3
 72
15
 73
11
 74
9
 42
0.0000001
 43
0.0000001
 44
0.0000000001
 12
0.4890795838
 22
-0.2445397919
 32
0.0
 13
0.0
 23
0.5468075979
 33
0.0
 40
0.0
 40
0.0
 40
0.0
 40
0.0
 40
0.1348982525
 40
0.2572075778
 40
0.3703121899
 40
0.4800840678
 40
0.5933696577
 40
0.7159400011
 40
0.8512182943
 40
1.0
 40
1.0
 40
1.0
 40
1.0
 10
47.2170553137
 20
-70.824950639
 30
0.0
 10
47.2390473075
 20
-70.8359466358
 30
0.0
 10
47.2830707545
 20
-70.8531911197
 30
0.0
 10
47.3506266073
 20
-70.8627288947
 30
0.0
 10
47.4138763015
 20
-70.8535477889
 30
0.0
 10
47.4695529883
 20
-70.8254203659
 30
0.0
 10
47.5145330722
 20
-70.779915587
 30
0.0
 10
47.547129513
 20
-70.7197919296
 30
0.0
 10
47.5666640657
 20
-70.6477565903
 30
0.0
 10
47.5706087043
 20
-70.5958329548
 30
0.0
 10
47.5706087043
 20
-70.5687146324
 30
0.0
 11
47.2170553137
 21
-70.824950639
 31
0.0
 11
47.2860228397
 21
-70.8511139334
 31
0.0
 11
47.352356928
 21
-70.8596391184
 31
0.0
 11
47.4134762374
 21
-70.8501831795
 31
0.0
 11
47.4670541218
 21
-70.8231220911
 31
0.0
 11
47.5110224854
 21
-70.7794870339
 31
0.0
 11
47.5436950766
 21
-70.7209677787
 31
0.0
 11
47.5638150675
 21
-70.6497854482
 31
0.0
 11
47.5706087043
 21
-70.5687146324
 31
0.0
  0
SPLINE
  5
45F
100
AcDbEntity
  8
RACCORDO
100
AcDbSpline
 62
7
  6
CONTINUOUS
 70
0
 71
3
 72
11
 73
7
 74
5
 42
0.0000001
 43
0.0000001
 44
0.0000000001
 12
0.0
 22
-0.7341091226
 32
0.0
 13
0.6566071604
 23
-0.3283035802
 33
0.0
 40
0.0
 40
0.0
 40
0.0
 40
0.0
 40
0.2467983468
 40
0.5117850385
 40
0.7703194491
 40
1.0
 40
1.0
 40
1.0
 40
1.0
 10
-51.0707872712
 20
-21.2480166446
 30
0.0
 10
-51.0707872712
 20
-21.3084089506
 30
0.0
 10
-51.0499470894
 20
-21.4338599572
 30
0.0
 10
-50.9744748735
 20
-21.6083271292
 30
0.0
 10
-50.8635604056
 20
-21.7575230421
 30
0.0
 10
-50.7675038454
 20
-21.8326710594
 30
0.0
 10
-50.7172338806
 20
-21.8578060418
 30
0.0
 11
-51.0707872712
 21
-21.2480166446
 31
0.0
 11
-51.0438736434
 21
-21.4271834167
 31
0.0
 11
-50.9672326821
 21
-21.6059786973
 31
0.0
 11
-50.8525354965
 21
-21.7571929064
 31
0.0
 11
-50.7172338806
 21
-21.8578060418
 31
0.0
  0
SPLINE
  5
460
100
AcDbEntity
  8
RACCORDO
100
AcDbSpline
 62
7
  6
CONTINUOUS
 70
0
 71
3
 72
11
 73
7
 74
5
 42
0.0000001
 43
0.0000001
 44
0.0000000001
 12
0.0
 22
-0.2406445045
 32
0.0
 13
-0.2152389882
 23
-0.1076194941
 33
0.0
 40
0.0
 40
0.0
 40
0.0
 40
0.0
 40
0.206572546
 40
0.434497082
 40
0.6974560431
 40
1.0
 40
1.0
 40
1.0
 40
1.0
 10
51.2172315448
 20
21.0712399493
 30
0.0
 10
51.2172315448
 20
21.0546697667
 30
0.0
 10
51.209908871
 20
21.0195503183
 30
0.0
 10
51.1793585664
 20
20.9716338022
 30
0.0
 10
51.1317287846
 20
20.9285998115
 30
0.0
 10
51.0924936896
 20
20.9053164632
 30
0.0
 10
51.0707872712
 20
20.894463254
 30
0.0
 11
51.2172315448
 21
21.0712399493
 31
0.0
 11
51.2076220176
 21
21.0224670515
 31
0.0
 11
51.1791757785
 21
20.9755714128
 31
0.0
 11
51.1329617506
 21
20.9323443951
 31
0.0
 11
51.0707872712
 21
20.894463254
 31
0.0
  0
SPLINE
  5
461
100
AcDbEntity
  8
RACCORDO
100
AcDbSpline
 62
7
  6
CONTINUOUS
 70
0
 71
3
 72
11
 73
7
 74
5
 42
0.0000001
 43
0.0000001
 44
0.0000000001
 12
0.0000000004
 22
-0.2406445045
 32
0.0
 13
-0.2152389882
 23
-0.1076194941
 33
0.0
 40
0.0
 40
0.0
 40
0.0
 40
0.0
 40
0.2065725467
 40
0.4344970833
 40
0.697456044
 40
1.0
 40
1.0
 40
1.0
 40
1.0
 10
51.2172315447
 20
-68.9954020441
 30
0.0
 10
51.2172315448
 20
-69.0119722268
 30
0.0
 10
51.209908871
 20
-69.0470916753
 30
0.0
 10
51.1793585664
 20
-69.0950081914
 30
0.0
 10
51.1317287846
 20
-69.1380421821
 30
0.0
 10
51.0924936895
 20
-69.16132553
 30
0.0
 10
51.0707872712
 20
-69.1721787391
 30
0.0
 11
51.2172315447
 21
-68.9954020441
 31
0.0
 11
51.2076220176
 21
-69.0441749421
 31
0.0
 11
51.1791757785
 21
-69.0910705808
 31
0.0
 11
51.1329617506
 21
-69.1342975984
 31
0.0
 11
51.0707872712
 21
-69.1721787391
 31
0.0
  0
SPLINE
  5
462
100
AcDbEntity
  8
RACCORDO
100
AcDbSpline
 62
7
  6
CONTINUOUS
 70
0
 71
3
 72
11
 73
7
 74
5
 42
0.0000001
 43
0.0000001
 44
0.0000000001
 12
0.4148284699
 22
0.207420721
 32
0.0
 13
0.4148310644
 23
-0.2074155322
 33
0.0
 40
0.0
 40
0.0
 40
0.0
 40
0.0
 40
0.2271155739
 40
0.4646632387
 40
0.7207939754
 40
1.0
 40
1.0
 40
1.0
 40
1.0
 10
-48.0178207412
 20
71.1095853157
 30
0.0
 10
-47.9864160726
 20
71.125288141
 30
0.0
 10
-47.9172111448
 20
71.148312081
 30
0.0
 10
-47.8047670689
 20
71.1539476077
 30
0.0
 10
-47.6864313268
 20
71.1317044885
 30
0.0
 10
-47.6092164818
 20
71.1004905343
 30
0.0
 10
-47.5706087043
 20
71.0811866456
 30
0.0
 11
-48.0178207412
 21
71.1095853157
 31
0.0
 11
-47.9179806219
 21
71.1431626594
 31
0.0
 11
-47.807996491
 21
71.1496190731
 31
0.0
 11
-47.691051736
 21
71.1287500929
 31
0.0
 11
-47.5706087043
 21
71.0811866456
 31
0.0
  0
SPLINE
  5
463
100
AcDbEntity
  8
RACCORDO
100
AcDbSpline
 62
7
  6
CONTINUOUS
 70
0
 71
3
 72
10
 73
6
 74
4
 42
0.0000001
 43
0.0000001
 44
0.0000000001
 12
-0.2068625654
 22
0.1034358074
 32
0.0
 13
-0.2068643753
 23
-0.1034321877
 33
0.0
 40
0.0
 40
0.0
 40
0.0
 40
0.0
 40
0.2277246618
 40
0.4658846937
 40
1.0
 40
1.0
 40
1.0
 40
1.0
 10
50.5872873135
 20
22.1282429947
 30
0.0
 10
50.5715847443
 20
22.1360946227
 30
0.0
 10
50.5369698098
 20
22.1475989851
 30
0.0
 10
50.4592587793
 20
22.1515195403
 30
0.0
 10
50.4005102994
 20
22.1324569534
 30
0.0
 10
50.3636804897
 20
22.1140420486
 30
0.0
 11
50.5872873135
 21
22.1282429947
 31
0.0
 11
50.5373653915
 21
22.1450290127
 31
0.0
 11
50.4823781529
 21
22.148258378
 31
0.0
 11
50.3636804897
 21
22.1140420486
 31
0.0
  0
SPLINE
  5
464
100
AcDbEntity
  8
RACCORDO
100
AcDbSpline
 62
7
  6
CONTINUOUS
 70
0
 71
3
 72
10
 73
6
 74
4
 42
0.0000001
 43
0.0000001
 44
0.0000000001
 12
-0.2068625654
 22
0.103435808
 32
0.0
 13
-0.2068643755
 23
-0.1034321878
 33
0.0
 40
0.0
 40
0.0
 40
0.0
 40
0.0
 40
0.2277246615
 40
0.4658846938
 40
1.0
 40
1.0
 40
1.0
 40
1.0
 10
-47.3470018804
 20
71.0953875916
 30
0.0
 10
-47.3627044496
 20
71.1032392197
 30
0.0
 10
-47.397319384
 20
71.1147435822
 30
0.0
 10
-47.4750304147
 20
71.1186641376
 30
0.0
 10
-47.5337788946
 20
71.0996015505
 30
0.0
 10
-47.5706087043
 20
71.0811866456
 30
0.0
 11
-47.3470018804
 21
71.0953875916
 31
0.0
 11
-47.3969238023
 21
71.1121736098
 31
0.0
 11
-47.4519110411
 21
71.1154029752
 31
0.0
 11
-47.5706087043
 21
71.0811866456
 31
0.0
  0
SPLINE
  5
465
100
AcDbEntity
  8
RACCORDO
100
AcDbSpline
 62
7
  6
CONTINUOUS
 70
0
 71
3
 72
11
 73
7
 74
5
 42
0.0000001
 43
0.0000001
 44
0.0000000001
 12
0.0
 22
0.7341091508
 32
0.0
 13
0.6566071856
 23
0.3283035928
 33
0.0
 40
0.0
 40
0.0
 40
0.0
 40
0.0
 40
0.2467998972
 40
0.5117850334
 40
0.7703179873
 40
1.0
 40
1.0
 40
1.0
 40
1.0
 10
47.2170553137
 20
20.1077167584
 30
0.0
 10
47.2170553137
 20
20.168109446
 30
0.0
 10
47.2378955508
 20
20.2935604732
 30
0.0
 10
47.3133677836
 20
20.4680272266
 30
0.0
 10
47.4242818714
 20
20.6172229191
 30
0.0
 10
47.5203384177
 20
20.6923710122
 30
0.0
 10
47.5706087043
 20
20.7175061556
 30
0.0
 11
47.2170553137
 21
20.1077167584
 31
0.0
 11
47.2439692189
 21
20.2868846467
 31
0.0
 11
47.3206098722
 21
20.4656788251
 31
0.0
 11
47.4353062919
 21
20.6168922821
 31
0.0
 11
47.5706087043
 21
20.7175061556
 31
0.0
  0
SPLINE
  5
466
100
AcDbEntity
  8
RACCORDO
100
AcDbSpline
 62
7
  6
CONTINUOUS
 70
0
 71
3
 72
11
 73
7
 74
5
 42
0.0000001
 43
0.0000001
 44
0.0000000001
 12
0.6499096796
 22
-0.3249548398
 32
0.0
 13
0.6499096796
 23
0.3249548398
 33
0.0
 40
0.0
 40
0.0
 40
0.0
 40
0.0
 40
0.2353766978
 40
0.4999999999
 40
0.764623302
 40
1.0
 40
1.0
 40
1.0
 40
1.0
 10
47.5706087043
 20
19.4979273612
 30
0.0
 10
47.6215999024
 20
19.4724317622
 30
0.0
 10
47.738785209
 20
19.4360632575
 30
0.0
 10
47.9241620949
 20
19.418694024
 30
0.0
 10
48.1095389808
 20
19.4360632574
 30
0.0
 10
48.2267242874
 20
19.4724317623
 30
0.0
 10
48.2777154855
 20
19.4979273613
 30
0.0
 11
47.5706087043
 21
19.4979273612
 31
0.0
 11
47.7328250215
 21
19.4437331076
 31
0.0
 11
47.9241620948
 21
19.4247052244
 31
0.0
 11
48.1154991683
 21
19.4437331076
 31
0.0
 11
48.2777154855
 21
19.4979273613
 31
0.0
  0
SPLINE
  5
467
100
AcDbEntity
  8
RACCORDO
100
AcDbSpline
 62
7
  6
CONTINUOUS
 70
0
 71
3
 72
11
 73
7
 74
5
 42
0.0000001
 43
0.0000001
 44
0.0000000001
 12
0.6499096795
 22
-0.3249548398
 32
0.0
 13
0.6499096795
 23
0.3249548398
 33
0.0
 40
0.0
 40
0.0
 40
0.0
 40
0.0
 40
0.2353766984
 40
0.5
 40
0.7646233016
 40
1.0
 40
1.0
 40
1.0
 40
1.0
 10
47.5706087043
 20
-70.5687146324
 30
0.0
 10
47.6215999025
 20
-70.5942102315
 30
0.0
 10
47.7387852091
 20
-70.6305787361
 30
0.0
 10
47.9241620949
 20
-70.6479479696
 30
0.0
 10
48.1095389807
 20
-70.6305787361
 30
0.0
 10
48.2267242873
 20
-70.5942102315
 30
0.0
 10
48.2777154855
 20
-70.5687146324
 30
0.0
 11
47.5706087043
 21
-70.5687146324
 31
0.0
 11
47.7328250219
 21
-70.622908886
 31
0.0
 11
47.9241620949
 21
-70.6419367692
 31
0.0
 11
48.1154991679
 21
-70.622908886
 31
0.0
 11
48.2777154855
 21
-70.5687146324
 31
0.0
  0
SPLINE
  5
468
100
AcDbEntity
  8
RACCORDO
100
AcDbSpline
 62
7
  6
CONTINUOUS
 70
0
 71
3
 72
11
 73
7
 74
5
 42
0.0000001
 43
0.0000001
 44
0.0000000001
 12
0.0
 22
-0.3148612163
 32
0.0
 13
0.2816179689
 23
-0.1408151453
 33
0.0
 40
0.0
 40
0.0
 40
0.0
 40
0.0
 40
0.2897397507
 40
0.5495873683
 40
0.7828463208
 40
1.0
 40
1.0
 40
1.0
 40
1.0
 10
47.2170553137
 20
-70.824950639
 30
0.0
 10
47.2170553137
 20
-70.8553599091
 30
0.0
 10
47.2219631312
 20
-70.9132603889
 30
0.0
 10
47.2467092111
 20
-70.9924494703
 30
0.0
 10
47.2880421685
 20
-71.0558491392
 30
0.0
 10
47.3266170877
 20
-71.0851947493
 30
0.0
 10
47.3470018804
 20
-71.0953875916
 30
0.0
 11
47.2170553137
 21
-70.824950639
 31
0.0
 11
47.2256944831
 21
-70.9157684683
 31
0.0
 11
47.2511897804
 21
-70.9935105892
 31
0.0
 11
47.2922952825
 21
-71.0543742716
 31
0.0
 11
47.3470018804
 21
-71.0953875916
 31
0.0
  0
SPLINE
  5
469
100
AcDbEntity
  8
RACCORDO
100
AcDbSpline
 62
7
  6
CONTINUOUS
 70
0
 71
3
 72
11
 73
7
 74
5
 42
0.0000001
 43
0.0000001
 44
0.0000000001
 12
0.0
 22
-0.3148612163
 32
0.0
 13
0.281617969
 23
-0.1408151451
 33
0.0
 40
0.0
 40
0.0
 40
0.0
 40
0.0
 40
0.2897397513
 40
0.5495873695
 40
0.7828463215
 40
1.0
 40
1.0
 40
1.0
 40
1.0
 10
-50.7172338806
 20
-21.8578060418
 30
0.0
 10
-50.7172338806
 20
-21.888215312
 30
0.0
 10
-50.7123260631
 20
-21.9461157919
 30
0.0
 10
-50.6875799832
 20
-22.0253048734
 30
0.0
 10
-50.6462470257
 20
-22.0887045422
 30
0.0
 10
-50.6076721066
 20
-22.1180501522
 30
0.0
 10
-50.587287314
 20
-22.1282429944
 30
0.0
 11
-50.7172338806
 21
-21.8578060418
 31
0.0
 11
-50.7085947112
 21
-21.9486238714
 31
0.0
 11
-50.6830994138
 21
-22.0263659924
 31
0.0
 11
-50.6419939117
 21
-22.0872296746
 31
0.0
 11
-50.587287314
 21
-22.1282429944
 31
0.0
  0
SPLINE
  5
46A
100
AcDbEntity
  8
RACCORDO
100
AcDbSpline
 62
7
  6
CONTINUOUS
 70
0
 71
3
 72
11
 73
7
 74
5
 42
0.0000001
 43
0.0000001
 44
0.0000000001
 12
-0.2152389882
 22
0.1076194941
 32
0.0
 13
-0.0
 23
0.2406445045
 33
0.0
 40
0.0
 40
0.0
 40
0.0
 40
0.0
 40
0.3025439564
 40
0.5655029169
 40
0.7934274533
 40
1.0
 40
1.0
 40
1.0
 40
1.0
 10
-51.0707872712
 20
-21.2480166446
 30
0.0
 10
-51.0924936896
 20
-21.2371634355
 30
0.0
 10
-51.1317287845
 20
-21.2138800872
 30
0.0
 10
-51.1793585663
 20
-21.1708460966
 30
0.0
 10
-51.2099088709
 20
-21.1229295805
 30
0.0
 10
-51.2172315447
 20
-21.087810132
 30
0.0
 10
-51.2172315447
 20
-21.0712399493
 30
0.0
 11
-51.0707872712
 21
-21.2480166446
 31
0.0
 11
-51.1329617505
 21
-21.2101355036
 31
0.0
 11
-51.1791757783
 21
-21.166908486
 31
0.0
 11
-51.2076220175
 21
-21.1200128474
 31
0.0
 11
-51.2172315447
 21
-21.0712399493
 31
0.0
  0
SPLINE
  5
46B
100
AcDbEntity
  8
RACCORDO
100
AcDbSpline
 62
7
  6
CONTINUOUS
 70
0
 71
3
 72
11
 73
7
 74
5
 42
0.0000001
 43
0.0000001
 44
0.0000000001
 12
-0.2152389882
 22
0.1076194941
 32
0.0
 13
-0.0
 23
0.2406445045
 33
0.0
 40
0.0
 40
0.0
 40
0.0
 40
0.0
 40
0.3025439569
 40
0.565502918
 40
0.793427454
 40
1.0
 40
1.0
 40
1.0
 40
1.0
 10
-51.0707872712
 20
68.818625349
 30
0.0
 10
-51.0924936896
 20
68.8294785581
 30
0.0
 10
-51.1317287846
 20
68.8527619064
 30
0.0
 10
-51.1793585664
 20
68.8957958971
 30
0.0
 10
-51.209908871
 20
68.9437124132
 30
0.0
 10
-51.2172315448
 20
68.9788318616
 30
0.0
 10
-51.2172315448
 20
68.9954020442
 30
0.0
 11
-51.0707872712
 21
68.818625349
 31
0.0
 11
-51.1329617506
 21
68.85650649
 31
0.0
 11
-51.1791757785
 21
68.8997335077
 31
0.0
 11
-51.2076220176
 21
68.9466291464
 31
0.0
 11
-51.2172315448
 21
68.9954020442
 31
0.0
  0
SPLINE
  5
46C
100
AcDbEntity
  8
RACCORDO
100
AcDbSpline
 62
7
  6
CONTINUOUS
 70
0
 71
3
 72
11
 73
7
 74
5
 42
0.0000001
 43
0.0000001
 44
0.0000000001
 12
0.0
 22
0.7341091507
 32
0.0
 13
0.6566071856
 23
0.3283035928
 33
0.0
 40
0.0
 40
0.0
 40
0.0
 40
0.0
 40
0.2467998966
 40
0.5117850334
 40
0.7703179878
 40
1.0
 40
1.0
 40
1.0
 40
1.0
 10
-50.7172338806
 20
69.0748613555
 30
0.0
 10
-50.7172338806
 20
69.135254043
 30
0.0
 10
-50.6963936436
 20
69.2607050702
 30
0.0
 10
-50.6209214108
 20
69.4351718238
 30
0.0
 10
-50.5100073229
 20
69.5843675163
 30
0.0
 10
-50.4139507767
 20
69.6595156095
 30
0.0
 10
-50.3636804901
 20
69.6846507528
 30
0.0
 11
-50.7172338806
 21
69.0748613555
 31
0.0
 11
-50.6903199756
 21
69.2540292434
 31
0.0
 11
-50.6136793221
 21
69.4328234222
 31
0.0
 11
-50.4989829022
 21
69.5840368795
 31
0.0
 11
-50.3636804901
 21
69.6846507528
 31
0.0
  0
SPLINE
  5
46D
100
AcDbEntity
  8
RACCORDO
100
AcDbSpline
 62
7
  6
CONTINUOUS
 70
0
 71
3
 72
11
 73
7
 74
5
 42
0.0000001
 43
0.0000001
 44
0.0000000001
 12
-0.4148310644
 22
0.2074155322
 32
0.0
 13
-0.4148284699
 23
-0.207420721
 33
0.0
 40
0.0
 40
0.0
 40
0.0
 40
0.0
 40
0.2792060246
 40
0.5353367613
 40
0.7728844261
 40
1.0
 40
1.0
 40
1.0
 40
1.0
 10
-50.36368049
 20
69.6846507527
 30
0.0
 10
-50.4022882675
 20
69.7039546415
 30
0.0
 10
-50.4795031125
 20
69.7351685957
 30
0.0
 10
-50.5978388546
 20
69.7574117149
 30
0.0
 10
-50.7102829305
 20
69.7517761882
 30
0.0
 10
-50.7794878583
 20
69.7287522482
 30
0.0
 10
-50.8108925269
 20
69.7130494228
 30
0.0
 11
-50.36368049
 21
69.6846507527
 31
0.0
 11
-50.4841235217
 21
69.7322142001
 31
0.0
 11
-50.6010682767
 21
69.7530831803
 31
0.0
 11
-50.7110524076
 21
69.7466267666
 31
0.0
 11
-50.8108925269
 21
69.7130494228
 31
0.0
  0
SPLINE
  5
46E
100
AcDbEntity
  8
RACCORDO
100
AcDbSpline
 62
7
  6
CONTINUOUS
 70
0
 71
3
 72
11
 73
7
 74
5
 42
0.0000001
 43
0.0000001
 44
0.0000000001
 12
1.3132149071
 22
-0.6566074532
 32
0.0
 13
0.0000000001
 23
-1.4682189005
 33
0.0
 40
0.0
 40
0.0
 40
0.0
 40
0.0
 40
0.2296755895
 40
0.4882147768
 40
0.7532068927
 40
1.0
 40
1.0
 40
1.0
 40
1.0
 10
50.36368049
 20
22.1140420484
 30
0.0
 10
50.4642182926
 20
22.0637731471
 30
0.0
 10
50.6563305889
 20
21.9134770029
 30
0.0
 10
50.8781675697
 20
21.6150871452
 30
0.0
 10
51.0291061664
 20
21.2661468673
 30
0.0
 10
51.0707872712
 20
21.0152453556
 30
0.0
 10
51.0707872712
 20
20.894463254
 30
0.0
 11
50.36368049
 21
22.1140420484
 31
0.0
 11
50.6342785402
 21
21.9128207647
 31
0.0
 11
50.8636804902
 21
21.61038908
 31
0.0
 11
51.0169619727
 21
21.2527894766
 31
0.0
 11
51.0707872712
 21
20.894463254
 31
0.0
  0
SPLINE
  5
46F
100
AcDbEntity
  8
RACCORDO
100
AcDbSpline
 62
7
  6
CONTINUOUS
 70
0
 71
3
 72
11
 73
7
 74
5
 42
0.0000001
 43
0.0000001
 44
0.0000000001
 12
-0.0000000001
 22
1.4682189005
 32
0.0
 13
-1.3132149071
 23
0.6566074532
 33
0.0
 40
0.0
 40
0.0
 40
0.0
 40
0.0
 40
0.2467931073
 40
0.5117852232
 40
0.7703244105
 40
1.0
 40
1.0
 40
1.0
 40
1.0
 10
48.2777154855
 20
19.4979273612
 30
0.0
 10
48.2777154855
 20
19.6187094627
 30
0.0
 10
48.2360343807
 20
19.8696109745
 30
0.0
 10
48.085095784
 20
20.2185512523
 30
0.0
 10
47.8632588032
 20
20.5169411101
 30
0.0
 10
47.671146507
 20
20.6672372543
 30
0.0
 10
47.5706087043
 20
20.7175061556
 30
0.0
 11
48.2777154855
 21
19.4979273612
 31
0.0
 11
48.223890187
 21
19.8562535837
 31
0.0
 11
48.0706087045
 21
20.2138531871
 31
0.0
 11
47.8412067545
 21
20.5162848719
 31
0.0
 11
47.5706087043
 21
20.7175061556
 31
0.0
  0
SPLINE
  5
470
100
AcDbEntity
  8
RACCORDO
100
AcDbSpline
 62
7
  6
CONTINUOUS
 70
0
 71
3
 72
11
 73
7
 74
5
 42
0.0000001
 43
0.0000001
 44
0.0000000001
 12
0.0000000001
 22
-0.6055027734
 32
0.0
 13
-0.5227781288
 23
-0.3055104526
 33
0.0
 40
0.0
 40
0.0
 40
0.0
 40
0.0
 40
0.2884407223
 40
0.5484909777
 40
0.7827647689
 40
1.0
 40
1.0
 40
1.0
 40
1.0
 10
51.0707872712
 20
-69.1721787395
 30
0.0
 10
51.0707872712
 20
-69.2303959586
 30
0.0
 10
51.0617651037
 20
-69.3414772107
 30
0.0
 10
51.0165358314
 20
-69.4942815598
 30
0.0
 10
50.9411379184
 20
-69.618728578
 30
0.0
 10
50.8703047531
 20
-69.6792541038
 30
0.0
 10
50.8324494772
 20
-69.7013766484
 30
0.0
 11
51.0707872712
 21
-69.1721787395
 31
0.0
 11
51.0550285924
 21
-69.3461179974
 31
0.0
 11
51.0084551388
 21
-69.4965338458
 31
0.0
 11
50.9331428605
 21
-69.6167438971
 31
0.0
 11
50.8324494772
 21
-69.7013766484
 31
0.0
  0
ELLIPSE
  5
471
100
AcDbEntity
  8
RACCORDO
100
AcDbEllipse
 62
7
  6
CONTINUOUS
 10
32.0092470818
 20
-39.9188242054
 30
0.0
 11
-0.313181275
 21
0.626269159
 31
0.0
 40
0.6121897086
 41
-3.1605525579
 42
-2.2557347926
  0
ELLIPSE
  5
472
100
AcDbEntity
  8
RACCORDO
100
AcDbEllipse
 62
7
  6
CONTINUOUS
 10
32.0092470818
 20
4.4093985567
 30
0.0
 11
-0.3130130858
 21
0.6261196575
 31
0.0
 40
0.6125552124
 41
-2.255296188
 42
-0.6848044477
  0
ELLIPSE
  5
473
100
AcDbEntity
  8
RACCORDO
100
AcDbEllipse
 62
7
  6
CONTINUOUS
 10
-35.5094256486
 20
38.1687349219
 30
0.0
 11
-0.313181275
 21
0.626269159
 31
0.0
 40
0.6121897086
 41
-0.6846338794
 42
0.0188552051
  0
ELLIPSE
  5
474
100
AcDbEntity
  8
RACCORDO
100
AcDbEllipse
 62
7
  6
CONTINUOUS
 10
-33.5289526165
 20
-4.3618481434
 30
0.0
 11
-0.1341484654
 21
0.2683369961
 31
0.0
 40
0.6125552124
 41
0.8862964655
 42
2.4567882058
  0
ELLIPSE
  5
475
100
AcDbEntity
  8
RACCORDO
100
AcDbEllipse
 62
7
  6
CONTINUOUS
 10
-32.7468653704
 20
-3.9857367699
 30
0.0
 11
-0.1340229113
 21
0.2684080287
 31
0.0
 40
0.6140178746
 41
0.8880524522
 42
2.4561097232
  0
ELLIPSE
  5
476
100
AcDbEntity
  8
RACCORDO
100
AcDbEllipse
 62
7
  6
CONTINUOUS
 10
-16.3320638496
 20
-12.0546239732
 30
0.0
 11
-0.1342205464
 21
0.2684010681
 31
0.0
 40
0.6121897086
 41
-0.6846338794
 42
0.0192594208
  0
ELLIPSE
  5
477
100
AcDbEntity
  8
RACCORDO
100
AcDbEllipse
 62
7
  6
CONTINUOUS
 10
-2.5434816165
 20
-18.9489150897
 30
0.0
 11
-0.1342205464
 21
0.2684010681
 31
0.0
 40
0.6121897086
 41
-0.6846338794
 42
0.0192594208
  0
ELLIPSE
  5
478
100
AcDbEntity
  8
RACCORDO
100
AcDbEllipse
 62
7
  6
CONTINUOUS
 10
11.2451006166
 20
-25.8432062063
 30
0.0
 11
-0.1342205464
 21
0.2684010681
 31
0.0
 40
0.6121897086
 41
-0.6846338794
 42
0.0192594208
  0
ELLIPSE
  5
479
100
AcDbEntity
  8
RACCORDO
100
AcDbEllipse
 62
7
  6
CONTINUOUS
 10
2.9707170173
 20
-21.6337920756
 30
0.0
 11
-0.1342205464
 21
0.2684010681
 31
0.0
 40
0.6121897086
 41
-0.6846338794
 42
0.019259411
  0
ELLIPSE
  5
47A
100
AcDbEntity
  8
RACCORDO
100
AcDbEllipse
 62
7
  6
CONTINUOUS
 10
25.9684965391
 20
-33.1326818365
 30
0.0
 11
-0.1341371037
 21
0.2683722998
 31
0.0
 40
0.6123537661
 41
-0.6845550499
 42
0.0106825902
  0
ELLIPSE
  5
47B
100
AcDbEntity
  8
RACCORDO
100
AcDbEllipse
 62
7
  6
CONTINUOUS
 10
-5.8513086143
 20
-17.2227792598
 30
0.0
 11
-0.1341371037
 21
0.2683722998
 31
0.0
 40
0.6123537661
 41
-0.6845550499
 42
0.0106825902
  0
ELLIPSE
  5
47C
100
AcDbEntity
  8
RACCORDO
100
AcDbEllipse
 62
7
  6
CONTINUOUS
 10
-21.761211191
 20
-9.2678279714
 30
0.0
 11
-0.1341371037
 21
0.2683722998
 31
0.0
 40
0.6123537661
 41
-0.6845550499
 42
0.0106825902
  0
ELLIPSE
  5
47D
100
AcDbEntity
  8
RACCORDO
100
AcDbEllipse
 62
7
  6
CONTINUOUS
 10
16.7592992504
 20
-28.5280831921
 30
0.0
 11
-0.1342205464
 21
0.2684010681
 31
0.0
 40
0.6121897086
 41
-0.6846338794
 42
0.019259411
  0
ELLIPSE
  5
47E
100
AcDbEntity
  8
ASSI
100
AcDbEllipse
 62
7
  6
CONTINUOUS
 10
25.2539781787
 20
-31.1061781091
 30
0.0
 11
0.0974129977
 21
0.1748074534
 31
0.0
 40
0.6437101552
 41
0.6611775963
 42
0.7135374739
  0
ELLIPSE
  5
47F
100
AcDbEntity
  8
ASSI
100
AcDbEllipse
 62
7
  6
CONTINUOUS
 10
-22.4757295514
 20
-7.241324244
 30
0.0
 11
0.0974129977
 21
0.1748074534
 31
0.0
 40
0.6437101552
 41
0.6611775963
 42
0.7135374739
  0
ELLIPSE
  5
480
100
AcDbEntity
  8
ASSI
100
AcDbEllipse
 62
7
  6
CONTINUOUS
 10
9.344075602
 20
-23.2378293611
 30
0.0
 11
0.0974129977
 21
0.1748074534
 31
0.0
 40
0.6437101552
 41
0.6611775963
 42
0.7135374739
  0
ELLIPSE
  5
481
100
AcDbEntity
  8
ASSI
100
AcDbEllipse
 62
7
  6
CONTINUOUS
 10
-6.5658269747
 20
-15.2828780727
 30
0.0
 11
0.0974129977
 21
0.1748074534
 31
0.0
 40
0.6437101552
 41
0.6611775963
 42
0.7135374739
  0
ELLIPSE
  5
482
100
AcDbEntity
  8
RACCORDO
100
AcDbEllipse
 62
7
  6
CONTINUOUS
 10
21.3015917832
 20
-30.7992294585
 30
0.0
 11
-0.1341371037
 21
0.2683722998
 31
0.0
 40
0.6123537661
 41
-2.2553513767
 42
-0.6845550499
  0
ELLIPSE
  5
483
100
AcDbEntity
  8
RACCORDO
100
AcDbEllipse
 62
7
  6
CONTINUOUS
 10
-17.2189186582
 20
-11.5389742378
 30
0.0
 11
-0.1341484654
 21
0.2683369961
 31
0.0
 40
0.6125552124
 41
-2.255296188
 42
-0.6848044477
  0
ELLIPSE
  5
484
100
AcDbEntity
  8
RACCORDO
100
AcDbEllipse
 62
7
  6
CONTINUOUS
 10
5.3916892065
 20
-22.8442781702
 30
0.0
 11
-0.1341371037
 21
0.2683722998
 31
0.0
 40
0.6123537661
 41
-2.2553513767
 42
-0.6845550499
  0
ELLIPSE
  5
485
100
AcDbEntity
  8
RACCORDO
100
AcDbEllipse
 62
7
  6
CONTINUOUS
 10
-26.4281159468
 20
-6.9343755935
 30
0.0
 11
-0.1341371037
 21
0.2683722998
 31
0.0
 40
0.6123537661
 41
-2.2553513767
 42
-0.6845550499
  0
ELLIPSE
  5
486
100
AcDbEntity
  8
RACCORDO
100
AcDbEllipse
 62
7
  6
CONTINUOUS
 10
-32.4032005615
 20
21.3184337099
 30
0.0
 11
-0.1341484654
 21
0.2683369961
 31
0.0
 40
0.6125552124
 41
-2.255296188
 42
-0.6848044477
  0
ELLIPSE
  5
487
100
AcDbEntity
  8
RACCORDO
100
AcDbEllipse
 62
7
  6
CONTINUOUS
 10
-32.4032005615
 20
10.6251474439
 30
0.0
 11
-0.1342205464
 21
0.2684010681
 31
0.0
 40
0.6121897086
 41
-3.160544254
 42
-2.2557347926
  0
ELLIPSE
  5
488
100
AcDbEntity
  8
RACCORDO
100
AcDbEllipse
 62
7
  6
CONTINUOUS
 10
-32.4032005615
 20
29.6777063271
 30
0.0
 11
-0.1342205464
 21
0.2684010681
 31
0.0
 40
0.6121897086
 41
-3.160544254
 42
-2.2557347926
  0
ELLIPSE
  5
489
100
AcDbEntity
  8
RACCORDO
100
AcDbEllipse
 62
7
  6
CONTINUOUS
 10
-32.4032005615
 20
2.2658748266
 30
0.0
 11
-0.1341484654
 21
0.2683369961
 31
0.0
 40
0.6125552124
 41
-2.255296188
 42
-0.6848044477
  0
ELLIPSE
  5
48A
100
AcDbEntity
  8
RACCORDO
100
AcDbEllipse
 62
7
  6
CONTINUOUS
 10
-3.430336425
 20
-18.4332653544
 30
0.0
 11
-0.1341484654
 21
0.2683369961
 31
0.0
 40
0.6125552124
 41
-2.255296188
 42
-0.6848044477
  0
ELLIPSE
  5
48B
100
AcDbEntity
  8
RACCORDO
100
AcDbEllipse
 62
7
  6
CONTINUOUS
 10
-32.4751454991
 20
28.2103870779
 30
0.0
 11
-0.1341484654
 21
0.2683369961
 31
0.0
 40
0.6125552124
 41
-2.255296188
 42
-0.6848044477
  0
ELLIPSE
  5
48C
100
AcDbEntity
  8
RACCORDO
100
AcDbEllipse
 62
7
  6
CONTINUOUS
 10
-32.4751454991
 20
22.7162765405
 30
0.0
 11
-0.1342205464
 21
0.2684010681
 31
0.0
 40
0.6121897086
 41
-3.160544254
 42
-2.2557347926
  0
ELLIPSE
  5
48D
100
AcDbEntity
  8
RACCORDO
100
AcDbEllipse
 62
7
  6
CONTINUOUS
 10
-32.4751454991
 20
3.6637176573
 30
0.0
 11
-0.1342205464
 21
0.2684010681
 31
0.0
 40
0.6121897086
 41
-3.160544254
 42
-2.2557347926
  0
ELLIPSE
  5
48E
100
AcDbEntity
  8
RACCORDO
100
AcDbEllipse
 62
7
  6
CONTINUOUS
 10
-32.4751454991
 20
9.1578281946
 30
0.0
 11
-0.1341484654
 21
0.2683369961
 31
0.0
 40
0.6125552124
 41
-2.255296188
 42
-0.6848044477
  0
ELLIPSE
  5
48F
100
AcDbEntity
  8
RACCORDO
100
AcDbEllipse
 62
7
  6
CONTINUOUS
 10
-11.8461413806
 20
-14.2975852077
 30
0.0
 11
-0.1341484654
 21
0.2683369961
 31
0.0
 40
0.6125552124
 41
-2.255296188
 42
-0.6848044477
  0
ELLIPSE
  5
490
100
AcDbEntity
  8
RACCORDO
100
AcDbEllipse
 62
7
  6
CONTINUOUS
 10
1.9424408525
 20
-21.1918763242
 30
0.0
 11
-0.1341484654
 21
0.2683369961
 31
0.0
 40
0.6125552124
 41
-2.255296188
 42
-0.6848044477
  0
ELLIPSE
  5
491
100
AcDbEntity
  8
RACCORDO
100
AcDbEllipse
 62
7
  6
CONTINUOUS
 10
15.7310230856
 20
-28.0861674408
 30
0.0
 11
-0.1341484654
 21
0.2683369961
 31
0.0
 40
0.6125552124
 41
-2.255296188
 42
-0.6848044477
  0
ELLIPSE
  5
492
100
AcDbEntity
  8
RACCORDO
100
AcDbEllipse
 62
7
  6
CONTINUOUS
 10
-32.9787600623
 20
29.4118938763
 30
0.0
 11
-0.1342205464
 21
0.2684010681
 31
0.0
 40
0.6121897086
 41
2.5485848158
 42
4.0274505145
  0
ELLIPSE
  5
493
100
AcDbEntity
  8
RACCORDO
100
AcDbEllipse
 62
7
  6
CONTINUOUS
 10
-32.9787600623
 20
10.359334993
 30
0.0
 11
-0.1342205464
 21
0.2684010681
 31
0.0
 40
0.6121897086
 41
2.5485848158
 42
4.0274505145
  0
ELLIPSE
  5
494
100
AcDbEntity
  8
RACCORDO
100
AcDbEllipse
 62
7
  6
CONTINUOUS
 10
14.7957388969
 20
-28.5574156505
 30
0.0
 11
-0.1341484654
 21
0.2683369961
 31
0.0
 40
0.6125552124
 41
4.4046576674
 42
5.5983808594
  0
ELLIPSE
  5
495
100
AcDbEntity
  8
RACCORDO
100
AcDbEllipse
 62
7
  6
CONTINUOUS
 10
10.3419071743
 20
-26.3304997892
 30
0.0
 11
-0.1342205464
 21
0.2684010681
 31
0.0
 40
0.6121897086
 41
-0.6846338794
 42
0.8444045336
  0
ELLIPSE
  5
496
100
AcDbEntity
  8
RACCORDO
100
AcDbEllipse
 62
7
  6
CONTINUOUS
 10
1.0071566637
 20
-21.663124534
 30
0.0
 11
-0.1341484654
 21
0.2683369961
 31
0.0
 40
0.6125552124
 41
4.4046576674
 42
5.5983808594
  0
ELLIPSE
  5
497
100
AcDbEntity
  8
RACCORDO
100
AcDbEllipse
 62
7
  6
CONTINUOUS
 10
-3.4466750588
 20
-19.4362086727
 30
0.0
 11
-0.1342205464
 21
0.2684010681
 31
0.0
 40
0.6121897086
 41
-0.6846338794
 42
0.8444045336
  0
ELLIPSE
  5
498
100
AcDbEntity
  8
ASSI
100
AcDbEllipse
 62
7
  6
CONTINUOUS
 10
-18.2182657059
 20
-9.3700561668
 30
0.0
 11
0.0823576675
 21
0.1823694112
 31
0.0
 40
0.5796795686
 41
0.6094740628
 42
0.6618339404
  0
ELLIPSE
  5
499
100
AcDbEntity
  8
RACCORDO
100
AcDbEllipse
 62
7
  6
CONTINUOUS
 10
-12.7814255694
 20
-14.7688334174
 30
0.0
 11
-0.1341484654
 21
0.2683369961
 31
0.0
 40
0.6125552124
 41
4.4046576674
 42
5.5983808594
  0
ELLIPSE
  5
49A
100
AcDbEntity
  8
RACCORDO
100
AcDbEllipse
 62
7
  6
CONTINUOUS
 10
-17.235257292
 20
-12.5419175561
 30
0.0
 11
-0.1342205464
 21
0.2684010681
 31
0.0
 40
0.6121897086
 41
-0.6846338794
 42
0.8444045336
  0
ELLIPSE
  5
49B
100
AcDbEntity
  8
ASSI
100
AcDbEllipse
 62
7
  6
CONTINUOUS
 10
13.6015394475
 20
-25.3665612839
 30
0.0
 11
0.0823576675
 21
0.1823694112
 31
0.0
 40
0.5796795686
 41
0.6094740628
 42
0.6618339404
  0
ELLIPSE
  5
49C
100
AcDbEntity
  8
ASSI
100
AcDbEllipse
 62
7
  6
CONTINUOUS
 10
-2.3083631292
 20
-17.4116099955
 30
0.0
 11
0.0823576675
 21
0.1823694112
 31
0.0
 40
0.5796795686
 41
0.6094740628
 42
0.6618339404
  0
ELLIPSE
  5
49D
100
AcDbEntity
  8
RACCORDO
100
AcDbEllipse
 62
7
  6
CONTINUOUS
 10
-33.4104296879
 20
22.2843313079
 30
0.0
 11
-0.1342205464
 21
0.2684010681
 31
0.0
 40
0.6121897086
 41
2.4569587742
 42
4.0274505145
  0
ELLIPSE
  5
49E
100
AcDbEntity
  8
RACCORDO
100
AcDbEllipse
 62
7
  6
CONTINUOUS
 10
-33.4104296879
 20
3.2317724246
 30
0.0
 11
-0.1342205464
 21
0.2684010681
 31
0.0
 40
0.6121897086
 41
2.4569587742
 42
4.0274505145
  0
ELLIPSE
  5
49F
100
AcDbEntity
  8
RACCORDO
100
AcDbEllipse
 62
7
  6
CONTINUOUS
 10
-32.9787600623
 20
21.0284348116
 30
0.0
 11
-0.1341484654
 21
0.2683369961
 31
0.0
 40
0.6125552124
 41
-2.255296188
 42
-0.776430489
  0
ELLIPSE
  5
4A0
100
AcDbEntity
  8
RACCORDO
100
AcDbEllipse
 62
7
  6
CONTINUOUS
 10
-22.326896616
 20
-9.5627639076
 30
0.0
 11
-0.1341371037
 21
0.2683722998
 31
0.0
 40
0.6123537661
 41
-0.6845550499
 42
0.4620963561
  0
ELLIPSE
  5
4A1
100
AcDbEntity
  8
RACCORDO
100
AcDbEllipse
 62
7
  6
CONTINUOUS
 10
-17.794478159
 20
-11.8289731361
 30
0.0
 11
-0.1341484654
 21
0.2683369961
 31
0.0
 40
0.6125552124
 41
-1.8314532843
 42
-0.6848044477
  0
ELLIPSE
  5
4A2
100
AcDbEntity
  8
RACCORDO
100
AcDbEllipse
 62
7
  6
CONTINUOUS
 10
-32.9787600623
 20
1.9758759283
 30
0.0
 11
-0.1341484654
 21
0.2683369961
 31
0.0
 40
0.6125552124
 41
-2.255296188
 42
-0.776430489
  0
ELLIPSE
  5
4A3
100
AcDbEntity
  8
RACCORDO
100
AcDbEllipse
 62
7
  6
CONTINUOUS
 10
-26.9938013718
 20
-7.2293115297
 30
0.0
 11
-0.1341371037
 21
0.2683722998
 31
0.0
 40
0.6123537661
 41
-1.831206456
 42
-0.6845550499
  0
ELLIPSE
  5
4A4
100
AcDbEntity
  8
RACCORDO
100
AcDbEllipse
 62
7
  6
CONTINUOUS
 10
25.4028111141
 20
-33.4276177726
 30
0.0
 11
-0.1341371037
 21
0.2683722998
 31
0.0
 40
0.6123537661
 41
-0.6845550499
 42
0.4620963561
  0
ELLIPSE
  5
4A5
100
AcDbEntity
  8
RACCORDO
100
AcDbEllipse
 62
7
  6
CONTINUOUS
 10
16.2034879013
 20
-28.8279561662
 30
0.0
 11
-0.1342205464
 21
0.2684010681
 31
0.0
 40
0.6121897086
 41
-0.6846338794
 42
0.4620149536
  0
ELLIPSE
  5
4A6
100
AcDbEntity
  8
RACCORDO
100
AcDbEllipse
 62
7
  6
CONTINUOUS
 10
20.7359063583
 20
-31.0941653947
 30
0.0
 11
-0.1341371037
 21
0.2683722998
 31
0.0
 40
0.6123537661
 41
-1.831206456
 42
-0.6845550499
  0
ELLIPSE
  5
4A7
100
AcDbEntity
  8
RACCORDO
100
AcDbEllipse
 62
7
  6
CONTINUOUS
 10
2.4149056681
 20
-21.9336650497
 30
0.0
 11
-0.1342205464
 21
0.2684010681
 31
0.0
 40
0.6121897086
 41
-0.6846338794
 42
0.4620149536
  0
ELLIPSE
  5
4A8
100
AcDbEntity
  8
RACCORDO
100
AcDbEllipse
 62
7
  6
CONTINUOUS
 10
4.8260037816
 20
-23.1392141064
 30
0.0
 11
-0.1341371037
 21
0.2683722998
 31
0.0
 40
0.6123537661
 41
-1.831206456
 42
-0.6845550499
  0
ELLIPSE
  5
4A9
100
AcDbEntity
  8
RACCORDO
100
AcDbEllipse
 62
7
  6
CONTINUOUS
 10
-6.4169940393
 20
-17.517715196
 30
0.0
 11
-0.1341371037
 21
0.2683722998
 31
0.0
 40
0.6123537661
 41
-0.6845550499
 42
0.4620963561
  0
ELLIPSE
  5
4AA
100
AcDbEntity
  8
RACCORDO
100
AcDbEllipse
 62
7
  6
CONTINUOUS
 10
-4.0058959258
 20
-18.7232642527
 30
0.0
 11
-0.1341484654
 21
0.2683369961
 31
0.0
 40
0.6125552124
 41
-1.8314532843
 42
-0.6848044477
  0
ELLIPSE
  5
4AB
100
AcDbEntity
  8
RACCORDO
100
AcDbEllipse
 62
7
  6
CONTINUOUS
 10
-33.4104296879
 20
8.6865799849
 30
0.0
 11
-0.1341484654
 21
0.2683369961
 31
0.0
 40
0.6125552124
 41
-2.255296188
 42
-0.6848044477
  0
ELLIPSE
  5
4AC
100
AcDbEntity
  8
RACCORDO
100
AcDbEllipse
 62
7
  6
CONTINUOUS
 10
-33.4104296879
 20
27.7391388682
 30
0.0
 11
-0.1341484654
 21
0.2683369961
 31
0.0
 40
0.6125552124
 41
-2.255296188
 42
-0.6848044477
  0
ELLIPSE
  5
4AD
100
AcDbEntity
  8
ASSI
100
AcDbEllipse
 62
7
  6
CONTINUOUS
 10
-2.4499785644
 20
-17.7664004549
 30
0.0
 11
0.1997674032
 21
0.1243735635
 31
0.0
 40
0.0775313764
 41
5.4495541764
 42
6.9679906257
  0
ELLIPSE
  5
4AE
100
AcDbEntity
  8
ASSI
100
AcDbEllipse
 62
7
  6
CONTINUOUS
 10
13.4599240123
 20
-25.7213517432
 30
0.0
 11
0.1997674032
 21
0.1243735635
 31
0.0
 40
0.0775313764
 41
5.4495541764
 42
6.9679906257
  0
ELLIPSE
  5
4AF
100
AcDbEntity
  8
ASSI
100
AcDbEllipse
 62
7
  6
CONTINUOUS
 10
-18.3598811411
 20
-9.8114491665
 30
0.0
 11
0.1997674032
 21
0.1243735635
 31
0.0
 40
0.0775313764
 41
5.4495541764
 42
6.9679906257
  0
ENDSEC
  0
SECTION
  2
OBJECTS
  0
DICTIONARY
  5
C
100
AcDbDictionary
280
0
281
1
  3
ACAD_GROUP
350
D
  3
ACAD_MLINESTYLE
350
17
  3
ACAD_LAYOUT
350
1A
  3
ACAD_PLOTSETTINGS
350
19
  3
ACAD_PLOTSTYLENAME
350
E
  0
DICTIONARY
  5
D
102
{ACAD_REACTORS
330
C
102
}
100
AcDbDictionary
280
0
281
1
  0
ACDBDICTIONARYWDFLT
  5
E
102
{ACAD_REACTORS
330
C
102
}
100
AcDbDictionary
281
1
  3
Normal
350
F
100
AcDbDictionaryWithDefault
340
F
  0
DICTIONARY
  5
17
102
{ACAD_REACTORS
330
C
102
}
100
AcDbDictionary
280
0
281
1
  3
Standard
350
18
  0
DICTIONARY
  5
19
102
{ACAD_REACTORS
330
C
102
}
100
AcDbDictionary
281
1
  0
DICTIONARY
  5
1A
102
{ACAD_REACTORS
330
C
102
}
100
AcDbDictionary
281
1
  3
Model
350
4B0
  3
Layout1
350
4B1
  0
ACDBPLACEHOLDER
  5
F
102
{ACAD_REACTORS
330
E
102
}
  0
MLINESTYLE
  5
18
102
{ACAD_REACTORS
330
17
102
}
100
AcDbMlineStyle
  2
STANDARD
 70
0
  3

 62
256
 51
90.0
 52
90.0
 71
2
 49
0.5
 62
256
  6
BYLAYER
 49
-0.5
 62
256
  6
BYLAYER
  0
LAYOUT
  5
4B0
102
{ACAD_REACTORS
330
1A
102
}
100
AcDbPlotSettings
  1

  2
none_device
  4
ISO_A4_(297.00_x_210.00_MM)
  6

 40
0.0
 41
0.0
 42
0.0
 43
0.0
 44
297.0
 45
210.0
 46
0.0
 47
0.0
 48
0.0
 49
0.0
140
0.0
141
0.0
142
1.0
143
1.0
 70
1024
 72
1
 73
0
 74
0
  7

 75
0
147
1.0
148
0.0
149
0.0
100
AcDbLayout
  1
Model
 70
0
 71
0
 10
0.0
 20
0.0
 11
297.0
 21
210.0
 12
0.0
 22
0.0
 32
0.0
 14
0.0
 24
0.0
 34
0.0
 15
0.0
 25
0.0
 35
0.0
146
0.0
 13
0.0
 23
0.0
 33
0.0
 16
1.0
 26
0.0
 36
0.0
 17
0.0
 27
1.0
 37
0.0
 76
0
330
215
345
0
346
0
  0
LAYOUT
  5
4B1
102
{ACAD_REACTORS
330
1A
102
}
100
AcDbPlotSettings
  1

  2
none_device
  4
ISO_A4_(297.00_x_210.00_MM)
  6

 40
0.0
 41
0.0
 42
0.0
 43
0.0
 44
297.0
 45
210.0
 46
0.0
 47
0.0
 48
0.0
 49
0.0
140
0.0
141
0.0
142
1.0
143
1.0
 70
0
 72
1
 73
0
 74
0
  7

 75
0
147
1.0
148
0.0
149
0.0
100
AcDbLayout
  1
Layout1
 70
0
 71
1
 10
0.0
 20
0.0
 11
297.0
 21
210.0
 12
0.0
 22
0.0
 32
0.0
 14
0.0
 24
0.0
 34
0.0
 15
0.0
 25
0.0
 35
0.0
146
0.0
 13
0.0
 23
0.0
 33
0.0
 16
1.0
 26
0.0
 36
0.0
 17
0.0
 27
1.0
 37
0.0
 76
0
330
216
345
0
346
0
  0
ENDSEC
  0
EOF
