  0
SECTION
  2
HEADER
  9
$ACADVER
  1
AC1015
  9
$DWGCODEPAGE
  3
ANSI_1252
  9
$EXTMAX
 10
297.0
 20
210.0
 30
0.0
  9
$EXTMIN
 10
0.0
 20
0.0
 30
0.0
  9
$LIMMIN
 10
0.0
 20
0.0
  9
$LIMMAX
 10
297.0
 20
210.0
  9
$VIEWCTR
 10
148.5
 20
105.0
  9
$VIEWSIZE
 40
210.0
  9
$CLAYER
  8
0
  9
$LTSCALE
 40
16.335
  9
$CELTYPE
  6
BYLAYER
  9
$DIMSCALE
 40
1.0
  9
$DIMASZ
 40
3.0
  9
$DIMEXO
 40
1.85625
  9
$DIMDLI
 40
11.286
  9
$DIMEXE
 40
5.346
  9
$DIMCEN
 40
2.673
  9
$DIMLFAC
 40
1.0
  9
$DIMBLK
  1
_FILLED
  9
$DIMTXT
 40
3.0
  9
$DIMTOL
 70
1
  9
$DIMLIM
 70
0
  9
$DIMTFAC
 40
1.0
  9
$DIMTP
 40
0.01
  9
$DIMTM
 40
0.01
  9
$PDMODE
 70
3
  9
$PDSIZE
 40
3.0
  9
$HANDSEED
  5
4D4
  9
$TILEMODE
 70
1
  9
$MEASUREMENT
 70
1
  9
$INSUNITS
 70
4
  0
ENDSEC
  0
SECTION
  2
CLASSES
  0
CLASS
  1
ACDBDICTIONARYWDFLT
  2
AcDbDictionaryWithDefault
  3
AutoCAD 2000
 90
0
280
0
281
0
  0
CLASS
  1
ACDBPLACEHOLDER
  2
AcDbPlaceHolder
  3
AutoCAD 2000
 90
0
280
0
281
0
  0
CLASS
  1
LAYOUT
  2
AcDbLayout
  3
AutoCAD 2000
 90
0
280
0
281
0
  0
ENDSEC
  0
SECTION
  2
TABLES
  0
TABLE
  2
VPORT
  5
8
100
AcDbSymbolTable
 70
2
  0
VPORT
  5
1F4
100
AcDbSymbolTableRecord
100
AcDbViewportTableRecord
  2
*ACTIVE
 70
0
 10
0.0
 20
0.0
 11
1.0
 21
1.0
 12
148.5
 22
105.0
 13
0.0
 23
0.0
 14
1.0
 24
1.0
 15
0.0
 25
0.0
 16
0.0
 26
0.0
 36
1.0
 17
0.0
 27
0.0
 37
0.0
 40
210.0
 41
1.4142857143
 42
50.0
 43
0.0
 44
0.0
 50
0.0
 51
0.0
 71
0
 72
100
 73
1
 74
1
 75
0
 76
0
 77
0
 78
0
  0
ENDTAB
  0
TABLE
  2
LTYPE
  5
5
100
AcDbSymbolTable
 70
6
  0
LTYPE
  5
14
100
AcDbSymbolTableRecord
100
AcDbLinetypeTableRecord
  2
BYBLOCK
 70
0
  3

 72
65
 73
0
 40
0.0
  0
LTYPE
  5
15
100
AcDbSymbolTableRecord
100
AcDbLinetypeTableRecord
  2
BYLAYER
 70
0
  3

 72
65
 73
0
 40
0.0
  0
LTYPE
  5
16
100
AcDbSymbolTableRecord
100
AcDbLinetypeTableRecord
  2
CONTINUOUS
 70
64
  3
Solid line
 72
65
 73
0
 40
0.0
  0
LTYPE
  5
1F5
100
AcDbSymbolTableRecord
100
AcDbLinetypeTableRecord
  2
CENTER
 70
64
  3
____ _ ____ _ ____ _ ____ _ ____ _ ____ _ ____
 72
65
 73
4
 40
0.6
 49
0.375
 74
0
 49
-0.075
 74
0
 49
0.075
 74
0
 49
-0.075
 74
0
  0
LTYPE
  5
1F6
100
AcDbSymbolTableRecord
100
AcDbLinetypeTableRecord
  2
HIDDEN
 70
64
  3
- - - - - - - - - - - - - - - - - - - -
 72
65
 73
2
 40
0.2
 49
0.1
 74
0
 49
-0.1
 74
0
  0
LTYPE
  5
1F7
100
AcDbSymbolTableRecord
100
AcDbLinetypeTableRecord
  2
PHANTOM
 70
64
  3
_____ _ _ _____ _ _ _____ _ _ _____
 72
65
 73
6
 40
0.8
 49
0.45
 74
0
 49
-0.05
 74
0
 49
0.1
 74
0
 49
-0.05
 74
0
 49
0.1
 74
0
 49
-0.05
 74
0
  0
LTYPE
  5
1F8
100
AcDbSymbolTableRecord
100
AcDbLinetypeTableRecord
  2
DOT
 70
64
  3
. . . . . . . . . . . . . . . . . . . .
 72
65
 73
2
 40
0.2
 49
0.1
 74
0
 49
-0.1
 74
0
  0
LTYPE
  5
1F9
100
AcDbSymbolTableRecord
100
AcDbLinetypeTableRecord
  2
DASHED
 70
64
  3
- - - - - - - - - - - - - - - - - - - -
 72
65
 73
2
 40
0.2
 49
0.1
 74
0
 49
-0.1
 74
0
  0
ENDTAB
  0
TABLE
  2
LAYER
  5
2
100
AcDbSymbolTable
 70
36
  0
LAYER
  5
10
100
AcDbSymbolTableRecord
100
AcDbLayerTableRecord
  2
0
 70
0
 62
7
  6
CONTINUOUS
370
-3
390
F
  0
LAYER
  5
1FA
100
AcDbSymbolTableRecord
100
AcDbLayerTableRecord
  2
DEFAULT_1
 70
0
 62
7
  6
CENTER
370
-3
390
F
  0
LAYER
  5
1FB
100
AcDbSymbolTableRecord
100
AcDbLayerTableRecord
  2
DEFAULT_2
 70
0
 62
7
  6
HIDDEN
370
-3
390
F
  0
LAYER
  5
1FC
100
AcDbSymbolTableRecord
100
AcDbLayerTableRecord
  2
DEFAULT_3
 70
0
 62
7
  6
PHANTOM
370
-3
390
F
  0
LAYER
  5
1FD
100
AcDbSymbolTableRecord
100
AcDbLayerTableRecord
  2
ASSI
 70
0
 62
7
  6
CONTINUOUS
370
-3
390
F
  0
LAYER
  5
1FE
100
AcDbSymbolTableRecord
100
AcDbLayerTableRecord
  2
COORDINATE
 70
0
 62
7
  6
CONTINUOUS
370
-3
390
F
  0
LAYER
  5
1FF
100
AcDbSymbolTableRecord
100
AcDbLayerTableRecord
  2
COORD_ORIGINE
 70
0
 62
7
  6
CONTINUOUS
370
-3
390
F
  0
LAYER
  5
200
100
AcDbSymbolTableRecord
100
AcDbLayerTableRecord
  2
COPY_PUBLISH
 70
0
 62
7
  6
CONTINUOUS
370
-3
390
F
  0
LAYER
  5
201
100
AcDbSymbolTableRecord
100
AcDbLayerTableRecord
  2
COSMETIC
 70
0
 62
7
  6
CONTINUOUS
370
-3
390
F
  0
LAYER
  5
202
100
AcDbSymbolTableRecord
100
AcDbLayerTableRecord
  2
CURVE
 70
0
 62
7
  6
CONTINUOUS
370
-3
390
F
  0
LAYER
  5
203
100
AcDbSymbolTableRecord
100
AcDbLayerTableRecord
  2
DRAFT
 70
0
 62
7
  6
CONTINUOUS
370
-3
390
F
  0
LAYER
  5
204
100
AcDbSymbolTableRecord
100
AcDbLayerTableRecord
  2
IMPORT_IGES
 70
0
 62
7
  6
CONTINUOUS
370
-3
390
F
  0
LAYER
  5
205
100
AcDbSymbolTableRecord
100
AcDbLayerTableRecord
  2
INTFCLR_2
 70
0
 62
7
  6
CONTINUOUS
370
-3
390
F
  0
LAYER
  5
206
100
AcDbSymbolTableRecord
100
AcDbLayerTableRecord
  2
PIANI
 70
0
 62
7
  6
CONTINUOUS
370
-3
390
F
  0
LAYER
  5
207
100
AcDbSymbolTableRecord
100
AcDbLayerTableRecord
  2
PIANI_ORIGINE
 70
0
 62
7
  6
CONTINUOUS
370
-3
390
F
  0
LAYER
  5
208
100
AcDbSymbolTableRecord
100
AcDbLayerTableRecord
  2
PIANI_RIFERIMENTO
 70
0
 62
7
  6
CONTINUOUS
370
-3
390
F
  0
LAYER
  5
209
100
AcDbSymbolTableRecord
100
AcDbLayerTableRecord
  2
PUNTI
 70
0
 62
7
  6
CONTINUOUS
370
-3
390
F
  0
LAYER
  5
20A
100
AcDbSymbolTableRecord
100
AcDbLayerTableRecord
  2
RACCORDO
 70
0
 62
7
  6
CONTINUOUS
370
-3
390
F
  0
LAYER
  5
20B
100
AcDbSymbolTableRecord
100
AcDbLayerTableRecord
  2
SMUSSO
 70
0
 62
7
  6
CONTINUOUS
370
-3
390
F
  0
LAYER
  5
20C
100
AcDbSymbolTableRecord
100
AcDbLayerTableRecord
  2
SNAPLINE
 70
0
 62
7
  6
CONTINUOUS
370
-3
390
F
  0
LAYER
  5
20D
100
AcDbSymbolTableRecord
100
AcDbLayerTableRecord
  2
SUPERFICI
 70
0
 62
7
  6
CONTINUOUS
370
-3
390
F
  0
LAYER
  5
20E
100
AcDbSymbolTableRecord
100
AcDbLayerTableRecord
  2
TRASH
 70
0
 62
7
  6
CONTINUOUS
370
-3
390
F
  0
LAYER
  5
20F
100
AcDbSymbolTableRecord
100
AcDbLayerTableRecord
  2
XSEC_DATUMS
 70
0
 62
7
  6
CONTINUOUS
370
-3
390
F
  0
ENDTAB
  0
TABLE
  2
STYLE
  5
3
100
AcDbSymbolTable
 70
1
  0
STYLE
  5
11
100
AcDbSymbolTableRecord
100
AcDbTextStyleTableRecord
  2
STANDARD
 70
0
 40
0.0
 41
0.8
 50
0.0
 71
0
 42
0.2
  3
txt
  4

  0
STYLE
  5
210
100
AcDbSymbolTableRecord
100
AcDbTextStyleTableRecord
  2
TEXTSTYLE_1
 70
0
 40
0.0
 41
0.8
 50
0.0
 71
0
 42
0.2
  3
gdt
  4

  0
ENDTAB
  0
TABLE
  2
VIEW
  5
6
100
AcDbSymbolTable
 70
0
  0
ENDTAB
  0
TABLE
  2
UCS
  5
7
100
AcDbSymbolTable
 70
0
  0
ENDTAB
  0
TABLE
  2
APPID
  5
9
100
AcDbSymbolTable
 70
1
  0
APPID
  5
211
100
AcDbSymbolTableRecord
100
AcDbRegAppTableRecord
  2
ACAD
 70
0
  0
ENDTAB
  0
TABLE
  2
BLOCK_RECORD
  5
1
100
AcDbSymbolTable
 70
0
  0
BLOCK_RECORD
  5
212
100
AcDbSymbolTableRecord
100
AcDbBlockTableRecord
  2
*Model_Space
  0
BLOCK_RECORD
  5
213
100
AcDbSymbolTableRecord
100
AcDbBlockTableRecord
  2
*Paper_Space
  0
ENDTAB
  0
TABLE
  2
DIMSTYLE
  5
A
100
AcDbSymbolTable
 70
1
100
AcDbDimStyleTable
 71
0
  0
DIMSTYLE
105
214
100
AcDbSymbolTableRecord
100
AcDbDimStyleTableRecord
  2
STANDARD
 70
0
  3

  4

 40
1.0
 41
3.0
 42
0.0625
 43
0.38
 44
0.18
 45
0.0
 46
0.0
 47
0.01
 48
0.01
140
3.0
141
0.09
142
0.0
143
25.4
144
1.0
145
0.0
146
1.0
147
0.09
 71
1.0
 72
0.0
 73
0
 74
0
 75
0
 76
0
 77
1
 78
8
170
0
171
2
172
0
173
0
174
0
175
0
176
0
177
0
178
0
270
2
271
2
272
2
273
2
274
2
275
0
280
0
281
0
282
0
283
1
284
8
285
0
286
0
287
3
288
0
340
11
  0
ENDTAB
  0
ENDSEC
  0
SECTION
  2
BLOCKS
  0
BLOCK
  5
20
100
AcDbEntity
  8
0
100
AcDbBlockBegin
  2
*Model_Space
 70
0
 10
0.0
 20
0.0
 30
0.0
  3
*Model_Space
  1

  0
ENDBLK
  5
21
100
AcDbEntity
  8
0
100
AcDbBlockEnd
  0
BLOCK
  5
1C
100
AcDbEntity
  8
0
100
AcDbBlockBegin
  2
*Paper_Space
 70
0
 10
0.0
 20
0.0
 30
0.0
  3
*Paper_Space
  1

  0
ENDBLK
  5
1D
100
AcDbEntity
  8
0
100
AcDbBlockEnd
  0
ENDSEC
  0
SECTION
  2
ENTITIES
  0
LINE
  5
215
100
AcDbEntity
  8
DRAFT
100
AcDbLine
 62
7
  6
CONTINUOUS
 10
-49.1822575202
 20
70.2719651993
 11
-47.5100139943
 21
71.1547585114
  0
LINE
  5
216
100
AcDbEntity
  8
DRAFT
100
AcDbLine
 62
7
  6
CONTINUOUS
 10
-48.5193678977
 20
70.2360670467
 11
-46.828146585
 21
71.1178326353
  0
LINE
  5
217
100
AcDbEntity
  8
RACCORDO
100
AcDbLine
 62
7
  6
CONTINUOUS
 10
-51.1831168903
 20
69.6245660666
 11
-50.0684319653
 21
70.1819085291
  0
LINE
  5
218
100
AcDbEntity
  8
SMUSSO
100
AcDbLine
 62
7
  6
CONTINUOUS
 10
-50.6818785415
 20
69.623176656
 11
-49.6212183698
 21
70.1535067419
  0
LINE
  5
219
100
AcDbEntity
  8
DRAFT
100
AcDbLine
 62
7
  6
CONTINUOUS
 10
-48.8041131505
 20
69.7449541322
 11
-48.5193678977
 21
70.2360670467
  0
LINE
  5
21A
100
AcDbEntity
  8
DRAFT
100
AcDbLine
 62
7
  6
CONTINUOUS
 10
49.0201776058
 20
-69.2346359415
 11
49.6682436313
 21
-69.2346359404
  0
LINE
  5
21B
100
AcDbEntity
  8
SMUSSO
100
AcDbLine
 62
7
  6
CONTINUOUS
 10
-51.3889853227
 20
69.1107046428
 11
-51.3889853227
 21
-20.9559373508
  0
LINE
  5
21C
100
AcDbEntity
  8
SMUSSO
100
AcDbLine
 62
7
  6
CONTINUOUS
 10
-48.560558198
 20
61.9521504991
 11
-48.560558198
 21
-19.4542374566
  0
LWPOLYLINE
  5
21D
100
AcDbEntity
  8
RACCORDO
100
AcDbPolyline
 62
7
  6
CONTINUOUS
 90
15
 70
0
 10
-37.4677211773
 20
38.0051914831
 10
-37.4940497862
 20
37.9898109256
 10
-37.5254777382
 20
37.9680877742
 10
-37.5551761696
 20
37.9436154495
 10
-37.5829268036
 20
37.9165397659
 10
-37.6086696645
 20
37.8868587534
 10
-37.6322154281
 20
37.854686975
 10
-37.6533744671
 20
37.8201805337
 10
-37.6720825715
 20
37.7833257265
 10
-37.6881936696
 20
37.7442175997
 10
-37.7015464486
 20
37.7029996886
 10
-37.7120451479
 20
37.6596352183
 10
-37.7195545611
 20
37.6141419637
 10
-37.7239021429
 20
37.5666486117
 10
-37.7250012038
 20
37.5270545714
  0
LINE
  5
21E
100
AcDbEntity
  8
RACCORDO
100
AcDbLine
 62
7
  6
CONTINUOUS
 10
-37.4677058826
 20
38.0052041841
 11
-37.1846662973
 21
38.1579105389
  0
LINE
  5
21F
100
AcDbEntity
  8
RACCORDO
100
AcDbLine
 62
7
  6
CONTINUOUS
 10
-37.1459098644
 20
37.9899059445
 11
-36.8643665977
 21
38.141804996
  0
LINE
  5
220
100
AcDbEntity
  8
DRAFT
100
AcDbLine
 62
7
  6
CONTINUOUS
 10
-32.9741116817
 20
28.3862836516
 11
-33.5101507898
 21
28.0886177806
  0
LINE
  5
221
100
AcDbEntity
  8
RACCORDO
100
AcDbLine
 62
7
  6
CONTINUOUS
 10
-32.7665957143
 20
29.4033574853
 11
-32.1910362135
 21
29.6691699362
  0
LINE
  5
222
100
AcDbEntity
  8
RACCORDO
100
AcDbLine
 62
7
  6
CONTINUOUS
 10
-32.8477330588
 20
29.2395831064
 11
-32.2721735581
 21
29.5053955573
  0
LINE
  5
223
100
AcDbEntity
  8
SMUSSO
100
AcDbLine
 62
7
  6
CONTINUOUS
 10
-50.6818785415
 20
-22.1755161452
 11
47.2524106528
 21
-71.1426607424
  0
LWPOLYLINE
  5
224
100
AcDbEntity
  8
RACCORDO
100
AcDbPolyline
 62
7
  6
CONTINUOUS
 90
14
 70
0
 10
-37.7244097126
 20
-6.7598274051
 10
-37.7206668135
 20
-6.810797699
 10
-37.7135951022
 20
-6.8617168216
 10
-37.7033276351
 20
-6.9124475142
 10
-37.6899866754
 20
-6.962763925
 10
-37.673671284
 20
-7.012529655
 10
-37.6544611019
 20
-7.0615863374
 10
-37.6324858546
 20
-7.1096167865
 10
-37.6077903449
 20
-7.1565235514
 10
-37.5804549074
 20
-7.2020612786
 10
-37.5507492441
 20
-7.2457360907
 10
-37.5187141383
 20
-7.287435685
 10
-37.4844362216
 20
-7.326940539
 10
-37.4483246121
 20
-7.3637306791
  0
LINE
  5
225
100
AcDbEntity
  8
RACCORDO
100
AcDbLine
 62
7
  6
CONTINUOUS
 10
-37.7250012153
 20
-6.7302489484
 11
-37.7244097126
 21
-6.7598274051
  0
LINE
  5
226
100
AcDbEntity
  8
RACCORDO
100
AcDbLine
 62
7
  6
CONTINUOUS
 10
-37.7250072841
 20
37.5270314113
 11
-37.7250072841
 21
-6.7303547093
  0
LINE
  5
227
100
AcDbEntity
  8
RACCORDO
100
AcDbLine
 62
7
  6
CONTINUOUS
 10
-37.6371393184
 20
37.4209653989
 11
-37.6371393184
 21
-6.8364207297
  0
LINE
  5
228
100
AcDbEntity
  8
RACCORDO
100
AcDbLine
 62
7
  6
CONTINUOUS
 10
-35.9397527423
 20
-5.3262451617
 11
-35.9397527423
 21
34.2134032549
  0
LINE
  5
229
100
AcDbEntity
  8
RACCORDO
100
AcDbLine
 62
7
  6
CONTINUOUS
 10
-35.5555477771
 20
-5.3430521025
 11
-35.5555477771
 21
34.1965966169
  0
LINE
  5
22A
100
AcDbEntity
  8
RACCORDO
100
AcDbLine
 62
7
  6
CONTINUOUS
 10
-34.3799462282
 20
33.830343705
 11
-34.3799462282
 21
-4.4734565262
  0
LINE
  5
22B
100
AcDbEntity
  8
DRAFT
100
AcDbLine
 62
7
  6
CONTINUOUS
 10
-32.9741116817
 20
21.8910931232
 11
-33.5101507898
 21
21.5934272523
  0
LINE
  5
22C
100
AcDbEntity
  8
RACCORDO
100
AcDbLine
 62
7
  6
CONTINUOUS
 10
-32.4750808767
 20
28.5678268928
 11
-33.4103650655
 21
28.0965786831
  0
LINE
  5
22D
100
AcDbEntity
  8
RACCORDO
100
AcDbLine
 62
7
  6
CONTINUOUS
 10
-32.2629811511
 20
28.2020089788
 11
-33.1982653399
 21
27.7307607691
  0
LINE
  5
22E
100
AcDbEntity
  8
SMUSSO
100
AcDbLine
 62
7
  6
CONTINUOUS
 10
-48.560558198
 20
-19.4542374566
 11
42.3026631845
 21
-64.8858481479
  0
LWPOLYLINE
  5
22F
100
AcDbEntity
  8
RACCORDO
100
AcDbPolyline
 62
7
  6
CONTINUOUS
 90
20
 70
0
 10
-31.4851289014
 20
-3.7630184782
 10
-31.4851554022
 20
-3.7589980878
 10
-31.4858475893
 20
-3.7421657244
 10
-31.487511681
 20
-3.7251194358
 10
-31.4901898589
 20
-3.7079216281
 10
-31.493919778
 20
-3.6906423859
 10
-31.4987376003
 20
-3.67334514
 10
-31.5046794148
 20
-3.6560913515
 10
-31.5117718149
 20
-3.6389660648
 10
-31.5200394374
 20
-3.6220499043
 10
-31.5295142365
 20
-3.6054085522
 10
-31.5402108521
 20
-3.5891397813
 10
-31.5521364629
 20
-3.5733455068
 10
-31.5653094566
 20
-3.5581105246
 10
-31.5797247319
 20
-3.5435474445
 10
-31.5953643469
 20
-3.5297749525
 10
-31.6122195075
 20
-3.5168992357
 10
-31.6302579804
 20
-3.5050428414
 10
-31.6494251256
 20
-3.4943357554
 10
-31.6519697484
 20
-3.4930482414
  0
LINE
  5
230
100
AcDbEntity
  8
RACCORDO
100
AcDbLine
 62
7
  6
CONTINUOUS
 10
-34.3194052611
 20
33.8000732215
 11
-34.3194052611
 21
-4.4485034653
  0
LINE
  5
231
100
AcDbEntity
  8
RACCORDO
100
AcDbLine
 62
7
  6
CONTINUOUS
 10
-33.9879872082
 20
-4.2815166114
 11
-33.9879872082
 21
33.634364195
  0
LINE
  5
232
100
AcDbEntity
  8
DRAFT
100
AcDbLine
 62
7
  6
CONTINUOUS
 10
-33.5101507898
 20
2.540868369
 11
-33.5101507898
 21
9.0360588974
  0
LINE
  5
233
100
AcDbEntity
  8
DRAFT
100
AcDbLine
 62
7
  6
CONTINUOUS
 10
-33.5101507898
 20
21.5934272523
 11
-33.5101507898
 21
28.0886177806
  0
LINE
  5
234
100
AcDbEntity
  8
RACCORDO
100
AcDbLine
 62
7
  6
CONTINUOUS
 10
-33.1982653399
 20
27.7307607691
 11
-33.1982653399
 21
22.2757949169
  0
LINE
  5
235
100
AcDbEntity
  8
RACCORDO
100
AcDbLine
 62
7
  6
CONTINUOUS
 10
-33.1982653399
 20
8.6782018858
 11
-33.1982653399
 21
3.2232360337
  0
LINE
  5
236
100
AcDbEntity
  8
RACCORDO
100
AcDbLine
 62
7
  6
CONTINUOUS
 10
-32.9741116817
 20
33.1274264318
 11
-32.9741116817
 21
28.3862836516
  0
LINE
  5
237
100
AcDbEntity
  8
DRAFT
100
AcDbLine
 62
7
  6
CONTINUOUS
 10
-32.9741116817
 20
21.8910931232
 11
-32.9741116817
 21
9.3337247683
  0
LINE
  5
238
100
AcDbEntity
  8
RACCORDO
100
AcDbLine
 62
7
  6
CONTINUOUS
 10
-32.9741116817
 20
2.8385342399
 11
-32.9741116817
 21
-3.7933558758
  0
LINE
  5
239
100
AcDbEntity
  8
RACCORDO
100
AcDbLine
 62
7
  6
CONTINUOUS
 10
-32.7665957143
 20
-3.9854422323
 11
-32.7665957143
 21
1.9674978293
  0
LINE
  5
23A
100
AcDbEntity
  8
RACCORDO
100
AcDbLine
 62
7
  6
CONTINUOUS
 10
-32.7665957143
 20
10.3507986021
 11
-32.7665957143
 21
21.0200567125
  0
LINE
  5
23B
100
AcDbEntity
  8
RACCORDO
100
AcDbLine
 62
7
  6
CONTINUOUS
 10
-32.7665957143
 20
29.4033574853
 11
-32.7665957143
 21
33.0236684481
  0
LINE
  5
23C
100
AcDbEntity
  8
RACCORDO
100
AcDbLine
 62
7
  6
CONTINUOUS
 10
-32.6569355626
 20
29.327699713
 11
-32.6569355626
 21
28.6587542357
  0
LINE
  5
23D
100
AcDbEntity
  8
RACCORDO
100
AcDbLine
 62
7
  6
CONTINUOUS
 10
-32.6569355626
 20
22.3994964827
 11
-32.6569355626
 21
21.8027733365
  0
LINE
  5
23E
100
AcDbEntity
  8
RACCORDO
100
AcDbLine
 62
7
  6
CONTINUOUS
 10
-32.6569355626
 20
10.2751408298
 11
-32.6569355626
 21
9.6061953525
  0
LINE
  5
23F
100
AcDbEntity
  8
RACCORDO
100
AcDbLine
 62
7
  6
CONTINUOUS
 10
-32.6569355626
 20
3.3469375995
 11
-32.6569355626
 21
2.7502144533
  0
LINE
  5
240
100
AcDbEntity
  8
RACCORDO
100
AcDbLine
 62
7
  6
CONTINUOUS
 10
-32.5166054628
 20
29.3925088035
 11
-32.5166054628
 21
28.7745676888
  0
LINE
  5
241
100
AcDbEntity
  8
RACCORDO
100
AcDbLine
 62
7
  6
CONTINUOUS
 10
-32.5166054628
 20
22.4643055732
 11
-32.5166054628
 21
21.7326082866
  0
LINE
  5
242
100
AcDbEntity
  8
RACCORDO
100
AcDbLine
 62
7
  6
CONTINUOUS
 10
-32.5166054628
 20
10.3399499202
 11
-32.5166054628
 21
9.7220088055
  0
LINE
  5
243
100
AcDbEntity
  8
RACCORDO
100
AcDbLine
 62
7
  6
CONTINUOUS
 10
-32.5166054628
 20
3.41174669
 11
-32.5166054628
 21
2.6800494033
  0
LINE
  5
244
100
AcDbEntity
  8
RACCORDO
100
AcDbLine
 62
7
  6
CONTINUOUS
 10
-32.2629811511
 20
28.2020089788
 11
-32.2629811511
 21
22.7077401496
  0
LINE
  5
245
100
AcDbEntity
  8
RACCORDO
100
AcDbLine
 62
7
  6
CONTINUOUS
 10
-32.2629811511
 20
9.1494500955
 11
-32.2629811511
 21
3.6551812663
  0
LINE
  5
246
100
AcDbEntity
  8
RACCORDO
100
AcDbLine
 62
7
  6
CONTINUOUS
 10
-32.1910362135
 20
-3.695443334
 11
-32.1910362135
 21
2.2574967276
  0
LINE
  5
247
100
AcDbEntity
  8
RACCORDO
100
AcDbLine
 62
7
  6
CONTINUOUS
 10
-32.1910362135
 20
10.6166110529
 11
-32.1910362135
 21
21.3100556108
  0
LINE
  5
248
100
AcDbEntity
  8
RACCORDO
100
AcDbLine
 62
7
  6
CONTINUOUS
 10
-32.1910362135
 20
29.6691699362
 11
-32.1910362135
 21
32.7358886977
  0
LINE
  5
249
100
AcDbEntity
  8
RACCORDO
100
AcDbLine
 62
7
  6
CONTINUOUS
 10
-31.6254594325
 20
-3.8859662024
 11
-31.6254594325
 21
-3.9782317246
  0
LINE
  5
24A
100
AcDbEntity
  8
RACCORDO
100
AcDbLine
 62
7
  6
CONTINUOUS
 10
-31.4851293326
 20
-3.7637783918
 11
-31.4851293326
 21
-4.0483967745
  0
LINE
  5
24B
100
AcDbEntity
  8
RACCORDO
100
AcDbLine
 62
7
  6
CONTINUOUS
 10
-28.8878750013
 20
20.4163411816
 11
-28.8878750013
 21
14.9308490487
  0
LINE
  5
24C
100
AcDbEntity
  8
RACCORDO
100
AcDbLine
 62
7
  6
CONTINUOUS
 10
-28.8177099514
 20
20.5031734779
 11
-28.8177099514
 21
15.017681345
  0
LINE
  5
24D
100
AcDbEntity
  8
RACCORDO
100
AcDbLine
 62
7
  6
CONTINUOUS
 10
-32.9741116817
 20
21.3881841789
 11
-32.4031359391
 21
21.6758735248
  0
LINE
  5
24E
100
AcDbEntity
  8
RACCORDO
100
AcDbLine
 62
7
  6
CONTINUOUS
 10
-32.7665957143
 20
21.0200567125
 11
-32.1910362135
 21
21.3100556108
  0
LINE
  5
24F
100
AcDbEntity
  8
RACCORDO
100
AcDbLine
 62
7
  6
CONTINUOUS
 10
-29.0646247727
 20
20.7211894433
 11
-32.1910362135
 21
19.1704663204
  0
LINE
  5
250
100
AcDbEntity
  8
RACCORDO
100
AcDbLine
 62
7
  6
CONTINUOUS
 10
-28.8878750013
 20
20.4163411816
 11
-32.1910362135
 21
18.7779488691
  0
LINE
  5
251
100
AcDbEntity
  8
RACCORDO
100
AcDbLine
 62
7
  6
CONTINUOUS
 10
-33.1982653399
 20
22.2757949169
 11
-32.2629811511
 21
22.7077401496
  0
LINE
  5
252
100
AcDbEntity
  8
RACCORDO
100
AcDbLine
 62
7
  6
CONTINUOUS
 10
-33.2794026844
 20
22.112020538
 11
-32.3441184956
 21
22.5439657707
  0
LINE
  5
253
100
AcDbEntity
  8
RACCORDO
100
AcDbLine
 62
7
  6
CONTINUOUS
 10
-29.5501958693
 20
20.91897099
 11
-31.8447555497
 21
19.8592672905
  0
LINE
  5
254
100
AcDbEntity
  8
RACCORDO
100
AcDbLine
 62
7
  6
CONTINUOUS
 10
-29.442291013
 20
20.9100225634
 11
-31.7836405156
 21
19.8287097735
  0
LWPOLYLINE
  5
255
100
AcDbEntity
  8
RACCORDO
100
AcDbPolyline
 62
7
  6
CONTINUOUS
 90
5
 70
0
 10
-37.4104621534
 20
-7.3976748911
 10
-37.3708981796
 20
-7.4286544273
 10
-37.3300246866
 20
-7.4562998978
 10
-37.2880380653
 20
-7.4804462436
 10
-37.2763418813
 20
-7.4864473582
  0
LINE
  5
256
100
AcDbEntity
  8
RACCORDO
100
AcDbLine
 62
7
  6
CONTINUOUS
 10
-37.4483246121
 20
-7.3637306791
 11
-37.4104621534
 21
-7.3976748911
  0
LINE
  5
257
100
AcDbEntity
  8
RACCORDO
100
AcDbLine
 62
7
  6
CONTINUOUS
 10
-26.2159839125
 20
-6.9428166817
 11
-26.2159839125
 21
-7.4318713243
  0
LINE
  5
258
100
AcDbEntity
  8
DRAFT
100
AcDbLine
 62
7
  6
CONTINUOUS
 10
-32.9741116817
 20
9.3337247683
 11
-33.5101507898
 21
9.0360588974
  0
LINE
  5
259
100
AcDbEntity
  8
RACCORDO
100
AcDbLine
 62
7
  6
CONTINUOUS
 10
-28.8878750013
 20
14.9308490487
 11
-32.1910362135
 21
13.1487177946
  0
LINE
  5
25A
100
AcDbEntity
  8
RACCORDO
100
AcDbLine
 62
7
  6
CONTINUOUS
 10
-28.9490039963
 20
14.7976611272
 11
-32.1910362135
 21
13.0485103683
  0
LINE
  5
25B
100
AcDbEntity
  8
RACCORDO
100
AcDbLine
 62
7
  6
CONTINUOUS
 10
-32.4750808767
 20
9.5152680095
 11
-33.4103650655
 21
9.0440197998
  0
LINE
  5
25C
100
AcDbEntity
  8
RACCORDO
100
AcDbLine
 62
7
  6
CONTINUOUS
 10
-32.2629811511
 20
9.1494500955
 11
-33.1982653399
 21
8.6782018858
  0
LINE
  5
25D
100
AcDbEntity
  8
RACCORDO
100
AcDbLine
 62
7
  6
CONTINUOUS
 10
-32.7665957143
 20
10.3507986021
 11
-32.1910362135
 21
10.6166110529
  0
LINE
  5
25E
100
AcDbEntity
  8
RACCORDO
100
AcDbLine
 62
7
  6
CONTINUOUS
 10
-32.8477330588
 20
10.1870242232
 11
-32.2721735581
 21
10.452836674
  0
LWPOLYLINE
  5
25F
100
AcDbEntity
  8
RACCORDO
100
AcDbPolyline
 62
7
  6
CONTINUOUS
 90
13
 70
0
 10
30.184510285
 20
-41.2168735444
 10
30.1990773508
 20
-41.2239190521
 10
30.2389502108
 20
-41.2408387644
 10
30.2792734374
 20
-41.2545201408
 10
30.3198890358
 20
-41.2649112794
 10
30.3605378936
 20
-41.2719641059
 10
30.4010303027
 20
-41.2756676091
 10
30.4411663835
 20
-41.2760276935
 10
30.4805911576
 20
-41.2730962185
 10
30.519045303
 20
-41.2669712333
 10
30.5563277343
 20
-41.2577679288
 10
30.5921465743
 20
-41.2456603577
 10
30.6192820898
 20
-41.2341725304
  0
LINE
  5
260
100
AcDbEntity
  8
RACCORDO
100
AcDbLine
 62
7
  6
CONTINUOUS
 10
-37.2763717264
 20
-7.4864400895
 11
30.1844631302
 21
-41.2168575178
  0
LINE
  5
261
100
AcDbEntity
  8
RACCORDO
100
AcDbLine
 62
7
  6
CONTINUOUS
 10
-37.3543396843
 20
-7.3241779483
 11
30.1064951771
 21
-41.054595379
  0
LINE
  5
262
100
AcDbEntity
  8
0
100
AcDbLine
 62
7
  6
CONTINUOUS
 10
-6.2025476444
 20
-22.8797400755
 11
-5.9294163365
 21
-23.0163057295
  0
LINE
  5
263
100
AcDbEntity
  8
0
100
AcDbLine
 62
7
  6
CONTINUOUS
 10
-5.3371246047
 20
-23.3124515954
 11
-5.0271883888
 21
-23.4674197034
  0
LINE
  5
264
100
AcDbEntity
  8
0
100
AcDbLine
 62
7
  6
CONTINUOUS
 10
-4.8603401798
 20
-23.5508438079
 11
-4.5638326288
 21
-23.6990975834
  0
LINE
  5
265
100
AcDbEntity
  8
0
100
AcDbLine
 62
7
  6
CONTINUOUS
 10
-4.1333559199
 20
-23.9143359378
 11
-4.0898879447
 21
-23.9360699254
  0
LINE
  5
266
100
AcDbEntity
  8
0
100
AcDbLine
 62
7
  6
CONTINUOUS
 10
-3.6576965019
 20
-24.1521656468
 11
-3.3544968923
 21
-24.3037654516
  0
LINE
  5
267
100
AcDbEntity
  8
0
100
AcDbLine
 62
7
  6
CONTINUOUS
 10
-3.3058288539
 20
-24.3280994708
 11
-2.9992556378
 21
-24.4813860789
  0
LINE
  5
268
100
AcDbEntity
  8
0
100
AcDbLine
 62
7
  6
CONTINUOUS
 10
-2.4113614031
 20
-24.7753331962
 11
-2.0847021118
 21
-24.9386628419
  0
LINE
  5
269
100
AcDbEntity
  8
0
100
AcDbLine
 62
7
  6
CONTINUOUS
 10
-1.9936897785
 20
-24.9841693529
 11
-1.6850009814
 21
-25.1385137515
  0
LINE
  5
26A
100
AcDbEntity
  8
0
100
AcDbLine
 62
7
  6
CONTINUOUS
 10
-1.2103769244
 20
-25.37582578
 11
-0.912254628
 21
-25.5248869282
  0
LINE
  5
26B
100
AcDbEntity
  8
0
100
AcDbLine
 62
7
  6
CONTINUOUS
 10
-2.9137324868
 20
-24.1611106711
 11
-2.4916512568
 21
-24.3721512861
  0
LINE
  5
26C
100
AcDbEntity
  8
0
100
AcDbLine
 62
7
  6
CONTINUOUS
 10
-2.5535916895
 20
-24.0602640794
 11
-2.8503332928
 21
-23.9118932777
  0
LINE
  5
26D
100
AcDbEntity
  8
SMUSSO
100
AcDbLine
 62
7
  6
CONTINUOUS
 10
-51.2509141353
 20
69.585005891
 11
-48.560558198
 21
61.9521504991
  0
LINE
  5
26E
100
AcDbEntity
  8
ASSI
100
AcDbLine
 62
7
  6
CONTINUOUS
 10
-18.211252176
 20
-9.0955688716
 11
-18.211252176
 21
-9.6076950065
  0
LINE
  5
26F
100
AcDbEntity
  8
ASSI
100
AcDbLine
 62
7
  6
CONTINUOUS
 10
-18.1598811411
 20
-9.0798104397
 11
-18.1598811411
 21
-9.5903612242
  0
LINE
  5
270
100
AcDbEntity
  8
RACCORDO
100
AcDbLine
 62
7
  6
CONTINUOUS
 10
-17.44742164
 20
-12.3381313072
 11
-17.44742164
 21
-12.3455287109
  0
LINE
  5
271
100
AcDbEntity
  8
DRAFT
100
AcDbLine
 62
7
  6
CONTINUOUS
 10
-17.4125044867
 20
-12.2132209882
 11
-17.4125044867
 21
-11.8336110371
  0
LINE
  5
272
100
AcDbEntity
  8
RACCORDO
100
AcDbLine
 62
7
  6
CONTINUOUS
 10
-17.0067543102
 20
-11.9801322616
 11
-17.0067543102
 21
-11.5473523369
  0
LINE
  5
273
100
AcDbEntity
  8
ASSI
100
AcDbLine
 62
7
  6
CONTINUOUS
 10
-24.7019719077
 20
-8.1888773266
 11
-24.6603489939
 21
-8.1170884194
  0
LINE
  5
274
100
AcDbEntity
  8
ASSI
100
AcDbLine
 62
7
  6
CONTINUOUS
 10
-24.4021467768
 20
-8.1047681717
 11
-24.3067956033
 21
-7.9403117241
  0
LINE
  5
275
100
AcDbEntity
  8
ASSI
100
AcDbLine
 62
7
  6
CONTINUOUS
 10
-24.0485933863
 20
-7.9279914764
 11
-23.9532422127
 21
-7.7635350288
  0
LINE
  5
276
100
AcDbEntity
  8
DRAFT
100
AcDbLine
 62
7
  6
CONTINUOUS
 10
-32.9741116817
 20
2.8385342399
 11
-33.5101507898
 21
2.540868369
  0
LINE
  5
277
100
AcDbEntity
  8
RACCORDO
100
AcDbLine
 62
7
  6
CONTINUOUS
 10
-32.9741116817
 20
2.3356252956
 11
-32.4031359391
 21
2.6233146415
  0
LINE
  5
278
100
AcDbEntity
  8
RACCORDO
100
AcDbLine
 62
7
  6
CONTINUOUS
 10
-33.1982653399
 20
3.2232360337
 11
-32.2629811511
 21
3.6551812663
  0
LINE
  5
279
100
AcDbEntity
  8
RACCORDO
100
AcDbLine
 62
7
  6
CONTINUOUS
 10
5.6939557163
 20
-22.0779831234
 11
5.6939133684
 21
-22.0779619617
  0
LINE
  5
27A
100
AcDbEntity
  8
RACCORDO
100
AcDbLine
 62
7
  6
CONTINUOUS
 10
-3.3570110828
 20
-17.5524997238
 11
-3.3570534308
 21
-17.5524785621
  0
LINE
  5
27B
100
AcDbEntity
  8
0
100
AcDbLine
 62
7
  6
CONTINUOUS
 10
-1.6850009814
 20
-24.4268531231
 11
-1.5188207658
 21
-24.509943231
  0
LINE
  5
27C
100
AcDbEntity
  8
IMPORT_IGES
100
AcDbLine
 62
7
  6
CONTINUOUS
 10
-2.7089119366
 20
-23.8411825996
 11
-2.5834363192
 21
-23.9039204083
  0
LINE
  5
27D
100
AcDbEntity
  8
0
100
AcDbLine
 62
7
  6
CONTINUOUS
 10
-2.5834363192
 20
-23.9039204083
 11
-2.7089119366
 21
-23.8411825996
  0
LINE
  5
27E
100
AcDbEntity
  8
0
100
AcDbLine
 62
7
  6
CONTINUOUS
 10
-1.5181527046
 20
-24.2124508273
 11
-1.695277989
 21
-24.1238881851
  0
LINE
  5
27F
100
AcDbEntity
  8
0
100
AcDbLine
 62
7
  6
CONTINUOUS
 10
-1.3767313484
 20
-24.1417401492
 11
-1.5538566328
 21
-24.053177507
  0
LINE
  5
280
100
AcDbEntity
  8
IMPORT_IGES
100
AcDbLine
 62
7
  6
CONTINUOUS
 10
-1.3767313484
 20
-24.1417401492
 11
-1.5538566328
 21
-24.053177507
  0
LINE
  5
281
100
AcDbEntity
  8
0
100
AcDbLine
 62
7
  6
CONTINUOUS
 10
-2.5402754546
 20
-22.892376109
 11
-2.8401007506
 21
-22.742463461
  0
LINE
  5
282
100
AcDbEntity
  8
0
100
AcDbLine
 62
7
  6
CONTINUOUS
 10
-3.4933422585
 20
-22.415842707
 11
-3.7999932563
 21
-22.2625172081
  0
LINE
  5
283
100
AcDbEntity
  8
0
100
AcDbLine
 62
7
  6
CONTINUOUS
 10
-4.4165917837
 20
-21.9542179444
 11
-4.7262713199
 21
-21.7993781764
  0
LINE
  5
284
100
AcDbEntity
  8
0
100
AcDbLine
 62
7
  6
CONTINUOUS
 10
-5.4521418866
 20
-21.436442893
 11
-5.7618666776
 21
-21.2815804975
  0
LINE
  5
285
100
AcDbEntity
  8
0
100
AcDbLine
 62
7
  6
CONTINUOUS
 10
-6.3365719566
 20
-20.994227858
 11
-6.6732580221
 21
-20.8258848253
  0
LINE
  5
286
100
AcDbEntity
  8
0
100
AcDbLine
 62
7
  6
CONTINUOUS
 10
-5.0271883888
 20
-21.6488105227
 11
-5.3371246047
 21
-21.4938424148
  0
LINE
  5
287
100
AcDbEntity
  8
IMPORT_IGES
100
AcDbLine
 62
7
  6
CONTINUOUS
 10
-6.5318366658
 20
-20.7551741472
 11
-6.1951506004
 21
-20.9235171799
  0
LINE
  5
288
100
AcDbEntity
  8
IMPORT_IGES
100
AcDbLine
 62
7
  6
CONTINUOUS
 10
-5.6204453213
 20
-21.2108698194
 11
-5.3107205304
 21
-21.3657322149
  0
LINE
  5
289
100
AcDbEntity
  8
IMPORT_IGES
100
AcDbLine
 62
7
  6
CONTINUOUS
 10
-4.5848499636
 20
-21.7286674983
 11
-4.2751704275
 21
-21.8835072663
  0
LINE
  5
28A
100
AcDbEntity
  8
IMPORT_IGES
100
AcDbLine
 62
7
  6
CONTINUOUS
 10
-3.6585719001
 20
-22.19180653
 11
-3.3519209023
 21
-22.3451320289
  0
LINE
  5
28B
100
AcDbEntity
  8
IMPORT_IGES
100
AcDbLine
 62
7
  6
CONTINUOUS
 10
-2.6986793944
 20
-22.6717527829
 11
-2.3988540983
 21
-22.8216654309
  0
LINE
  5
28C
100
AcDbEntity
  8
0
100
AcDbLine
 62
7
  6
CONTINUOUS
 10
-2.3988540983
 20
-22.8216654309
 11
-2.6986793944
 21
-22.6717527829
  0
LINE
  5
28D
100
AcDbEntity
  8
0
100
AcDbLine
 62
7
  6
CONTINUOUS
 10
-3.3519209023
 20
-22.3451320289
 11
-3.6585719001
 21
-22.19180653
  0
LINE
  5
28E
100
AcDbEntity
  8
0
100
AcDbLine
 62
7
  6
CONTINUOUS
 10
-4.2751704275
 20
-21.8835072663
 11
-4.5848499636
 21
-21.7286674983
  0
LINE
  5
28F
100
AcDbEntity
  8
0
100
AcDbLine
 62
7
  6
CONTINUOUS
 10
-5.3107205304
 20
-21.3657322149
 11
-5.6204453213
 21
-21.2108698194
  0
LINE
  5
290
100
AcDbEntity
  8
0
100
AcDbLine
 62
7
  6
CONTINUOUS
 10
-6.1951506004
 20
-20.9235171799
 11
-6.5318366658
 21
-20.7551741472
  0
LINE
  5
291
100
AcDbEntity
  8
0
100
AcDbLine
 62
7
  6
CONTINUOUS
 10
-4.8857670325
 20
-21.5780998446
 11
-5.1957032484
 21
-21.4231317366
  0
LINE
  5
292
100
AcDbEntity
  8
IMPORT_IGES
100
AcDbLine
 62
7
  6
CONTINUOUS
 10
-4.8857670325
 20
-21.5780998446
 11
-5.1957032484
 21
-21.4231317366
  0
LINE
  5
293
100
AcDbEntity
  8
RACCORDO
100
AcDbLine
 62
7
  6
CONTINUOUS
 10
28.2866854634
 20
-37.9595861341
 11
-35.5345299706
 21
-6.0489784171
  0
LINE
  5
294
100
AcDbEntity
  8
RACCORDO
100
AcDbLine
 62
7
  6
CONTINUOUS
 10
28.4262675968
 20
-37.6456592908
 11
-35.3949445905
 21
-5.7350531972
  0
LINE
  5
295
100
AcDbEntity
  8
RACCORDO
100
AcDbLine
 62
7
  6
CONTINUOUS
 10
-34.1901760949
 20
-4.8816816469
 11
28.6040402695
 21
-36.2787898291
  0
LINE
  5
296
100
AcDbEntity
  8
RACCORDO
100
AcDbLine
 62
7
  6
CONTINUOUS
 10
-34.075424071
 20
-4.7982577237
 11
28.6040402695
 21
-36.137989894
  0
LINE
  5
297
100
AcDbEntity
  8
RACCORDO
100
AcDbLine
 62
7
  6
CONTINUOUS
 10
28.6040402695
 20
-35.8372984014
 11
-33.7758874825
 21
-4.6473345254
  0
LINE
  5
298
100
AcDbEntity
  8
DRAFT
100
AcDbLine
 62
7
  6
CONTINUOUS
 10
14.9022754135
 20
-28.5203772376
 11
9.5989745546
 21
-25.8687268082
  0
LINE
  5
299
100
AcDbEntity
  8
DRAFT
100
AcDbLine
 62
7
  6
CONTINUOUS
 10
1.1136931804
 20
-21.6260861211
 11
-4.1896076785
 21
-18.9744356916
  0
LINE
  5
29A
100
AcDbEntity
  8
DRAFT
100
AcDbLine
 62
7
  6
CONTINUOUS
 10
-12.6748890528
 20
-14.7317950045
 11
-17.9781899117
 21
-12.0801445751
  0
LINE
  5
29B
100
AcDbEntity
  8
RACCORDO
100
AcDbLine
 62
7
  6
CONTINUOUS
 10
-17.2353219144
 20
-12.1844131188
 11
-12.781360947
 21
-14.4113936025
  0
LINE
  5
29C
100
AcDbEntity
  8
RACCORDO
100
AcDbLine
 62
7
  6
CONTINUOUS
 10
-3.4467396812
 20
-19.0787042354
 11
1.0072212861
 21
-21.305684719
  0
LINE
  5
29D
100
AcDbEntity
  8
RACCORDO
100
AcDbLine
 62
7
  6
CONTINUOUS
 10
10.3418425519
 20
-25.9729953519
 11
14.7958035193
 21
-28.1999758356
  0
LINE
  5
29E
100
AcDbEntity
  8
RACCORDO
100
AcDbLine
 62
7
  6
CONTINUOUS
 10
-32.762270367
 20
-4.158728097
 11
-17.4125044867
 21
-11.8336110371
  0
LINE
  5
29F
100
AcDbEntity
  8
DRAFT
100
AcDbLine
 62
7
  6
CONTINUOUS
 10
-12.1092036278
 20
-14.4852614666
 11
-3.6239222536
 21
-18.7279021537
  0
LINE
  5
2A0
100
AcDbEntity
  8
DRAFT
100
AcDbLine
 62
7
  6
CONTINUOUS
 10
1.6793786053
 20
-21.3795525832
 11
10.1646599796
 21
-25.6221932703
  0
LINE
  5
2A1
100
AcDbEntity
  8
RACCORDO
100
AcDbLine
 62
7
  6
CONTINUOUS
 10
15.4679608385
 20
-28.2738436997
 11
28.6040402695
 21
-34.8418834153
  0
LINE
  5
2A2
100
AcDbEntity
  8
ASSI
100
AcDbLine
 62
7
  6
CONTINUOUS
 10
25.2510078914
 20
-33.0727668621
 11
23.0693587362
 21
-31.9819422845
  0
LINE
  5
2A3
100
AcDbEntity
  8
ASSI
100
AcDbLine
 62
7
  6
CONTINUOUS
 10
-22.4786998387
 20
-9.207912997
 11
-24.6603489939
 21
-8.1170884194
  0
LINE
  5
2A4
100
AcDbEntity
  8
RACCORDO
100
AcDbLine
 62
7
  6
CONTINUOUS
 10
28.6040402695
 20
-34.6707602242
 11
25.4028111141
 21
-33.0701456465
  0
LINE
  5
2A5
100
AcDbEntity
  8
RACCORDO
100
AcDbLine
 62
7
  6
CONTINUOUS
 10
20.7359063583
 20
-30.7366932686
 11
16.2034232789
 21
-28.4704517289
  0
LINE
  5
2A6
100
AcDbEntity
  8
RACCORDO
100
AcDbLine
 62
7
  6
CONTINUOUS
 10
4.8260037816
 20
-22.7817419803
 11
2.4148410458
 21
-21.5761606123
  0
LINE
  5
2A7
100
AcDbEntity
  8
RACCORDO
100
AcDbLine
 62
7
  6
CONTINUOUS
 10
-4.0058313034
 20
-18.3658244378
 11
-6.4169940393
 21
-17.1602430698
  0
LINE
  5
2A8
100
AcDbEntity
  8
RACCORDO
100
AcDbLine
 62
7
  6
CONTINUOUS
 10
-17.7944135366
 20
-11.4715333212
 11
-22.326896616
 21
-9.2052917815
  0
LINE
  5
2A9
100
AcDbEntity
  8
RACCORDO
100
AcDbLine
 62
7
  6
CONTINUOUS
 10
-26.9938013718
 20
-6.8718394036
 11
-32.7665957143
 21
-3.9854422323
  0
LINE
  5
2AA
100
AcDbEntity
  8
ASSI
100
AcDbLine
 62
7
  6
CONTINUOUS
 10
25.3875559755
 20
-32.9996195479
 11
23.2107800924
 21
-31.9112316064
  0
LINE
  5
2AB
100
AcDbEntity
  8
ASSI
100
AcDbLine
 62
7
  6
CONTINUOUS
 10
-22.3421517546
 20
-9.1347656828
 11
-24.5189276376
 21
-8.0463777413
  0
LINE
  5
2AC
100
AcDbEntity
  8
ASSI
100
AcDbLine
 62
7
  6
CONTINUOUS
 10
25.5952479701
 20
-32.8913335108
 11
23.4229121268
 21
-31.8051655892
  0
LINE
  5
2AD
100
AcDbEntity
  8
ASSI
100
AcDbLine
 62
7
  6
CONTINUOUS
 10
-22.13445976
 20
-9.0264796458
 11
-24.3067956033
 21
-7.9403117241
  0
LINE
  5
2AE
100
AcDbEntity
  8
ASSI
100
AcDbLine
 62
7
  6
CONTINUOUS
 10
25.7337092999
 20
-32.8191428195
 11
23.564333483
 21
-31.7344549111
  0
LINE
  5
2AF
100
AcDbEntity
  8
ASSI
100
AcDbLine
 62
7
  6
CONTINUOUS
 10
-21.9959984302
 20
-8.9542889544
 11
-24.1653742471
 21
-7.869601046
  0
LINE
  5
2B0
100
AcDbEntity
  8
RACCORDO
100
AcDbLine
 62
7
  6
CONTINUOUS
 10
-16.332128472
 20
-11.6971195359
 11
-11.8460767583
 21
-13.9401453928
  0
LINE
  5
2B1
100
AcDbEntity
  8
RACCORDO
100
AcDbLine
 62
7
  6
CONTINUOUS
 10
-2.5435462389
 20
-18.5914106524
 11
1.9425054749
 21
-20.8344365093
  0
LINE
  5
2B2
100
AcDbEntity
  8
RACCORDO
100
AcDbLine
 62
7
  6
CONTINUOUS
 10
11.2450359942
 20
-25.485701769
 11
15.731087708
 21
-27.7287276259
  0
LINE
  5
2B3
100
AcDbEntity
  8
RACCORDO
100
AcDbLine
 62
7
  6
CONTINUOUS
 10
28.6040402695
 20
-34.0929815756
 11
25.9684965391
 21
-32.7752097103
  0
LINE
  5
2B4
100
AcDbEntity
  8
RACCORDO
100
AcDbLine
 62
7
  6
CONTINUOUS
 10
21.3015917832
 20
-30.4417573324
 11
16.759234628
 21
-28.1705787548
  0
LINE
  5
2B5
100
AcDbEntity
  8
RACCORDO
100
AcDbLine
 62
7
  6
CONTINUOUS
 10
5.3916892065
 20
-22.4868060441
 11
2.9706523949
 21
-21.2762876382
  0
LINE
  5
2B6
100
AcDbEntity
  8
RACCORDO
100
AcDbLine
 62
7
  6
CONTINUOUS
 10
-3.4302718027
 20
-18.0758255395
 11
-5.8513086143
 21
-16.8653071336
  0
LINE
  5
2B7
100
AcDbEntity
  8
RACCORDO
100
AcDbLine
 62
7
  6
CONTINUOUS
 10
-17.2188540358
 20
-11.1815344229
 11
-21.761211191
 21
-8.9103558453
  0
LINE
  5
2B8
100
AcDbEntity
  8
RACCORDO
100
AcDbLine
 62
7
  6
CONTINUOUS
 10
-26.4281159468
 20
-6.5769034674
 11
-32.1910039048
 21
-3.6954594884
  0
LINE
  5
2B9
100
AcDbEntity
  8
ASSI
100
AcDbLine
 62
7
  6
CONTINUOUS
 10
27.6655528139
 20
-33.5729325422
 11
23.7764655174
 21
-31.6283888939
  0
LINE
  5
2BA
100
AcDbEntity
  8
ASSI
100
AcDbLine
 62
7
  6
CONTINUOUS
 10
-20.0641549162
 20
-9.7080786771
 11
-23.9532422127
 21
-7.7635350288
  0
LINE
  5
2BB
100
AcDbEntity
  8
ASSI
100
AcDbLine
 62
7
  6
CONTINUOUS
 10
27.8069741702
 20
-33.502221864
 11
23.9178868736
 21
-31.5576782158
  0
LINE
  5
2BC
100
AcDbEntity
  8
ASSI
100
AcDbLine
 62
7
  6
CONTINUOUS
 10
-19.9227335599
 20
-9.637367999
 11
-23.8118208565
 21
-7.6928243507
  0
LINE
  5
2BD
100
AcDbEntity
  8
RACCORDO
100
AcDbLine
 62
7
  6
CONTINUOUS
 10
-32.1910362135
 20
-3.3434097607
 11
-31.8375591581
 21
-3.5201482884
  0
LINE
  5
2BE
100
AcDbEntity
  8
ASSI
100
AcDbLine
 62
7
  6
CONTINUOUS
 10
28.0191062045
 20
-33.3961558469
 11
24.130018908
 21
-31.4516121986
  0
LINE
  5
2BF
100
AcDbEntity
  8
ASSI
100
AcDbLine
 62
7
  6
CONTINUOUS
 10
-19.7106015256
 20
-9.5313019818
 11
-23.5996888221
 21
-7.5867583335
  0
LINE
  5
2C0
100
AcDbEntity
  8
RACCORDO
100
AcDbLine
 62
7
  6
CONTINUOUS
 10
-32.1910362135
 20
-3.2235098758
 11
-31.6522081057
 21
-3.4929239297
  0
LINE
  5
2C1
100
AcDbEntity
  8
RACCORDO
100
AcDbLine
 62
7
  6
CONTINUOUS
 10
-5.0257614715
 20
-16.7900644605
 11
-3.4874708129
 21
-17.5592097898
  0
LINE
  5
2C2
100
AcDbEntity
  8
RACCORDO
100
AcDbLine
 62
7
  6
CONTINUOUS
 10
4.0252053277
 20
-21.31554786
 11
5.5634959863
 21
-22.0846931894
  0
LINE
  5
2C3
100
AcDbEntity
  8
ASSI
100
AcDbLine
 62
7
  6
CONTINUOUS
 10
28.1605275608
 20
-33.3254451687
 11
24.2714402642
 21
-31.3809015205
  0
LINE
  5
2C4
100
AcDbEntity
  8
ASSI
100
AcDbLine
 62
7
  6
CONTINUOUS
 10
-19.5691801693
 20
-9.4605913037
 11
-23.4582674659
 21
-7.5160476554
  0
LINE
  5
2C5
100
AcDbEntity
  8
RACCORDO
100
AcDbLine
 62
7
  6
CONTINUOUS
 10
-4.8952996073
 20
-16.7833554616
 11
-3.3570089487
 21
-17.5525007909
  0
LINE
  5
2C6
100
AcDbEntity
  8
RACCORDO
100
AcDbLine
 62
7
  6
CONTINUOUS
 10
4.1556671919
 20
-21.3088388612
 11
5.6939578505
 21
-22.0779841905
  0
LINE
  5
2C7
100
AcDbEntity
  8
ASSI
100
AcDbLine
 62
7
  6
CONTINUOUS
 10
28.3726595951
 20
-33.2193791516
 11
24.4835722986
 21
-31.2748355033
  0
LINE
  5
2C8
100
AcDbEntity
  8
ASSI
100
AcDbLine
 62
7
  6
CONTINUOUS
 10
-19.357048135
 20
-9.3545252865
 11
-23.2461354315
 21
-7.4099816383
  0
LINE
  5
2C9
100
AcDbEntity
  8
ASSI
100
AcDbLine
 62
7
  6
CONTINUOUS
 10
28.5140809513
 20
-33.1486684734
 11
24.6249936548
 21
-31.2041248252
  0
LINE
  5
2CA
100
AcDbEntity
  8
ASSI
100
AcDbLine
 62
7
  6
CONTINUOUS
 10
-19.2156267787
 20
-9.2838146084
 11
-23.1047140753
 21
-7.3392709601
  0
LINE
  5
2CB
100
AcDbEntity
  8
ASSI
100
AcDbLine
 62
7
  6
CONTINUOUS
 10
-19.9227335599
 20
-9.637367999
 11
-19.8166675428
 21
-9.714238801
  0
LINE
  5
2CC
100
AcDbEntity
  8
ASSI
100
AcDbLine
 62
7
  6
CONTINUOUS
 10
-19.5691801693
 20
-9.4605913037
 11
-19.4631141522
 21
-9.5374621057
  0
LINE
  5
2CD
100
AcDbEntity
  8
ASSI
100
AcDbLine
 62
7
  6
CONTINUOUS
 10
-19.2156267787
 20
-9.2838146084
 11
-19.1095607616
 21
-9.3606854104
  0
LINE
  5
2CE
100
AcDbEntity
  8
ASSI
100
AcDbLine
 62
7
  6
CONTINUOUS
 10
-18.8620733882
 20
-9.1070379131
 11
-18.756007371
 21
-9.1839087151
  0
LINE
  5
2CF
100
AcDbEntity
  8
ASSI
100
AcDbLine
 62
7
  6
CONTINUOUS
 10
-18.5085199976
 20
-8.9302612178
 11
-18.4024539804
 21
-9.0071320198
  0
LINE
  5
2D0
100
AcDbEntity
  8
RACCORDO
100
AcDbLine
 62
7
  6
CONTINUOUS
 10
-11.6339770326
 20
-14.3059633067
 11
-11.6339770326
 21
-14.7228747642
  0
LINE
  5
2D1
100
AcDbEntity
  8
DRAFT
100
AcDbLine
 62
7
  6
CONTINUOUS
 10
-18.7377198218
 20
-10.1642376077
 11
-18.68067617
 21
-9.9320237342
  0
LINE
  5
2D2
100
AcDbEntity
  8
ASSI
100
AcDbLine
 62
7
  6
CONTINUOUS
 10
-23.6950399957
 20
-7.7512147811
 11
-23.5996888221
 21
-7.5867583335
  0
LINE
  5
2D3
100
AcDbEntity
  8
ASSI
100
AcDbLine
 62
7
  6
CONTINUOUS
 10
-23.3414866051
 20
-7.5744380858
 11
-23.2461354315
 21
-7.4099816383
  0
LINE
  5
2D4
100
AcDbEntity
  8
ASSI
100
AcDbLine
 62
7
  6
CONTINUOUS
 10
-22.9879332145
 20
-7.3976613905
 11
-22.8925820409
 21
-7.233204943
  0
LINE
  5
2D5
100
AcDbEntity
  8
ASSI
100
AcDbLine
 62
7
  6
CONTINUOUS
 10
-22.6343798239
 20
-7.2208846952
 11
-22.5390286503
 21
-7.0564282477
  0
LINE
  5
2D6
100
AcDbEntity
  8
ASSI
100
AcDbLine
 62
7
  6
CONTINUOUS
 10
-20.0869913799
 20
-9.7474657508
 11
-20.0641549162
 21
-9.7080786771
  0
LINE
  5
2D7
100
AcDbEntity
  8
ASSI
100
AcDbLine
 62
7
  6
CONTINUOUS
 10
-19.8166675428
 20
-9.714238801
 11
-19.7106015256
 21
-9.5313019818
  0
LINE
  5
2D8
100
AcDbEntity
  8
ASSI
100
AcDbLine
 62
7
  6
CONTINUOUS
 10
-19.4631141522
 20
-9.5374621057
 11
-19.357048135
 21
-9.3545252865
  0
LINE
  5
2D9
100
AcDbEntity
  8
ASSI
100
AcDbLine
 62
7
  6
CONTINUOUS
 10
-19.1095607616
 20
-9.3606854104
 11
-19.0034947444
 21
-9.1777485912
  0
LINE
  5
2DA
100
AcDbEntity
  8
ASSI
100
AcDbLine
 62
7
  6
CONTINUOUS
 10
-18.756007371
 20
-9.1839087151
 11
-18.6499413538
 21
-9.0009718959
  0
LINE
  5
2DB
100
AcDbEntity
  8
SMUSSO
100
AcDbLine
 62
7
  6
CONTINUOUS
 10
-51.2509141353
 20
-21.706380974
 11
-48.560558198
 21
-19.4542374566
  0
LINE
  5
2DC
100
AcDbEntity
  8
RACCORDO
100
AcDbLine
 62
7
  6
CONTINUOUS
 10
-35.5555477771
 20
-5.3430521025
 11
-34.3792883646
 21
-4.4854940247
  0
LINE
  5
2DD
100
AcDbEntity
  8
RACCORDO
100
AcDbLine
 62
7
  6
CONTINUOUS
 10
-35.3949445905
 20
-5.7350531972
 11
-34.2093360582
 21
-4.8705959338
  0
LINE
  5
2DE
100
AcDbEntity
  8
RACCORDO
100
AcDbLine
 62
7
  6
CONTINUOUS
 10
-32.7665957143
 20
1.9674978293
 11
-32.1910362135
 21
2.2574967276
  0
LINE
  5
2DF
100
AcDbEntity
  8
RACCORDO
100
AcDbLine
 62
7
  6
CONTINUOUS
 10
-34.3194052611
 20
-4.4485034653
 11
-33.9879872082
 21
-4.2815166114
  0
LINE
  5
2E0
100
AcDbEntity
  8
RACCORDO
100
AcDbLine
 62
7
  6
CONTINUOUS
 10
-32.7665957143
 20
-3.9854422323
 11
-32.1910362135
 21
-3.695443334
  0
LINE
  5
2E1
100
AcDbEntity
  8
RACCORDO
100
AcDbLine
 62
7
  6
CONTINUOUS
 10
-34.075424071
 20
-4.7982577237
 11
-33.7758874825
 21
-4.6473345254
  0
LINE
  5
2E2
100
AcDbEntity
  8
RACCORDO
100
AcDbLine
 62
7
  6
CONTINUOUS
 10
-31.8375591581
 20
-3.5201482884
 11
-32.1910039048
 21
-3.6954594884
  0
LINE
  5
2E3
100
AcDbEntity
  8
RACCORDO
100
AcDbLine
 62
7
  6
CONTINUOUS
 10
-33.9855548184
 20
-4.2865054105
 11
-32.9741116817
 21
-3.7933558758
  0
LINE
  5
2E4
100
AcDbEntity
  8
RACCORDO
100
AcDbLine
 62
7
  6
CONTINUOUS
 10
-33.2794026844
 20
3.0594616548
 11
-32.3441184956
 21
3.4914068874
  0
LINE
  5
2E5
100
AcDbEntity
  8
ASSI
100
AcDbLine
 62
7
  6
CONTINUOUS
 10
28.6040402695
 20
-32.9815160982
 11
24.8371256892
 21
-31.098058808
  0
LINE
  5
2E6
100
AcDbEntity
  8
ASSI
100
AcDbLine
 62
7
  6
CONTINUOUS
 10
-19.0034947444
 20
-9.1777485912
 11
-22.8925820409
 21
-7.233204943
  0
LINE
  5
2E7
100
AcDbEntity
  8
ASSI
100
AcDbLine
 62
7
  6
CONTINUOUS
 10
28.6040402695
 20
-32.8400947419
 11
24.9785470454
 21
-31.0273481299
  0
LINE
  5
2E8
100
AcDbEntity
  8
ASSI
100
AcDbLine
 62
7
  6
CONTINUOUS
 10
-18.8620733882
 20
-9.1070379131
 11
-22.7511606847
 21
-7.1624942648
  0
LINE
  5
2E9
100
AcDbEntity
  8
ASSI
100
AcDbLine
 62
7
  6
CONTINUOUS
 10
28.6040402695
 20
-32.6279627076
 11
25.1906790798
 21
-30.9212821127
  0
LINE
  5
2EA
100
AcDbEntity
  8
ASSI
100
AcDbLine
 62
7
  6
CONTINUOUS
 10
-18.6499413538
 20
-9.0009718959
 11
-22.5390286503
 21
-7.0564282477
  0
LINE
  5
2EB
100
AcDbEntity
  8
ASSI
100
AcDbLine
 62
7
  6
CONTINUOUS
 10
-6.5658269747
 20
-15.012048063
 11
-2.3083631292
 21
-17.1407799858
  0
LINE
  5
2EC
100
AcDbEntity
  8
ASSI
100
AcDbLine
 62
7
  6
CONTINUOUS
 10
9.344075602
 20
-22.9669993513
 11
13.6015394475
 21
-25.0957312741
  0
LINE
  5
2ED
100
AcDbEntity
  8
ASSI
100
AcDbLine
 62
7
  6
CONTINUOUS
 10
-6.4440234061
 20
-15.0225481303
 11
-2.2512812595
 21
-17.1189192036
  0
LINE
  5
2EE
100
AcDbEntity
  8
ASSI
100
AcDbLine
 62
7
  6
CONTINUOUS
 10
9.4658791705
 20
-22.9774994186
 11
13.6586213172
 21
-25.0738704919
  0
LINE
  5
2EF
100
AcDbEntity
  8
ASSI
100
AcDbLine
 62
7
  6
CONTINUOUS
 10
-22.4757295514
 20
-6.9704942343
 11
-22.4214450875
 21
-6.9976364662
  0
LINE
  5
2F0
100
AcDbEntity
  8
ASSI
100
AcDbLine
 62
7
  6
CONTINUOUS
 10
-18.4024539804
 20
-9.0071320198
 11
-18.2182657059
 21
-9.099226157
  0
LINE
  5
2F1
100
AcDbEntity
  8
ASSI
100
AcDbLine
 62
7
  6
CONTINUOUS
 10
25.2539781787
 20
-30.8353480993
 11
25.3082626426
 21
-30.8624903313
  0
LINE
  5
2F2
100
AcDbEntity
  8
ASSI
100
AcDbLine
 62
7
  6
CONTINUOUS
 10
28.6040402695
 20
-32.4865413513
 11
25.332100436
 21
-30.8505714346
  0
LINE
  5
2F3
100
AcDbEntity
  8
ASSI
100
AcDbLine
 62
7
  6
CONTINUOUS
 10
-18.5085199976
 20
-8.9302612178
 11
-22.3976072941
 21
-6.9857175695
  0
LINE
  5
2F4
100
AcDbEntity
  8
ASSI
100
AcDbLine
 62
7
  6
CONTINUOUS
 10
-22.3539270291
 20
-6.9809937784
 11
-18.1611827899
 21
-9.077365898
  0
LINE
  5
2F5
100
AcDbEntity
  8
ASSI
100
AcDbLine
 62
7
  6
CONTINUOUS
 10
25.3757807009
 20
-30.8458476435
 11
28.6040402695
 21
-32.4599774277
  0
LINE
  5
2F6
100
AcDbEntity
  8
DRAFT
100
AcDbLine
 62
7
  6
CONTINUOUS
 10
-33.5101507898
 20
3.1065537939
 11
-32.9741116817
 21
2.8385342399
  0
LINE
  5
2F7
100
AcDbEntity
  8
RACCORDO
100
AcDbLine
 62
7
  6
CONTINUOUS
 10
-33.4103650655
 20
3.0695178453
 11
-33.5101507898
 21
3.1194107075
  0
LINE
  5
2F8
100
AcDbEntity
  8
RACCORDO
100
AcDbLine
 62
7
  6
CONTINUOUS
 10
-32.4031359391
 20
2.6233146415
 11
-33.2786081406
 21
3.0610507423
  0
LINE
  5
2F9
100
AcDbEntity
  8
0
100
AcDbLine
 62
7
  6
CONTINUOUS
 10
-6.6732580221
 20
-20.8258848253
 11
-6.2025476444
 21
-22.8797400755
  0
LINE
  5
2FA
100
AcDbEntity
  8
0
100
AcDbLine
 62
7
  6
CONTINUOUS
 10
-3.3544968923
 20
-24.3037654516
 11
-3.4933422585
 21
-22.415842707
  0
LINE
  5
2FB
100
AcDbEntity
  8
0
100
AcDbLine
 62
7
  6
CONTINUOUS
 10
-5.3371246047
 20
-21.4938424148
 11
-5.3371246047
 21
-23.3124515954
  0
LINE
  5
2FC
100
AcDbEntity
  8
RACCORDO
100
AcDbLine
 62
7
  6
CONTINUOUS
 10
-26.9938013718
 20
-6.8718394036
 11
-26.4281159468
 21
-6.5769034674
  0
LINE
  5
2FD
100
AcDbEntity
  8
RACCORDO
100
AcDbLine
 62
7
  6
CONTINUOUS
 10
-26.6948023734
 20
-7.1924620938
 11
-26.2159839125
 21
-6.9428166817
  0
LINE
  5
2FE
100
AcDbEntity
  8
RACCORDO
100
AcDbLine
 62
7
  6
CONTINUOUS
 10
-31.6254594325
 20
-3.8859662024
 11
-31.7180948132
 21
-3.9319140342
  0
LINE
  5
2FF
100
AcDbEntity
  8
RACCORDO
100
AcDbLine
 62
7
  6
CONTINUOUS
 10
-33.7702138872
 20
-4.6501713231
 11
-32.762270367
 21
-4.158728097
  0
LINE
  5
300
100
AcDbEntity
  8
RACCORDO
100
AcDbLine
 62
7
  6
CONTINUOUS
 10
-33.4103650655
 20
9.0440197998
 11
-33.4553290125
 21
9.0665017733
  0
LINE
  5
301
100
AcDbEntity
  8
RACCORDO
100
AcDbLine
 62
7
  6
CONTINUOUS
 10
-32.9741116817
 20
9.764783412
 11
-32.4750808767
 21
9.5152680095
  0
LINE
  5
302
100
AcDbEntity
  8
ASSI
100
AcDbLine
 62
7
  6
CONTINUOUS
 10
27.8069741702
 20
-33.502221864
 11
27.9130401873
 21
-33.579092666
  0
LINE
  5
303
100
AcDbEntity
  8
ASSI
100
AcDbLine
 62
7
  6
CONTINUOUS
 10
28.1605275608
 20
-33.3254451687
 11
28.2665935779
 21
-33.4023159707
  0
LINE
  5
304
100
AcDbEntity
  8
ASSI
100
AcDbLine
 62
7
  6
CONTINUOUS
 10
28.5140809513
 20
-33.1486684734
 11
28.6040402695
 21
-33.2138660279
  0
LINE
  5
305
100
AcDbEntity
  8
SMUSSO
100
AcDbLine
 62
7
  6
CONTINUOUS
 10
47.6833750591
 20
-71.1735255711
 11
42.3026631845
 21
-64.8858481479
  0
LINE
  5
306
100
AcDbEntity
  8
0
100
AcDbLine
 62
7
  6
CONTINUOUS
 10
-4.4969481054
 20
-22.5450934428
 11
-4.1333559199
 21
-23.9143359378
  0
LINE
  5
307
100
AcDbEntity
  8
0
100
AcDbLine
 62
7
  6
CONTINUOUS
 10
-4.1099294722
 20
-23.1171857646
 11
-4.4165917837
 21
-21.9542179444
  0
LINE
  5
308
100
AcDbEntity
  8
0
100
AcDbLine
 62
7
  6
CONTINUOUS
 10
-4.0172519805
 20
-22.8616217681
 11
-4.2751704275
 21
-21.8835072663
  0
LINE
  5
309
100
AcDbEntity
  8
IMPORT_IGES
100
AcDbLine
 62
7
  6
CONTINUOUS
 10
-4.2751704275
 20
-21.8835072663
 11
-4.0172519805
 21
-22.8616217681
  0
LINE
  5
30A
100
AcDbEntity
  8
0
100
AcDbLine
 62
7
  6
CONTINUOUS
 10
-2.0847021118
 20
-24.9386628419
 11
-2.5402754546
 21
-22.892376109
  0
LINE
  5
30B
100
AcDbEntity
  8
0
100
AcDbLine
 62
7
  6
CONTINUOUS
 10
-1.9936897785
 20
-24.6415312886
 11
-2.3988540983
 21
-22.8216654309
  0
LINE
  5
30C
100
AcDbEntity
  8
IMPORT_IGES
100
AcDbLine
 62
7
  6
CONTINUOUS
 10
-2.3988540983
 20
-22.8216654309
 11
-1.9936897785
 21
-24.6415312886
  0
LINE
  5
30D
100
AcDbEntity
  8
0
100
AcDbLine
 62
7
  6
CONTINUOUS
 10
-6.0535418608
 20
-22.3874726418
 11
-6.3365719566
 21
-20.994227858
  0
LINE
  5
30E
100
AcDbEntity
  8
IMPORT_IGES
100
AcDbLine
 62
7
  6
CONTINUOUS
 10
-6.1951506004
 20
-20.9235171799
 11
-5.9655385228
 21
-22.0538062698
  0
LINE
  5
30F
100
AcDbEntity
  8
0
100
AcDbLine
 62
7
  6
CONTINUOUS
 10
-5.9655385228
 20
-22.0538062698
 11
-6.1951506004
 21
-20.9235171799
  0
LINE
  5
310
100
AcDbEntity
  8
0
100
AcDbLine
 62
7
  6
CONTINUOUS
 10
-2.4916512568
 20
-24.3721512861
 11
-2.4113614031
 21
-24.7753331962
  0
LINE
  5
311
100
AcDbEntity
  8
0
100
AcDbLine
 62
7
  6
CONTINUOUS
 10
-2.6960114805
 20
-23.3141857015
 11
-2.5535916895
 21
-24.0602640794
  0
LINE
  5
312
100
AcDbEntity
  8
0
100
AcDbLine
 62
7
  6
CONTINUOUS
 10
-3.2260591608
 20
-24.0565124721
 11
-3.3519209023
 21
-22.3451320289
  0
LINE
  5
313
100
AcDbEntity
  8
IMPORT_IGES
100
AcDbLine
 62
7
  6
CONTINUOUS
 10
-3.3519209023
 20
-22.3451320289
 11
-3.2260591608
 21
-24.0565124721
  0
LINE
  5
314
100
AcDbEntity
  8
0
100
AcDbLine
 62
7
  6
CONTINUOUS
 10
-3.7213735888
 20
-22.9378309023
 11
-3.6576965019
 21
-24.1521656468
  0
LINE
  5
315
100
AcDbEntity
  8
0
100
AcDbLine
 62
7
  6
CONTINUOUS
 10
-5.0271883888
 20
-23.4674197034
 11
-5.0271883888
 21
-21.6488105227
  0
LINE
  5
316
100
AcDbEntity
  8
0
100
AcDbLine
 62
7
  6
CONTINUOUS
 10
-4.8857670325
 20
-23.3967090252
 11
-4.8857670325
 21
-21.5780998446
  0
LINE
  5
317
100
AcDbEntity
  8
IMPORT_IGES
100
AcDbLine
 62
7
  6
CONTINUOUS
 10
-4.8857670325
 20
-23.3967090252
 11
-4.8857670325
 21
-21.5780998446
  0
LINE
  5
318
100
AcDbEntity
  8
RACCORDO
100
AcDbLine
 62
7
  6
CONTINUOUS
 10
-3.6588394068
 20
-19.2324224237
 11
-3.6588394068
 21
-19.2398198275
  0
LINE
  5
319
100
AcDbEntity
  8
DRAFT
100
AcDbLine
 62
7
  6
CONTINUOUS
 10
-3.6239222536
 20
-19.1075121048
 11
-3.6239222536
 21
-18.7279021537
  0
LINE
  5
31A
100
AcDbEntity
  8
RACCORDO
100
AcDbLine
 62
7
  6
CONTINUOUS
 10
-3.2753710872
 20
-17.9250277037
 11
-3.2753710872
 21
-18.2359425036
  0
LINE
  5
31B
100
AcDbEntity
  8
RACCORDO
100
AcDbLine
 62
7
  6
CONTINUOUS
 10
-3.218172077
 20
-18.8744233781
 11
-3.218172077
 21
-18.4416434535
  0
LINE
  5
31C
100
AcDbEntity
  8
RACCORDO
100
AcDbLine
 62
7
  6
CONTINUOUS
 10
-3.1911730273
 20
-17.8208289482
 11
-3.1911730273
 21
-18.8598567714
  0
LINE
  5
31D
100
AcDbEntity
  8
ASSI
100
AcDbLine
 62
7
  6
CONTINUOUS
 10
-2.3013495993
 20
-17.1371227003
 11
-2.3013495993
 21
-17.5626462948
  0
LINE
  5
31E
100
AcDbEntity
  8
ASSI
100
AcDbLine
 62
7
  6
CONTINUOUS
 10
-2.2499785644
 20
-17.1213638726
 11
-2.2499785644
 21
-17.545312502
  0
LINE
  5
31F
100
AcDbEntity
  8
0
100
AcDbLine
 62
7
  6
CONTINUOUS
 10
-1.9936897785
 20
-23.1869150077
 11
-1.9936897785
 21
-24.9841693529
  0
LINE
  5
320
100
AcDbEntity
  8
0
100
AcDbLine
 62
7
  6
CONTINUOUS
 10
-1.695277989
 20
-24.1238881851
 11
-1.695277989
 21
-23.6246743525
  0
LINE
  5
321
100
AcDbEntity
  8
0
100
AcDbLine
 62
7
  6
CONTINUOUS
 10
-1.6850009814
 20
-25.1385137515
 11
-1.6850009814
 21
-24.4268531231
  0
LINE
  5
322
100
AcDbEntity
  8
0
100
AcDbLine
 62
7
  6
CONTINUOUS
 10
-1.5538566328
 20
-24.053177507
 11
-1.5538566328
 21
-23.6783986937
  0
LINE
  5
323
100
AcDbEntity
  8
IMPORT_IGES
100
AcDbLine
 62
7
  6
CONTINUOUS
 10
-1.5538566328
 20
-24.053177507
 11
-1.5538566328
 21
-23.6783986937
  0
LINE
  5
324
100
AcDbEntity
  8
0
100
AcDbLine
 62
7
  6
CONTINUOUS
 10
-1.5435796251
 20
-25.0678030734
 11
-1.5435796251
 21
-24.4975638013
  0
LINE
  5
325
100
AcDbEntity
  8
IMPORT_IGES
100
AcDbLine
 62
7
  6
CONTINUOUS
 10
-1.5435796251
 20
-25.0678030734
 11
-1.5435796251
 21
-24.4975638013
  0
LINE
  5
326
100
AcDbEntity
  8
0
100
AcDbLine
 62
7
  6
CONTINUOUS
 10
-1.19685982
 20
-24.5337244476
 11
-1.19685982
 21
-24.5229786953
  0
LINE
  5
327
100
AcDbEntity
  8
0
100
AcDbLine
 62
7
  6
CONTINUOUS
 10
-4.5638326288
 20
-23.6990975834
 11
-4.4969481054
 21
-22.5450934428
  0
LINE
  5
328
100
AcDbEntity
  8
0
100
AcDbLine
 62
7
  6
CONTINUOUS
 10
-4.4224112725
 20
-23.6283869052
 11
-4.3842279166
 21
-22.9695835135
  0
LINE
  5
329
100
AcDbEntity
  8
IMPORT_IGES
100
AcDbLine
 62
7
  6
CONTINUOUS
 10
-4.3842279166
 20
-22.9695835135
 11
-4.4224112725
 21
-23.6283869052
  0
LINE
  5
32A
100
AcDbEntity
  8
0
100
AcDbLine
 62
7
  6
CONTINUOUS
 10
-4.7262713199
 20
-21.7993781764
 11
-4.8603401798
 21
-23.5508438079
  0
LINE
  5
32B
100
AcDbEntity
  8
0
100
AcDbLine
 62
7
  6
CONTINUOUS
 10
-5.7618666776
 20
-21.2815804975
 11
-6.0535418608
 21
-22.3874726418
  0
LINE
  5
32C
100
AcDbEntity
  8
ASSI
100
AcDbLine
 62
7
  6
CONTINUOUS
 10
-18.4731646585
 20
-9.8262845388
 11
-18.2184597849
 21
-9.641688488
  0
LINE
  5
32D
100
AcDbEntity
  8
ASSI
100
AcDbLine
 62
7
  6
CONTINUOUS
 10
-18.2182657059
 20
-9.099226157
 11
-19.7179274578
 21
-9.9319977119
  0
LINE
  5
32E
100
AcDbEntity
  8
RACCORDO
100
AcDbLine
 62
7
  6
CONTINUOUS
 10
-21.8970845184
 20
-8.9027174168
 11
-22.4627699433
 21
-9.197653353
  0
LINE
  5
32F
100
AcDbEntity
  8
RACCORDO
100
AcDbLine
 62
7
  6
CONTINUOUS
 10
-21.761211191
 20
-8.9103558453
 11
-22.326896616
 21
-9.2052917815
  0
LINE
  5
330
100
AcDbEntity
  8
ASSI
100
AcDbLine
 62
7
  6
CONTINUOUS
 10
-18.4731646585
 20
-9.8262845388
 11
-19.1943658354
 21
-10.1937785231
  0
LINE
  5
331
100
AcDbEntity
  8
DRAFT
100
AcDbLine
 62
7
  6
CONTINUOUS
 10
-18.9241470119
 20
-10.3288879348
 11
-18.8170187932
 21
-10.2750278663
  0
LINE
  5
332
100
AcDbEntity
  8
DRAFT
100
AcDbLine
 62
7
  6
CONTINUOUS
 10
-18.9950066781
 20
-10.2934581017
 11
-18.7377198218
 21
-10.1642376077
  0
LINE
  5
333
100
AcDbEntity
  8
ASSI
100
AcDbLine
 62
7
  6
CONTINUOUS
 10
-24.6603489939
 20
-8.1170884194
 11
-24.5189276376
 21
-8.0463777413
  0
LINE
  5
334
100
AcDbEntity
  8
ASSI
100
AcDbLine
 62
7
  6
CONTINUOUS
 10
-24.3067956033
 20
-7.9403117241
 11
-24.1653742471
 21
-7.869601046
  0
LINE
  5
335
100
AcDbEntity
  8
ASSI
100
AcDbLine
 62
7
  6
CONTINUOUS
 10
-23.9532422127
 20
-7.7635350288
 11
-23.8118208565
 21
-7.6928243507
  0
LINE
  5
336
100
AcDbEntity
  8
ASSI
100
AcDbLine
 62
7
  6
CONTINUOUS
 10
-23.5996888221
 20
-7.5867583335
 11
-23.4582674659
 21
-7.5160476554
  0
LINE
  5
337
100
AcDbEntity
  8
ASSI
100
AcDbLine
 62
7
  6
CONTINUOUS
 10
-23.2461354315
 20
-7.4099816383
 11
-23.1047140753
 21
-7.3392709601
  0
LINE
  5
338
100
AcDbEntity
  8
ASSI
100
AcDbLine
 62
7
  6
CONTINUOUS
 10
-22.8925820409
 20
-7.233204943
 11
-22.7511606847
 21
-7.1624942648
  0
LINE
  5
339
100
AcDbEntity
  8
ASSI
100
AcDbLine
 62
7
  6
CONTINUOUS
 10
-22.5390286503
 20
-7.0564282477
 11
-22.3976072941
 21
-6.9857175695
  0
LINE
  5
33A
100
AcDbEntity
  8
ASSI
100
AcDbLine
 62
7
  6
CONTINUOUS
 10
-20.0641549162
 20
-9.7080786771
 11
-19.9227335599
 21
-9.637367999
  0
LINE
  5
33B
100
AcDbEntity
  8
ASSI
100
AcDbLine
 62
7
  6
CONTINUOUS
 10
-19.7106015256
 20
-9.5313019818
 11
-19.5691801693
 21
-9.4605913037
  0
LINE
  5
33C
100
AcDbEntity
  8
ASSI
100
AcDbLine
 62
7
  6
CONTINUOUS
 10
-19.357048135
 20
-9.3545252865
 11
-19.2156267787
 21
-9.2838146084
  0
LINE
  5
33D
100
AcDbEntity
  8
ASSI
100
AcDbLine
 62
7
  6
CONTINUOUS
 10
-19.0034947444
 20
-9.1777485912
 11
-18.8620733882
 21
-9.1070379131
  0
LINE
  5
33E
100
AcDbEntity
  8
ASSI
100
AcDbLine
 62
7
  6
CONTINUOUS
 10
-18.6499413538
 20
-9.0009718959
 11
-18.5085199976
 21
-8.9302612178
  0
LINE
  5
33F
100
AcDbEntity
  8
ASSI
100
AcDbLine
 62
7
  6
CONTINUOUS
 10
-18.4024539804
 20
-9.0071320198
 11
-19.9850564112
 21
-9.7984332352
  0
LINE
  5
340
100
AcDbEntity
  8
ASSI
100
AcDbLine
 62
7
  6
CONTINUOUS
 10
-18.211252176
 20
-9.6076950065
 11
-19.2908311353
 21
-10.1455458731
  0
LINE
  5
341
100
AcDbEntity
  8
ASSI
100
AcDbLine
 62
7
  6
CONTINUOUS
 10
-22.4757295514
 20
-6.9704942343
 11
-24.9294227832
 21
-8.0751518889
  0
LINE
  5
342
100
AcDbEntity
  8
RACCORDO
100
AcDbLine
 62
7
  6
CONTINUOUS
 10
2.1546052005
 20
-21.2002544233
 11
2.1546052005
 21
-21.6171658808
  0
LINE
  5
343
100
AcDbEntity
  8
RACCORDO
100
AcDbLine
 62
7
  6
CONTINUOUS
 10
5.6038212409
 20
-22.8527192584
 11
5.6038212409
 21
-23.341773901
  0
LINE
  5
344
100
AcDbEntity
  8
RACCORDO
100
AcDbLine
 62
7
  6
CONTINUOUS
 10
5.7755957119
 20
-22.4505111033
 11
5.7755957119
 21
-23.4276611365
  0
LINE
  5
345
100
AcDbEntity
  8
RACCORDO
100
AcDbLine
 62
7
  6
CONTINUOUS
 10
5.8597937718
 20
-22.3463123478
 11
5.8597937718
 21
-23.4697601664
  0
LINE
  5
346
100
AcDbEntity
  8
ASSI
100
AcDbLine
 62
7
  6
CONTINUOUS
 10
-2.8533330181
 20
-18.2230587617
 11
-2.7707735933
 21
-17.8869750225
  0
LINE
  5
347
100
AcDbEntity
  8
0
100
AcDbLine
 62
7
  6
CONTINUOUS
 10
-2.8503332928
 20
-23.9118932777
 11
-2.6960114805
 21
-23.3141857015
  0
LINE
  5
348
100
AcDbEntity
  8
0
100
AcDbLine
 62
7
  6
CONTINUOUS
 10
-2.7089119366
 20
-23.8411825996
 11
-2.6436577745
 21
-23.5884451126
  0
LINE
  5
349
100
AcDbEntity
  8
IMPORT_IGES
100
AcDbLine
 62
7
  6
CONTINUOUS
 10
-2.6436577745
 20
-23.5884451126
 11
-2.7089119366
 21
-23.8411825996
  0
LINE
  5
34A
100
AcDbEntity
  8
0
100
AcDbLine
 62
7
  6
CONTINUOUS
 10
-2.9992556378
 20
-24.4813860789
 11
-2.9137324868
 21
-24.1611106711
  0
LINE
  5
34B
100
AcDbEntity
  8
0
100
AcDbLine
 62
7
  6
CONTINUOUS
 10
-2.8578342816
 20
-24.4106754007
 11
-2.8056267446
 21
-24.2151635422
  0
LINE
  5
34C
100
AcDbEntity
  8
IMPORT_IGES
100
AcDbLine
 62
7
  6
CONTINUOUS
 10
-2.8056267446
 20
-24.2151635422
 11
-2.8578342816
 21
-24.4106754007
  0
LINE
  5
34D
100
AcDbEntity
  8
0
100
AcDbLine
 62
7
  6
CONTINUOUS
 10
-2.8401007506
 20
-22.742463461
 11
-3.3058288539
 21
-24.3280994708
  0
LINE
  5
34E
100
AcDbEntity
  8
0
100
AcDbLine
 62
7
  6
CONTINUOUS
 10
-5.9294163365
 20
-23.0163057295
 11
-5.4521418866
 21
-21.436442893
  0
LINE
  5
34F
100
AcDbEntity
  8
0
100
AcDbLine
 62
7
  6
CONTINUOUS
 10
-5.7879949802
 20
-22.9455950514
 11
-5.3107205304
 21
-21.3657322149
  0
LINE
  5
350
100
AcDbEntity
  8
IMPORT_IGES
100
AcDbLine
 62
7
  6
CONTINUOUS
 10
-5.3107205304
 20
-21.3657322149
 11
-5.7879949802
 21
-22.9455950514
  0
LINE
  5
351
100
AcDbEntity
  8
0
100
AcDbLine
 62
7
  6
CONTINUOUS
 10
-3.7999932563
 20
-22.2625172081
 11
-4.1099294722
 21
-23.1171857646
  0
LINE
  5
352
100
AcDbEntity
  8
0
100
AcDbLine
 62
7
  6
CONTINUOUS
 10
-4.0898879447
 20
-23.9360699254
 11
-3.7213735888
 21
-22.9378309023
  0
LINE
  5
353
100
AcDbEntity
  8
0
100
AcDbLine
 62
7
  6
CONTINUOUS
 10
-3.9484665885
 20
-23.8653592473
 11
-3.7070306883
 21
-23.2113528747
  0
LINE
  5
354
100
AcDbEntity
  8
IMPORT_IGES
100
AcDbLine
 62
7
  6
CONTINUOUS
 10
-3.7070306883
 20
-23.2113528747
 11
-3.9484665885
 21
-23.8653592473
  0
LINE
  5
355
100
AcDbEntity
  8
RACCORDO
100
AcDbLine
 62
7
  6
CONTINUOUS
 10
-16.4694220578
 20
-11.6902291841
 11
-17.3726155001
 21
-12.177522767
  0
LINE
  5
356
100
AcDbEntity
  8
RACCORDO
100
AcDbLine
 62
7
  6
CONTINUOUS
 10
-16.332128472
 20
-11.6971195359
 11
-17.2353219144
 21
-12.1844131188
  0
LINE
  5
357
100
AcDbEntity
  8
DRAFT
100
AcDbLine
 62
7
  6
CONTINUOUS
 10
48.6371038364
 20
21.6578311796
 11
50.328325151
 21
22.5395967673
  0
LINE
  5
358
100
AcDbEntity
  8
RACCORDO
100
AcDbLine
 62
7
  6
CONTINUOUS
 10
-17.7944135366
 20
-11.4715333212
 11
-17.2188540358
 21
-11.1815344229
  0
LINE
  5
359
100
AcDbEntity
  8
RACCORDO
100
AcDbLine
 62
7
  6
CONTINUOUS
 10
-17.4940094204
 20
-11.7928585703
 11
-17.0067543102
 21
-11.5473523369
  0
LINE
  5
35A
100
AcDbEntity
  8
SMUSSO
100
AcDbLine
 62
7
  6
CONTINUOUS
 10
47.2524106528
 20
20.6560320588
 11
48.3130708246
 21
21.1863621447
  0
LINE
  5
35B
100
AcDbEntity
  8
SMUSSO
100
AcDbLine
 62
7
  6
CONTINUOUS
 10
47.959517434
 20
19.4364532644
 11
49.0201776058
 21
19.9667833503
  0
LINE
  5
35C
100
AcDbEntity
  8
DRAFT
100
AcDbLine
 62
7
  6
CONTINUOUS
 10
49.6682436313
 20
19.8793781079
 11
51.3889853227
 21
20.7102285769
  0
LINE
  5
35D
100
AcDbEntity
  8
DRAFT
100
AcDbLine
 62
7
  6
CONTINUOUS
 10
-17.4125044867
 20
-11.8336110371
 11
-17.9781899117
 21
-12.0801445751
  0
LINE
  5
35E
100
AcDbEntity
  8
RACCORDO
100
AcDbLine
 62
7
  6
CONTINUOUS
 10
-28.9559106021
 20
20.7267823003
 11
-28.9559436154
 21
20.7267987968
  0
LINE
  5
35F
100
AcDbEntity
  8
RACCORDO
100
AcDbLine
 62
7
  6
CONTINUOUS
 10
-32.1910362135
 20
20.0324076224
 11
-31.7836405156
 21
19.8287097735
  0
LINE
  5
360
100
AcDbEntity
  8
DRAFT
100
AcDbLine
 62
7
  6
CONTINUOUS
 10
-33.5101507898
 20
22.1591126772
 11
-32.9741116817
 21
21.8910931232
  0
LINE
  5
361
100
AcDbEntity
  8
RACCORDO
100
AcDbLine
 62
7
  6
CONTINUOUS
 10
-33.4103650655
 20
22.1220767286
 11
-33.5101507898
 21
22.1719695907
  0
LINE
  5
362
100
AcDbEntity
  8
RACCORDO
100
AcDbLine
 62
7
  6
CONTINUOUS
 10
-32.4031359391
 20
21.6758735248
 11
-33.2786081406
 21
22.1136096256
  0
LINE
  5
363
100
AcDbEntity
  8
RACCORDO
100
AcDbLine
 62
7
  6
CONTINUOUS
 10
-29.442291013
 20
20.9100225634
 11
-29.0646247727
 21
20.7211894433
  0
LINE
  5
364
100
AcDbEntity
  8
RACCORDO
100
AcDbLine
 62
7
  6
CONTINUOUS
 10
-29.3335727929
 20
20.9156133958
 11
-28.9559065525
 21
20.7267802757
  0
LINE
  5
365
100
AcDbEntity
  8
RACCORDO
100
AcDbLine
 62
7
  6
CONTINUOUS
 10
10.1297428263
 20
-26.1267135403
 11
10.1297428263
 21
-26.134110944
  0
LINE
  5
366
100
AcDbEntity
  8
DRAFT
100
AcDbLine
 62
7
  6
CONTINUOUS
 10
10.1646599796
 20
-26.0018032214
 11
10.1646599796
 21
-25.6221932703
  0
LINE
  5
367
100
AcDbEntity
  8
SMUSSO
100
AcDbLine
 62
7
  6
CONTINUOUS
 10
47.6833750591
 20
20.1178612938
 11
42.3026631845
 21
16.5205398079
  0
LINE
  5
368
100
AcDbEntity
  8
RACCORDO
100
AcDbLine
 62
7
  6
CONTINUOUS
 10
-5.9871819417
 20
-16.8576687051
 11
-6.5528673666
 21
-17.1526046413
  0
LINE
  5
369
100
AcDbEntity
  8
RACCORDO
100
AcDbLine
 62
7
  6
CONTINUOUS
 10
-5.8513086143
 20
-16.8653071336
 11
-6.4169940393
 21
-17.1602430698
  0
LINE
  5
36A
100
AcDbEntity
  8
RACCORDO
100
AcDbLine
 62
7
  6
CONTINUOUS
 10
-11.8460767583
 20
-13.9401453928
 11
-12.781360947
 21
-14.4113936025
  0
LINE
  5
36B
100
AcDbEntity
  8
RACCORDO
100
AcDbLine
 62
7
  6
CONTINUOUS
 10
-11.6339770326
 20
-14.3059633067
 11
-12.0492872052
 21
-14.5152196779
  0
LINE
  5
36C
100
AcDbEntity
  8
RACCORDO
100
AcDbLine
 62
7
  6
CONTINUOUS
 10
30.314924997
 20
4.2594885138
 11
30.6064715842
 21
4.406385905
  0
LINE
  5
36D
100
AcDbEntity
  8
RACCORDO
100
AcDbLine
 62
7
  6
CONTINUOUS
 10
30.8098243568
 20
3.4059133812
 11
31.101370944
 21
3.5528107723
  0
LINE
  5
36E
100
AcDbEntity
  8
ASSI
100
AcDbLine
 62
7
  6
CONTINUOUS
 10
-6.5658269747
 20
-15.012048063
 11
-8.9283790193
 21
-16.0756737709
  0
LINE
  5
36F
100
AcDbEntity
  8
DRAFT
100
AcDbLine
 62
7
  6
CONTINUOUS
 10
-12.1092036278
 20
-14.4852614666
 11
-12.6748890528
 21
-14.7317950045
  0
LINE
  5
370
100
AcDbEntity
  8
RACCORDO
100
AcDbLine
 62
7
  6
CONTINUOUS
 10
-33.4103650655
 20
28.0965786831
 11
-33.4553290125
 21
28.1190606566
  0
LINE
  5
371
100
AcDbEntity
  8
RACCORDO
100
AcDbLine
 62
7
  6
CONTINUOUS
 10
-32.9741116817
 20
28.8173422953
 11
-32.4750808767
 21
28.5678268928
  0
LINE
  5
372
100
AcDbEntity
  8
ASSI
100
AcDbLine
 62
7
  6
CONTINUOUS
 10
13.6085529774
 20
-25.0920739887
 11
13.6085529774
 21
-25.5175975832
  0
LINE
  5
373
100
AcDbEntity
  8
ASSI
100
AcDbLine
 62
7
  6
CONTINUOUS
 10
13.6599240123
 20
-25.0763151609
 11
13.6599240123
 21
-25.5002637904
  0
LINE
  5
374
100
AcDbEntity
  8
RACCORDO
100
AcDbLine
 62
7
  6
CONTINUOUS
 10
15.9431874336
 20
-28.0945455399
 11
15.9431874336
 21
-28.5114569973
  0
LINE
  5
375
100
AcDbEntity
  8
ASSI
100
AcDbLine
 62
7
  6
CONTINUOUS
 10
-2.5632620818
 20
-17.7812358272
 11
-2.3085572082
 21
-17.5966397763
  0
LINE
  5
376
100
AcDbEntity
  8
ASSI
100
AcDbLine
 62
7
  6
CONTINUOUS
 10
-2.3083631292
 20
-17.1407799858
 11
-3.2396061542
 21
-17.6579050648
  0
LINE
  5
377
100
AcDbEntity
  8
RACCORDO
100
AcDbLine
 62
7
  6
CONTINUOUS
 10
-2.6808398247
 20
-18.5845203007
 11
-3.584033267
 21
-19.0718138836
  0
LINE
  5
378
100
AcDbEntity
  8
RACCORDO
100
AcDbLine
 62
7
  6
CONTINUOUS
 10
-2.5435462389
 20
-18.5914106524
 11
-3.4467396812
 21
-19.0787042354
  0
LINE
  5
379
100
AcDbEntity
  8
ASSI
100
AcDbLine
 62
7
  6
CONTINUOUS
 10
-2.5632620818
 20
-17.7812358272
 11
-3.1911730273
 21
-18.1011930077
  0
LINE
  5
37A
100
AcDbEntity
  8
RACCORDO
100
AcDbLine
 62
7
  6
CONTINUOUS
 10
-4.0058313034
 20
-18.3658244378
 11
-3.4302718027
 21
-18.0758255395
  0
LINE
  5
37B
100
AcDbEntity
  8
RACCORDO
100
AcDbLine
 62
7
  6
CONTINUOUS
 10
-3.7054271872
 20
-18.6871496869
 11
-3.218172077
 21
-18.4416434535
  0
LINE
  5
37C
100
AcDbEntity
  8
ASSI
100
AcDbLine
 62
7
  6
CONTINUOUS
 10
-2.9238507282
 20
-18.3215805359
 11
-3.1911730273
 21
-18.4559802069
  0
LINE
  5
37D
100
AcDbEntity
  8
ASSI
100
AcDbLine
 62
7
  6
CONTINUOUS
 10
-2.8533330181
 20
-18.2230587617
 11
-3.1911730273
 21
-18.3927365041
  0
LINE
  5
37E
100
AcDbEntity
  8
0
100
AcDbLine
 62
7
  6
CONTINUOUS
 10
-6.5318366658
 20
-20.7551741472
 11
-6.6732580221
 21
-20.8258848253
  0
LINE
  5
37F
100
AcDbEntity
  8
0
100
AcDbLine
 62
7
  6
CONTINUOUS
 10
-6.1951506004
 20
-20.9235171799
 11
-6.3365719566
 21
-20.994227858
  0
LINE
  5
380
100
AcDbEntity
  8
0
100
AcDbLine
 62
7
  6
CONTINUOUS
 10
-5.6204453213
 20
-21.2108698194
 11
-5.7618666776
 21
-21.2815804975
  0
LINE
  5
381
100
AcDbEntity
  8
0
100
AcDbLine
 62
7
  6
CONTINUOUS
 10
-5.3107205304
 20
-21.3657322149
 11
-5.4521418866
 21
-21.436442893
  0
LINE
  5
382
100
AcDbEntity
  8
0
100
AcDbLine
 62
7
  6
CONTINUOUS
 10
-5.1957032484
 20
-21.4231317366
 11
-5.3371246047
 21
-21.4938424148
  0
LINE
  5
383
100
AcDbEntity
  8
0
100
AcDbLine
 62
7
  6
CONTINUOUS
 10
-4.8857670325
 20
-21.5780998446
 11
-5.0271883888
 21
-21.6488105227
  0
LINE
  5
384
100
AcDbEntity
  8
0
100
AcDbLine
 62
7
  6
CONTINUOUS
 10
-4.5848499636
 20
-21.7286674983
 11
-4.7262713199
 21
-21.7993781764
  0
LINE
  5
385
100
AcDbEntity
  8
0
100
AcDbLine
 62
7
  6
CONTINUOUS
 10
-4.2751704275
 20
-21.8835072663
 11
-4.4165917837
 21
-21.9542179444
  0
LINE
  5
386
100
AcDbEntity
  8
0
100
AcDbLine
 62
7
  6
CONTINUOUS
 10
-5.7879949802
 20
-22.9455950514
 11
-5.9294163365
 21
-23.0163057295
  0
LINE
  5
387
100
AcDbEntity
  8
0
100
AcDbLine
 62
7
  6
CONTINUOUS
 10
-3.6585719001
 20
-22.19180653
 11
-3.7999932563
 21
-22.2625172081
  0
LINE
  5
388
100
AcDbEntity
  8
ASSI
100
AcDbLine
 62
7
  6
CONTINUOUS
 10
-2.3013495993
 20
-17.5626462948
 11
-3.1911730273
 21
-18.0059601422
  0
LINE
  5
389
100
AcDbEntity
  8
RACCORDO
100
AcDbLine
 62
7
  6
CONTINUOUS
 10
-3.4874708129
 20
-17.5592097898
 11
-3.9774433354
 21
-17.8022397731
  0
LINE
  5
38A
100
AcDbEntity
  8
RACCORDO
100
AcDbLine
 62
7
  6
CONTINUOUS
 10
-3.2753710872
 20
-17.9250277037
 11
-3.5045342439
 21
-18.0386943189
  0
LINE
  5
38B
100
AcDbEntity
  8
RACCORDO
100
AcDbLine
 62
7
  6
CONTINUOUS
 10
-5.155247299
 20
-16.7793263486
 11
-5.6064809124
 21
-16.9877209846
  0
LINE
  5
38C
100
AcDbEntity
  8
RACCORDO
100
AcDbLine
 62
7
  6
CONTINUOUS
 10
-5.0257614715
 20
-16.7900644605
 11
-5.5331428715
 21
-17.024390005
  0
LINE
  5
38D
100
AcDbEntity
  8
DRAFT
100
AcDbLine
 62
7
  6
CONTINUOUS
 10
-3.6239222536
 20
-18.7279021537
 11
-4.1896076785
 21
-18.9744356916
  0
LINE
  5
38E
100
AcDbEntity
  8
RACCORDO
100
AcDbLine
 62
7
  6
CONTINUOUS
 10
-35.4565620149
 20
34.3686515984
 11
28.3646534381
 21
2.4580438719
  0
LINE
  5
38F
100
AcDbEntity
  8
RACCORDO
100
AcDbLine
 62
7
  6
CONTINUOUS
 10
-35.5345299706
 20
34.5309137385
 11
28.2866854634
 21
2.6203060215
  0
LINE
  5
390
100
AcDbEntity
  8
RACCORDO
100
AcDbLine
 62
7
  6
CONTINUOUS
 10
30.1064951771
 20
3.8955055527
 11
-37.3543396843
 21
37.6259229834
  0
LINE
  5
391
100
AcDbEntity
  8
RACCORDO
100
AcDbLine
 62
7
  6
CONTINUOUS
 10
30.314924997
 20
4.2594885138
 11
-37.1459098644
 21
37.9899059445
  0
LINE
  5
392
100
AcDbEntity
  8
RACCORDO
100
AcDbLine
 62
7
  6
CONTINUOUS
 10
-36.8643665977
 20
38.141804996
 11
30.6064715842
 21
4.406385905
  0
LWPOLYLINE
  5
393
100
AcDbEntity
  8
RACCORDO
100
AcDbPolyline
 62
7
  6
CONTINUOUS
 90
24
 70
0
 10
28.364660503
 20
2.4580404525
 10
28.3671485903
 20
2.4567706035
 10
28.3783995046
 20
2.4504248125
 10
28.3911148378
 20
2.4421533651
 10
28.4049393086
 20
2.4319234775
 10
28.4196531498
 20
2.4196664025
 10
28.4350115673
 20
2.4053715118
 10
28.4506570182
 20
2.3891898046
 10
28.4663297019
 20
2.3712508933
 10
28.4818419859
 20
2.3516503405
 10
28.4970030992
 20
2.3305199113
 10
28.5116176573
 20
2.3080435241
 10
28.525522524
 20
2.2844056897
 10
28.5386078244
 20
2.2597298714
 10
28.5507291939
 20
2.2342362338
 10
28.5617691979
 20
2.2081480701
 10
28.5716678571
 20
2.181587952
 10
28.5803351407
 20
2.1547816217
 10
28.5876975604
 20
2.1279738483
 10
28.5937200444
 20
2.101342049
 10
28.5983708538
 20
2.0751065953
 10
28.6016298534
 20
2.0495350234
 10
28.603502154
 20
2.0249367462
 10
28.6040395035
 20
2.0037233252
  0
LINE
  5
394
100
AcDbEntity
  8
RACCORDO
100
AcDbLine
 62
7
  6
CONTINUOUS
 10
21.5137238176
 20
-30.8076705467
 11
21.5137238176
 21
-31.2967251893
  0
LINE
  5
395
100
AcDbEntity
  8
ASSI
100
AcDbLine
 62
7
  6
CONTINUOUS
 10
13.0565695586
 20
-26.1780100501
 11
13.1391289834
 21
-25.8419263109
  0
LINE
  5
396
100
AcDbEntity
  8
RACCORDO
100
AcDbLine
 62
7
  6
CONTINUOUS
 10
2.2775474601
 20
-21.5692702605
 11
2.8333588092
 21
-21.2693972864
  0
LINE
  5
397
100
AcDbEntity
  8
RACCORDO
100
AcDbLine
 62
7
  6
CONTINUOUS
 10
2.4148410458
 20
-21.5761606123
 11
2.9706523949
 21
-21.2762876382
  0
LINE
  5
398
100
AcDbEntity
  8
RACCORDO
100
AcDbLine
 62
7
  6
CONTINUOUS
 10
4.8260037816
 20
-22.7817419803
 11
5.3916892065
 21
-22.4868060441
  0
LINE
  5
399
100
AcDbEntity
  8
RACCORDO
100
AcDbLine
 62
7
  6
CONTINUOUS
 10
5.12500278
 20
-23.1023646705
 11
5.6038212409
 21
-22.8527192584
  0
LINE
  5
39A
100
AcDbEntity
  8
RACCORDO
100
AcDbLine
 62
7
  6
CONTINUOUS
 10
1.9425054749
 20
-20.8344365093
 11
1.0072212861
 21
-21.305684719
  0
LINE
  5
39B
100
AcDbEntity
  8
RACCORDO
100
AcDbLine
 62
7
  6
CONTINUOUS
 10
2.1546052005
 20
-21.2002544233
 11
1.7392950279
 21
-21.4095107945
  0
LINE
  5
39C
100
AcDbEntity
  8
0
100
AcDbLine
 62
7
  6
CONTINUOUS
 10
-3.3519209023
 20
-22.3451320289
 11
-3.4933422585
 21
-22.415842707
  0
LINE
  5
39D
100
AcDbEntity
  8
0
100
AcDbLine
 62
7
  6
CONTINUOUS
 10
-4.8857670325
 20
-23.3967090252
 11
-5.0271883888
 21
-23.4674197034
  0
LINE
  5
39E
100
AcDbEntity
  8
0
100
AcDbLine
 62
7
  6
CONTINUOUS
 10
-2.6986793944
 20
-22.6717527829
 11
-2.8401007506
 21
-22.742463461
  0
LINE
  5
39F
100
AcDbEntity
  8
0
100
AcDbLine
 62
7
  6
CONTINUOUS
 10
-4.4224112725
 20
-23.6283869052
 11
-4.5638326288
 21
-23.6990975834
  0
LINE
  5
3A0
100
AcDbEntity
  8
0
100
AcDbLine
 62
7
  6
CONTINUOUS
 10
-2.3988540983
 20
-22.8216654309
 11
-2.5402754546
 21
-22.892376109
  0
LINE
  5
3A1
100
AcDbEntity
  8
0
100
AcDbLine
 62
7
  6
CONTINUOUS
 10
-3.9484665885
 20
-23.8653592473
 11
-4.0898879447
 21
-23.9360699254
  0
LINE
  5
3A2
100
AcDbEntity
  8
0
100
AcDbLine
 62
7
  6
CONTINUOUS
 10
-1.8522684223
 20
-23.1162043296
 11
-1.9936897785
 21
-23.1869150077
  0
LINE
  5
3A3
100
AcDbEntity
  8
0
100
AcDbLine
 62
7
  6
CONTINUOUS
 10
-2.7089119366
 20
-23.8411825996
 11
-2.8503332928
 21
-23.9118932777
  0
LINE
  5
3A4
100
AcDbEntity
  8
0
100
AcDbLine
 62
7
  6
CONTINUOUS
 10
-3.2890735736
 20
-24.2710537923
 11
-3.3544968923
 21
-24.3037654516
  0
LINE
  5
3A5
100
AcDbEntity
  8
0
100
AcDbLine
 62
7
  6
CONTINUOUS
 10
-1.0873940564
 20
-23.5177874976
 11
-1.2288154126
 21
-23.5884981757
  0
LINE
  5
3A6
100
AcDbEntity
  8
0
100
AcDbLine
 62
7
  6
CONTINUOUS
 10
-2.8578342816
 20
-24.4106754007
 11
-2.9992556378
 21
-24.4813860789
  0
LINE
  5
3A7
100
AcDbEntity
  8
0
100
AcDbLine
 62
7
  6
CONTINUOUS
 10
-1.5538566328
 20
-24.053177507
 11
-1.695277989
 21
-24.1238881851
  0
LINE
  5
3A8
100
AcDbEntity
  8
0
100
AcDbLine
 62
7
  6
CONTINUOUS
 10
-1.3767313484
 20
-24.1417401492
 11
-1.5181527046
 21
-24.2124508273
  0
LINE
  5
3A9
100
AcDbEntity
  8
0
100
AcDbLine
 62
7
  6
CONTINUOUS
 10
-1.9936897785
 20
-24.8931566752
 11
-2.0847021118
 21
-24.9386628419
  0
LINE
  5
3AA
100
AcDbEntity
  8
0
100
AcDbLine
 62
7
  6
CONTINUOUS
 10
-1.1925615191
 20
-24.5315752972
 11
-1.19685982
 21
-24.5337244476
  0
LINE
  5
3AB
100
AcDbEntity
  8
0
100
AcDbLine
 62
7
  6
CONTINUOUS
 10
-1.1538285322
 20
-24.5162860556
 11
-1.0124071759
 21
-24.4455753775
  0
LINE
  5
3AC
100
AcDbEntity
  8
0
100
AcDbLine
 62
7
  6
CONTINUOUS
 10
-1.5435796251
 20
-25.0678030734
 11
-1.6850009814
 21
-25.1385137515
  0
LINE
  5
3AD
100
AcDbEntity
  8
0
100
AcDbLine
 62
7
  6
CONTINUOUS
 10
-0.8767877731
 20
-24.9090080887
 11
-1.0182091293
 21
-24.9797187668
  0
LINE
  5
3AE
100
AcDbEntity
  8
0
100
AcDbLine
 62
7
  6
CONTINUOUS
 10
-0.7708332718
 20
-25.4541762501
 11
-0.912254628
 21
-25.5248869282
  0
LINE
  5
3AF
100
AcDbEntity
  8
RACCORDO
100
AcDbLine
 62
7
  6
CONTINUOUS
 10
5.5634959863
 20
-22.0846931894
 11
5.0735234637
 21
-22.3277231727
  0
LINE
  5
3B0
100
AcDbEntity
  8
RACCORDO
100
AcDbLine
 62
7
  6
CONTINUOUS
 10
5.7755957119
 20
-22.4505111033
 11
5.5054441288
 21
-22.5845082802
  0
LINE
  5
3B1
100
AcDbEntity
  8
RACCORDO
100
AcDbLine
 62
7
  6
CONTINUOUS
 10
3.8957195002
 20
-21.3048097482
 11
3.4444858868
 21
-21.5132043842
  0
LINE
  5
3B2
100
AcDbEntity
  8
RACCORDO
100
AcDbLine
 62
7
  6
CONTINUOUS
 10
4.0252053277
 20
-21.31554786
 11
3.5178239277
 21
-21.5498734046
  0
LINE
  5
3B3
100
AcDbEntity
  8
DRAFT
100
AcDbLine
 62
7
  6
CONTINUOUS
 10
1.6793786053
 20
-21.3795525832
 11
1.1136931804
 21
-21.6260861211
  0
LINE
  5
3B4
100
AcDbEntity
  8
DRAFT
100
AcDbLine
 62
7
  6
CONTINUOUS
 10
49.0201776058
 20
19.8793781079
 11
49.6682436313
 21
19.8793781079
  0
LINE
  5
3B5
100
AcDbEntity
  8
RACCORDO
100
AcDbLine
 62
7
  6
CONTINUOUS
 10
28.6040402695
 20
2.0036387833
 11
28.6040402695
 21
-37.5360096406
  0
LINE
  5
3B6
100
AcDbEntity
  8
RACCORDO
100
AcDbLine
 62
7
  6
CONTINUOUS
 10
28.6919082352
 20
1.8975727661
 11
28.6919082352
 21
-37.6420756505
  0
LWPOLYLINE
  5
3B7
100
AcDbEntity
  8
RACCORDO
100
AcDbPolyline
 62
7
  6
CONTINUOUS
 90
8
 70
0
 10
28.604040452
 20
-37.5361514436
 10
28.6038976836
 20
-37.5466432834
 10
28.6029968339
 20
-37.5640349546
 10
28.6013252911
 20
-37.5799710849
 10
28.5990160651
 20
-37.5940233712
 10
28.596372801
 20
-37.6054664214
 10
28.5937426275
 20
-37.6140815776
 10
28.5932464939
 20
-37.6154721436
  0
LINE
  5
3B8
100
AcDbEntity
  8
ASSI
100
AcDbLine
 62
7
  6
CONTINUOUS
 10
13.3466404949
 20
-25.7361871155
 11
13.6013453685
 21
-25.5515910647
  0
LINE
  5
3B9
100
AcDbEntity
  8
ASSI
100
AcDbLine
 62
7
  6
CONTINUOUS
 10
13.6015394475
 20
-25.0957312741
 11
12.1155042701
 21
-25.9209359069
  0
LINE
  5
3BA
100
AcDbEntity
  8
RACCORDO
100
AcDbLine
 62
7
  6
CONTINUOUS
 10
11.1077424085
 20
-25.4788114172
 11
10.2045489661
 21
-25.9661050002
  0
LINE
  5
3BB
100
AcDbEntity
  8
RACCORDO
100
AcDbLine
 62
7
  6
CONTINUOUS
 10
11.2450359942
 20
-25.485701769
 11
10.3418425519
 21
-25.9729953519
  0
LINE
  5
3BC
100
AcDbEntity
  8
ASSI
100
AcDbLine
 62
7
  6
CONTINUOUS
 10
13.3466404949
 20
-25.7361871155
 11
12.5539007677
 21
-26.1401341557
  0
LINE
  5
3BD
100
AcDbEntity
  8
ASSI
100
AcDbLine
 62
7
  6
CONTINUOUS
 10
12.9860518485
 20
-26.2765318243
 11
12.9065934933
 21
-26.3164805185
  0
LINE
  5
3BE
100
AcDbEntity
  8
ASSI
100
AcDbLine
 62
7
  6
CONTINUOUS
 10
13.0565695586
 20
-26.1780100501
 11
12.8435887499
 21
-26.2849781468
  0
LINE
  5
3BF
100
AcDbEntity
  8
ASSI
100
AcDbLine
 62
7
  6
CONTINUOUS
 10
13.6085529774
 20
-25.5175975832
 11
12.4566217632
 21
-26.0914946535
  0
LINE
  5
3C0
100
AcDbEntity
  8
ASSI
100
AcDbLine
 62
7
  6
CONTINUOUS
 10
9.344075602
 20
-22.9669993513
 11
6.9815235574
 21
-24.0306250592
  0
LINE
  5
3C1
100
AcDbEntity
  8
DRAFT
100
AcDbLine
 62
7
  6
CONTINUOUS
 10
10.1646599796
 20
-25.6221932703
 11
9.5989745546
 21
-25.8687268082
  0
LWPOLYLINE
  5
3C2
100
AcDbEntity
  8
RACCORDO
100
AcDbPolyline
 62
7
  6
CONTINUOUS
 90
6
 70
0
 10
-35.4772317453
 20
34.3766554559
 10
-35.4771866133
 20
34.376647158
 10
-35.4755066765
 20
34.376260539
 10
-35.4713744231
 20
34.3749980278
 10
-35.4650732188
 20
34.3725818347
 10
-35.4565672229
 20
34.3686543333
  0
LINE
  5
3C3
100
AcDbEntity
  8
RACCORDO
100
AcDbLine
 62
7
  6
CONTINUOUS
 10
30.3892948113
 20
-40.8496377945
 11
30.3892948113
 21
3.4077483341
  0
LINE
  5
3C4
100
AcDbEntity
  8
RACCORDO
100
AcDbLine
 62
7
  6
CONTINUOUS
 10
30.8098243568
 20
-40.8514727474
 11
30.8098243568
 21
3.4059133812
  0
LINE
  5
3C5
100
AcDbEntity
  8
RACCORDO
100
AcDbLine
 62
7
  6
CONTINUOUS
 10
31.101370944
 20
3.5528107723
 11
31.101370944
 21
-40.7168268719
  0
LINE
  5
3C6
100
AcDbEntity
  8
DRAFT
100
AcDbLine
 62
7
  6
CONTINUOUS
 10
48.3509982258
 20
21.1643719932
 11
48.6371038364
 21
21.6578311796
  0
LINE
  5
3C7
100
AcDbEntity
  8
RACCORDO
100
AcDbLine
 62
7
  6
CONTINUOUS
 10
16.0661296932
 20
-28.4635613771
 11
16.6219410423
 21
-28.163688403
  0
LINE
  5
3C8
100
AcDbEntity
  8
RACCORDO
100
AcDbLine
 62
7
  6
CONTINUOUS
 10
16.2034232789
 20
-28.4704517289
 11
16.759234628
 21
-28.1705787548
  0
LINE
  5
3C9
100
AcDbEntity
  8
RACCORDO
100
AcDbLine
 62
7
  6
CONTINUOUS
 10
15.731087708
 20
-27.7287276259
 11
14.7958035193
 21
-28.1999758356
  0
LINE
  5
3CA
100
AcDbEntity
  8
RACCORDO
100
AcDbLine
 62
7
  6
CONTINUOUS
 10
15.9431874336
 20
-28.0945455399
 11
15.527877261
 21
-28.303801911
  0
LINE
  5
3CB
100
AcDbEntity
  8
DRAFT
100
AcDbLine
 62
7
  6
CONTINUOUS
 10
15.4679608385
 20
-28.2738436997
 11
14.9022754135
 21
-28.5203772376
  0
LINE
  5
3CC
100
AcDbEntity
  8
RACCORDO
100
AcDbLine
 62
7
  6
CONTINUOUS
 10
-35.0853222062
 20
34.183031694
 11
-35.5555477771
 21
34.1965966169
  0
LINE
  5
3CD
100
AcDbEntity
  8
RACCORDO
100
AcDbLine
 62
7
  6
CONTINUOUS
 10
-35.4747413934
 20
34.3764812749
 11
-35.474685403
 21
34.3764796597
  0
LINE
  5
3CE
100
AcDbEntity
  8
SMUSSO
100
AcDbLine
 62
7
  6
CONTINUOUS
 10
42.3026631845
 20
16.5205398079
 11
-48.560558198
 21
61.9521504991
  0
LWPOLYLINE
  5
3CF
100
AcDbEntity
  8
RACCORDO
100
AcDbPolyline
 62
7
  6
CONTINUOUS
 90
3
 70
0
 10
28.5932464939
 20
-37.6154721436
 10
28.5914986738
 20
-37.6198414228
 10
28.5901927778
 20
-37.6225318946
  0
LINE
  5
3D0
100
AcDbEntity
  8
ASSI
100
AcDbLine
 62
7
  6
CONTINUOUS
 10
23.0277358224
 20
-32.0537311917
 11
23.0693587362
 21
-31.9819422845
  0
LINE
  5
3D1
100
AcDbEntity
  8
ASSI
100
AcDbLine
 62
7
  6
CONTINUOUS
 10
23.3275609532
 20
-31.9696220368
 11
23.4229121268
 21
-31.8051655892
  0
LINE
  5
3D2
100
AcDbEntity
  8
ASSI
100
AcDbLine
 62
7
  6
CONTINUOUS
 10
23.6811143438
 20
-31.7928453415
 11
23.7764655174
 21
-31.6283888939
  0
LINE
  5
3D3
100
AcDbEntity
  8
ASSI
100
AcDbLine
 62
7
  6
CONTINUOUS
 10
24.0346677344
 20
-31.6160686462
 11
24.130018908
 21
-31.4516121986
  0
LINE
  5
3D4
100
AcDbEntity
  8
ASSI
100
AcDbLine
 62
7
  6
CONTINUOUS
 10
24.388221125
 20
-31.4392919509
 11
24.4835722986
 21
-31.2748355033
  0
LINE
  5
3D5
100
AcDbEntity
  8
ASSI
100
AcDbLine
 62
7
  6
CONTINUOUS
 10
24.7417745156
 20
-31.2625152556
 11
24.8371256892
 21
-31.098058808
  0
LINE
  5
3D6
100
AcDbEntity
  8
ASSI
100
AcDbLine
 62
7
  6
CONTINUOUS
 10
25.0953279062
 20
-31.0857385603
 11
25.1906790798
 21
-30.9212821127
  0
LINE
  5
3D7
100
AcDbEntity
  8
ASSI
100
AcDbLine
 62
7
  6
CONTINUOUS
 10
27.6427163502
 20
-33.6123196159
 11
27.6655528139
 21
-33.5729325422
  0
LINE
  5
3D8
100
AcDbEntity
  8
ASSI
100
AcDbLine
 62
7
  6
CONTINUOUS
 10
27.9130401873
 20
-33.579092666
 11
28.0191062045
 21
-33.3961558469
  0
LINE
  5
3D9
100
AcDbEntity
  8
ASSI
100
AcDbLine
 62
7
  6
CONTINUOUS
 10
28.2665935779
 20
-33.4023159707
 11
28.3726595951
 21
-33.2193791516
  0
LINE
  5
3DA
100
AcDbEntity
  8
RACCORDO
100
AcDbLine
 62
7
  6
CONTINUOUS
 10
20.7359063583
 20
-30.7366932686
 11
21.3015917832
 21
-30.4417573324
  0
LINE
  5
3DB
100
AcDbEntity
  8
RACCORDO
100
AcDbLine
 62
7
  6
CONTINUOUS
 10
21.0349053567
 20
-31.0573159588
 11
21.5137238176
 21
-30.8076705467
  0
LINE
  5
3DC
100
AcDbEntity
  8
RACCORDO
100
AcDbLine
 62
7
  6
CONTINUOUS
 10
25.8326232117
 20
-32.7675712818
 11
25.2669377868
 21
-33.062507218
  0
LINE
  5
3DD
100
AcDbEntity
  8
RACCORDO
100
AcDbLine
 62
7
  6
CONTINUOUS
 10
25.9684965391
 20
-32.7752097103
 11
25.4028111141
 21
-33.0701456465
  0
LINE
  5
3DE
100
AcDbEntity
  8
ASSI
100
AcDbLine
 62
7
  6
CONTINUOUS
 10
23.0693587362
 20
-31.9819422845
 11
23.2107800924
 21
-31.9112316064
  0
LINE
  5
3DF
100
AcDbEntity
  8
ASSI
100
AcDbLine
 62
7
  6
CONTINUOUS
 10
23.4229121268
 20
-31.8051655892
 11
23.564333483
 21
-31.7344549111
  0
LINE
  5
3E0
100
AcDbEntity
  8
ASSI
100
AcDbLine
 62
7
  6
CONTINUOUS
 10
23.7764655174
 20
-31.6283888939
 11
23.9178868736
 21
-31.5576782158
  0
LINE
  5
3E1
100
AcDbEntity
  8
ASSI
100
AcDbLine
 62
7
  6
CONTINUOUS
 10
24.130018908
 20
-31.4516121986
 11
24.2714402642
 21
-31.3809015205
  0
LINE
  5
3E2
100
AcDbEntity
  8
ASSI
100
AcDbLine
 62
7
  6
CONTINUOUS
 10
24.4835722986
 20
-31.2748355033
 11
24.6249936548
 21
-31.2041248252
  0
LINE
  5
3E3
100
AcDbEntity
  8
ASSI
100
AcDbLine
 62
7
  6
CONTINUOUS
 10
24.8371256892
 20
-31.098058808
 11
24.9785470454
 21
-31.0273481299
  0
LINE
  5
3E4
100
AcDbEntity
  8
ASSI
100
AcDbLine
 62
7
  6
CONTINUOUS
 10
25.1906790798
 20
-30.9212821127
 11
25.332100436
 21
-30.8505714346
  0
LINE
  5
3E5
100
AcDbEntity
  8
ASSI
100
AcDbLine
 62
7
  6
CONTINUOUS
 10
25.2539781787
 20
-30.8353480993
 11
22.8002849469
 21
-31.940005754
  0
LINE
  5
3E6
100
AcDbEntity
  8
SMUSSO
100
AcDbLine
 62
7
  6
CONTINUOUS
 10
47.2524106528
 20
20.6560320588
 11
-50.6818785415
 21
69.623176656
  0
LINE
  5
3E7
100
AcDbEntity
  8
SMUSSO
100
AcDbLine
 62
7
  6
CONTINUOUS
 10
-49.6212183698
 20
70.1535067419
 11
48.3130708246
 21
21.1863621447
  0
LINE
  5
3E8
100
AcDbEntity
  8
DRAFT
100
AcDbLine
 62
7
  6
CONTINUOUS
 10
48.6371038364
 20
21.6578311796
 11
-48.5193678977
 21
70.2360670467
  0
LINE
  5
3E9
100
AcDbEntity
  8
SMUSSO
100
AcDbLine
 62
7
  6
CONTINUOUS
 10
42.3026631845
 20
-64.8858481479
 11
42.3026631845
 21
16.5205398079
  0
LINE
  5
3EA
100
AcDbEntity
  8
RACCORDO
100
AcDbLine
 62
7
  6
CONTINUOUS
 10
28.5903450538
 20
-37.6223274465
 11
28.5915445808
 21
-37.6207144087
  0
LINE
  5
3EB
100
AcDbEntity
  8
RACCORDO
100
AcDbLine
 62
7
  6
CONTINUOUS
 10
28.4262675968
 20
-37.6456592908
 11
28.6040402695
 21
-37.4225048007
  0
LINE
  5
3EC
100
AcDbEntity
  8
RACCORDO
100
AcDbLine
 62
7
  6
CONTINUOUS
 10
28.5915486431
 20
-37.6207138898
 11
28.5915273783
 21
-37.6207405628
  0
LINE
  5
3ED
100
AcDbEntity
  8
ASSI
100
AcDbLine
 62
7
  6
CONTINUOUS
 10
28.6040402695
 20
-33.4679658945
 11
28.0117802723
 21
-33.7968515769
  0
LINE
  5
3EE
100
AcDbEntity
  8
ASSI
100
AcDbLine
 62
7
  6
CONTINUOUS
 10
28.6040402695
 20
-34.0236265669
 11
28.5353418947
 21
-34.0586323881
  0
LINE
  5
3EF
100
AcDbEntity
  8
ASSI
100
AcDbLine
 62
7
  6
CONTINUOUS
 10
27.6655528139
 20
-33.5729325422
 11
27.8069741702
 21
-33.502221864
  0
LINE
  5
3F0
100
AcDbEntity
  8
ASSI
100
AcDbLine
 62
7
  6
CONTINUOUS
 10
28.0191062045
 20
-33.3961558469
 11
28.1605275608
 21
-33.3254451687
  0
LINE
  5
3F1
100
AcDbEntity
  8
ASSI
100
AcDbLine
 62
7
  6
CONTINUOUS
 10
28.3726595951
 20
-33.2193791516
 11
28.5140809513
 21
-33.1486684734
  0
LINE
  5
3F2
100
AcDbEntity
  8
ASSI
100
AcDbLine
 62
7
  6
CONTINUOUS
 10
28.6040402695
 20
-33.2335926249
 11
27.7446513189
 21
-33.6632871002
  0
LINE
  5
3F3
100
AcDbEntity
  8
ASSI
100
AcDbLine
 62
7
  6
CONTINUOUS
 10
28.6040402695
 20
-33.9281144872
 11
28.4388765948
 21
-34.0103997382
  0
LINE
  5
3F4
100
AcDbEntity
  8
DRAFT
100
AcDbLine
 62
7
  6
CONTINUOUS
 10
-46.828146585
 20
71.1178326353
 11
50.328325151
 21
22.5395967673
  0
LINE
  5
3F5
100
AcDbEntity
  8
SMUSSO
100
AcDbLine
 62
7
  6
CONTINUOUS
 10
48.7373348933
 20
20.8860221658
 11
48.4544921808
 21
21.0981542002
  0
LINE
  5
3F6
100
AcDbEntity
  8
SMUSSO
100
AcDbLine
 62
7
  6
CONTINUOUS
 10
47.959517434
 20
-70.6301887292
 11
47.959517434
 21
19.4364532644
  0
LINE
  5
3F7
100
AcDbEntity
  8
SMUSSO
100
AcDbLine
 62
7
  6
CONTINUOUS
 10
49.0201776058
 20
20.3203367409
 11
49.0201776058
 21
-70.0998586433
  0
LINE
  5
3F8
100
AcDbEntity
  8
DRAFT
100
AcDbLine
 62
7
  6
CONTINUOUS
 10
49.6682436313
 20
-69.2346359404
 11
49.6682436313
 21
19.8793781079
  0
LINE
  5
3F9
100
AcDbEntity
  8
DRAFT
100
AcDbLine
 62
7
  6
CONTINUOUS
 10
51.3889853227
 20
21.417335357
 11
51.3889853227
 21
-68.4037854736
  0
LINE
  5
3FA
100
AcDbEntity
  8
RACCORDO
100
AcDbLine
 62
7
  6
CONTINUOUS
 10
30.8098243568
 20
-40.8514727474
 11
31.101370944
 21
-40.7168268719
  0
LINE
  5
3FB
100
AcDbEntity
  8
RACCORDO
100
AcDbLine
 62
7
  6
CONTINUOUS
 10
30.6190868967
 20
-41.2342673775
 11
30.9121452505
 21
-41.0989233181
  0
LINE
  5
3FC
100
AcDbEntity
  8
SMUSSO
100
AcDbLine
 62
7
  6
CONTINUOUS
 10
51.1061432619
 20
21.9830202932
 11
50.5404571853
 21
22.4072848506
  0
LINE
  5
3FD
100
AcDbEntity
  8
SMUSSO
100
AcDbLine
 62
7
  6
CONTINUOUS
 10
47.959517434
 20
-70.6301887292
 11
49.0201776058
 21
-70.0998586433
  0
LINE
  5
3FE
100
AcDbEntity
  8
RACCORDO
100
AcDbLine
 62
7
  6
CONTINUOUS
 10
47.6856396803
 20
-71.1780548136
 11
48.7602844201
 21
-70.6407324437
  0
LINE
  5
3FF
100
AcDbEntity
  8
DRAFT
100
AcDbLine
 62
7
  6
CONTINUOUS
 10
49.6682436313
 20
-69.2346359404
 11
51.3889853227
 21
-68.4037854736
  0
LINE
  5
400
100
AcDbEntity
  8
DRAFT
100
AcDbLine
 62
7
  6
CONTINUOUS
 10
49.2783951254
 20
-70.0286465387
 11
50.9879758906
 21
-69.2205277053
  0
ARC
  5
401
100
AcDbEntity
  8
DRAFT
100
AcDbCircle
 62
7
  6
CONTINUOUS
 10
49.026775114
 20
-69.4196963472
 40
0.6634370266
100
AcDbArc
 50
269.4440133824
 51
271.6256308861
  0
ARC
  5
402
100
AcDbEntity
  8
IMPORT_IGES
100
AcDbCircle
 62
7
  6
CONTINUOUS
 10
-1.1590431154
 20
-23.6817980082
 40
0.5088565022
100
AcDbArc
 50
244.6720486628
 51
247.0404098965
  0
ARC
  5
403
100
AcDbEntity
  8
0
100
AcDbCircle
 62
7
  6
CONTINUOUS
 10
-1.4185407721
 20
-24.7578239088
 40
0.3152189922
100
AcDbArc
 50
42.2221610431
 51
45.3108458888
  0
ARC
  5
404
100
AcDbEntity
  8
RACCORDO
100
AcDbCircle
 62
7
  6
CONTINUOUS
 10
-3.4911593778
 20
-17.8208249237
 40
0.2999860163
100
AcDbArc
 50
359.9999782123
 51
63.4464452758
  0
ARC
  5
405
100
AcDbEntity
  8
RACCORDO
100
AcDbCircle
 62
7
  6
CONTINUOUS
 10
5.5598074214
 20
-22.3463083233
 40
0.2999860163
100
AcDbArc
 50
359.9999782123
 51
63.4464452758
  0
ARC
  5
406
100
AcDbEntity
  8
RACCORDO
100
AcDbCircle
 62
7
  6
CONTINUOUS
 10
-5.0294535388
 20
-17.0516203619
 40
0.2999366603
100
AcDbArc
 50
63.4376202806
 51
114.7714837855
  0
ARC
  5
407
100
AcDbEntity
  8
RACCORDO
100
AcDbCircle
 62
7
  6
CONTINUOUS
 10
4.0215132603
 20
-21.5771037615
 40
0.2999366603
100
AcDbArc
 50
63.4376202806
 51
114.7714837855
  0
ARC
  5
408
100
AcDbEntity
  8
RACCORDO
100
AcDbCircle
 62
7
  6
CONTINUOUS
 10
-29.0677129137
 20
15.0176832928
 40
0.2500031208
100
AcDbArc
 50
298.3482651455
 51
0.0019330358
  0
ARC
  5
409
100
AcDbEntity
  8
RACCORDO
100
AcDbCircle
 62
7
  6
CONTINUOUS
 10
-29.0676985783
 20
20.5031768315
 40
0.2499883484
100
AcDbArc
 50
359.9999783872
 51
63.4464435507
  0
ARC
  5
40A
100
AcDbEntity
  8
RACCORDO
100
AcDbCircle
 62
7
  6
CONTINUOUS
 10
-29.4457601234
 20
20.6927328941
 40
0.2491796562
100
AcDbArc
 50
63.4508113349
 51
114.7789325735
  0
ARC
  5
40B
100
AcDbEntity
  8
RACCORDO
100
AcDbCircle
 62
7
  6
CONTINUOUS
 10
-34.1123811379
 20
-4.7251245428
 40
0.1748204284
100
AcDbArc
 50
236.3170244967
 51
243.5767101439
  0
ARC
  5
40C
100
AcDbEntity
  8
RACCORDO
100
AcDbCircle
 62
7
  6
CONTINUOUS
 10
-34.2706970653
 20
-4.473522656
 40
0.1092491829
100
AcDbArc
 50
179.9653182336
 51
186.2910223118
  0
ARC
  5
40D
100
AcDbEntity
  8
RACCORDO
100
AcDbCircle
 62
7
  6
CONTINUOUS
 10
-29.5109278978
 20
20.8339048549
 40
0.0936883334
100
AcDbArc
 50
109.5195127964
 51
114.778830694
  0
ARC
  5
40E
100
AcDbEntity
  8
ASSI
100
AcDbCircle
 62
7
  6
CONTINUOUS
 10
-22.4356439904
 20
-7.0485422645
 40
0.0874961196
100
AcDbArc
 50
105.061869074
 51
111.6611297249
  0
ARC
  5
40F
100
AcDbEntity
  8
ASSI
100
AcDbCircle
 62
7
  6
CONTINUOUS
 10
25.2940637397
 20
-30.9133961295
 40
0.0874961196
100
AcDbArc
 50
105.061869074
 51
111.6611297249
  0
SPLINE
  5
410
100
AcDbEntity
  8
0
100
AcDbSpline
 62
7
  6
CONTINUOUS
 70
0
 71
3
 72
11
 73
7
 74
5
 42
0.0000001
 43
0.0000001
 44
0.0000000001
 12
0.3138156219
 22
-0.2015300707
 32
0.0
 13
0.0047321734
 23
-0.3729238803
 33
0.0
 40
0.0
 40
0.0
 40
0.0
 40
0.0
 40
0.2339806254
 40
0.4918424311
 40
0.7556842856
 40
1.0
 40
1.0
 40
1.0
 40
1.0
 10
-1.4524711574
 20
-23.7353729262
 30
0.0
 10
-1.4279955656
 20
-23.7510909702
 30
0.0
 10
-1.3812521432
 20
-23.791593525
 30
0.0
 10
-1.3251003621
 20
-23.8679656064
 30
0.0
 10
-1.2887084839
 20
-23.9568207847
 30
0.0
 10
-1.2777799753
 20
-24.0198653006
 30
0.0
 10
-1.2773945939
 20
-24.0502356887
 30
0.0
 11
-1.4524711574
 21
-23.7353729262
 31
0.0
 11
-1.3858293717
 21
-23.7917100891
 31
0.0
 11
-1.3289602133
 21
-23.8692644363
 31
0.0
 11
-1.2913428055
 21
-23.960191098
 31
0.0
 11
-1.2773945939
 21
-24.0502356887
 31
0.0
  0
SPLINE
  5
411
100
AcDbEntity
  8
0
100
AcDbSpline
 62
7
  6
CONTINUOUS
 70
0
 71
3
 72
9
 73
5
 74
3
 42
0.0000001
 43
0.0000001
 44
0.0000000001
 12
0.0022754042
 22
-0.1817426603
 32
0.0
 13
-0.1323383517
 23
-0.1245878514
 33
0.0
 40
0.0
 40
0.0
 40
0.0
 40
0.0
 40
0.5440158403
 40
1.0
 40
1.0
 40
1.0
 40
1.0
 10
-1.2773945939
 20
-24.0502356887
 30
0.0
 10
-1.2769819752
 20
-24.0831926507
 30
0.0
 10
-1.283289828
 20
-24.1437704665
 30
0.0
 10
-1.3104429569
 20
-24.2016534721
 30
0.0
 10
-1.3305576877
 20
-24.2205901677
 30
0.0
 11
-1.2773945939
 21
-24.0502356887
 31
0.0
 11
-1.2900143458
 21
-24.1483056956
 31
0.0
 11
-1.3305576877
 21
-24.2205901677
 31
0.0
  0
SPLINE
  5
412
100
AcDbEntity
  8
0
100
AcDbSpline
 62
7
  6
CONTINUOUS
 70
0
 71
3
 72
8
 73
4
 74
2
 42
0.0000001
 43
0.0000001
 44
0.0000000001
 12
-0.018789489
 22
-0.0176890677
 32
0.0
 13
-0.0230815613
 23
-0.0115407774
 33
0.0
 40
0.0
 40
0.0
 40
0.0
 40
0.0
 40
1.0
 40
1.0
 40
1.0
 40
1.0
 10
-1.3305576877
 20
-24.2205901677
 30
0.0
 10
-1.3368208507
 20
-24.2264865236
 30
0.0
 10
-1.3439449829
 20
-24.2316272323
 30
0.0
 10
-1.3516388367
 20
-24.2354741581
 30
0.0
 11
-1.3305576877
 21
-24.2205901677
 31
0.0
 11
-1.3516388367
 21
-24.2354741581
 31
0.0
  0
SPLINE
  5
413
100
AcDbEntity
  8
0
100
AcDbSpline
 62
7
  6
CONTINUOUS
 70
0
 71
3
 72
10
 73
6
 74
4
 42
0.0000001
 43
0.0000001
 44
0.0000000001
 12
0.257046478
 22
-0.0748047261
 32
0.0
 13
0.2252633536
 23
-0.1446549704
 33
0.0
 40
0.0
 40
0.0
 40
0.0
 40
0.0
 40
0.2362920832
 40
0.4814109498
 40
1.0
 40
1.0
 40
1.0
 40
1.0
 10
-1.695277989
 20
-23.6246743525
 30
0.0
 10
-1.6750319731
 20
-23.630566274
 30
0.0
 10
-1.6340037375
 20
-23.6434359406
 30
0.0
 10
-1.5513084039
 20
-23.6771960352
 30
0.0
 10
-1.4914108602
 20
-23.7103674316
 30
0.0
 10
-1.4524711574
 20
-23.7353729262
 30
0.0
 11
-1.695277989
 21
-23.6246743525
 31
0.0
 11
-1.6350493871
 21
-23.6440149473
 31
0.0
 11
-1.574258686
 21
-23.6687247841
 31
0.0
 11
-1.4524711574
 21
-23.7353729262
 31
0.0
  0
SPLINE
  5
414
100
AcDbEntity
  8
0
100
AcDbSpline
 62
7
  6
CONTINUOUS
 70
0
 71
3
 72
10
 73
6
 74
4
 42
0.0000001
 43
0.0000001
 44
0.0000000001
 12
0.2763115484
 22
-0.1381557742
 32
0.0
 13
0.0793323206
 23
-0.2985656924
 33
0.0
 40
0.0
 40
0.0
 40
0.0
 40
0.0
 40
0.2224105364
 40
0.6042534692
 40
1.0
 40
1.0
 40
1.0
 40
1.0
 10
-1.5188207658
 20
-24.509943231
 30
0.0
 10
-1.4983358992
 20
-24.5201856642
 30
0.0
 10
-1.4467304011
 20
-24.5566458781
 30
0.0
 10
-1.3857545382
 20
-24.6420432524
 30
0.0
 10
-1.3563694302
 20
-24.7172477474
 30
0.0
 10
-1.3459042667
 20
-24.756633193
 30
0.0
 11
-1.5188207658
 21
-24.509943231
 31
0.0
 11
-1.4623462781
 21
-24.5490771935
 31
0.0
 11
-1.3909498498
 21
-24.6429780469
 31
0.0
 11
-1.3459042667
 21
-24.756633193
 31
0.0
  0
SPLINE
  5
415
100
AcDbEntity
  8
0
100
AcDbSpline
 62
7
  6
CONTINUOUS
 70
0
 71
3
 72
9
 73
5
 74
3
 42
0.0000001
 43
0.0000001
 44
0.0000000001
 12
0.1629167104
 22
-0.6125703128
 32
0.0
 13
0.1303220388
 23
-0.6203228263
 33
0.0
 40
0.0
 40
0.0
 40
0.0
 40
0.0
 40
0.5011449125
 40
1.0
 40
1.0
 40
1.0
 40
1.0
 10
-1.3459042667
 20
-24.756633193
 30
0.0
 10
-1.3186893065
 20
-24.858962025
 30
0.0
 10
-1.2767586099
 20
-25.0662260935
 30
0.0
 10
-1.2320475284
 20
-25.2726753808
 30
0.0
 10
-1.2103769244
 20
-25.37582578
 30
0.0
 11
-1.3459042667
 21
-24.756633193
 31
0.0
 11
-1.2759643128
 21
-25.0664960627
 31
0.0
 11
-1.2103769244
 21
-25.37582578
 31
0.0
  0
SPLINE
  5
416
100
AcDbEntity
  8
0
100
AcDbSpline
 62
7
  6
CONTINUOUS
 70
0
 71
3
 72
9
 73
5
 74
3
 42
0.0000001
 43
0.0000001
 44
0.0000000001
 12
0.0421357037
 22
-0.0144090793
 32
0.0
 13
0.039830055
 23
0.0199149644
 33
0.0
 40
0.0
 40
0.0
 40
0.0
 40
0.0
 40
0.5094570825
 40
1.0
 40
1.0
 40
1.0
 40
1.0
 10
-1.19685982
 20
-24.5229786953
 30
0.0
 10
-1.1897043758
 20
-24.5254256312
 30
0.0
 10
-1.173939851
 20
-24.5259539041
 30
0.0
 10
-1.1603416503
 20
-24.5195426044
 30
0.0
 10
-1.1538288665
 20
-24.5162862228
 30
0.0
 11
-1.19685982
 21
-24.5229786953
 31
0.0
 11
-1.1742039401
 21
-24.524162754
 31
0.0
 11
-1.1538288665
 21
-24.5162862228
 31
0.0
  0
SPLINE
  5
417
100
AcDbEntity
  8
0
100
AcDbSpline
 62
7
  6
CONTINUOUS
 70
0
 71
3
 72
9
 73
5
 74
3
 42
0.0000001
 43
0.0000001
 44
0.0000000001
 12
-0.1087199623
 22
0.5446236221
 32
0.0
 13
-0.1090135263
 23
0.5445649374
 33
0.0
 40
0.0
 40
0.0
 40
0.0
 40
0.0
 40
0.4998343578
 40
1.0
 40
1.0
 40
1.0
 40
1.0
 10
-0.912254628
 20
-25.5248869282
 30
0.0
 10
-0.9303686188
 20
-25.4341463954
 30
0.0
 10
-0.9647699864
 20
-25.2522444513
 30
0.0
 10
-1.0000341892
 20
-25.0705096573
 30
0.0
 10
-1.0182091293
 20
-24.9797187668
 30
0.0
 11
-0.912254628
 21
-25.5248869282
 31
0.0
 11
-0.9649741557
 21
-25.2523464724
 31
0.0
 11
-1.0182091293
 21
-24.9797187668
 31
0.0
  0
SPLINE
  5
418
100
AcDbEntity
  8
0
100
AcDbSpline
 62
7
  6
CONTINUOUS
 70
0
 71
3
 72
11
 73
7
 74
5
 42
0.0000001
 43
0.0000001
 44
0.0000000001
 12
-0.0921986666
 22
0.4605903784
 32
0.0
 13
-0.3158047812
 23
0.3477232103
 33
0.0
 40
0.0
 40
0.0
 40
0.0
 40
0.0
 40
0.2378385493
 40
0.4940954724
 40
0.7548551718
 40
1.0
 40
1.0
 40
1.0
 40
1.0
 10
-1.0182091293
 20
-24.9797187668
 30
0.0
 10
-1.025518595
 20
-24.9432033843
 30
0.0
 10
-1.0401493148
 20
-24.8672206863
 30
0.0
 10
-1.0715417242
 20
-24.7530534684
 30
0.0
 10
-1.116055452
 20
-24.6420595244
 30
0.0
 10
-1.1593010388
 20
-24.5744086998
 30
0.0
 10
-1.1851070084
 20
-24.5459945176
 30
0.0
 11
-1.0182091293
 21
-24.9797187668
 31
0.0
 11
-1.0409750383
 21
-24.8703436032
 31
0.0
 11
-1.0734904696
 21
-24.7544474559
 31
0.0
 11
-1.1206067075
 21
-24.6413860033
 31
0.0
 11
-1.1851070084
 21
-24.5459945176
 31
0.0
  0
SPLINE
  5
419
100
AcDbEntity
  8
RACCORDO
100
AcDbSpline
 62
7
  6
CONTINUOUS
 70
0
 71
3
 72
15
 73
11
 74
9
 42
0.0000001
 43
0.0000001
 44
0.0000000001
 12
-0.000001415
 22
0.4373931235
 32
0.0
 13
0.3912229003
 23
-0.195594956
 33
0.0
 40
0.0
 40
0.0
 40
0.0
 40
0.0
 40
0.14879548
 40
0.2840515227
 40
0.4066342785
 40
0.5199167541
 40
0.6296856686
 40
0.7427994542
 40
0.8650889314
 40
1.0
 40
1.0
 40
1.0
 40
1.0
 10
-37.6371393184
 20
37.4209653989
 30
0.0
 10
-37.6371393886
 20
37.4426594388
 30
0.0
 10
-37.633988486
 20
37.4841930347
 30
0.0
 10
-37.6183564641
 20
37.5418121267
 30
0.0
 10
-37.592295745
 20
37.589910661
 30
0.0
 10
-37.5563125457
 20
37.6263082795
 30
0.0
 10
-37.5117774666
 20
37.648811889
 30
0.0
 10
-37.4611834395
 20
37.65614051
 30
0.0
 10
-37.4071451318
 20
37.648518183
 30
0.0
 10
-37.3719331174
 20
37.6347189582
 30
0.0
 10
-37.3543396843
 20
37.6259229834
 30
0.0
 11
-37.6371393184
 21
37.4209653989
 31
0.0
 11
-37.63170655
 21
37.4858203705
 31
0.0
 11
-37.615614478
 21
37.5427497853
 31
0.0
 11
-37.5894838386
 21
37.5895681233
 31
0.0
 11
-37.5543144181
 21
37.6244710296
 31
0.0
 11
-37.5114585291
 21
37.6461168394
 31
0.0
 11
-37.4625637442
 21
37.6536729389
 31
0.0
 11
-37.4095114401
 21
37.6468552537
 31
0.0
 11
-37.3543396843
 21
37.6259229834
 31
0.0
  0
SPLINE
  5
41A
100
AcDbEntity
  8
0
100
AcDbSpline
 62
7
  6
CONTINUOUS
 70
0
 71
3
 72
11
 73
7
 74
5
 42
0.0000001
 43
0.0000001
 44
0.0000000001
 12
-0.6333494509
 22
0.5969143223
 32
0.0
 13
-0.8289470693
 23
0.2651131674
 33
0.0
 40
0.0
 40
0.0
 40
0.0
 40
0.0
 40
0.2725542141
 40
0.5262218346
 40
0.7671916502
 40
1.0
 40
1.0
 40
1.0
 40
1.0
 10
-1.2288154126
 20
-23.5884981757
 30
0.0
 10
-1.2863560999
 20
-23.5342676711
 30
0.0
 10
-1.4095945313
 20
-23.4423702061
 30
0.0
 10
-1.6048318206
 20
-23.3348297739
 30
0.0
 10
-1.7991989117
 20
-23.251862384
 30
0.0
 10
-1.9293611788
 20
-23.2074885274
 30
0.0
 10
-1.9936897785
 20
-23.1869150077
 30
0.0
 11
-1.2288154126
 21
-23.5884981757
 31
0.0
 11
-1.4168817295
 21
-23.4439368897
 31
0.0
 11
-1.6097163902
 21
-23.3364479602
 31
0.0
 11
-1.8023038537
 21
-23.2534309749
 31
0.0
 11
-1.9936897785
 21
-23.1869150077
 31
0.0
  0
SPLINE
  5
41B
100
AcDbEntity
  8
0
100
AcDbSpline
 62
7
  6
CONTINUOUS
 70
0
 71
3
 72
9
 73
5
 74
3
 42
0.0000001
 43
0.0000001
 44
0.0000000001
 12
-0.1087199623
 22
0.5446236221
 32
0.0
 13
-0.1090135263
 23
0.5445649374
 33
0.0
 40
0.0
 40
0.0
 40
0.0
 40
0.0
 40
0.4998343578
 40
1.0
 40
1.0
 40
1.0
 40
1.0
 10
-0.7708332718
 20
-25.4541762501
 30
0.0
 10
-0.7889472626
 20
-25.3634357173
 30
0.0
 10
-0.8233486302
 20
-25.1815337732
 30
0.0
 10
-0.8586128329
 20
-24.9997989792
 30
0.0
 10
-0.8767877731
 20
-24.9090080887
 30
0.0
 11
-0.7708332718
 21
-25.4541762501
 31
0.0
 11
-0.8235527994
 21
-25.1816357943
 31
0.0
 11
-0.8767877731
 21
-24.9090080887
 31
0.0
  0
SPLINE
  5
41C
100
AcDbEntity
  8
RACCORDO
100
AcDbSpline
 62
7
  6
CONTINUOUS
 70
0
 71
3
 72
11
 73
7
 74
5
 42
0.0000001
 43
0.0000001
 44
0.0000000001
 12
0.5252094582
 22
-0.2626021805
 32
0.0
 13
0.0000165042
 23
-0.5872008855
 33
0.0
 40
0.0
 40
0.0
 40
0.0
 40
0.0
 40
0.2296744152
 40
0.4882138292
 40
0.7532078385
 40
1.0
 40
1.0
 40
1.0
 40
1.0
 10
30.1064951771
 20
3.8955055527
 30
0.0
 10
30.1467042355
 20
3.8754012187
 30
0.0
 10
30.223538144
 20
3.8152931742
 30
0.0
 10
30.3122661208
 20
3.6959587755
 30
0.0
 10
30.3726272614
 20
3.5563995635
 30
0.0
 10
30.3892934536
 20
3.4560538593
 30
0.0
 10
30.3892948113
 20
3.4077483341
 30
0.0
 11
30.1064951771
 21
3.8955055527
 31
0.0
 11
30.2147191915
 21
3.8150311076
 31
0.0
 11
30.3064699527
 21
3.6940787931
 31
0.0
 11
30.3677702676
 21
3.5510574683
 31
0.0
 11
30.3892948113
 21
3.4077483341
 31
0.0
  0
SPLINE
  5
41D
100
AcDbEntity
  8
0
100
AcDbSpline
 62
7
  6
CONTINUOUS
 70
0
 71
3
 72
11
 73
7
 74
5
 42
0.0000001
 43
0.0000001
 44
0.0000000001
 12
-0.0752825898
 22
0.3760839262
 32
0.0
 13
-0.1936567563
 23
0.3310644176
 33
0.0
 40
0.0
 40
0.0
 40
0.0
 40
0.0
 40
0.2349491592
 40
0.4840459814
 40
0.7442103085
 40
1.0
 40
1.0
 40
1.0
 40
1.0
 10
-0.8767877731
 20
-24.9090080887
 30
0.0
 10
-0.8826836334
 20
-24.8795545546
 30
0.0
 10
-0.8943777876
 20
-24.8187798297
 30
0.0
 10
-0.9173306819
 20
-24.7263616532
 30
0.0
 10
-0.9484800333
 20
-24.6335238928
 30
0.0
 10
-0.976632405
 20
-24.5735489205
 30
0.0
 10
-0.9931442057
 20
-24.5453212988
 30
0.0
 11
-0.8767877731
 21
-24.9090080887
 31
0.0
 11
-0.8947981012
 21
-24.8207127058
 31
0.0
 11
-0.9181923366
 21
-24.7280813947
 31
0.0
 11
-0.9504748417
 21
-24.6336630731
 31
0.0
 11
-0.9931442057
 21
-24.5453212988
 31
0.0
  0
SPLINE
  5
41E
100
AcDbEntity
  8
0
100
AcDbSpline
 62
7
  6
CONTINUOUS
 70
0
 71
3
 72
9
 73
5
 74
3
 42
0.0000001
 43
0.0000001
 44
0.0000000001
 12
-0.0503084761
 22
0.0860044682
 32
0.0
 13
-0.0699948064
 23
0.0709114829
 33
0.0
 40
0.0
 40
0.0
 40
0.0
 40
0.0
 40
0.2578691857
 40
1.0
 40
1.0
 40
1.0
 40
1.0
 10
-0.9931442057
 20
-24.5453212988
 30
0.0
 10
-0.9974685409
 20
-24.5379286647
 30
0.0
 10
-1.0149216241
 20
-24.5096834553
 30
0.0
 10
-1.0354681294
 20
-24.4832127204
 30
0.0
 10
-1.0527832302
 20
-24.4656708549
 30
0.0
 11
-0.9931442057
 21
-24.5453212988
 31
0.0
 11
-1.0066754674
 21
-24.5234795228
 31
0.0
 11
-1.0527832302
 21
-24.4656708549
 31
0.0
  0
SPLINE
  5
41F
100
AcDbEntity
  8
RACCORDO
100
AcDbSpline
 62
7
  6
CONTINUOUS
 70
0
 71
3
 72
15
 73
11
 74
9
 42
0.0000001
 43
0.0000001
 44
0.0000000001
 12
0.000001415
 22
-0.4373931235
 32
0.0
 13
-0.3912229003
 23
0.195594956
 33
0.0
 40
0.0
 40
0.0
 40
0.0
 40
0.0
 40
0.14879548
 40
0.2840515227
 40
0.4066342785
 40
0.5199167541
 40
0.6296856686
 40
0.7427994542
 40
0.8650889314
 40
1.0
 40
1.0
 40
1.0
 40
1.0
 10
30.3892948113
 20
-40.8496377945
 30
0.0
 10
30.3892948814
 20
-40.8713318344
 30
0.0
 10
30.3861439789
 20
-40.9128654303
 30
0.0
 10
30.370511957
 20
-40.9704845223
 30
0.0
 10
30.3444512378
 20
-41.0185830566
 30
0.0
 10
30.3084680385
 20
-41.0549806751
 30
0.0
 10
30.2639329595
 20
-41.0774842846
 30
0.0
 10
30.2133389323
 20
-41.0848129056
 30
0.0
 10
30.1593006246
 20
-41.0771905786
 30
0.0
 10
30.1240886103
 20
-41.0633913538
 30
0.0
 10
30.1064951771
 20
-41.054595379
 30
0.0
 11
30.3892948113
 21
-40.8496377945
 31
0.0
 11
30.3838620429
 21
-40.9144927661
 31
0.0
 11
30.3677699708
 21
-40.9714221809
 31
0.0
 11
30.3416393315
 21
-41.0182405189
 31
0.0
 11
30.306469911
 21
-41.0531434252
 31
0.0
 11
30.2636140219
 21
-41.074789235
 31
0.0
 11
30.2147192371
 21
-41.0823453345
 31
0.0
 11
30.1616669329
 21
-41.0755276492
 31
0.0
 11
30.1064951771
 21
-41.054595379
 31
0.0
  0
SPLINE
  5
420
100
AcDbEntity
  8
RACCORDO
100
AcDbSpline
 62
7
  6
CONTINUOUS
 70
0
 71
3
 72
9
 73
5
 74
3
 42
0.0000001
 43
0.0000001
 44
0.0000000001
 12
-0.0370302827
 22
-0.0464503171
 32
0.0
 13
-0.052087852
 23
-0.0285609782
 33
0.0
 40
0.0
 40
0.0
 40
0.0
 40
0.0
 40
0.2638306818
 40
1.0
 40
1.0
 40
1.0
 40
1.0
 10
28.5915281175
 20
-37.6207392749
 30
0.0
 10
28.5882715426
 20
-37.6248242812
 30
0.0
 10
28.5753515798
 20
-37.6398108666
 30
0.0
 10
28.5597388544
 20
-37.6526935174
 30
0.0
 10
28.5469570283
 20
-37.6597020894
 30
0.0
 11
28.5915281175
 21
-37.6207392749
 31
0.0
 11
28.5812667433
 21
-37.6325856755
 31
0.0
 11
28.5469570283
 21
-37.6597020894
 31
0.0
  0
SPLINE
  5
421
100
AcDbEntity
  8
RACCORDO
100
AcDbSpline
 62
7
  6
CONTINUOUS
 70
0
 71
3
 72
10
 73
6
 74
4
 42
0.0000001
 43
0.0000001
 44
0.0000000001
 12
-0.1122910515
 22
-0.0615717898
 32
0.0
 13
-0.1024031095
 23
0.0769023324
 33
0.0
 40
0.0
 40
0.0
 40
0.0
 40
0.0
 40
0.2455578271
 40
0.4860287336
 40
1.0
 40
1.0
 40
1.0
 40
1.0
 10
28.5469570283
 20
-37.6597020894
 30
0.0
 10
28.5377657127
 20
-37.664741901
 30
0.0
 10
28.5180119893
 20
-37.672267817
 30
0.0
 10
28.4746344525
 20
-37.6738347695
 30
0.0
 10
28.4438114568
 20
-37.65883477
 30
0.0
 10
28.4262673715
 20
-37.6456595736
 30
0.0
 11
28.5469570283
 21
-37.6597020894
 31
0.0
 11
28.5174659982
 21
-37.6706199185
 31
0.0
 11
28.4866915446
 21
-37.6717621763
 31
0.0
 11
28.4262673715
 21
-37.6456595736
 31
0.0
  0
SPLINE
  5
422
100
AcDbEntity
  8
0
100
AcDbSpline
 62
7
  6
CONTINUOUS
 70
0
 71
3
 72
9
 73
5
 74
3
 42
0.0000001
 43
0.0000001
 44
0.0000000001
 12
-0.0819614393
 22
0.0180243464
 32
0.0
 13
-0.0758721094
 23
0.03586053
 33
0.0
 40
0.0
 40
0.0
 40
0.0
 40
0.0
 40
0.2423846414
 40
1.0
 40
1.0
 40
1.0
 40
1.0
 10
-1.2978268731
 20
-24.1699991847
 30
0.0
 10
-1.3044489377
 20
-24.1685429098
 30
0.0
 10
-1.3315239398
 20
-24.1614145691
 30
0.0
 10
-1.3575707232
 20
-24.1507963119
 30
0.0
 10
-1.3767313484
 20
-24.1417401492
 30
0.0
 11
-1.2978268731
 21
-24.1699991847
 31
0.0
 11
-1.3175136589
 21
-24.1648822755
 31
0.0
 11
-1.3767313484
 21
-24.1417401492
 31
0.0
  0
SPLINE
  5
423
100
AcDbEntity
  8
0
100
AcDbSpline
 62
7
  6
CONTINUOUS
 70
0
 71
3
 72
10
 73
6
 74
4
 42
0.0000001
 43
0.0000001
 44
0.0000000001
 12
-0.1538658195
 22
-0.076932888
 32
0.0
 13
-0.1555300041
 23
0.0735103903
 33
0.0
 40
0.0
 40
0.0
 40
0.0
 40
0.0
 40
0.4571693219
 40
0.7225207019
 40
1.0
 40
1.0
 40
1.0
 40
1.0
 10
-1.3516388367
 20
-24.2354741581
 30
0.0
 10
-1.3750864141
 20
-24.2471979435
 30
0.0
 10
-1.4202470985
 20
-24.2470994759
 30
0.0
 10
-1.4748972249
 20
-24.2313597525
 30
0.0
 10
-1.5037672525
 20
-24.2192500311
 30
0.0
 10
-1.5181527046
 20
-24.2124508273
 30
0.0
 11
-1.3516388367
 21
-24.2354741581
 31
0.0
 11
-1.4299645609
 21
-24.2425597223
 31
0.0
 11
-1.4740442881
 21
-24.230698601
 31
0.0
 11
-1.5181527046
 21
-24.2124508273
 31
0.0
  0
SPLINE
  5
424
100
AcDbEntity
  8
0
100
AcDbSpline
 62
7
  6
CONTINUOUS
 70
0
 71
3
 72
18
 73
14
 74
12
 42
0.0000001
 43
0.0000001
 44
0.0000000001
 12
0.9412018923
 22
0.4705975429
 32
0.0
 13
-0.7660303215
 23
0.7214711332
 33
0.0
 40
0.0
 40
0.0
 40
0.0
 40
0.0
 40
0.0457943347
 40
0.0910579538
 40
0.1389648722
 40
0.1905315713
 40
0.3034454178
 40
0.4295778457
 40
0.5663524448
 40
0.711467637
 40
0.8584343766
 40
0.9305901667
 40
1.0
 40
1.0
 40
1.0
 40
1.0
 10
-1.0124079394
 20
-24.4455757592
 30
0.0
 10
-0.9980407012
 20
-24.4383921921
 30
0.0
 10
-0.969952295
 20
-24.4230156496
 30
0.0
 10
-0.9316232959
 20
-24.3922452895
 30
0.0
 10
-0.9007613186
 20
-24.3513746332
 30
0.0
 10
-0.8675031274
 20
-24.2843593863
 30
0.0
 10
-0.844755614
 20
-24.1835889607
 30
0.0
 10
-0.8436970954
 20
-24.0511893436
 30
0.0
 10
-0.8656244281
 20
-23.9090413418
 30
0.0
 10
-0.9151375277
 20
-23.7661705016
 30
0.0
 10
-0.9769085504
 20
-23.653575014
 30
0.0
 10
-1.0365228968
 20
-23.5716995597
 30
0.0
 10
-1.0696707107
 20
-23.5344798946
 30
0.0
 10
-1.0873940564
 20
-23.5177874976
 30
0.0
 11
-1.0124079394
 21
-24.4455757592
 31
0.0
 11
-0.9705405238
 21
-24.4217155406
 31
0.0
 11
-0.9337287085
 21
-24.3914902463
 31
0.0
 11
-0.9028483907
 21
-24.3516431258
 31
0.0
 11
-0.8783757524
 21
-24.3032117332
 31
0.0
 11
-0.8498148263
 21
-24.1878768756
 31
0.0
 11
-0.8471495294
 21
-24.0551752187
 31
0.0
 11
-0.8692717272
 21
-23.9129584024
 31
0.0
 11
-0.9188268444
 21
-23.7685189234
 31
0.0
 11
-0.9932450879
 21
-23.6329488602
 31
0.0
 11
-1.0381030752
 21
-23.5716871922
 31
0.0
 11
-1.0873940564
 21
-23.5177874976
 31
0.0
  0
SPLINE
  5
425
100
AcDbEntity
  8
RACCORDO
100
AcDbSpline
 62
7
  6
CONTINUOUS
 70
0
 71
3
 72
11
 73
7
 74
5
 42
0.0000001
 43
0.0000001
 44
0.0000000001
 12
-0.5252094582
 22
0.2626021805
 32
0.0
 13
-0.0000165042
 23
0.5872008855
 33
0.0
 40
0.0
 40
0.0
 40
0.0
 40
0.0
 40
0.2296744152
 40
0.4882138292
 40
0.7532078385
 40
1.0
 40
1.0
 40
1.0
 40
1.0
 10
-37.3543396843
 20
-7.3241779483
 30
0.0
 10
-37.3945487426
 20
-7.3040736142
 30
0.0
 10
-37.4713826512
 20
-7.2439655697
 30
0.0
 10
-37.5601106279
 20
-7.1246311711
 30
0.0
 10
-37.6204717686
 20
-6.9850719591
 30
0.0
 10
-37.6371379607
 20
-6.8847262549
 30
0.0
 10
-37.6371393184
 20
-6.8364207297
 30
0.0
 11
-37.3543396843
 21
-7.3241779483
 31
0.0
 11
-37.4625636987
 21
-7.2437035032
 31
0.0
 11
-37.5543144598
 21
-7.1227511887
 31
0.0
 11
-37.6156147748
 21
-6.9797298639
 31
0.0
 11
-37.6371393184
 21
-6.8364207297
 31
0.0
  0
SPLINE
  5
426
100
AcDbEntity
  8
RACCORDO
100
AcDbSpline
 62
7
  6
CONTINUOUS
 70
0
 71
3
 72
11
 73
7
 74
5
 42
0.0000001
 43
0.0000001
 44
0.0000000001
 12
0.4079949568
 22
0.1888862649
 32
0.0
 13
0.0027806954
 23
0.449588894
 33
0.0
 40
0.0
 40
0.0
 40
0.0
 40
0.0
 40
0.2166758208
 40
0.4494767836
 40
0.7094274039
 40
1.0
 40
1.0
 40
1.0
 40
1.0
 10
30.6192940705
 20
-41.2341692085
 30
0.0
 10
30.6487616179
 20
-41.2205268463
 30
0.0
 10
30.7048695997
 20
-41.1801046438
 30
0.0
 10
30.7653633921
 20
-41.090601909
 30
0.0
 10
30.8019421498
 20
-40.9778023722
 30
0.0
 10
30.8095550255
 20
-40.8950188181
 30
0.0
 10
30.8098243568
 20
-40.8514727474
 30
0.0
 11
30.6192940705
 21
-41.2341692085
 31
0.0
 11
30.698724797
 21
-41.1777705095
 31
0.0
 11
30.7588056148
 21
-41.0920650864
 31
0.0
 11
30.7964777483
 21
-40.9814299071
 31
0.0
 11
30.8098243568
 21
-40.8514727474
 31
0.0
  0
SPLINE
  5
427
100
AcDbEntity
  8
0
100
AcDbSpline
 62
7
  6
CONTINUOUS
 70
0
 71
3
 72
18
 73
14
 74
12
 42
0.0000001
 43
0.0000001
 44
0.0000000001
 12
0.9412007008
 22
0.47059886
 32
0.0
 13
-0.7660299745
 23
0.7214708064
 33
0.0
 40
0.0
 40
0.0
 40
0.0
 40
0.0
 40
0.0457943108
 40
0.0910579325
 40
0.1389648728
 40
0.1905315916
 40
0.3034454654
 40
0.4295779075
 40
0.5663525062
 40
0.7114676854
 40
0.858434401
 40
0.9305901785
 40
1.0
 40
1.0
 40
1.0
 40
1.0
 10
-1.1538288665
 20
-24.5162862228
 30
0.0
 10
-1.1394616541
 20
-24.5091026393
 30
0.0
 10
-1.111373274
 20
-24.4937260928
 30
0.0
 10
-1.0730443595
 20
-24.4629556578
 30
0.0
 10
-1.0421824608
 20
-24.4220849557
 30
0.0
 10
-1.0089243585
 20
-24.3550696766
 30
0.0
 10
-0.9861769379
 20
-24.2542992609
 30
0.0
 10
-0.9851184788
 20
-24.1218996904
 30
0.0
 10
-1.0070458542
 20
-23.9797517612
 30
0.0
 10
-1.056558964
 20
-23.8368810121
 30
0.0
 10
-1.1183299673
 20
-23.7242856011
 30
0.0
 10
-1.177944283
 20
-23.6424102022
 30
0.0
 10
-1.211092078
 20
-23.6051905623
 30
0.0
 10
-1.2288154126
 20
-23.5884981757
 30
0.0
 11
-1.1538288665
 21
-24.5162862228
 31
0.0
 11
-1.1119615196
 21
-24.4924259788
 31
0.0
 11
-1.0751497756
 21
-24.4622006272
 31
0.0
 11
-1.0442695275
 21
-24.4223534522
 31
0.0
 11
-1.0197969543
 21
-24.3739220313
 31
0.0
 11
-0.9912361365
 21
-24.2585871726
 31
0.0
 11
-0.9885709083
 21
-24.1258855596
 31
0.0
 11
-1.0106931486
 21
-23.9836688162
 31
0.0
 11
-1.0602482771
 21
-23.8392294287
 31
0.0
 11
-1.1346664959
 21
-23.7036594607
 31
0.0
 11
-1.1795244601
 21
-23.6423978348
 31
0.0
 11
-1.2288154126
 21
-23.5884981757
 31
0.0
  0
SPLINE
  5
428
100
AcDbEntity
  8
RACCORDO
100
AcDbSpline
 62
7
  6
CONTINUOUS
 70
0
 71
3
 72
15
 73
11
 74
9
 42
0.0000001
 43
0.0000001
 44
0.0000000001
 12
0.0000198666
 22
-0.6465603367
 32
0.0
 13
-0.5782783253
 23
0.28919621
 33
0.0
 40
0.0
 40
0.0
 40
0.0
 40
0.0
 40
0.1488156354
 40
0.2853524865
 40
0.4094989621
 40
0.5236308894
 40
0.6329815813
 40
0.7448415681
 40
0.8659257345
 40
1.0
 40
1.0
 40
1.0
 40
1.0
 10
28.6919082352
 20
-37.6420756505
 30
0.0
 10
28.6919092207
 20
-37.6741484129
 30
0.0
 10
28.6877582883
 20
-37.7357858337
 30
0.0
 10
28.6669669428
 20
-37.8220790108
 30
0.0
 10
28.6315416618
 20
-37.8955345264
 30
0.0
 10
28.5814119659
 20
-37.9527313976
 30
0.0
 10
28.5175785033
 20
-37.9895549453
 30
0.0
 10
28.4436429378
 20
-38.002876427
 30
0.0
 10
28.3642228201
 20
-37.9926784213
 30
0.0
 10
28.312529544
 20
-37.9725107239
 30
0.0
 10
28.2866854634
 20
-37.9595861341
 30
0.0
 11
28.6919082352
 21
-37.6420756505
 31
0.0
 11
28.6847681902
 21
-37.7380286524
 31
0.0
 11
28.6632097658
 21
-37.8236351437
 31
0.0
 11
28.6273810568
 21
-37.89546331
 31
0.0
 11
28.5780326438
 21
-37.9503283003
 31
0.0
 11
28.5166698207
 21
-37.9854474023
 31
0.0
 11
28.4456142428
 21
-37.9989344034
 31
0.0
 11
28.3678267223
 21
-37.9900943268
 31
0.0
 11
28.2866854634
 21
-37.9595861341
 31
0.0
  0
SPLINE
  5
429
100
AcDbEntity
  8
RACCORDO
100
AcDbSpline
 62
7
  6
CONTINUOUS
 70
0
 71
3
 72
9
 73
5
 74
3
 42
0.0000001
 43
0.0000001
 44
0.0000000001
 12
0.1989366818
 22
-0.0994812521
 32
0.0
 13
0.1498422937
 23
-0.1643764275
 33
0.0
 40
0.0
 40
0.0
 40
0.0
 40
0.0
 40
0.2331595096
 40
1.0
 40
1.0
 40
1.0
 40
1.0
 10
28.2866854634
 20
2.6203060215
 30
0.0
 10
28.3021467898
 20
2.6125743548
 30
0.0
 10
28.3666047052
 20
2.5757223846
 30
0.0
 10
28.4231524327
 20
2.5259084106
 30
0.0
 10
28.4614541453
 20
2.4838915772
 30
0.0
 11
28.2866854634
 21
2.6203060215
 31
0.0
 11
28.3317747173
 21
2.5946849222
 31
0.0
 11
28.4614541453
 21
2.4838915772
 31
0.0
  0
SPLINE
  5
42A
100
AcDbEntity
  8
RACCORDO
100
AcDbSpline
 62
7
  6
CONTINUOUS
 70
0
 71
3
 72
9
 73
5
 74
3
 42
0.0000001
 43
0.0000001
 44
0.0000000001
 12
0.4311232275
 22
-0.4729405443
 32
0.0
 13
0.0000022423
 23
-0.63995312
 33
0.0
 40
0.0
 40
0.0
 40
0.0
 40
0.0
 40
0.5119288225
 40
1.0
 40
1.0
 40
1.0
 40
1.0
 10
28.4614541453
 20
2.4838915772
 30
0.0
 10
28.5350222807
 20
2.4031876118
 30
0.0
 10
28.6465388288
 20
2.2153283096
 30
0.0
 10
28.6919078704
 20
2.0016869904
 30
0.0
 10
28.6919082352
 20
1.8975727661
 30
0.0
 11
28.4614541453
 21
2.4838915772
 31
0.0
 11
28.6318639999
 21
2.204089707
 31
0.0
 11
28.6919082352
 21
1.8975727661
 31
0.0
  0
SPLINE
  5
42B
100
AcDbEntity
  8
RACCORDO
100
AcDbSpline
 62
7
  6
CONTINUOUS
 70
0
 71
3
 72
15
 73
11
 74
9
 42
0.0000001
 43
0.0000001
 44
0.0000000001
 12
-0.0000103451
 22
0.6465660531
 32
0.0
 13
0.5783199222
 23
-0.289125801
 33
0.0
 40
0.0
 40
0.0
 40
0.0
 40
0.0
 40
0.1488103064
 40
0.2853464
 40
0.4094914164
 40
0.5236242843
 40
0.632974012
 40
0.7448323333
 40
0.8659164603
 40
1.0
 40
1.0
 40
1.0
 40
1.0
 10
-35.9397527423
 20
34.2134032549
 30
0.0
 10
-35.9397532555
 20
34.2454751524
 30
0.0
 10
-35.9355971354
 20
34.3071113869
 30
0.0
 10
-35.9148070878
 20
34.3934037254
 30
0.0
 10
-35.8793808592
 20
34.4668593974
 30
0.0
 10
-35.8292535654
 20
34.5240577707
 30
0.0
 10
-35.7654249612
 20
34.560890038
 30
0.0
 10
-35.6914905974
 20
34.5742183751
 30
0.0
 10
-35.6120650684
 20
34.5640242423
 30
0.0
 10
-35.560377698
 20
34.5438360754
 30
0.0
 10
-35.5345299706
 20
34.5309137385
 30
0.0
 11
-35.9397527423
 21
34.2134032549
 31
0.0
 11
-35.9326086266
 21
34.3093533518
 31
0.0
 11
-35.9110495473
 21
34.3949599779
 31
0.0
 11
-35.8752211125
 21
34.4667880196
 31
0.0
 11
-35.8258743757
 21
34.521656213
 31
0.0
 11
-35.7645154865
 21
34.556782191
 31
0.0
 11
-35.6934615869
 21
34.5702756866
 31
0.0
 11
-35.6156734322
 21
34.5614352864
 31
0.0
 11
-35.5345299706
 21
34.5309137385
 31
0.0
  0
SPLINE
  5
42C
100
AcDbEntity
  8
RACCORDO
100
AcDbSpline
 62
7
  6
CONTINUOUS
 70
0
 71
3
 72
11
 73
7
 74
5
 42
0.0000001
 43
0.0000001
 44
0.0000000001
 12
-0.7724879918
 22
0.3864015877
 32
0.0
 13
0.0000139491
 23
0.8637383193
 33
0.0
 40
0.0
 40
0.0
 40
0.0
 40
0.0
 40
0.2302628938
 40
0.4899363902
 40
0.7543120771
 40
1.0
 40
1.0
 40
1.0
 40
1.0
 10
-35.5345299706
 20
-6.0489784171
 30
0.0
 10
-35.5938217441
 20
-6.0193204345
 30
0.0
 10
-35.7069531019
 20
-5.9298752074
 30
0.0
 10
-35.8344281394
 20
-5.7514911499
 30
0.0
 10
-35.9180934528
 20
-5.5441757041
 30
0.0
 10
-35.9397538847
 20
-5.3969818529
 30
0.0
 10
-35.9397527423
 20
-5.3262451617
 30
0.0
 11
-35.5345299706
 21
-6.0489784171
 31
0.0
 11
-35.6934614165
 21
-5.9294092384
 31
0.0
 11
-35.8258743634
 21
-5.7483766643
 31
0.0
 11
-35.9110495091
 21
-5.5365050955
 31
0.0
 11
-35.9397527423
 21
-5.3262451617
 31
0.0
  0
SPLINE
  5
42D
100
AcDbEntity
  8
RACCORDO
100
AcDbSpline
 62
7
  6
CONTINUOUS
 70
0
 71
3
 72
11
 73
7
 74
5
 42
0.0000001
 43
0.0000001
 44
0.0000000001
 12
-0.1689125338
 22
0.0845958674
 32
0.0
 13
0.0000000046
 23
0.1889124264
 33
0.0
 40
0.0
 40
0.0
 40
0.0
 40
0.0
 40
0.2171672857
 40
0.4503628451
 40
0.7104284797
 40
1.0
 40
1.0
 40
1.0
 40
1.0
 10
30.1844652313
 20
-41.2168533136
 30
0.0
 10
30.1722378058
 20
-41.2107294953
 30
0.0
 10
30.1490921581
 20
-41.193135316
 30
0.0
 10
30.124276761
 20
-41.1550891811
 30
0.0
 10
30.1094575765
 20
-41.1075693255
 30
0.0
 10
30.1064951766
 20
-41.0728299318
 30
0.0
 10
30.1064951771
 20
-41.054595379
 30
0.0
 11
30.1844652313
 21
-41.2168533136
 31
0.0
 11
30.1516399121
 21
-41.192244409
 31
0.0
 11
30.1269792742
 21
-41.1557400636
 31
0.0
 11
30.1116823153
 21
-41.1090525535
 31
0.0
 11
30.1064951771
 21
-41.054595379
 31
0.0
  0
SPLINE
  5
42E
100
AcDbEntity
  8
RACCORDO
100
AcDbSpline
 62
7
  6
CONTINUOUS
 70
0
 71
3
 72
11
 73
7
 74
5
 42
0.0000001
 43
0.0000001
 44
0.0000000001
 12
-0.1689125381
 22
0.0845958697
 32
0.0
 13
-0.0000000074
 23
0.1889124313
 33
0.0
 40
0.0
 40
0.0
 40
0.0
 40
0.0
 40
0.2171672809
 40
0.4503628408
 40
0.7104284776
 40
1.0
 40
1.0
 40
1.0
 40
1.0
 10
-37.2763696234
 20
-7.4864358862
 30
0.0
 10
-37.288597049
 20
-7.4803120679
 30
0.0
 10
-37.3117426969
 20
-7.4627178882
 30
0.0
 10
-37.336558095
 20
-7.4246717529
 30
0.0
 10
-37.3513772817
 20
-7.3771518964
 30
0.0
 10
-37.3543396835
 20
-7.3424125018
 30
0.0
 10
-37.3543396843
 20
-7.3241779483
 30
0.0
 11
-37.2763696234
 21
-7.4864358862
 31
0.0
 11
-37.3091949427
 21
-7.4618269815
 31
0.0
 11
-37.3338555818
 21
-7.4253226354
 31
0.0
 11
-37.349152543
 21
-7.3786351243
 31
0.0
 11
-37.3543396843
 21
-7.3241779483
 31
0.0
  0
SPLINE
  5
42F
100
AcDbEntity
  8
RACCORDO
100
AcDbSpline
 62
7
  6
CONTINUOUS
 70
0
 71
3
 72
11
 73
7
 74
5
 42
0.0000001
 43
0.0000001
 44
0.0000000001
 12
0.0000149278
 22
-0.1443839731
 32
0.0
 13
0.1291409503
 23
-0.0645704799
 33
0.0
 40
0.0
 40
0.0
 40
0.0
 40
0.0
 40
0.2065459694
 40
0.4344524034
 40
0.6976951635
 40
1.0
 40
1.0
 40
1.0
 40
1.0
 10
-37.7249940116
 20
-6.7303547191
 30
0.0
 10
-37.7249929838
 20
-6.7402953617
 30
0.0
 10
-37.7206242292
 20
-6.761368377
 30
0.0
 10
-37.7022793879
 20
-6.7901288688
 30
0.0
 10
-37.6736854064
 20
-6.815928852
 30
0.0
 10
-37.6501526297
 20
-6.8299140735
 30
0.0
 10
-37.6371393184
 20
-6.8364207297
 30
0.0
 11
-37.7249940116
 21
-6.7303547191
 31
0.0
 11
-37.7192445556
 21
-6.7596171718
 31
0.0
 11
-37.7021780441
 21
-6.7877515179
 31
0.0
 11
-37.6744102076
 21
-6.8137045147
 31
0.0
 11
-37.6371393184
 21
-6.8364207297
 31
0.0
  0
SPLINE
  5
430
100
AcDbEntity
  8
RACCORDO
100
AcDbSpline
 62
7
  6
CONTINUOUS
 70
0
 71
3
 72
11
 73
7
 74
5
 42
0.0000001
 43
0.0000001
 44
0.0000000001
 12
0.0000149287
 22
-0.1443839671
 32
0.0
 13
0.1291409498
 23
-0.0645704674
 33
0.0
 40
0.0
 40
0.0
 40
0.0
 40
0.0
 40
0.2065459738
 40
0.4344524071
 40
0.6976951646
 40
1.0
 40
1.0
 40
1.0
 40
1.0
 10
-37.7249940116
 20
37.5270314007
 30
0.0
 10
-37.7249929838
 20
37.5170907583
 30
0.0
 10
-37.7206242292
 20
37.4960177437
 30
0.0
 10
-37.7022793877
 20
37.4672572535
 30
0.0
 10
-37.6736854062
 20
37.441457273
 30
0.0
 10
-37.6501526296
 20
37.4274720538
 30
0.0
 10
-37.6371393184
 20
37.4209653989
 30
0.0
 11
-37.7249940116
 21
37.5270314007
 31
0.0
 11
-37.7192445555
 21
37.4977689486
 31
0.0
 11
-37.7021780439
 21
37.4696346043
 31
0.0
 11
-37.6744102075
 21
37.4436816103
 31
0.0
 11
-37.6371393184
 21
37.4209653989
 31
0.0
  0
SPLINE
  5
431
100
AcDbEntity
  8
0
100
AcDbSpline
 62
7
  6
CONTINUOUS
 70
0
 71
3
 72
11
 73
7
 74
5
 42
0.0000001
 43
0.0000001
 44
0.0000000001
 12
-0.6333494509
 22
0.5969143223
 32
0.0
 13
-0.8289470693
 23
0.2651131674
 33
0.0
 40
0.0
 40
0.0
 40
0.0
 40
0.0
 40
0.2725542141
 40
0.5262218346
 40
0.7671916502
 40
1.0
 40
1.0
 40
1.0
 40
1.0
 10
-1.0873940564
 20
-23.5177874976
 30
0.0
 10
-1.1449347436
 20
-23.4635569929
 30
0.0
 10
-1.2681731751
 20
-23.371659528
 30
0.0
 10
-1.4634104644
 20
-23.2641190958
 30
0.0
 10
-1.6577775555
 20
-23.1811517059
 30
0.0
 10
-1.7879398225
 20
-23.1367778492
 30
0.0
 10
-1.8522684223
 20
-23.1162043296
 30
0.0
 11
-1.0873940564
 21
-23.5177874976
 31
0.0
 11
-1.2754603733
 21
-23.3732262116
 31
0.0
 11
-1.468295034
 21
-23.2657372821
 31
0.0
 11
-1.6608824974
 21
-23.1827202968
 31
0.0
 11
-1.8522684223
 21
-23.1162043296
 31
0.0
  0
SPLINE
  5
432
100
AcDbEntity
  8
RACCORDO
100
AcDbSpline
 62
7
  6
CONTINUOUS
 70
0
 71
3
 72
9
 73
5
 74
3
 42
0.0000001
 43
0.0000001
 44
0.0000000001
 12
-0.1260316343
 22
-0.0657101216
 32
0.0
 13
-0.1032641788
 23
-0.0976642324
 33
0.0
 40
0.0
 40
0.0
 40
0.0
 40
0.0
 40
0.2371046482
 40
1.0
 40
1.0
 40
1.0
 40
1.0
 10
-34.075424071
 20
-4.7982577237
 30
0.0
 10
-34.0853849664
 20
-4.8034511154
 30
0.0
 10
-34.1264996849
 20
-4.8270646044
 30
0.0
 10
-34.1639161742
 20
-4.8568457839
 30
0.0
 10
-34.1901760949
 20
-4.8816816469
 30
0.0
 11
-34.075424071
 21
-4.7982577237
 31
0.0
 11
-34.1046740389
 21
-4.8149955904
 31
0.0
 11
-34.1901760949
 21
-4.8816816469
 31
0.0
  0
SPLINE
  5
433
100
AcDbEntity
  8
RACCORDO
100
AcDbSpline
 62
7
  6
CONTINUOUS
 70
0
 71
3
 72
9
 73
5
 74
3
 42
0.0000001
 43
0.0000001
 44
0.0000000001
 12
-0.1370512163
 22
-0.0578502869
 32
0.0
 13
-0.1164661164
 23
-0.0925490967
 33
0.0
 40
0.0
 40
0.0
 40
0.0
 40
0.0
 40
0.2394516598
 40
1.0
 40
1.0
 40
1.0
 40
1.0
 10
-34.082148547
 20
-4.7938915083
 30
0.0
 10
-34.093087594
 20
-4.7985089574
 30
0.0
 10
-34.138016272
 20
-4.8195673077
 30
0.0
 10
-34.1797536686
 20
-4.8471700875
 30
0.0
 10
-34.2092797057
 20
-4.8706327748
 30
0.0
 11
-34.082148547
 21
-4.7938915083
 31
0.0
 11
-34.1144211082
 21
-4.8089691098
 31
0.0
 11
-34.2092797057
 21
-4.8706327748
 31
0.0
  0
SPLINE
  5
434
100
AcDbEntity
  8
RACCORDO
100
AcDbSpline
 62
7
  6
CONTINUOUS
 70
0
 71
3
 72
9
 73
5
 74
3
 42
0.0000001
 43
0.0000001
 44
0.0000000001
 12
-0.0583420295
 22
-0.0361533179
 32
0.0
 13
-0.0621163822
 23
-0.0291960592
 33
0.0
 40
0.0
 40
0.0
 40
0.0
 40
0.0
 40
0.2435066652
 40
1.0
 40
1.0
 40
1.0
 40
1.0
 10
-34.3189177809
 20
-4.4528915971
 30
0.0
 10
-34.3236533386
 20
-4.4558261218
 30
0.0
 10
-34.3432884597
 20
-4.4675728703
 30
0.0
 10
-34.3636295196
 20
-4.4781284652
 30
0.0
 10
-34.3792930626
 20
-4.4854906733
 30
0.0
 11
-34.3189177809
 21
-4.4528915971
 31
0.0
 11
-34.3332577633
 21
-4.4614763149
 31
0.0
 11
-34.3792930626
 21
-4.4854906733
 31
0.0
  0
SPLINE
  5
435
100
AcDbEntity
  8
RACCORDO
100
AcDbSpline
 62
7
  6
CONTINUOUS
 70
0
 71
3
 72
9
 73
5
 74
3
 42
0.0000001
 43
0.0000001
 44
0.0000000001
 12
-0.0589857591
 22
-0.0284808211
 32
0.0
 13
-0.061822322
 23
-0.0216443398
 33
0.0
 40
0.0
 40
0.0
 40
0.0
 40
0.0
 40
0.2421760202
 40
1.0
 40
1.0
 40
1.0
 40
1.0
 10
-34.3194052611
 20
-4.4485034653
 30
0.0
 10
-34.3241669066
 20
-4.4508025892
 30
0.0
 10
-34.3439761449
 20
-4.4599897955
 30
0.0
 10
-34.3643294154
 20
-4.467988993
 30
0.0
 10
-34.3799462282
 20
-4.4734565262
 30
0.0
 11
-34.3194052611
 21
-4.4485034653
 31
0.0
 11
-34.3337934586
 21
-4.4551827555
 31
0.0
 11
-34.3799462282
 21
-4.4734565262
 31
0.0
  0
SPLINE
  5
436
100
AcDbEntity
  8
RACCORDO
100
AcDbSpline
 62
7
  6
CONTINUOUS
 70
0
 71
3
 72
11
 73
7
 74
5
 42
0.0000001
 43
0.0000001
 44
0.0000000001
 12
-0.1291394801
 22
0.0645697401
 32
0.0
 13
0.0000513271
 23
0.144382319
 33
0.0
 40
0.0
 40
0.0
 40
0.0
 40
0.0
 40
0.3021491765
 40
0.5655722792
 40
0.7935305764
 40
1.0
 40
1.0
 40
1.0
 40
1.0
 10
28.6919082352
 20
1.8975727661
 30
0.0
 10
28.6789017727
 20
1.9040759974
 30
0.0
 10
28.6553769568
 20
1.9180716767
 30
0.0
 10
28.6267612771
 20
1.9438581932
 30
0.0
 10
28.6084382497
 20
1.9726362684
 30
0.0
 10
28.6040406971
 20
1.9937019382
 30
0.0
 10
28.6040442296
 20
2.0036387829
 30
0.0
 11
28.6919082352
 21
1.8975727661
 31
0.0
 11
28.654659368
 21
1.9202809727
 31
0.0
 11
28.6268669912
 21
1.9462452102
 31
0.0
 11
28.6098039004
 21
1.9743899496
 31
0.0
 11
28.6040442296
 21
2.0036387829
 31
0.0
  0
SPLINE
  5
437
100
AcDbEntity
  8
RACCORDO
100
AcDbSpline
 62
7
  6
CONTINUOUS
 70
0
 71
3
 72
11
 73
7
 74
5
 42
0.0000001
 43
0.0000001
 44
0.0000000001
 12
0.0000000577
 22
-0.1889139717
 32
0.0
 13
0.1689716096
 23
-0.0844812632
 33
0.0
 40
0.0
 40
0.0
 40
0.0
 40
0.0
 40
0.289595635
 40
0.5496518077
 40
0.7828348723
 40
1.0
 40
1.0
 40
1.0
 40
1.0
 10
28.2866854634
 20
2.6203060215
 30
0.0
 10
28.286685469
 20
2.602069801
 30
0.0
 10
28.289643221
 20
2.5673283194
 30
0.0
 10
28.3044743205
 20
2.5198107057
 30
0.0
 10
28.3292828511
 20
2.4817665405
 30
0.0
 10
28.3524213591
 20
2.4641583302
 30
0.0
 10
28.3646529395
 20
2.4580428688
 30
0.0
 11
28.2866854634
 21
2.6203060215
 31
0.0
 11
28.2918718022
 21
2.5658437452
 31
0.0
 11
28.3071739943
 21
2.5191594082
 31
0.0
 11
28.3318292714
 21
2.4826538554
 31
0.0
 11
28.3646529395
 21
2.4580428688
 31
0.0
  0
SPLINE
  5
438
100
AcDbEntity
  8
RACCORDO
100
AcDbSpline
 62
7
  6
CONTINUOUS
 70
0
 71
3
 72
11
 73
7
 74
5
 42
0.0000001
 43
0.0000001
 44
0.0000000001
 12
0.0
 22
-0.1889081527
 32
0.0
 13
0.1689619601
 23
-0.0844875505
 33
0.0
 40
0.0
 40
0.0
 40
0.0
 40
0.0
 40
0.2895946005
 40
0.5496510084
 40
0.7828349031
 40
1.0
 40
1.0
 40
1.0
 40
1.0
 10
-35.5345299706
 20
34.5309137385
 30
0.0
 10
-35.5345299706
 20
34.5126781448
 30
0.0
 10
-35.5315724196
 20
34.4779377942
 30
0.0
 10
-35.5167423766
 20
34.4304215032
 30
0.0
 10
-35.4919356364
 20
34.3923778545
 30
0.0
 10
-35.4687986571
 20
34.3747691427
 30
0.0
 10
-35.456567777
 20
34.368653227
 30
0.0
 11
-35.5345299706
 21
34.5309137385
 31
0.0
 11
-35.529344019
 21
34.4764533144
 31
0.0
 11
-35.5140429184
 21
34.4297701654
 31
0.0
 11
-35.489389327
 21
34.3932649222
 31
0.0
 11
-35.456567777
 21
34.368653227
 31
0.0
  0
SPLINE
  5
439
100
AcDbEntity
  8
RACCORDO
100
AcDbSpline
 62
7
  6
CONTINUOUS
 70
0
 71
3
 72
11
 73
7
 74
5
 42
0.0000001
 43
0.0000001
 44
0.0000000001
 12
0.3513449618
 22
-0.1756719593
 32
0.0
 13
0.3707502259
 23
0.1298005757
 33
0.0
 40
0.0
 40
0.0
 40
0.0
 40
0.0
 40
0.2301996126
 40
0.4886872628
 40
0.7531669781
 40
1.0
 40
1.0
 40
1.0
 40
1.0
 10
-35.9397527423
 20
34.2134032549
 30
0.0
 10
-35.9127929176
 20
34.1999233825
 30
0.0
 10
-35.8513677827
 20
34.1796611098
 30
0.0
 10
-35.7531065828
 20
34.1671109256
 30
0.0
 10
-35.6519469254
 20
34.1713313822
 30
0.0
 10
-35.5860522433
 20
34.185916776
 30
0.0
 10
-35.5555477771
 20
34.1965964654
 30
0.0
 11
-35.9397527423
 21
34.2134032549
 31
0.0
 11
-35.8544061925
 21
34.1835231882
 31
0.0
 11
-35.7537674407
 21
34.1700401796
 31
0.0
 11
-35.649975
 21
34.1745804805
 31
0.0
 11
-35.5555477771
 21
34.1965964654
 31
0.0
  0
SPLINE
  5
43A
100
AcDbEntity
  8
RACCORDO
100
AcDbSpline
 62
7
  6
CONTINUOUS
 70
0
 71
3
 72
11
 73
7
 74
5
 42
0.0000001
 43
0.0000001
 44
0.0000000001
 12
0.351344799
 22
-0.1756723995
 32
0.0
 13
0.3707501259
 23
0.1298010165
 33
0.0
 40
0.0
 40
0.0
 40
0.0
 40
0.0
 40
0.2301996678
 40
0.4886873034
 40
0.7531669766
 40
1.0
 40
1.0
 40
1.0
 40
1.0
 10
-35.9397527423
 20
-5.3262451617
 30
0.0
 10
-35.9127929237
 20
-5.339725071
 30
0.0
 10
-35.8513677889
 20
-5.3599874005
 30
0.0
 10
-35.7531065768
 20
-5.3725376127
 30
0.0
 10
-35.6519469118
 20
-5.3683171262
 30
0.0
 10
-35.5860522353
 20
-5.3537316769
 30
0.0
 10
-35.5555477771
 20
-5.3430519512
 30
0.0
 11
-35.9397527423
 21
-5.3262451617
 31
0.0
 11
-35.8544061865
 21
-5.3561253126
 31
0.0
 11
-35.7537674308
 21
-5.3696083492
 31
0.0
 11
-35.6499749945
 21
-5.3650680185
 31
0.0
 11
-35.5555477771
 21
-5.3430519512
 31
0.0
  0
SPLINE
  5
43B
100
AcDbEntity
  8
RACCORDO
100
AcDbSpline
 62
7
  6
CONTINUOUS
 70
0
 71
3
 72
9
 73
5
 74
3
 42
0.0000001
 43
0.0000001
 44
0.0000000001
 12
-0.0000001069
 22
0.3499495
 32
0.0
 13
0.2542495784
 23
0.2404616486
 33
0.0
 40
0.0
 40
0.0
 40
0.0
 40
0.0
 40
0.4929880368
 40
1.0
 40
1.0
 40
1.0
 40
1.0
 10
-35.5345299706
 20
-6.0489784171
 30
0.0
 10
-35.5345299882
 20
-5.9914714448
 30
0.0
 10
-35.5047562278
 20
-5.8749461686
 30
0.0
 10
-35.4379205577
 20
-5.7756887874
 30
0.0
 10
-35.394951365
 20
-5.7350498099
 30
0.0
 11
-35.5345299706
 21
-6.0489784171
 31
0.0
 11
-35.4961663499
 21
-5.8807770514
 31
0.0
 11
-35.394951365
 21
-5.7350498099
 31
0.0
  0
SPLINE
  5
43C
100
AcDbEntity
  8
RACCORDO
100
AcDbSpline
 62
7
  6
CONTINUOUS
 70
0
 71
3
 72
9
 73
5
 74
3
 42
0.0000001
 43
0.0000001
 44
0.0000000001
 12
0.0
 22
0.3499494896
 32
0.0
 13
0.2542494972
 23
0.2404617193
 33
0.0
 40
0.0
 40
0.0
 40
0.0
 40
0.0
 40
0.4929880284
 40
1.0
 40
1.0
 40
1.0
 40
1.0
 10
28.2866854634
 20
-37.9595861341
 30
0.0
 10
28.2866854634
 20
-37.9020791645
 30
0.0
 10
28.3164592406
 20
-37.7855539021
 30
0.0
 10
28.3832948894
 20
-37.686296517
 30
0.0
 10
28.426264069
 20
-37.6456575269
 30
0.0
 11
28.2866854634
 21
-37.9595861341
 31
0.0
 11
28.3250491082
 21
-37.7913847822
 31
0.0
 11
28.426264069
 21
-37.6456575269
 31
0.0
  0
SPLINE
  5
43D
100
AcDbEntity
  8
RACCORDO
100
AcDbSpline
 62
7
  6
CONTINUOUS
 70
0
 71
3
 72
11
 73
7
 74
5
 42
0.0000001
 43
0.0000001
 44
0.0000000001
 12
-0.1290144688
 22
0.0645072211
 32
0.0
 13
-0.0002209872
 23
0.1442423859
 33
0.0
 40
0.0
 40
0.0
 40
0.0
 40
0.0
 40
0.302101686
 40
0.5655340995
 40
0.7935296933
 40
1.0
 40
1.0
 40
1.0
 40
1.0
 10
28.6919082352
 20
-37.6420756505
 30
0.0
 10
28.6789164057
 20
-37.635579737
 30
0.0
 10
28.6554152599
 20
-37.6216005203
 30
0.0
 10
28.6268184608
 20
-37.5958503891
 30
0.0
 10
28.6084877662
 20
-37.5671164575
 30
0.0
 10
28.6040595221
 20
-37.5460786987
 30
0.0
 10
28.604044313
 20
-37.5361514421
 30
0.0
 11
28.6919082352
 21
-37.6420756505
 31
0.0
 11
28.654698855
 21
-37.6193969654
 31
0.0
 11
28.626921339
 21
-37.5934687934
 31
0.0
 11
28.6098454798
 21
-37.5653627815
 31
0.0
 11
28.604044313
 21
-37.5361514421
 31
0.0
  0
SPLINE
  5
43E
100
AcDbEntity
  8
RACCORDO
100
AcDbSpline
 62
7
  6
CONTINUOUS
 70
0
 71
3
 72
13
 73
9
 74
7
 42
0.0000001
 43
0.0000001
 44
0.0000000001
 12
-0.0675144161
 22
0.2266503352
 32
0.0
 13
0.2363936884
 23
-0.0068260473
 33
0.0
 40
0.0
 40
0.0
 40
0.0
 40
0.0
 40
0.2946022688
 40
0.4247656415
 40
0.5434738158
 40
0.6533585017
 40
0.7606215203
 40
1.0
 40
1.0
 40
1.0
 40
1.0
 10
-35.5555478165
 20
34.1965966181
 30
0.0
 10
-35.5621777832
 20
34.2188538524
 30
0.0
 10
-35.5691800917
 20
34.2520464009
 30
0.0
 10
-35.568400204
 20
34.2950676719
 30
0.0
 10
-35.5622731233
 20
34.3229323181
 30
0.0
 10
-35.549759878
 20
34.3467314539
 30
0.0
 10
-35.522797732
 20
34.3717150828
 30
0.0
 10
-35.4936010248
 20
34.3770218838
 30
0.0
 10
-35.4747385042
 20
34.3764772142
 30
0.0
 11
-35.5555478165
 21
34.1965966181
 31
0.0
 11
-35.5682293466
 21
34.2651038968
 31
0.0
 11
-35.567318787
 21
34.2958730517
 31
0.0
 11
-35.5608784865
 21
34.3231978993
 31
0.0
 11
-35.5484499089
 21
34.3460199949
 31
0.0
 11
-35.5297650369
 21
34.3631767321
 31
0.0
 11
-35.4747385042
 21
34.3764772142
 31
0.0
  0
SPLINE
  5
43F
100
AcDbEntity
  8
RACCORDO
100
AcDbSpline
 62
7
  6
CONTINUOUS
 70
0
 71
3
 72
12
 73
8
 74
6
 42
0.0000001
 43
0.0000001
 44
0.0000000001
 12
-0.4414327386
 22
0.1388876019
 32
0.0
 13
0.1107439614
 23
0.4493199347
 33
0.0
 40
0.0
 40
0.0
 40
0.0
 40
0.0
 40
0.1130800295
 40
0.2327462541
 40
0.4871196873
 40
0.7477368936
 40
1.0
 40
1.0
 40
1.0
 40
1.0
 10
-35.3949439734
 20
-5.7350527472
 30
0.0
 10
-35.4115830491
 20
-5.7298176092
 30
0.0
 10
-35.4445767442
 20
-5.7145346496
 30
0.0
 10
-35.5032295116
 20
-5.6664517082
 30
0.0
 10
-35.5540126876
 20
-5.5789377454
 30
0.0
 10
-35.5739462293
 20
-5.4605020866
 30
0.0
 10
-35.5648600217
 20
-5.380834412
 30
0.0
 10
-35.5555478164
 20
-5.3430521312
 30
0.0
 11
-35.3949439734
 21
-5.7350527472
 31
0.0
 11
-35.4424700761
 21
-5.7131516249
 31
0.0
 11
-35.4854634386
 21
-5.6782483649
 31
0.0
 11
-35.5467236981
 21
-5.5777291772
 31
0.0
 11
-35.5683765054
 21
-5.4590839628
 31
0.0
 11
-35.5555478164
 21
-5.3430521312
 31
0.0
  0
SPLINE
  5
440
100
AcDbEntity
  8
RACCORDO
100
AcDbSpline
 62
7
  6
CONTINUOUS
 70
0
 71
3
 72
11
 73
7
 74
5
 42
0.0000001
 43
0.0000001
 44
0.0000000001
 12
-0.0850088828
 22
-0.4356542734
 32
0.0
 13
0.3929041401
 23
-0.206512694
 33
0.0
 40
0.0
 40
0.0
 40
0.0
 40
0.0
 40
0.251262812
 40
0.4489234055
 40
0.6470764859
 40
1.0
 40
1.0
 40
1.0
 40
1.0
 10
-34.3792883646
 20
-4.4854940247
 30
0.0
 10
-34.3864082216
 20
-4.5219819307
 30
0.0
 10
-34.3861402934
 20
-4.5898570055
 30
0.0
 10
-34.3627218557
 20
-4.6833025661
 30
0.0
 10
-34.3146649374
 20
-4.7833149178
 30
0.0
 10
-34.2555584298
 20
-4.8463020154
 30
0.0
 10
-34.2093367265
 20
-4.8705964106
 30
0.0
 11
-34.3792883646
 21
-4.4854940247
 31
0.0
 11
-34.3811026017
 21
-4.5970074559
 31
0.0
 11
-34.3599765832
 21
-4.6821617325
 31
0.0
 11
-34.3215297695
 21
-4.7612680402
 31
0.0
 11
-34.2093367265
 21
-4.8705964106
 31
0.0
  0
SPLINE
  5
441
100
AcDbEntity
  8
RACCORDO
100
AcDbSpline
 62
7
  6
CONTINUOUS
 70
0
 71
3
 72
12
 73
8
 74
6
 42
0.0000001
 43
0.0000001
 44
0.0000000001
 12
0.1077499093
 22
-0.4047048189
 32
0.0
 13
0.3125130215
 23
-0.278803954
 33
0.0
 40
0.0
 40
0.0
 40
0.0
 40
0.0
 40
0.1121557524
 40
0.234999587
 40
0.5039208419
 40
0.7737662959
 40
1.0
 40
1.0
 40
1.0
 40
1.0
 10
-34.3189131665
 20
-4.4528938831
 30
0.0
 10
-34.3148849091
 20
-4.4680238743
 30
0.0
 10
-34.3028818545
 20
-4.4987397358
 30
0.0
 10
-34.2707031729
 20
-4.5613241968
 30
0.0
 10
-34.2200524429
 20
-4.6388667415
 30
0.0
 10
-34.1536870733
 20
-4.7226355944
 30
0.0
 10
-34.1057155468
 20
-4.772867034
 30
0.0
 10
-34.082148554
 20
-4.7938919844
 30
0.0
 11
-34.3189131665
 21
-4.4528938831
 31
0.0
 11
-34.3027437048
 21
-4.4969942223
 31
0.0
 11
-34.2795419815
 21
-4.5429127672
 31
0.0
 11
-34.2187546743
 21
-4.6377247186
 31
0.0
 11
-34.1484432663
 21
-4.7262009486
 31
0.0
 11
-34.082148554
 21
-4.7938919844
 31
0.0
  0
SPLINE
  5
442
100
AcDbEntity
  8
RACCORDO
100
AcDbSpline
 62
7
  6
CONTINUOUS
 70
0
 71
3
 72
8
 73
4
 74
2
 42
0.0000001
 43
0.0000001
 44
0.0000000001
 12
0.0059647385
 22
-0.005357261
 32
0.0
 13
0.0072567533
 23
-0.0034085014
 33
0.0
 40
0.0
 40
0.0
 40
0.0
 40
0.0
 40
1.0
 40
1.0
 40
1.0
 40
1.0
 10
-34.082148554
 20
-4.7938919844
 30
0.0
 10
-34.0801603078
 20
-4.795677738
 30
0.0
 10
-34.0778429888
 20
-4.7971215565
 30
0.0
 10
-34.075424071
 20
-4.7982577237
 30
0.0
 11
-34.082148554
 21
-4.7938919844
 31
0.0
 11
-34.075424071
 21
-4.7982577237
 31
0.0
  0
SPLINE
  5
443
100
AcDbEntity
  8
RACCORDO
100
AcDbSpline
 62
7
  6
CONTINUOUS
 70
0
 71
3
 72
8
 73
4
 74
2
 42
0.0000001
 43
0.0000001
 44
0.0000000001
 12
-0.0001037907
 22
-0.0044166904
 32
0.0
 13
0.0011249164
 23
-0.0042722932
 33
0.0
 40
0.0
 40
0.0
 40
0.0
 40
0.0
 40
1.0
 40
1.0
 40
1.0
 40
1.0
 10
-34.3194052611
 20
-4.4485034653
 30
0.0
 10
-34.319439858
 20
-4.4499756954
 30
0.0
 10
-34.3192881386
 20
-4.4514697854
 30
0.0
 10
-34.3189131665
 20
-4.4528938831
 30
0.0
 11
-34.3194052611
 21
-4.4485034653
 31
0.0
 11
-34.3189131665
 21
-4.4528938831
 31
0.0
  0
SPLINE
  5
444
100
AcDbEntity
  8
RACCORDO
100
AcDbSpline
 62
7
  6
CONTINUOUS
 70
0
 71
3
 72
11
 73
7
 74
5
 42
0.0000001
 43
0.0000001
 44
0.0000000001
 12
-0.0064027244
 22
1.0264962609
 32
0.0
 13
-0.9153131695
 23
0.4646906178
 33
0.0
 40
0.0
 40
0.0
 40
0.0
 40
0.0
 40
0.2466706816
 40
0.5119105748
 40
0.7706373212
 40
1.0
 40
1.0
 40
1.0
 40
1.0
 10
30.8098243568
 20
3.4059133812
 30
0.0
 10
30.809297902
 20
3.4903155586
 30
0.0
 10
30.7792860133
 20
3.665574188
 30
0.0
 10
30.6733377885
 20
3.9094043113
 30
0.0
 10
30.5185947132
 20
4.1182515869
 30
0.0
 10
30.3849045571
 20
4.2239609522
 30
0.0
 10
30.314924997
 20
4.2594885138
 30
0.0
 11
30.8098243568
 21
3.4059133812
 31
0.0
 11
30.7710019635
 21
3.6561310148
 31
0.0
 11
30.6633213674
 21
3.9062060149
 31
0.0
 11
30.5031694594
 21
4.1180737315
 31
0.0
 11
30.314924997
 21
4.2594885138
 31
0.0
  0
SPLINE
  5
445
100
AcDbEntity
  8
RACCORDO
100
AcDbSpline
 62
7
  6
CONTINUOUS
 70
0
 71
3
 72
11
 73
7
 74
5
 42
0.0000001
 43
0.0000001
 44
0.0000000001
 12
-0.2996813813
 22
0.1475650247
 32
0.0
 13
-0.2939897903
 23
-0.1586012926
 33
0.0
 40
0.0
 40
0.0
 40
0.0
 40
0.0
 40
0.279823212
 40
0.5359571133
 40
0.7731398267
 40
1.0
 40
1.0
 40
1.0
 40
1.0
 10
-37.1459098644
 20
37.9899059445
 30
0.0
 10
-37.1738624666
 20
38.0036699843
 30
0.0
 10
-37.2297227154
 20
38.0257643017
 30
0.0
 10
-37.3152052326
 20
38.0407491307
 30
0.0
 10
-37.3960832107
 20
38.0351569692
 30
0.0
 10
-37.445430346
 20
38.0172187116
 30
0.0
 10
-37.467661871
 20
38.0052252727
 30
0.0
 11
-37.1459098644
 21
37.9899059445
 31
0.0
 11
-37.2331180125
 21
38.023549811
 31
0.0
 11
-37.317531649
 21
38.0375062779
 31
0.0
 11
-37.3965197904
 21
38.0313318593
 31
0.0
 11
-37.467661871
 21
38.0052252727
 31
0.0
  0
SPLINE
  5
446
100
AcDbEntity
  8
RACCORDO
100
AcDbSpline
 62
7
  6
CONTINUOUS
 70
0
 71
3
 72
11
 73
7
 74
5
 42
0.0000001
 43
0.0000001
 44
0.0000000001
 12
-0.3869291792
 22
-0.2017363431
 32
0.0
 13
0.000000017
 23
-0.436361939
 33
0.0
 40
0.0
 40
0.0
 40
0.0
 40
0.0
 40
0.2307483936
 40
0.4893409366
 40
0.7537520358
 40
1.0
 40
1.0
 40
1.0
 40
1.0
 10
30.3149249969
 20
4.2594885139
 30
0.0
 10
30.2851639014
 20
4.2439717348
 30
0.0
 10
30.2284910447
 20
4.198607743
 30
0.0
 10
30.1631168446
 20
4.1094409641
 30
0.0
 10
30.1187143916
 20
4.0057307579
 30
0.0
 10
30.1064951757
 20
3.9313232991
 30
0.0
 10
30.1064951771
 20
3.8955055527
 30
0.0
 11
30.3149249969
 21
4.2594885139
 31
0.0
 11
30.2348803005
 21
4.1984042629
 31
0.0
 11
30.1673306635
 21
4.1080167672
 31
0.0
 11
30.1222925537
 21
4.0017912126
 31
0.0
 11
30.1064951771
 21
3.8955055527
 31
0.0
  0
SPLINE
  5
447
100
AcDbEntity
  8
RACCORDO
100
AcDbSpline
 62
7
  6
CONTINUOUS
 70
0
 71
3
 72
11
 73
7
 74
5
 42
0.0000001
 43
0.0000001
 44
0.0000000001
 12
-0.3869291622
 22
-0.2017363657
 32
0.0
 13
-0.0000000107
 23
-0.4363619344
 33
0.0
 40
0.0
 40
0.0
 40
0.0
 40
0.0
 40
0.2307483903
 40
0.489340935
 40
0.7537520367
 40
1.0
 40
1.0
 40
1.0
 40
1.0
 10
-37.1459098641
 20
37.9899059444
 30
0.0
 10
-37.1756709579
 20
37.9743891638
 30
0.0
 10
-37.2323438113
 20
37.9290251699
 30
0.0
 10
-37.2977180093
 20
37.8398583912
 30
0.0
 10
-37.3421204639
 20
37.7361481867
 30
0.0
 10
-37.3543396834
 20
37.6617407293
 30
0.0
 10
-37.3543396843
 20
37.6259229834
 30
0.0
 11
-37.1459098641
 21
37.9899059444
 31
0.0
 11
-37.2259545555
 21
37.928821691
 31
0.0
 11
-37.293504191
 21
37.8384341946
 31
0.0
 11
-37.3385423026
 21
37.732208641
 31
0.0
 11
-37.3543396843
 21
37.6259229834
 31
0.0
  0
SPLINE
  5
448
100
AcDbEntity
  8
RACCORDO
100
AcDbSpline
 62
7
  6
CONTINUOUS
 70
0
 71
3
 72
11
 73
7
 74
5
 42
0.0000001
 43
0.0000001
 44
0.0000000001
 12
-0.3888881866
 22
-0.1877724931
 32
0.0
 13
-0.3862564178
 23
0.1931282231
 33
0.0
 40
0.0
 40
0.0
 40
0.0
 40
0.0
 40
0.2366411434
 40
0.5012534759
 40
0.7651925789
 40
1.0
 40
1.0
 40
1.0
 40
1.0
 10
30.8098243568
 20
3.4059133809
 30
0.0
 10
30.7791487084
 20
3.3911018151
 30
0.0
 10
30.7091905002
 20
3.37004357
 30
0.0
 10
30.5988907537
 20
3.360300018
 30
0.0
 10
30.4889434097
 20
3.370951181
 30
0.0
 10
30.419526769
 20
3.3926323541
 30
0.0
 10
30.3892948113
 20
3.4077483341
 30
0.0
 11
30.8098243568
 21
3.4059133809
 31
0.0
 11
30.7125826894
 21
3.3744895189
 31
0.0
 11
30.5988089953
 21
3.3638267293
 31
0.0
 11
30.4854248145
 21
3.3754807098
 31
0.0
 11
30.3892948113
 21
3.4077483341
 31
0.0
  0
SPLINE
  5
449
100
AcDbEntity
  8
RACCORDO
100
AcDbSpline
 62
7
  6
CONTINUOUS
 70
0
 71
3
 72
11
 73
7
 74
5
 42
0.0000001
 43
0.0000001
 44
0.0000000001
 12
-0.3888881974
 22
-0.187772461
 32
0.0
 13
-0.3862564288
 23
0.1931281918
 33
0.0
 40
0.0
 40
0.0
 40
0.0
 40
0.0
 40
0.2366411417
 40
0.5012534766
 40
0.7651925816
 40
1.0
 40
1.0
 40
1.0
 40
1.0
 10
30.8098243568
 20
-40.8514727473
 30
0.0
 10
30.7791487077
 20
-40.8662843105
 30
0.0
 10
30.7091904993
 20
-40.8873425515
 30
0.0
 10
30.5988907535
 20
-40.8970861016
 30
0.0
 10
30.4889434104
 20
-40.8864349408
 30
0.0
 10
30.4195267695
 20
-40.8647537719
 30
0.0
 10
30.3892948113
 20
-40.8496377945
 30
0.0
 11
30.8098243568
 21
-40.8514727473
 31
0.0
 11
30.7125826893
 21
-40.8828966033
 31
0.0
 11
30.5988089951
 21
-40.8935593909
 31
0.0
 11
30.4854248143
 21
-40.8819054127
 31
0.0
 11
30.3892948113
 21
-40.8496377945
 31
0.0
  0
SPLINE
  5
44A
100
AcDbEntity
  8
IMPORT_IGES
100
AcDbSpline
 62
7
  6
CONTINUOUS
 70
0
 71
3
 72
8
 73
4
 74
2
 42
0.0000001
 43
0.0000001
 44
0.0000000001
 12
-0.0588381568
 22
0.0129665141
 32
0.0
 13
-0.0593813567
 23
0.0251162757
 33
0.0
 40
0.0
 40
0.0
 40
0.0
 40
0.0
 40
1.0
 40
1.0
 40
1.0
 40
1.0
 10
-1.2979343271
 20
-24.1699755293
 30
0.0
 10
-1.3175470461
 20
-24.1656533579
 30
0.0
 10
-1.3377449965
 20
-24.1587150928
 30
0.0
 10
-1.357538782
 20
-24.1503430009
 30
0.0
 11
-1.2979343271
 21
-24.1699755293
 31
0.0
 11
-1.357538782
 21
-24.1503430009
 31
0.0
  0
SPLINE
  5
44B
100
AcDbEntity
  8
IMPORT_IGES
100
AcDbSpline
 62
7
  6
CONTINUOUS
 70
0
 71
3
 72
9
 73
5
 74
3
 42
0.0000001
 43
0.0000001
 44
0.0000000001
 12
-0.0719484215
 22
0.3594276568
 32
0.0
 13
-0.1990361688
 23
0.332124161
 33
0.0
 40
0.0
 40
0.0
 40
0.0
 40
0.0
 40
0.3064912004
 40
1.0
 40
1.0
 40
1.0
 40
1.0
 10
-0.8767877731
 20
-24.9090080887
 30
0.0
 10
-0.8841382924
 20
-24.8722876173
 30
0.0
 10
-0.9063683997
 20
-24.7555203071
 30
0.0
 10
-0.9499573439
 20
-24.6173281017
 30
0.0
 10
-0.9959684553
 20
-24.5405510923
 30
0.0
 11
-0.8767877731
 21
-24.9090080887
 31
0.0
 11
-0.8997713389
 21
-24.7986987239
 31
0.0
 11
-0.9959684553
 21
-24.5405510923
 31
0.0
  0
SPLINE
  5
44C
100
AcDbEntity
  8
IMPORT_IGES
100
AcDbSpline
 62
7
  6
CONTINUOUS
 70
0
 71
3
 72
8
 73
4
 74
2
 42
0.0000001
 43
0.0000001
 44
0.0000000001
 12
-0.0523574717
 22
0.0873669417
 32
0.0
 13
-0.0668832013
 23
0.0661051502
 33
0.0
 40
0.0
 40
0.0
 40
0.0
 40
0.0
 40
1.0
 40
1.0
 40
1.0
 40
1.0
 10
-0.9959684553
 20
-24.5405510923
 30
0.0
 10
-1.0134209459
 20
-24.5114287784
 30
0.0
 10
-1.0331440634
 20
-24.4850488196
 30
0.0
 10
-1.0554384638
 20
-24.4630137695
 30
0.0
 11
-0.9959684553
 21
-24.5405510923
 31
0.0
 11
-1.0554384638
 21
-24.4630137695
 31
0.0
  0
SPLINE
  5
44D
100
AcDbEntity
  8
IMPORT_IGES
100
AcDbSpline
 62
7
  6
CONTINUOUS
 70
0
 71
3
 72
9
 73
5
 74
3
 42
0.0000001
 43
0.0000001
 44
0.0000000001
 12
-0.1089310306
 22
0.5456809512
 32
0.0
 13
-0.1092475052
 23
0.545733753
 33
0.0
 40
0.0
 40
0.0
 40
0.0
 40
0.0
 40
0.1980141723
 40
1.0
 40
1.0
 40
1.0
 40
1.0
 10
-0.7708332718
 20
-25.4541762501
 30
0.0
 10
-0.7780232344
 20
-25.4181587294
 30
0.0
 10
-0.8132148797
 20
-25.2364563872
 30
0.0
 10
-0.8475827894
 20
-25.0548983339
 30
0.0
 10
-0.8767877731
 20
-24.9090080887
 30
0.0
 11
-0.7708332718
 21
-25.4541762501
 31
0.0
 11
-0.7919278251
 21
-25.3462051091
 31
0.0
 11
-0.8767877731
 21
-24.9090080887
 31
0.0
  0
SPLINE
  5
44E
100
AcDbEntity
  8
IMPORT_IGES
100
AcDbSpline
 62
7
  6
CONTINUOUS
 70
0
 71
3
 72
9
 73
5
 74
3
 42
0.0000001
 43
0.0000001
 44
0.0000000001
 12
-0.7242720778
 22
0.6826063808
 32
0.0
 13
-0.7618885033
 23
0.2436665522
 33
0.0
 40
0.0
 40
0.0
 40
0.0
 40
0.0
 40
0.2957417834
 40
1.0
 40
1.0
 40
1.0
 40
1.0
 10
-1.0873940564
 20
-23.5177874976
 30
0.0
 10
-1.1587932283
 20
-23.4504957548
 30
0.0
 10
-1.4154300291
 20
-23.2706802558
 30
0.0
 10
-1.6734130094
 20
-23.1734057201
 30
0.0
 10
-1.8522684223
 20
-23.1162043296
 30
0.0
 11
-1.0873940564
 21
-23.5177874976
 31
0.0
 11
-1.3107074198
 21
-23.3513571391
 31
0.0
 11
-1.8522684223
 21
-23.1162043296
 31
0.0
  0
SPLINE
  5
44F
100
AcDbEntity
  8
IMPORT_IGES
100
AcDbSpline
 62
7
  6
CONTINUOUS
 70
0
 71
3
 72
9
 73
5
 74
3
 42
0.0000001
 43
0.0000001
 44
0.0000000001
 12
0.0443426486
 22
0.0221713243
 32
0.0
 13
0.0397038801
 23
0.0264877824
 33
0.0
 40
0.0
 40
0.0
 40
0.0
 40
0.0
 40
0.0529699826
 40
1.0
 40
1.0
 40
1.0
 40
1.0
 10
-1.0124071759
 20
-24.4455753775
 30
0.0
 10
-1.0116242328
 20
-24.445183906
 30
0.0
 10
-0.9968871236
 20
-24.4377331424
 30
0.0
 10
-0.9828443889
 20
-24.4299240244
 30
0.0
 10
-0.9703108001
 20
-24.4215624494
 30
0.0
 11
-1.0124071759
 21
-24.4455753775
 31
0.0
 11
-1.0100649323
 21
-24.4443935668
 31
0.0
 11
-0.9703108001
 21
-24.4215624494
 31
0.0
  0
SPLINE
  5
450
100
AcDbEntity
  8
IMPORT_IGES
100
AcDbSpline
 62
7
  6
CONTINUOUS
 70
0
 71
3
 72
16
 73
12
 74
10
 42
0.0000001
 43
0.0000001
 44
0.0000000001
 12
0.5918942464
 22
0.3948723892
 32
0.0
 13
-0.7723802419
 23
0.7274516852
 33
0.0
 40
0.0
 40
0.0
 40
0.0
 40
0.0
 40
0.063526156
 40
0.2350520403
 40
0.3378746638
 40
0.4554210254
 40
0.5509332403
 40
0.636789735
 40
0.7863333931
 40
0.909918364
 40
1.0
 40
1.0
 40
1.0
 40
1.0
 10
-0.9703108001
 20
-24.4215624494
 30
0.0
 10
-0.9577772114
 20
-24.4132008744
 30
0.0
 10
-0.9142335775
 20
-24.3786876825
 30
0.0
 10
-0.8695078856
 20
-24.2973767438
 30
0.0
 10
-0.8458375147
 20
-24.1807216926
 30
0.0
 10
-0.8436137308
 20
-24.0751893703
 30
0.0
 10
-0.8553333196
 20
-23.9697247449
 30
0.0
 10
-0.883737579
 20
-23.849684712
 30
0.0
 10
-0.937086591
 20
-23.7192867537
 30
0.0
 10
-1.0124112447
 20
-23.6005099624
 30
0.0
 10
-1.0642016311
 20
-23.5396308436
 30
0.0
 10
-1.0873940564
 20
-23.5177874976
 30
0.0
 11
-0.9703108001
 21
-24.4215624494
 31
0.0
 11
-0.9351484833
 21
-24.3929346969
 31
0.0
 11
-0.8681318576
 21
-24.2747287207
 31
0.0
 11
-0.849286835
 21
-24.1833572282
 31
0.0
 11
-0.846457796
 21
-24.0666129516
 31
0.0
 11
-0.858057269
 21
-23.9658185019
 31
0.0
 11
-0.8802366388
 21
-23.8727723203
 31
0.0
 11
-0.9457567379
 21
-23.7128232351
 31
0.0
 11
-1.0218614311
 21
-23.5925626447
 31
0.0
 11
-1.0873940564
 21
-23.5177874976
 31
0.0
  0
SPLINE
  5
451
100
AcDbEntity
  8
ASSI
100
AcDbSpline
 62
7
  6
CONTINUOUS
 70
0
 71
3
 72
9
 73
5
 74
3
 42
0.0000001
 43
0.0000001
 44
0.0000000001
 12
0.1108866591
 22
0.0557557172
 32
0.0
 13
0.0296087567
 23
0.1205316253
 33
0.0
 40
0.0
 40
0.0
 40
0.0
 40
0.0
 40
0.4684215498
 40
1.0
 40
1.0
 40
1.0
 40
1.0
 10
-2.9238617603
 20
-18.3215827912
 30
0.0
 10
-2.9065478601
 20
-18.3128770647
 30
0.0
 10
-2.8744207617
 20
-18.2838423887
 30
0.0
 10
-2.8585794771
 20
-18.2444160999
 30
0.0
 10
-2.8533330181
 20
-18.2230587617
 30
0.0
 11
-2.9238617603
 21
-18.3215827912
 31
0.0
 11
-2.8800232225
 21
-18.2833960142
 31
0.0
 11
-2.8533330181
 21
-18.2230587617
 31
0.0
  0
SPLINE
  5
452
100
AcDbEntity
  8
ASSI
100
AcDbSpline
 62
7
  6
CONTINUOUS
 70
0
 71
3
 72
9
 73
5
 74
3
 42
0.0000001
 43
0.0000001
 44
0.0000000001
 12
0.1108866591
 22
0.0557557172
 32
0.0
 13
0.0296087567
 23
0.1205316253
 33
0.0
 40
0.0
 40
0.0
 40
0.0
 40
0.0
 40
0.4684215498
 40
1.0
 40
1.0
 40
1.0
 40
1.0
 10
12.9860408164
 20
-26.2765340795
 30
0.0
 10
13.0033547166
 20
-26.267828353
 30
0.0
 10
13.035481815
 20
-26.238793677
 30
0.0
 10
13.0513230996
 20
-26.1993673883
 30
0.0
 10
13.0565695586
 20
-26.1780100501
 30
0.0
 11
12.9860408164
 21
-26.2765340795
 31
0.0
 11
13.0298793542
 21
-26.2383473025
 31
0.0
 11
13.0565695586
 21
-26.1780100501
 31
0.0
  0
SPLINE
  5
453
100
AcDbEntity
  8
ASSI
100
AcDbSpline
 62
7
  6
CONTINUOUS
 70
0
 71
3
 72
8
 73
4
 74
2
 42
0.0000001
 43
0.0000001
 44
0.0000000001
 12
0.0017199938
 22
-0.0008550042
 32
0.0
 13
0.0000082581
 23
-0.0019207661
 33
0.0
 40
0.0
 40
0.0
 40
0.0
 40
0.0
 40
1.0
 40
1.0
 40
1.0
 40
1.0
 10
-2.2509949044
 20
-17.1190623857
 30
0.0
 10
-2.2504215732
 20
-17.1193473871
 30
0.0
 10
-2.249979141
 20
-17.1200506375
 30
0.0
 10
-2.2499763883
 20
-17.1206908929
 30
0.0
 11
-2.2509949044
 21
-17.1190623857
 31
0.0
 11
-2.2499763883
 21
-17.1206908929
 31
0.0
  0
SPLINE
  5
454
100
AcDbEntity
  8
ASSI
100
AcDbSpline
 62
7
  6
CONTINUOUS
 70
0
 71
3
 72
8
 73
4
 74
2
 42
0.0000001
 43
0.0000001
 44
0.0000000001
 12
-0.0322886643
 22
0.0161348252
 32
0.0
 13
-0.0345470447
 23
0.0104590691
 33
0.0
 40
0.0
 40
0.0
 40
0.0
 40
0.0
 40
1.0
 40
1.0
 40
1.0
 40
1.0
 10
-6.4443590454
 20
-15.0223803153
 30
0.0
 10
-6.4551219335
 20
-15.0170020402
 30
0.0
 10
-6.4663227713
 20
-15.0123752039
 30
0.0
 10
-6.4778384529
 20
-15.0088888476
 30
0.0
 11
-6.4443590454
 21
-15.0223803153
 31
0.0
 11
-6.4778384529
 21
-15.0088888476
 31
0.0
  0
SPLINE
  5
455
100
AcDbEntity
  8
ASSI
100
AcDbSpline
 62
7
  6
CONTINUOUS
 70
0
 71
3
 72
9
 73
5
 74
3
 42
0.0000001
 43
0.0000001
 44
0.0000000001
 12
-0.0774879905
 22
0.0234593799
 32
0.0
 13
-0.075213758
 23
-0.0299603369
 33
0.0
 40
0.0
 40
0.0
 40
0.0
 40
0.0
 40
0.2646796662
 40
1.0
 40
1.0
 40
1.0
 40
1.0
 10
-6.4778384529
 20
-15.0088888476
 30
0.0
 10
-6.4846749514
 20
-15.0068191073
 30
0.0
 10
-6.510816635
 20
-15.0005061178
 30
0.0
 10
-6.5396022589
 20
-15.001435188
 30
0.0
 10
-6.5580376607
 20
-15.0087786696
 30
0.0
 11
-6.4778384529
 21
-15.0088888476
 31
0.0
 11
-6.4986985177
 21
-15.0039846122
 31
0.0
 11
-6.5580376607
 21
-15.0087786696
 31
0.0
  0
SPLINE
  5
456
100
AcDbEntity
  8
ASSI
100
AcDbSpline
 62
7
  6
CONTINUOUS
 70
0
 71
3
 72
8
 73
4
 74
2
 42
0.0000001
 43
0.0000001
 44
0.0000000001
 12
0.0017199938
 22
-0.0008550042
 32
0.0
 13
0.0000082581
 23
-0.0019207661
 33
0.0
 40
0.0
 40
0.0
 40
0.0
 40
0.0
 40
1.0
 40
1.0
 40
1.0
 40
1.0
 10
13.6589076723
 20
-25.0740136741
 30
0.0
 10
13.6594810035
 20
-25.0742986755
 30
0.0
 10
13.6599234357
 20
-25.0750019259
 30
0.0
 10
13.6599261884
 20
-25.0756421813
 30
0.0
 11
13.6589076723
 21
-25.0740136741
 31
0.0
 11
13.6599261884
 21
-25.0756421813
 31
0.0
  0
SPLINE
  5
457
100
AcDbEntity
  8
ASSI
100
AcDbSpline
 62
7
  6
CONTINUOUS
 70
0
 71
3
 72
8
 73
4
 74
2
 42
0.0000001
 43
0.0000001
 44
0.0000000001
 12
-0.0322886643
 22
0.0161348252
 32
0.0
 13
-0.0345470447
 23
0.0104590691
 33
0.0
 40
0.0
 40
0.0
 40
0.0
 40
0.0
 40
1.0
 40
1.0
 40
1.0
 40
1.0
 10
9.4655435313
 20
-22.9773316036
 30
0.0
 10
9.4547806432
 20
-22.9719533285
 30
0.0
 10
9.4435798054
 20
-22.9673264923
 30
0.0
 10
9.4320641238
 20
-22.9638401359
 30
0.0
 11
9.4655435313
 21
-22.9773316036
 31
0.0
 11
9.4320641238
 21
-22.9638401359
 31
0.0
  0
SPLINE
  5
458
100
AcDbEntity
  8
ASSI
100
AcDbSpline
 62
7
  6
CONTINUOUS
 70
0
 71
3
 72
9
 73
5
 74
3
 42
0.0000001
 43
0.0000001
 44
0.0000000001
 12
-0.0774879905
 22
0.0234593799
 32
0.0
 13
-0.075213758
 23
-0.0299603369
 33
0.0
 40
0.0
 40
0.0
 40
0.0
 40
0.0
 40
0.2646796662
 40
1.0
 40
1.0
 40
1.0
 40
1.0
 10
9.4320641238
 20
-22.9638401359
 30
0.0
 10
9.4252276253
 20
-22.9617703956
 30
0.0
 10
9.3990859416
 20
-22.9554574062
 30
0.0
 10
9.3703003178
 20
-22.9563864763
 30
0.0
 10
9.351864916
 20
-22.963729958
 30
0.0
 11
9.4320641238
 21
-22.9638401359
 31
0.0
 11
9.411204059
 21
-22.9589359006
 31
0.0
 11
9.351864916
 21
-22.963729958
 31
0.0
  0
SPLINE
  5
459
100
AcDbEntity
  8
ASSI
100
AcDbSpline
 62
7
  6
CONTINUOUS
 70
0
 71
3
 72
8
 73
4
 74
2
 42
0.0000001
 43
0.0000001
 44
0.0000000001
 12
0.0017199875
 22
-0.0008550395
 32
0.0
 13
0.0000082235
 23
-0.0019207763
 33
0.0
 40
0.0
 40
0.0
 40
0.0
 40
0.0
 40
1.0
 40
1.0
 40
1.0
 40
1.0
 10
-18.1608974443
 20
-9.0775085748
 30
0.0
 10
-18.1603241151
 20
-9.077793588
 30
0.0
 10
-18.1598817026
 20
-9.0784968559
 30
0.0
 10
-18.1598789614
 20
-9.0791371147
 30
0.0
 11
-18.1608974443
 21
-9.0775085748
 31
0.0
 11
-18.1598789614
 21
-9.0791371147
 31
0.0
  0
SPLINE
  5
45A
100
AcDbEntity
  8
ASSI
100
AcDbSpline
 62
7
  6
CONTINUOUS
 70
0
 71
3
 72
8
 73
4
 74
2
 42
0.0000001
 43
0.0000001
 44
0.0000000001
 12
-0.032268327
 22
0.0161247358
 32
0.0
 13
-0.0345239903
 23
0.0104568695
 33
0.0
 40
0.0
 40
0.0
 40
0.0
 40
0.0
 40
1.0
 40
1.0
 40
1.0
 40
1.0
 10
-22.3542612125
 20
-6.9808266907
 30
0.0
 10
-22.3650173215
 20
-6.9754517788
 30
0.0
 10
-22.3762107821
 20
-6.970827386
 30
0.0
 10
-22.3877187789
 20
-6.9673417628
 30
0.0
 11
-22.3542612125
 21
-6.9808266907
 31
0.0
 11
-22.3877187789
 21
-6.9673417628
 31
0.0
  0
SPLINE
  5
45B
100
AcDbEntity
  8
ASSI
100
AcDbSpline
 62
7
  6
CONTINUOUS
 70
0
 71
3
 72
9
 73
5
 74
3
 42
0.0000001
 43
0.0000001
 44
0.0000000001
 12
-0.0479673986
 22
0.0145287038
 32
0.0
 13
-0.0500426309
 23
-0.0027730218
 33
0.0
 40
0.0
 40
0.0
 40
0.0
 40
0.0
 40
0.257878631
 40
1.0
 40
1.0
 40
1.0
 40
1.0
 10
-22.3877187789
 20
-6.9673417628
 30
0.0
 10
-22.3918420346
 20
-6.9660928821
 30
0.0
 10
-22.4079858048
 20
-6.9618180527
 30
0.0
 10
-22.424885869
 20
-6.9600523009
 30
0.0
 10
-22.4372651043
 20
-6.9607382739
 30
0.0
 11
-22.3877187789
 21
-6.9673417628
 31
0.0
 11
-22.4002185959
 21
-6.9640549649
 31
0.0
 11
-22.4372651043
 21
-6.9607382739
 31
0.0
  0
SPLINE
  5
45C
100
AcDbEntity
  8
ASSI
100
AcDbSpline
 62
7
  6
CONTINUOUS
 70
0
 71
3
 72
8
 73
4
 74
2
 42
0.0000001
 43
0.0000001
 44
0.0000000001
 12
-0.0213414878
 22
-0.0011825999
 32
0.0
 13
-0.0206349063
 23
-0.005572996
 33
0.0
 40
0.0
 40
0.0
 40
0.0
 40
0.0
 40
1.0
 40
1.0
 40
1.0
 40
1.0
 10
-22.4372651043
 20
-6.9607382739
 30
0.0
 10
-22.4443789335
 20
-6.9611324738
 30
0.0
 10
-22.4515025978
 20
-6.96219434
 30
0.0
 10
-22.4583808999
 20
-6.9640520053
 30
0.0
 11
-22.4372651043
 21
-6.9607382739
 31
0.0
 11
-22.4583808999
 21
-6.9640520053
 31
0.0
  0
SPLINE
  5
45D
100
AcDbEntity
  8
ASSI
100
AcDbSpline
 62
7
  6
CONTINUOUS
 70
0
 71
3
 72
8
 73
4
 74
2
 42
0.0000001
 43
0.0000001
 44
0.0000000001
 12
-0.032268327
 22
0.0161247358
 32
0.0
 13
-0.0345239903
 23
0.0104568695
 33
0.0
 40
0.0
 40
0.0
 40
0.0
 40
0.0
 40
1.0
 40
1.0
 40
1.0
 40
1.0
 10
25.3754465176
 20
-30.8456805557
 30
0.0
 10
25.3646904086
 20
-30.8403056438
 30
0.0
 10
25.353496948
 20
-30.8356812511
 30
0.0
 10
25.3419889512
 20
-30.8321956279
 30
0.0
 11
25.3754465176
 21
-30.8456805557
 31
0.0
 11
25.3419889512
 21
-30.8321956279
 31
0.0
  0
SPLINE
  5
45E
100
AcDbEntity
  8
ASSI
100
AcDbSpline
 62
7
  6
CONTINUOUS
 70
0
 71
3
 72
9
 73
5
 74
3
 42
0.0000001
 43
0.0000001
 44
0.0000000001
 12
-0.0479673986
 22
0.0145287038
 32
0.0
 13
-0.0500426309
 23
-0.0027730218
 33
0.0
 40
0.0
 40
0.0
 40
0.0
 40
0.0
 40
0.257878631
 40
1.0
 40
1.0
 40
1.0
 40
1.0
 10
25.3419889512
 20
-30.8321956279
 30
0.0
 10
25.3378656955
 20
-30.8309467471
 30
0.0
 10
25.3217219253
 20
-30.8266719178
 30
0.0
 10
25.3048218611
 20
-30.824906166
 30
0.0
 10
25.2924426258
 20
-30.8255921389
 30
0.0
 11
25.3419889512
 21
-30.8321956279
 31
0.0
 11
25.3294891342
 21
-30.82890883
 31
0.0
 11
25.2924426258
 21
-30.8255921389
 31
0.0
  0
SPLINE
  5
45F
100
AcDbEntity
  8
ASSI
100
AcDbSpline
 62
7
  6
CONTINUOUS
 70
0
 71
3
 72
8
 73
4
 74
2
 42
0.0000001
 43
0.0000001
 44
0.0000000001
 12
-0.0213414878
 22
-0.0011825999
 32
0.0
 13
-0.0206349063
 23
-0.005572996
 33
0.0
 40
0.0
 40
0.0
 40
0.0
 40
0.0
 40
1.0
 40
1.0
 40
1.0
 40
1.0
 10
25.2924426258
 20
-30.8255921389
 30
0.0
 10
25.2853287966
 20
-30.8259863389
 30
0.0
 10
25.2782051323
 20
-30.827048205
 30
0.0
 10
25.2713268301
 20
-30.8289058703
 30
0.0
 11
25.2924426258
 21
-30.8255921389
 31
0.0
 11
25.2713268301
 21
-30.8289058703
 31
0.0
  0
SPLINE
  5
460
100
AcDbEntity
  8
RACCORDO
100
AcDbSpline
 62
7
  6
CONTINUOUS
 70
0
 71
3
 72
9
 73
5
 74
3
 42
0.0000001
 43
0.0000001
 44
0.0000000001
 12
0.0354572649
 22
0.0257262234
 32
0.0
 13
0.0312990557
 23
0.030650046
 33
0.0
 40
0.0
 40
0.0
 40
0.0
 40
0.0
 40
0.2592735979
 40
1.0
 40
1.0
 40
1.0
 40
1.0
 10
-32.6048541946
 20
28.632744058
 30
0.0
 10
-32.6017898171
 20
28.6349674349
 30
0.0
 10
-32.5901131996
 20
28.6437356283
 30
0.0
 10
-32.5790289388
 20
28.6533069716
 30
0.0
 10
-32.5713009265
 20
28.6608747377
 30
0.0
 11
-32.6048541946
 21
28.632744058
 31
0.0
 11
-32.5957747597
 21
28.639568147
 31
0.0
 11
-32.5713009265
 21
28.6608747377
 31
0.0
  0
SPLINE
  5
461
100
AcDbEntity
  8
RACCORDO
100
AcDbSpline
 62
7
  6
CONTINUOUS
 70
0
 71
3
 72
9
 73
5
 74
3
 42
0.0000001
 43
0.0000001
 44
0.0000000001
 12
0.0919942316
 22
0.0900866613
 32
0.0
 13
0.0000054553
 23
0.1287576995
 33
0.0
 40
0.0
 40
0.0
 40
0.0
 40
0.0
 40
0.5333146714
 40
1.0
 40
1.0
 40
1.0
 40
1.0
 10
-32.5713009265
 20
28.6608747377
 30
0.0
 10
-32.5549469687
 20
28.6768895838
 30
0.0
 10
-32.527700623
 20
28.7112828875
 30
0.0
 10
-32.5166085053
 20
28.7545287291
 30
0.0
 10
-32.5166076566
 20
28.7745585056
 30
0.0
 11
-32.5713009265
 21
28.6608747377
 31
0.0
 11
-32.5304798758
 21
28.7160923697
 31
0.0
 11
-32.5166076566
 21
28.7745585056
 31
0.0
  0
SPLINE
  5
462
100
AcDbEntity
  8
RACCORDO
100
AcDbSpline
 62
7
  6
CONTINUOUS
 70
0
 71
3
 72
9
 73
5
 74
3
 42
0.0000001
 43
0.0000001
 44
0.0000000001
 12
0.0354572649
 22
0.0257262234
 32
0.0
 13
0.0312990557
 23
0.030650046
 33
0.0
 40
0.0
 40
0.0
 40
0.0
 40
0.0
 40
0.2592735979
 40
1.0
 40
1.0
 40
1.0
 40
1.0
 10
-32.6048541946
 20
9.5801851748
 30
0.0
 10
-32.6017898171
 20
9.5824085516
 30
0.0
 10
-32.5901131996
 20
9.591176745
 30
0.0
 10
-32.5790289388
 20
9.6007480884
 30
0.0
 10
-32.5713009265
 20
9.6083158545
 30
0.0
 11
-32.6048541946
 21
9.5801851748
 31
0.0
 11
-32.5957747597
 21
9.5870092637
 31
0.0
 11
-32.5713009265
 21
9.6083158545
 31
0.0
  0
SPLINE
  5
463
100
AcDbEntity
  8
RACCORDO
100
AcDbSpline
 62
7
  6
CONTINUOUS
 70
0
 71
3
 72
9
 73
5
 74
3
 42
0.0000001
 43
0.0000001
 44
0.0000000001
 12
0.0919942316
 22
0.0900866613
 32
0.0
 13
0.0000054553
 23
0.1287576995
 33
0.0
 40
0.0
 40
0.0
 40
0.0
 40
0.0
 40
0.5333146714
 40
1.0
 40
1.0
 40
1.0
 40
1.0
 10
-32.5713009265
 20
9.6083158545
 30
0.0
 10
-32.5549469687
 20
9.6243307005
 30
0.0
 10
-32.527700623
 20
9.6587240042
 30
0.0
 10
-32.5166085053
 20
9.7019698459
 30
0.0
 10
-32.5166076566
 20
9.7219996223
 30
0.0
 11
-32.5713009265
 21
9.6083158545
 31
0.0
 11
-32.5304798758
 21
9.6635334865
 31
0.0
 11
-32.5166076566
 21
9.7219996223
 31
0.0
  0
SPLINE
  5
464
100
AcDbEntity
  8
DRAFT
100
AcDbSpline
 62
7
  6
CONTINUOUS
 70
0
 71
3
 72
9
 73
5
 74
3
 42
0.0000001
 43
0.0000001
 44
0.0000000001
 12
-0.033283447
 22
-0.1354905919
 32
0.0
 13
-0.1246408007
 23
-0.0626909815
 33
0.0
 40
0.0
 40
0.0
 40
0.0
 40
0.0
 40
0.5315820734
 40
1.0
 40
1.0
 40
1.0
 40
1.0
 10
-18.7377198218
 20
-10.1642376077
 30
0.0
 10
-18.7436174498
 20
-10.1882457309
 30
0.0
 10
-18.7614217989
 20
-10.2325631723
 30
0.0
 10
-18.7975235033
 20
-10.2652159832
 30
0.0
 10
-18.8169848318
 20
-10.2750045097
 30
0.0
 11
-18.7377198218
 21
-10.1642376077
 31
0.0
 11
-18.7677168529
 21
-10.2320662602
 31
0.0
 11
-18.8169848318
 21
-10.2750045097
 31
0.0
  0
SPLINE
  5
465
100
AcDbEntity
  8
RACCORDO
100
AcDbSpline
 62
7
  6
CONTINUOUS
 70
0
 71
3
 72
10
 73
6
 74
4
 42
0.0000001
 43
0.0000001
 44
0.0000000001
 12
-0.1719057115
 22
0.0858473227
 32
0.0
 13
-0.1728448914
 23
-0.0839403357
 33
0.0
 40
0.0
 40
0.0
 40
0.0
 40
0.0
 40
0.4083746967
 40
0.6803982949
 40
1.0
 40
1.0
 40
1.0
 40
1.0
 10
-31.6520071545
 20
-3.4930239072
 30
0.0
 10
-31.6754078021
 20
-3.481337949
 30
0.0
 10
-31.722429356
 20
-3.4802350997
 30
0.0
 10
-31.7839723667
 20
-3.4964076048
 30
0.0
 10
-31.8191453174
 20
-3.511205797
 30
0.0
 10
-31.8375591581
 20
-3.5201482884
 30
0.0
 11
-31.6520071545
 21
-3.4930239072
 31
0.0
 11
-31.7299979872
 21
-3.4843753622
 31
0.0
 11
-31.7807826606
 21
-3.4967438343
 31
0.0
 11
-31.8375591581
 21
-3.5201482884
 31
0.0
  0
SPLINE
  5
466
100
AcDbEntity
  8
RACCORDO
100
AcDbSpline
 62
7
  6
CONTINUOUS
 70
0
 71
3
 72
9
 73
5
 74
3
 42
0.0000001
 43
0.0000001
 44
0.0000000001
 12
0.1211461399
 22
0.0559349775
 32
0.0
 13
0.1185133153
 23
-0.0613164172
 33
0.0
 40
0.0
 40
0.0
 40
0.0
 40
0.0
 40
0.4648265797
 40
1.0
 40
1.0
 40
1.0
 40
1.0
 10
-5.1552453646
 20
-16.7793305137
 30
0.0
 10
-5.136474716
 20
-16.7706638256
 30
0.0
 10
-5.0901118049
 20
-16.7640338791
 30
0.0
 10
-5.0469031969
 20
-16.7791261549
 30
0.0
 10
-5.0257614715
 20
-16.7900644605
 30
0.0
 11
-5.1552453646
 21
-16.7793305137
 31
0.0
 11
-5.0940548198
 21
-16.7691936597
 31
0.0
 11
-5.0257614715
 21
-16.7900644605
 31
0.0
  0
SPLINE
  5
467
100
AcDbEntity
  8
RACCORDO
100
AcDbSpline
 62
7
  6
CONTINUOUS
 70
0
 71
3
 72
11
 73
7
 74
5
 42
0.0000001
 43
0.0000001
 44
0.0000000001
 12
-0.0000085169
 22
-0.116911279
 32
0.0
 13
-0.1038204618
 23
-0.0537546177
 33
0.0
 40
0.0
 40
0.0
 40
0.0
 40
0.0
 40
0.2077778344
 40
0.4361450685
 40
0.6987172548
 40
1.0
 40
1.0
 40
1.0
 40
1.0
 10
-28.8177099859
 20
15.0176818477
 30
0.0
 10
-28.8177105758
 20
15.0095846569
 30
0.0
 10
-28.8211939626
 20
14.992461164
 30
0.0
 10
-28.8357852312
 20
14.9689783128
 30
0.0
 10
-28.8586060976
 20
14.9477955764
 30
0.0
 10
-28.8774485634
 20
14.936247495
 30
0.0
 10
-28.8878750013
 20
14.9308490487
 30
0.0
 11
-28.8177099859
 21
15.0176818477
 31
0.0
 11
-28.8223060422
 21
14.9938290333
 31
0.0
 11
-28.8359125991
 21
14.9708576928
 31
0.0
 11
-28.8580548053
 21
14.9495957918
 31
0.0
 11
-28.8878750013
 21
14.9308490487
 31
0.0
  0
SPLINE
  5
468
100
AcDbEntity
  8
RACCORDO
100
AcDbSpline
 62
7
  6
CONTINUOUS
 70
0
 71
3
 72
11
 73
7
 74
5
 42
0.0000001
 43
0.0000001
 44
0.0000000001
 12
-0.0000085169
 22
-0.116911279
 32
0.0
 13
-0.1038204618
 23
-0.0537546177
 33
0.0
 40
0.0
 40
0.0
 40
0.0
 40
0.0
 40
0.2077778344
 40
0.4361450684
 40
0.6987172547
 40
1.0
 40
1.0
 40
1.0
 40
1.0
 10
-28.8177099859
 20
20.5031739806
 30
0.0
 10
-28.8177105758
 20
20.4950767899
 30
0.0
 10
-28.8211939626
 20
20.4779532969
 30
0.0
 10
-28.8357852312
 20
20.4544704457
 30
0.0
 10
-28.8586060976
 20
20.4332877094
 30
0.0
 10
-28.8774485634
 20
20.4217396279
 30
0.0
 10
-28.8878750013
 20
20.4163411816
 30
0.0
 11
-28.8177099859
 21
20.5031739806
 31
0.0
 11
-28.8223060422
 21
20.4793211662
 31
0.0
 11
-28.8359125991
 21
20.4563498257
 31
0.0
 11
-28.8580548053
 21
20.4350879247
 31
0.0
 11
-28.8878750013
 21
20.4163411816
 31
0.0
  0
SPLINE
  5
469
100
AcDbEntity
  8
RACCORDO
100
AcDbSpline
 62
7
  6
CONTINUOUS
 70
0
 71
3
 72
9
 73
5
 74
3
 42
0.0000001
 43
0.0000001
 44
0.0000000001
 12
-0.0999894024
 22
0.0499208791
 32
0.0
 13
-0.1008070436
 23
-0.0482484687
 33
0.0
 40
0.0
 40
0.0
 40
0.0
 40
0.0
 40
0.4650457659
 40
1.0
 40
1.0
 40
1.0
 40
1.0
 10
-28.9559451789
 20
20.726795668
 30
0.0
 10
-28.9714450616
 20
20.7345341659
 30
0.0
 10
-29.0100797391
 20
20.7412905865
 30
0.0
 10
-29.0466490544
 20
20.7297930175
 30
0.0
 10
-29.0646247727
 20
20.7211894433
 30
0.0
 11
-28.9559451789
 21
20.726795668
 31
0.0
 11
-29.0069321771
 21
20.7368705096
 31
0.0
 11
-29.0646247727
 21
20.7211894433
 31
0.0
  0
SPLINE
  5
46A
100
AcDbEntity
  8
RACCORDO
100
AcDbSpline
 62
7
  6
CONTINUOUS
 70
0
 71
3
 72
9
 73
5
 74
3
 42
0.0000001
 43
0.0000001
 44
0.0000000001
 12
-0.1000017657
 22
0.0499760996
 32
0.0
 13
-0.1008392778
 23
-0.0482638967
 33
0.0
 40
0.0
 40
0.0
 40
0.0
 40
0.0
 40
0.4650416511
 40
1.0
 40
1.0
 40
1.0
 40
1.0
 10
-29.3335784041
 20
20.9156122969
 30
0.0
 10
-29.3490800662
 20
20.9233592862
 30
0.0
 10
-29.387726915
 20
20.9301291222
 30
0.0
 10
-29.4243094085
 20
20.9186289549
 30
0.0
 10
-29.442291013
 20
20.9100225634
 30
0.0
 11
-29.3335784041
 21
20.9156122969
 31
0.0
 11
-29.3845784097
 21
20.9257046584
 31
0.0
 11
-29.442291013
 21
20.9100225634
 31
0.0
  0
SPLINE
  5
46B
100
AcDbEntity
  8
RACCORDO
100
AcDbSpline
 62
7
  6
CONTINUOUS
 70
0
 71
3
 72
9
 73
5
 74
3
 42
0.0000001
 43
0.0000001
 44
0.0000000001
 12
0.0969325573
 22
0.0343663119
 32
0.0
 13
0.0913430154
 23
-0.0472590478
 33
0.0
 40
0.0
 40
0.0
 40
0.0
 40
0.0
 40
0.4660991936
 40
1.0
 40
1.0
 40
1.0
 40
1.0
 10
-29.5422317809
 20
20.9222087094
 30
0.0
 10
-29.5271717187
 20
20.9275480795
 30
0.0
 10
-29.4915412882
 20
20.9302975426
 30
0.0
 10
-29.4585470496
 20
20.9184331114
 30
0.0
 10
-29.442291013
 20
20.9100225634
 30
0.0
 11
-29.5422317809
 21
20.9222087094
 31
0.0
 11
-29.4945297975
 21
20.9269362785
 31
0.0
 11
-29.442291013
 21
20.9100225634
 31
0.0
  0
SPLINE
  5
46C
100
AcDbEntity
  8
RACCORDO
100
AcDbSpline
 62
7
  6
CONTINUOUS
 70
0
 71
3
 72
11
 73
7
 74
5
 42
0.0000001
 43
0.0000001
 44
0.0000000001
 12
0.1712669468
 22
0.0869973878
 32
0.0
 13
0.0003984659
 23
0.1920956891
 33
0.0
 40
0.0
 40
0.0
 40
0.0
 40
0.0
 40
0.3609436533
 40
0.647566348
 40
0.8565838892
 40
1.0
 40
1.0
 40
1.0
 40
1.0
 10
-31.6254594325
 20
-3.8859662024
 30
0.0
 10
-31.6048535267
 20
-3.8754991507
 30
0.0
 10
-31.5685357267
 20
-3.8553806367
 30
0.0
 10
-31.5237481247
 20
-3.8233122262
 30
0.0
 10
-31.4948009763
 20
-3.7942358385
 30
0.0
 10
-31.4851492946
 20
-3.7722892517
 30
0.0
 10
-31.4851302458
 20
-3.7631060461
 30
0.0
 11
-31.6254594325
 21
-3.8859662024
 31
0.0
 11
-31.5651314876
 21
-3.8517901612
 31
0.0
 11
-31.5208489661
 21
-3.8190707012
 31
0.0
 11
-31.4940497155
 21
-3.7891718801
 31
0.0
 11
-31.4851302458
 21
-3.7631060461
 31
0.0
  0
SPLINE
  5
46D
100
AcDbEntity
  8
RACCORDO
100
AcDbSpline
 62
7
  6
CONTINUOUS
 70
0
 71
3
 72
11
 73
7
 74
5
 42
0.0000001
 43
0.0000001
 44
0.0000000001
 12
0.3974925818
 22
-0.1920748414
 32
0.0
 13
-0.0061350168
 23
-0.4414243523
 33
0.0
 40
0.0
 40
0.0
 40
0.0
 40
0.0
 40
0.230440651
 40
0.4885148136
 40
0.7528953886
 40
1.0
 40
1.0
 40
1.0
 40
1.0
 10
-3.4874708129
 20
-17.5592097898
 30
0.0
 10
-3.4569379964
 20
-17.5739637403
 30
0.0
 10
-3.398569866
 20
-17.6185404965
 30
0.0
 10
-3.3315186161
 20
-17.7080344544
 30
0.0
 10
-3.2865478742
 20
-17.8130799416
 30
0.0
 10
-3.2748657569
 20
-17.8886683727
 30
0.0
 10
-3.2753710872
 20
-17.9250277037
 30
0.0
 11
-3.4874708129
 21
-17.5592097898
 31
0.0
 11
-3.4051785941
 21
-17.6190209772
 31
0.0
 11
-3.3359837831
 21
-17.709532863
 31
0.0
 11
-3.2904028873
 21
-17.8169797894
 31
0.0
 11
-3.2753710872
 21
-17.9250277037
 31
0.0
  0
SPLINE
  5
46E
100
AcDbEntity
  8
RACCORDO
100
AcDbSpline
 62
7
  6
CONTINUOUS
 70
0
 71
3
 72
14
 73
10
 74
8
 42
0.0000001
 43
0.0000001
 44
0.0000000001
 12
0.3943528897
 22
-0.2003465686
 32
0.0
 13
-0.0117720728
 23
-0.4421700662
 33
0.0
 40
0.0
 40
0.0
 40
0.0
 40
0.0
 40
0.1107719331
 40
0.2307901487
 40
0.3575288845
 40
0.4888703697
 40
0.752742191
 40
0.879807714
 40
1.0
 40
1.0
 40
1.0
 40
1.0
 10
-31.8375591565
 20
-3.5201482876
 30
0.0
 10
-31.8229980792
 20
-3.5275458798
 30
0.0
 10
-31.7937352285
 20
-3.5452253216
 30
0.0
 10
-31.753529954
 20
-3.5796659355
 30
0.0
 10
-31.7169691235
 20
-3.6219892155
 30
0.0
 10
-31.6741753709
 20
-3.6861169483
 30
0.0
 10
-31.6436794237
 20
-3.7579036611
 30
0.0
 10
-31.6277186996
 20
-3.8316854278
 30
0.0
 10
-31.6249877457
 20
-3.8682510342
 30
0.0
 10
-31.6254593831
 20
-3.8859661779
 30
0.0
 11
-31.8375591565
 21
-3.5201482876
 31
0.0
 11
-31.79567007
 21
-3.5455657722
 31
0.0
 11
-31.7552054871
 21
-3.57992964
 31
0.0
 11
-31.7183296509
 21
-3.6221539071
 31
0.0
 11
-31.6860712678
 21
-3.6704708264
 31
0.0
 11
-31.6405293194
 21
-3.7779367309
 31
0.0
 11
-31.6288218957
 21
-3.8329083573
 31
0.0
 11
-31.6254593831
 21
-3.8859661779
 31
0.0
  0
SPLINE
  5
46F
100
AcDbEntity
  8
RACCORDO
100
AcDbSpline
 62
7
  6
CONTINUOUS
 70
0
 71
3
 72
11
 73
7
 74
5
 42
0.0000001
 43
0.0000001
 44
0.0000000001
 12
0.3974925818
 22
-0.1920748414
 32
0.0
 13
-0.0061350168
 23
-0.4414243523
 33
0.0
 40
0.0
 40
0.0
 40
0.0
 40
0.0
 40
0.230440651
 40
0.4885148136
 40
0.7528953886
 40
1.0
 40
1.0
 40
1.0
 40
1.0
 10
5.5634959863
 20
-22.0846931894
 30
0.0
 10
5.5940288028
 20
-22.0994471399
 30
0.0
 10
5.6523969332
 20
-22.1440238961
 30
0.0
 10
5.7194481831
 20
-22.233517854
 30
0.0
 10
5.7644189249
 20
-22.3385633412
 30
0.0
 10
5.7761010423
 20
-22.4141517723
 30
0.0
 10
5.7755957119
 20
-22.4505111033
 30
0.0
 11
5.5634959863
 21
-22.0846931894
 31
0.0
 11
5.6457882051
 21
-22.1445043768
 31
0.0
 11
5.7149830161
 21
-22.2350162626
 31
0.0
 11
5.7605639119
 21
-22.342463189
 31
0.0
 11
5.7755957119
 21
-22.4505111033
 31
0.0
  0
SPLINE
  5
470
100
AcDbEntity
  8
RACCORDO
100
AcDbSpline
 62
7
  6
CONTINUOUS
 70
0
 71
3
 72
9
 73
5
 74
3
 42
0.0000001
 43
0.0000001
 44
0.0000000001
 12
-0.1200027248
 22
0.0599767827
 32
0.0
 13
-0.1210098253
 23
-0.0579179644
 33
0.0
 40
0.0
 40
0.0
 40
0.0
 40
0.0
 40
0.465035448
 40
1.0
 40
1.0
 40
1.0
 40
1.0
 10
-4.8953035802
 20
-16.7833580727
 30
0.0
 10
-4.9139054205
 20
-16.7740609627
 30
0.0
 10
-4.9602826948
 20
-16.7659361798
 30
0.0
 10
-5.0041828158
 20
-16.7797364412
 30
0.0
 10
-5.0257614715
 20
-16.7900644605
 30
0.0
 11
-4.8953035802
 21
-16.7833580727
 31
0.0
 11
-4.9565038695
 21
-16.7712458041
 31
0.0
 11
-5.0257614715
 21
-16.7900644605
 31
0.0
  0
SPLINE
  5
471
100
AcDbEntity
  8
RACCORDO
100
AcDbSpline
 62
7
  6
CONTINUOUS
 70
0
 71
3
 72
9
 73
5
 74
3
 42
0.0000001
 43
0.0000001
 44
0.0000000001
 12
-0.1199868676
 22
0.0599059461
 32
0.0
 13
-0.1209684762
 23
-0.0578981739
 33
0.0
 40
0.0
 40
0.0
 40
0.0
 40
0.0
 40
0.4650398515
 40
1.0
 40
1.0
 40
1.0
 40
1.0
 10
-3.357055272
 20
-17.5524822466
 30
0.0
 10
-3.3756548304
 20
-17.5431960292
 30
0.0
 10
-3.422016492
 20
-17.535088456
 30
0.0
 10
-3.4658997082
 20
-17.5488853845
 30
0.0
 10
-3.4874708129
 20
-17.5592097898
 30
0.0
 11
-3.357055272
 21
-17.5524822466
 31
0.0
 11
-3.4182388771
 21
-17.5403924527
 31
0.0
 11
-3.4874708129
 21
-17.5592097898
 31
0.0
  0
SPLINE
  5
472
100
AcDbEntity
  8
RACCORDO
100
AcDbSpline
 62
7
  6
CONTINUOUS
 70
0
 71
3
 72
11
 73
7
 74
5
 42
0.0000001
 43
0.0000001
 44
0.0000000001
 12
-0.0000124808
 22
-0.1402926118
 32
0.0
 13
-0.1245837348
 23
-0.064505117
 33
0.0
 40
0.0
 40
0.0
 40
0.0
 40
0.0
 40
0.2077729763
 40
0.4361383275
 40
0.6987155742
 40
1.0
 40
1.0
 40
1.0
 40
1.0
 10
-3.1911730731
 20
-17.820829304
 30
0.0
 10
-3.1911739375
 20
-17.8305456418
 30
0.0
 10
-3.1953537395
 20
-17.8510933749
 30
0.0
 10
-3.2128633338
 20
-17.8792724623
 30
0.0
 10
-3.2402483765
 20
-17.904691659
 30
0.0
 10
-3.2628593742
 20
-17.9185495747
 30
0.0
 10
-3.2753710872
 20
-17.9250277037
 30
0.0
 11
-3.1911730731
 21
-17.820829304
 31
0.0
 11
-3.1966882289
 21
-17.8494518135
 31
0.0
 11
-3.2130159331
 21
-17.8770169674
 31
0.0
 11
-3.2395869439
 21
-17.9025315453
 31
0.0
 11
-3.2753710872
 21
-17.9250277037
 31
0.0
  0
SPLINE
  5
473
100
AcDbEntity
  8
RACCORDO
100
AcDbSpline
 62
7
  6
CONTINUOUS
 70
0
 71
3
 72
9
 73
5
 74
3
 42
0.0000001
 43
0.0000001
 44
0.0000000001
 12
-0.1200027248
 22
0.0599767827
 32
0.0
 13
-0.1210098253
 23
-0.0579179644
 33
0.0
 40
0.0
 40
0.0
 40
0.0
 40
0.0
 40
0.465035448
 40
1.0
 40
1.0
 40
1.0
 40
1.0
 10
4.1556632189
 20
-21.3088414723
 30
0.0
 10
4.1370613786
 20
-21.2995443623
 30
0.0
 10
4.0906841043
 20
-21.2914195793
 30
0.0
 10
4.0467839834
 20
-21.3052198407
 30
0.0
 10
4.0252053277
 20
-21.31554786
 30
0.0
 11
4.1556632189
 21
-21.3088414723
 31
0.0
 11
4.0944629297
 21
-21.2967292037
 31
0.0
 11
4.0252053277
 21
-21.31554786
 31
0.0
  0
SPLINE
  5
474
100
AcDbEntity
  8
RACCORDO
100
AcDbSpline
 62
7
  6
CONTINUOUS
 70
0
 71
3
 72
9
 73
5
 74
3
 42
0.0000001
 43
0.0000001
 44
0.0000000001
 12
-0.1199868676
 22
0.0599059461
 32
0.0
 13
-0.1209684762
 23
-0.0578981739
 33
0.0
 40
0.0
 40
0.0
 40
0.0
 40
0.0
 40
0.4650398515
 40
1.0
 40
1.0
 40
1.0
 40
1.0
 10
5.6939115272
 20
-22.0779656462
 30
0.0
 10
5.6753119688
 20
-22.0686794288
 30
0.0
 10
5.6289503072
 20
-22.0605718556
 30
0.0
 10
5.585067091
 20
-22.0743687841
 30
0.0
 10
5.5634959863
 20
-22.0846931894
 30
0.0
 11
5.6939115272
 21
-22.0779656462
 31
0.0
 11
5.6327279221
 21
-22.0658758523
 31
0.0
 11
5.5634959863
 21
-22.0846931894
 31
0.0
  0
SPLINE
  5
475
100
AcDbEntity
  8
RACCORDO
100
AcDbSpline
 62
7
  6
CONTINUOUS
 70
0
 71
3
 72
11
 73
7
 74
5
 42
0.0000001
 43
0.0000001
 44
0.0000000001
 12
-0.0000124808
 22
-0.1402926118
 32
0.0
 13
-0.1245837348
 23
-0.064505117
 33
0.0
 40
0.0
 40
0.0
 40
0.0
 40
0.0
 40
0.2077729763
 40
0.4361383275
 40
0.6987155742
 40
1.0
 40
1.0
 40
1.0
 40
1.0
 10
5.8597937261
 20
-22.3463127036
 30
0.0
 10
5.8597928617
 20
-22.3560290414
 30
0.0
 10
5.8556130597
 20
-22.3765767745
 30
0.0
 10
5.8381034654
 20
-22.4047558619
 30
0.0
 10
5.8107184227
 20
-22.4301750586
 30
0.0
 10
5.7881074249
 20
-22.4440329743
 30
0.0
 10
5.7755957119
 20
-22.4505111033
 30
0.0
 11
5.8597937261
 21
-22.3463127036
 31
0.0
 11
5.8542785703
 21
-22.3749352131
 31
0.0
 11
5.8379508661
 21
-22.402500367
 31
0.0
 11
5.8113798553
 21
-22.4280149449
 31
0.0
 11
5.7755957119
 21
-22.4505111033
 31
0.0
  0
SPLINE
  5
476
100
AcDbEntity
  8
ASSI
100
AcDbSpline
 62
7
  6
CONTINUOUS
 70
0
 71
3
 72
11
 73
7
 74
5
 42
0.0000001
 43
0.0000001
 44
0.0000000001
 12
0.0483159092
 22
0.0240461291
 32
0.0
 13
0.048326814
 23
-0.0240242057
 33
0.0
 40
0.0
 40
0.0
 40
0.0
 40
0.0
 40
0.4141056993
 40
0.7151930062
 40
0.9055096016
 40
1.0
 40
1.0
 40
1.0
 40
1.0
 10
-18.211252176
 20
-9.0955688716
 30
0.0
 10
-18.2045828782
 20
-9.0922496585
 30
0.0
 10
-18.192957163
 20
-9.0868537129
 30
0.0
 10
-18.1777295166
 20
-9.0805817113
 30
0.0
 10
-18.1679329057
 20
-9.0775865802
 30
0.0
 10
-18.1624195843
 20
-9.0767518892
 30
0.0
 10
-18.1608974443
 20
-9.0775085748
 30
0.0
 11
-18.211252176
 21
-9.0955688716
 31
0.0
 11
-18.1909854235
 21
-9.0861492583
 31
0.0
 11
-18.1758844106
 21
-9.0801491813
 31
0.0
 11
-18.1659952155
 21
-9.077374123
 31
0.0
 11
-18.1608974443
 21
-9.0775085748
 31
0.0
  0
SPLINE
  5
477
100
AcDbEntity
  8
RACCORDO
100
AcDbSpline
 62
7
  6
CONTINUOUS
 70
0
 71
3
 72
9
 73
5
 74
3
 42
0.0000001
 43
0.0000001
 44
0.0000000001
 12
0.1211461399
 22
0.0559349775
 32
0.0
 13
0.1185133153
 23
-0.0613164172
 33
0.0
 40
0.0
 40
0.0
 40
0.0
 40
0.0
 40
0.4648265797
 40
1.0
 40
1.0
 40
1.0
 40
1.0
 10
3.8957214346
 20
-21.3048139133
 30
0.0
 10
3.9144920832
 20
-21.2961472252
 30
0.0
 10
3.9608549943
 20
-21.2895172787
 30
0.0
 10
4.0040636023
 20
-21.3046095545
 30
0.0
 10
4.0252053277
 20
-21.31554786
 30
0.0
 11
3.8957214346
 21
-21.3048139133
 31
0.0
 11
3.9569119794
 21
-21.2946770593
 31
0.0
 11
4.0252053277
 21
-21.31554786
 31
0.0
  0
SPLINE
  5
478
100
AcDbEntity
  8
ASSI
100
AcDbSpline
 62
7
  6
CONTINUOUS
 70
0
 71
3
 72
11
 73
7
 74
5
 42
0.0000001
 43
0.0000001
 44
0.0000000001
 12
0.048315538
 22
0.0240467905
 32
0.0
 13
0.0483272103
 23
-0.0240233238
 33
0.0
 40
0.0
 40
0.0
 40
0.0
 40
0.0
 40
0.4141046671
 40
0.7151915315
 40
0.9055086154
 40
1.0
 40
1.0
 40
1.0
 40
1.0
 10
13.6085529774
 20
-25.0920739887
 30
0.0
 10
13.6152222073
 20
-25.0887546926
 30
0.0
 10
13.6268479607
 20
-25.0833588957
 30
0.0
 10
13.642075547
 20
-25.0770868631
 30
0.0
 10
13.6518721813
 20
-25.0740917033
 30
0.0
 10
13.6573855039
 20
-25.0732570084
 30
0.0
 10
13.6589076723
 20
-25.0740136741
 30
0.0
 11
13.6085529774
 21
-25.0920739887
 31
0.0
 11
13.6288196677
 21
-25.0826544107
 31
0.0
 11
13.6439206429
 21
-25.0766543343
 31
0.0
 11
13.6538098506
 21
-25.0738792501
 31
0.0
 11
13.6589076723
 21
-25.0740136741
 31
0.0
  0
SPLINE
  5
479
100
AcDbEntity
  8
RACCORDO
100
AcDbSpline
 62
7
  6
CONTINUOUS
 70
0
 71
3
 72
11
 73
7
 74
5
 42
0.0000001
 43
0.0000001
 44
0.0000000001
 12
0.0021654052
 22
-0.1535620513
 32
0.0
 13
-0.1351790738
 23
-0.0728876573
 33
0.0
 40
0.0
 40
0.0
 40
0.0
 40
0.0
 40
0.2885237755
 40
0.5479952821
 40
0.7816826091
 40
1.0
 40
1.0
 40
1.0
 40
1.0
 10
-28.8878750013
 20
14.9308490487
 30
0.0
 10
-28.8876667444
 20
14.9160802811
 30
0.0
 10
-28.889652988
 20
14.8878920125
 30
0.0
 10
-28.90109115
 20
14.849142579
 30
0.0
 10
-28.9206951331
 20
14.8178114342
 30
0.0
 10
-28.9391679891
 20
14.8029677648
 30
0.0
 10
-28.9490053034
 20
14.7976635504
 30
0.0
 11
-28.8878750013
 21
14.9308490487
 31
0.0
 11
-28.8914305427
 21
14.8866812218
 31
0.0
 11
-28.9032324316
 21
14.8486200436
 31
0.0
 11
-28.9227272836
 21
14.8184873985
 31
0.0
 11
-28.9490053034
 21
14.7976635504
 31
0.0
  0
SPLINE
  5
47A
100
AcDbEntity
  8
RACCORDO
100
AcDbSpline
 62
7
  6
CONTINUOUS
 70
0
 71
3
 72
11
 73
7
 74
5
 42
0.0000001
 43
0.0000001
 44
0.0000000001
 12
0.3312438182
 22
-0.1600623678
 32
0.0
 13
-0.005112514
 23
-0.367853627
 33
0.0
 40
0.0
 40
0.0
 40
0.0
 40
0.0
 40
0.2304406468
 40
0.488514815
 40
0.7528953925
 40
1.0
 40
1.0
 40
1.0
 40
1.0
 10
-29.0646247727
 20
20.7211894433
 30
0.0
 10
-29.0391807594
 20
20.7088944847
 30
0.0
 10
-28.9905406505
 20
20.671747188
 30
0.0
 10
-28.9346646085
 20
20.5971688893
 30
0.0
 10
-28.8971889902
 20
20.5096309828
 30
0.0
 10
-28.8874538927
 20
20.4466406236
 30
0.0
 10
-28.8878750013
 20
20.4163411816
 30
0.0
 11
-29.0646247727
 21
20.7211894433
 31
0.0
 11
-28.9960479248
 21
20.6713467882
 31
0.0
 11
-28.9383855809
 21
20.595920215
 31
0.0
 11
-28.900401501
 21
20.5063811088
 31
0.0
 11
-28.8878750013
 21
20.4163411816
 31
0.0
  0
SPLINE
  5
47B
100
AcDbEntity
  8
ASSI
100
AcDbSpline
 62
7
  6
CONTINUOUS
 70
0
 71
3
 72
11
 73
7
 74
5
 42
0.0000001
 43
0.0000001
 44
0.0000000001
 12
0.048315538
 22
0.0240467905
 32
0.0
 13
0.0483272103
 23
-0.0240233238
 33
0.0
 40
0.0
 40
0.0
 40
0.0
 40
0.0
 40
0.4141046671
 40
0.7151915315
 40
0.9055086154
 40
1.0
 40
1.0
 40
1.0
 40
1.0
 10
-2.3013495993
 20
-17.1371227003
 30
0.0
 10
-2.2946803694
 20
-17.1338034043
 30
0.0
 10
-2.283054616
 20
-17.1284076073
 30
0.0
 10
-2.2678270297
 20
-17.1221355747
 30
0.0
 10
-2.2580303954
 20
-17.1191404149
 30
0.0
 10
-2.2525170728
 20
-17.11830572
 30
0.0
 10
-2.2509949044
 20
-17.1190623857
 30
0.0
 11
-2.3013495993
 21
-17.1371227003
 31
0.0
 11
-2.281082909
 21
-17.1277031223
 31
0.0
 11
-2.2659819338
 21
-17.1217030459
 31
0.0
 11
-2.2560927261
 21
-17.1189279617
 31
0.0
 11
-2.2509949044
 21
-17.1190623857
 31
0.0
  0
SPLINE
  5
47C
100
AcDbEntity
  8
DRAFT
100
AcDbSpline
 62
7
  6
CONTINUOUS
 70
0
 71
3
 72
11
 73
7
 74
5
 42
0.0000001
 43
0.0000001
 44
0.0000000001
 12
0.0
 22
-0.9568012632
 32
0.0
 13
-0.8650231053
 23
-0.4089054714
 33
0.0
 40
0.0
 40
0.0
 40
0.0
 40
0.0
 40
0.2901625027
 40
0.5498879963
 40
0.78281024
 40
1.0
 40
1.0
 40
1.0
 40
1.0
 10
51.3889853227
 20
-68.4037854736
 30
0.0
 10
51.3889853227
 20
-68.49632809
 30
0.0
 10
51.3738571505
 20
-68.6723983639
 30
0.0
 10
51.2973858917
 20
-68.9127280454
 30
0.0
 10
51.169599612
 20
-69.1039881847
 30
0.0
 10
51.0506353534
 20
-69.1909069409
 30
0.0
 10
50.9880106332
 20
-69.2205103013
 30
0.0
 11
51.3889853227
 21
-68.4037854736
 31
0.0
 11
51.3622749066
 21
-68.6801254387
 31
0.0
 11
51.283493725
 21
-68.9158129406
 31
0.0
 11
51.1566093264
 21
-69.0990260989
 31
0.0
 11
50.9880106332
 21
-69.2205103013
 31
0.0
  0
SPLINE
  5
47D
100
AcDbEntity
  8
SMUSSO
100
AcDbSpline
 62
7
  6
CONTINUOUS
 70
0
 71
3
 72
11
 73
7
 74
5
 42
0.0000001
 43
0.0000001
 44
0.0000000001
 12
0.5212902236
 22
-0.3908910505
 32
0.0
 13
0.0000000005
 23
-0.6515668121
 33
0.0
 40
0.0
 40
0.0
 40
0.0
 40
0.0
 40
0.2409201141
 40
0.4999921995
 40
0.7590683138
 40
1.0
 40
1.0
 40
1.0
 40
1.0
 10
51.1061134215
 20
21.9830402957
 30
0.0
 10
51.1479765215
 20
21.9516491235
 30
0.0
 10
51.2255489399
 20
21.8737849206
 30
0.0
 10
51.3144096077
 20
21.7336252041
 30
0.0
 10
51.3732307949
 20
21.5784416459
 30
0.0
 10
51.3889853227
 20
21.4696630539
 30
0.0
 10
51.3889853227
 20
21.417335357
 30
0.0
 11
51.1061134215
 21
21.9830402957
 31
0.0
 11
51.2183119148
 21
21.8732549523
 31
0.0
 11
51.3092827446
 21
21.7310625326
 31
0.0
 11
51.3684643018
 21
21.5729714019
 31
0.0
 11
51.3889853227
 21
21.417335357
 31
0.0
  0
SPLINE
  5
47E
100
AcDbEntity
  8
DRAFT
100
AcDbSpline
 62
7
  6
CONTINUOUS
 70
0
 71
3
 72
11
 73
7
 74
5
 42
0.0000001
 43
0.0000001
 44
0.0000000001
 12
0.6261200182
 22
0.330537926
 32
0.0
 13
0.6332655671
 23
-0.3166327829
 33
0.0
 40
0.0
 40
0.0
 40
0.0
 40
0.0
 40
0.2272052889
 40
0.4644991273
 40
0.7204661003
 40
1.0
 40
1.0
 40
1.0
 40
1.0
 10
-47.5100142761
 20
71.1547583631
 30
0.0
 10
-47.4625950162
 20
71.1797916848
 30
0.0
 10
-47.3576173304
 20
71.2170064786
 30
0.0
 10
-47.1860613692
 20
71.2277027986
 30
0.0
 10
-47.0051618582
 20
71.1948482452
 30
0.0
 10
-46.8871529829
 20
71.1473358342
 30
0.0
 10
-46.828146585
 20
71.1178326353
 30
0.0
 11
-47.5100142761
 21
71.1547583631
 31
0.0
 11
-47.3585508334
 21
71.2089442113
 31
0.0
 11
-47.1909681903
 21
71.2208775801
 31
0.0
 11
-47.0123564153
 21
71.1901961757
 31
0.0
 11
-46.828146585
 21
71.1178326353
 31
0.0
  0
SPLINE
  5
47F
100
AcDbEntity
  8
DRAFT
100
AcDbSpline
 62
7
  6
CONTINUOUS
 70
0
 71
3
 72
9
 73
5
 74
3
 42
0.0000001
 43
0.0000001
 44
0.0000000001
 12
-0.2861906195
 22
-0.1510842187
 32
0.0
 13
-0.1691987991
 23
-0.2758682262
 33
0.0
 40
0.0
 40
0.0
 40
0.0
 40
0.0
 40
0.4874623104
 40
1.0
 40
1.0
 40
1.0
 40
1.0
 10
-49.1822577942
 20
70.2719650552
 30
0.0
 10
-49.2287601744
 20
70.2474157677
 30
0.0
 10
-49.3171521023
 20
70.1827218744
 30
0.0
 10
-49.3844018736
 20
70.0967122835
 30
0.0
 10
-49.4133087941
 20
70.0495813291
 30
0.0
 11
-49.1822577942
 21
70.2719650552
 31
0.0
 11
-49.3099118524
 21
70.1792790728
 31
0.0
 11
-49.4133087941
 21
70.0495813291
 31
0.0
  0
SPLINE
  5
480
100
AcDbEntity
  8
DRAFT
100
AcDbSpline
 62
7
  6
CONTINUOUS
 70
0
 71
3
 72
9
 73
5
 74
3
 42
0.0000001
 43
0.0000001
 44
0.0000000001
 12
0.2237767483
 22
-0.1118883742
 32
0.0
 13
0.200153488
 23
-0.1501120336
 33
0.0
 40
0.0
 40
0.0
 40
0.0
 40
0.0
 40
0.2413233768
 40
1.0
 40
1.0
 40
1.0
 40
1.0
 10
50.328325151
 20
22.5395967673
 30
0.0
 10
50.3463260045
 20
22.5305963406
 30
0.0
 10
50.419978576
 20
22.491432319
 30
0.0
 10
50.4898277753
 20
22.4452570177
 30
0.0
 10
50.5404450328
 20
22.4072948541
 30
0.0
 11
50.328325151
 21
22.5395967673
 31
0.0
 11
50.3816526821
 21
22.511285637
 31
0.0
 11
50.5404450328
 21
22.4072948541
 31
0.0
  0
SPLINE
  5
481
100
AcDbEntity
  8
DRAFT
100
AcDbSpline
 62
7
  6
CONTINUOUS
 70
0
 71
3
 72
9
 73
5
 74
3
 42
0.0000001
 43
0.0000001
 44
0.0000000001
 12
0.2402653643
 22
0.0068427983
 32
0.0
 13
0.2173067401
 23
0.1027231711
 33
0.0
 40
0.0
 40
0.0
 40
0.0
 40
0.0
 40
0.5075499171
 40
1.0
 40
1.0
 40
1.0
 40
1.0
 10
49.0455960295
 20
-70.0828663566
 30
0.0
 10
49.0862449181
 20
-70.0817086694
 30
0.0
 10
49.1663697068
 20
-70.0718937371
 30
0.0
 10
49.2427579968
 20
-70.045491629
 30
0.0
 10
49.2784289042
 20
-70.0286296177
 30
0.0
 11
49.0455960295
 21
-70.0828663566
 31
0.0
 11
49.1666170299
 21
-70.067472562
 31
0.0
 11
49.2784289042
 21
-70.0286296177
 31
0.0
  0
SPLINE
  5
482
100
AcDbEntity
  8
DRAFT
100
AcDbSpline
 62
7
  6
CONTINUOUS
 70
0
 71
3
 72
11
 73
7
 74
5
 42
0.0000001
 43
0.0000001
 44
0.0000000001
 12
-0.6156404704
 22
0.3078202352
 32
0.0
 13
-0.6086937973
 23
-0.3213383687
 33
0.0
 40
0.0
 40
0.0
 40
0.0
 40
0.0
 40
0.2795338996
 40
0.5355008721
 40
0.7727947109
 40
1.0
 40
1.0
 40
1.0
 40
1.0
 10
-48.5193678977
 20
70.2360670467
 30
0.0
 10
-48.5767320249
 20
70.2647491103
 30
0.0
 10
-48.6914564678
 20
70.3109391523
 30
0.0
 10
-48.8673211694
 20
70.3428792952
 30
0.0
 10
-49.0341023719
 20
70.3324806763
 30
0.0
 10
-49.1361583108
 20
70.2963016475
 30
0.0
 10
-49.1822577942
 20
70.2719650552
 30
0.0
 11
-48.5193678977
 21
70.2360670467
 31
0.0
 11
-48.6984507856
 21
70.3064165595
 31
0.0
 11
-48.8720914234
 21
70.3362440368
 31
0.0
 11
-49.0350098936
 21
70.3246427986
 31
0.0
 11
-49.1822577942
 21
70.2719650552
 31
0.0
  0
SPLINE
  5
483
100
AcDbEntity
  8
DRAFT
100
AcDbSpline
 62
7
  6
CONTINUOUS
 70
0
 71
3
 72
12
 73
8
 74
6
 42
0.0000001
 43
0.0000001
 44
0.0000000001
 12
0.0
 22
2.1421545657
 32
0.0
 13
-1.9160012917
 23
0.9580006437
 33
0.0
 40
0.0
 40
0.0
 40
0.0
 40
0.0
 40
0.2466626604
 40
0.5115167918
 40
0.6433273505
 40
0.7704456967
 40
1.0
 40
1.0
 40
1.0
 40
1.0
 10
49.6682436313
 20
19.8793781079
 30
0.0
 10
49.6682436313
 20
20.055507956
 30
0.0
 10
49.6074368249
 20
20.4213183335
 30
0.0
 10
49.4236119539
 20
20.8467583128
 30
0.0
 10
49.2165807953
 20
21.1594820143
 30
0.0
 10
48.9889045063
 20
21.4240218483
 30
0.0
 10
48.7837126169
 20
21.5845267895
 30
0.0
 10
48.6371038364
 20
21.6578311796
 30
0.0
 11
49.6682436313
 21
19.8793781079
 31
0.0
 11
49.5897515163
 21
20.4019051391
 31
0.0
 11
49.3662279518
 21
20.9233769683
 31
0.0
 11
49.2099736846
 21
21.1585598276
 31
0.0
 11
49.0317010991
 21
21.3643997335
 31
0.0
 11
48.6371038364
 21
21.6578311796
 31
0.0
  0
SPLINE
  5
484
100
AcDbEntity
  8
DRAFT
100
AcDbSpline
 62
7
  6
CONTINUOUS
 70
0
 71
3
 72
11
 73
7
 74
5
 42
0.0000001
 43
0.0000001
 44
0.0000000001
 12
1.5637021623
 22
-1.1727525407
 32
0.0
 13
0.0000000014
 23
-1.9546132544
 33
0.0
 40
0.0
 40
0.0
 40
0.0
 40
0.0
 40
0.2409247476
 40
0.4999964389
 40
0.7590688621
 40
1.0
 40
1.0
 40
1.0
 40
1.0
 10
50.5404450328
 20
22.4072948541
 30
0.0
 10
50.6660232157
 20
22.3131131508
 30
0.0
 10
50.8987209157
 20
22.0795200616
 30
0.0
 10
51.1652806989
 20
21.6590526826
 30
0.0
 10
51.3417267236
 20
21.193522748
 30
0.0
 10
51.3889853226
 20
20.8672043088
 30
0.0
 10
51.3889853227
 20
20.7102285769
 30
0.0
 11
50.5404450328
 21
22.4072948541
 31
0.0
 11
50.8770141347
 21
22.0779289498
 31
0.0
 11
51.1499022089
 21
21.6513637983
 31
0.0
 11
51.3274281713
 21
21.1771152234
 31
0.0
 11
51.3889853227
 21
20.7102285769
 31
0.0
  0
SPLINE
  5
485
100
AcDbEntity
  8
DRAFT
100
AcDbSpline
 62
7
  6
CONTINUOUS
 70
0
 71
3
 72
11
 73
7
 74
5
 42
0.0000001
 43
0.0000001
 44
0.0000000001
 12
0.8409477092
 22
0.3975247863
 32
0.0
 13
-0.0000000007
 23
0.9301714925
 33
0.0
 40
0.0
 40
0.0
 40
0.0
 40
0.0
 40
0.2171897601
 40
0.4501120043
 40
0.7098374977
 40
1.0
 40
1.0
 40
1.0
 40
1.0
 10
49.2784289042
 20
-70.0286296177
 30
0.0
 10
49.3393106479
 20
-69.99985018
 30
0.0
 10
49.4549638831
 20
-69.9153505529
 30
0.0
 10
49.5791936039
 20
-69.7294135808
 30
0.0
 10
49.6535365079
 20
-69.4957727745
 30
0.0
 10
49.6682436313
 20
-69.324602903
 30
0.0
 10
49.6682436313
 20
-69.2346359404
 30
0.0
 11
49.2784289042
 21
-70.0286296177
 31
0.0
 11
49.4423351441
 21
-69.9105265725
 31
0.0
 11
49.5656880853
 21
-69.7324126169
 31
0.0
 11
49.642276622
 21
-69.5032847887
 31
0.0
 11
49.6682436313
 21
-69.2346359404
 31
0.0
  0
SPLINE
  5
486
100
AcDbEntity
  8
SMUSSO
100
AcDbSpline
 62
7
  6
CONTINUOUS
 70
0
 71
3
 72
11
 73
7
 74
5
 42
0.0000001
 43
0.0000001
 44
0.0000000001
 12
0.5211626276
 22
-0.3908665127
 32
0.0
 13
0.0000000002
 23
-0.6514500097
 33
0.0
 40
0.0
 40
0.0
 40
0.0
 40
0.0
 40
0.2409429556
 40
0.5000138533
 40
0.7590645364
 40
1.0
 40
1.0
 40
1.0
 40
1.0
 10
48.737399929
 20
20.8859716898
 30
0.0
 10
48.7792567503
 20
20.8545795122
 30
0.0
 10
48.8567948591
 20
20.7767015623
 30
0.0
 10
48.945632541
 20
20.6365663644
 30
0.0
 10
49.0044285163
 20
20.4814097837
 30
0.0
 10
49.0201776057
 20
20.3726558776
 30
0.0
 10
49.0201776058
 20
20.3203367409
 30
0.0
 11
48.737399929
 21
20.8859716898
 31
0.0
 11
48.8495675795
 21
20.7761737896
 31
0.0
 11
48.9405081457
 21
20.6339988506
 31
0.0
 11
48.9996630132
 21
20.4759477305
 31
0.0
 11
49.0201776058
 21
20.3203367409
 31
0.0
  0
SPLINE
  5
487
100
AcDbEntity
  8
SMUSSO
100
AcDbSpline
 62
7
  6
CONTINUOUS
 70
0
 71
3
 72
11
 73
7
 74
5
 42
0.0000001
 43
0.0000001
 44
0.0000000001
 12
0.4148284081
 22
0.2074204088
 32
0.0
 13
0.41483089
 23
-0.2074154449
 33
0.0
 40
0.0
 40
0.0
 40
0.0
 40
0.0
 40
0.2271156206
 40
0.4646633313
 40
0.7207940344
 40
1.0
 40
1.0
 40
1.0
 40
1.0
 10
-50.0684302299
 20
70.1819054989
 30
0.0
 10
-50.0370255595
 20
70.1976083039
 30
0.0
 10
-49.9678206375
 20
70.2206322081
 30
0.0
 10
-49.8553765987
 20
70.2262676873
 30
0.0
 10
-49.7370409181
 20
70.2040245631
 30
0.0
 10
-49.6598261228
 20
70.1728106184
 30
0.0
 10
-49.6212183698
 20
70.1535067419
 30
0.0
 11
-50.0684302299
 21
70.1819054989
 31
0.0
 11
-49.9685901163
 21
70.2154827888
 31
0.0
 11
-49.858606008
 21
70.2219391597
 31
0.0
 11
-49.7416613214
 21
70.2010701692
 31
0.0
 11
-49.6212183698
 21
70.1535067419
 31
0.0
  0
SPLINE
  5
488
100
AcDbEntity
  8
SMUSSO
100
AcDbSpline
 62
7
  6
CONTINUOUS
 70
0
 71
3
 72
9
 73
5
 74
3
 42
0.0000001
 43
0.0000001
 44
0.0000000001
 12
0.1491934848
 22
-0.0745967426
 32
0.0
 13
0.1334480296
 23
-0.1000749384
 33
0.0
 40
0.0
 40
0.0
 40
0.0
 40
0.0
 40
0.241268694
 40
1.0
 40
1.0
 40
1.0
 40
1.0
 10
48.3130708246
 20
21.1863621447
 30
0.0
 10
48.325069397
 20
21.1803628585
 30
0.0
 10
48.3741731337
 20
21.1542501011
 30
0.0
 10
48.4207417003
 20
21.1234645858
 30
0.0
 10
48.4544920995
 20
21.0981545896
 30
0.0
 11
48.3130708246
 21
21.1863621447
 31
0.0
 11
48.3486162121
 21
21.1674904728
 31
0.0
 11
48.4544920995
 21
21.0981545896
 31
0.0
  0
SPLINE
  5
489
100
AcDbEntity
  8
SMUSSO
100
AcDbSpline
 62
7
  6
CONTINUOUS
 70
0
 71
3
 72
11
 73
7
 74
5
 42
0.0000001
 43
0.0000001
 44
0.0000000001
 12
-0.0000000006
 22
-0.6297204291
 32
0.0
 13
-0.5632357047
 23
-0.2816262768
 33
0.0
 40
0.0
 40
0.0
 40
0.0
 40
0.0
 40
0.2897540007
 40
0.5495824015
 40
0.7828478708
 40
1.0
 40
1.0
 40
1.0
 40
1.0
 10
49.0201776058
 20
-70.0998586433
 30
0.0
 10
49.0201776057
 20
-70.1606799812
 30
0.0
 10
49.0103653837
 20
-70.2764805704
 30
0.0
 10
48.9608636172
 20
-70.4348548992
 30
0.0
 10
48.8782039821
 20
-70.5616539049
 30
0.0
 10
48.8010519622
 20
-70.620344165
 30
0.0
 10
48.7602826847
 20
-70.6407294135
 30
0.0
 11
49.0201776058
 21
-70.0998586433
 31
0.0
 11
49.0028987394
 21
-70.2815026827
 31
0.0
 11
48.9519072259
 21
-70.4369733397
 31
0.0
 11
48.8696954797
 21
-70.5587045916
 31
0.0
 11
48.7602826847
 21
-70.6407294135
 31
0.0
  0
SPLINE
  5
48A
100
AcDbEntity
  8
SMUSSO
100
AcDbSpline
 62
7
  6
CONTINUOUS
 70
0
 71
3
 72
11
 73
7
 74
5
 42
0.0000001
 43
0.0000001
 44
0.0000000001
 12
1.0424932166
 22
-0.7817833261
 32
0.0
 13
0.0000000004
 23
-1.3030645708
 33
0.0
 40
0.0
 40
0.0
 40
0.0
 40
0.0
 40
0.240927342
 40
0.4999984982
 40
0.7590654985
 40
1.0
 40
1.0
 40
1.0
 40
1.0
 10
48.4544920995
 20
21.0981545896
 30
0.0
 10
48.5382138061
 20
21.0353702633
 30
0.0
 10
48.6933375166
 20
20.8796329819
 30
0.0
 10
48.8710413764
 20
20.5993267592
 30
0.0
 10
48.9886726786
 20
20.288977427
 30
0.0
 10
49.0201776057
 20
20.0714344213
 30
0.0
 10
49.0201776058
 20
19.9667833503
 30
0.0
 11
48.4544920995
 21
21.0981545896
 31
0.0
 11
48.6788692029
 21
20.878573904
 31
0.0
 11
48.8607906126
 21
20.5941987847
 31
0.0
 11
48.9791390771
 21
20.2780428225
 31
0.0
 11
49.0201776058
 21
19.9667833503
 31
0.0
  0
ELLIPSE
  5
48B
100
AcDbEntity
  8
RACCORDO
100
AcDbEllipse
 62
7
  6
CONTINUOUS
 10
-36.8642158121
 20
37.5354194765
 30
0.0
 11
-0.313181275
 21
0.626269159
 31
0.0
 40
0.6121897086
 41
-0.6846338794
 42
0.0188552051
  0
ELLIPSE
  5
48C
100
AcDbEntity
  8
RACCORDO
100
AcDbEllipse
 62
7
  6
CONTINUOUS
 10
30.6063207986
 20
-40.4691171253
 30
0.0
 11
-0.313181275
 21
0.626269159
 31
0.0
 40
0.6121897086
 41
-3.1605525579
 42
-2.2557347926
  0
ELLIPSE
  5
48D
100
AcDbEntity
  8
RACCORDO
100
AcDbEllipse
 62
7
  6
CONTINUOUS
 10
30.6063207986
 20
3.8001511711
 30
0.0
 11
-0.3130130858
 21
0.6261196575
 31
0.0
 40
0.6125552124
 41
-2.255296188
 42
-0.6848044477
  0
ELLIPSE
  5
48E
100
AcDbEntity
  8
RACCORDO
100
AcDbEllipse
 62
7
  6
CONTINUOUS
 10
-33.7758228601
 20
-4.3875196395
 30
0.0
 11
-0.1341484654
 21
0.2683369961
 31
0.0
 40
0.6125552124
 41
0.8862964655
 42
2.4567882058
  0
ELLIPSE
  5
48F
100
AcDbEntity
  8
RACCORDO
100
AcDbEllipse
 62
7
  6
CONTINUOUS
 10
-32.7616885288
 20
-3.898854849
 30
0.0
 11
-0.1340229113
 21
0.2684080287
 31
0.0
 40
0.6140178746
 41
0.8880524522
 42
2.4561097232
  0
ELLIPSE
  5
490
100
AcDbEntity
  8
RACCORDO
100
AcDbEllipse
 62
7
  6
CONTINUOUS
 10
-16.3320638496
 20
-11.9569990442
 30
0.0
 11
-0.1342205464
 21
0.2684010681
 31
0.0
 40
0.6121897086
 41
-0.6846338794
 42
0.0192594208
  0
ELLIPSE
  5
491
100
AcDbEntity
  8
RACCORDO
100
AcDbEllipse
 62
7
  6
CONTINUOUS
 10
-2.5434816165
 20
-18.8512901608
 30
0.0
 11
-0.1342205464
 21
0.2684010681
 31
0.0
 40
0.6121897086
 41
-0.6846338794
 42
0.0192594208
  0
ELLIPSE
  5
492
100
AcDbEntity
  8
RACCORDO
100
AcDbEllipse
 62
7
  6
CONTINUOUS
 10
11.2451006166
 20
-25.7455812773
 30
0.0
 11
-0.1342205464
 21
0.2684010681
 31
0.0
 40
0.6121897086
 41
-0.6846338794
 42
0.0192594208
  0
ELLIPSE
  5
493
100
AcDbEntity
  8
RACCORDO
100
AcDbEllipse
 62
7
  6
CONTINUOUS
 10
2.9707170173
 20
-21.5361671466
 30
0.0
 11
-0.1342205464
 21
0.2684010681
 31
0.0
 40
0.6121897086
 41
-0.6846338794
 42
0.019259411
  0
ELLIPSE
  5
494
100
AcDbEntity
  8
RACCORDO
100
AcDbEllipse
 62
7
  6
CONTINUOUS
 10
25.9684965391
 20
-33.0350569075
 30
0.0
 11
-0.1341371037
 21
0.2683722998
 31
0.0
 40
0.6123537661
 41
-0.6845550499
 42
0.0106825902
  0
ELLIPSE
  5
495
100
AcDbEntity
  8
RACCORDO
100
AcDbEllipse
 62
7
  6
CONTINUOUS
 10
-5.8513086143
 20
-17.1251543308
 30
0.0
 11
-0.1341371037
 21
0.2683722998
 31
0.0
 40
0.6123537661
 41
-0.6845550499
 42
0.0106825902
  0
ELLIPSE
  5
496
100
AcDbEntity
  8
RACCORDO
100
AcDbEllipse
 62
7
  6
CONTINUOUS
 10
-21.761211191
 20
-9.1702030424
 30
0.0
 11
-0.1341371037
 21
0.2683722998
 31
0.0
 40
0.6123537661
 41
-0.6845550499
 42
0.0106825902
  0
ELLIPSE
  5
497
100
AcDbEntity
  8
RACCORDO
100
AcDbEllipse
 62
7
  6
CONTINUOUS
 10
16.7592992504
 20
-28.4304582631
 30
0.0
 11
-0.1342205464
 21
0.2684010681
 31
0.0
 40
0.6121897086
 41
-0.6846338794
 42
0.019259411
  0
ELLIPSE
  5
498
100
AcDbEntity
  8
ASSI
100
AcDbEllipse
 62
7
  6
CONTINUOUS
 10
25.2539781787
 20
-31.0085531801
 30
0.0
 11
0.0974129977
 21
0.1748074534
 31
0.0
 40
0.6437101552
 41
0.6611775963
 42
0.7135374739
  0
ELLIPSE
  5
499
100
AcDbEntity
  8
ASSI
100
AcDbEllipse
 62
7
  6
CONTINUOUS
 10
-22.4757295514
 20
-7.143699315
 30
0.0
 11
0.0974129977
 21
0.1748074534
 31
0.0
 40
0.6437101552
 41
0.6611775963
 42
0.7135374739
  0
ELLIPSE
  5
49A
100
AcDbEntity
  8
ASSI
100
AcDbEllipse
 62
7
  6
CONTINUOUS
 10
9.344075602
 20
-23.1402044321
 30
0.0
 11
0.0974129977
 21
0.1748074534
 31
0.0
 40
0.6437101552
 41
0.6611775963
 42
0.7135374739
  0
ELLIPSE
  5
49B
100
AcDbEntity
  8
ASSI
100
AcDbEllipse
 62
7
  6
CONTINUOUS
 10
-6.5658269747
 20
-15.1852531437
 30
0.0
 11
0.0974129977
 21
0.1748074534
 31
0.0
 40
0.6437101552
 41
0.6611775963
 42
0.7135374739
  0
ELLIPSE
  5
49C
100
AcDbEntity
  8
RACCORDO
100
AcDbEllipse
 62
7
  6
CONTINUOUS
 10
15.7310230856
 20
-27.9885425118
 30
0.0
 11
-0.1341484654
 21
0.2683369961
 31
0.0
 40
0.6125552124
 41
-2.255296188
 42
-0.6848044477
  0
ELLIPSE
  5
49D
100
AcDbEntity
  8
RACCORDO
100
AcDbEllipse
 62
7
  6
CONTINUOUS
 10
1.9424408525
 20
-21.0942513953
 30
0.0
 11
-0.1341484654
 21
0.2683369961
 31
0.0
 40
0.6125552124
 41
-2.255296188
 42
-0.6848044477
  0
ELLIPSE
  5
49E
100
AcDbEntity
  8
RACCORDO
100
AcDbEllipse
 62
7
  6
CONTINUOUS
 10
-11.8461413806
 20
-14.1999602787
 30
0.0
 11
-0.1341484654
 21
0.2683369961
 31
0.0
 40
0.6125552124
 41
-2.255296188
 42
-0.6848044477
  0
ELLIPSE
  5
49F
100
AcDbEntity
  8
RACCORDO
100
AcDbEllipse
 62
7
  6
CONTINUOUS
 10
-32.4751454991
 20
9.2554531236
 30
0.0
 11
-0.1341484654
 21
0.2683369961
 31
0.0
 40
0.6125552124
 41
-2.255296188
 42
-0.6848044477
  0
ELLIPSE
  5
4A0
100
AcDbEntity
  8
RACCORDO
100
AcDbEllipse
 62
7
  6
CONTINUOUS
 10
-32.4751454991
 20
3.7613425862
 30
0.0
 11
-0.1342205464
 21
0.2684010681
 31
0.0
 40
0.6121897086
 41
-3.160544254
 42
-2.2557347926
  0
ELLIPSE
  5
4A1
100
AcDbEntity
  8
RACCORDO
100
AcDbEllipse
 62
7
  6
CONTINUOUS
 10
-32.4751454991
 20
22.8139014695
 30
0.0
 11
-0.1342205464
 21
0.2684010681
 31
0.0
 40
0.6121897086
 41
-3.160544254
 42
-2.2557347926
  0
ELLIPSE
  5
4A2
100
AcDbEntity
  8
RACCORDO
100
AcDbEllipse
 62
7
  6
CONTINUOUS
 10
-32.4751454991
 20
28.3080120069
 30
0.0
 11
-0.1341484654
 21
0.2683369961
 31
0.0
 40
0.6125552124
 41
-2.255296188
 42
-0.6848044477
  0
ELLIPSE
  5
4A3
100
AcDbEntity
  8
RACCORDO
100
AcDbEllipse
 62
7
  6
CONTINUOUS
 10
21.3015917832
 20
-30.7016045295
 30
0.0
 11
-0.1341371037
 21
0.2683722998
 31
0.0
 40
0.6123537661
 41
-2.2553513767
 42
-0.6845550499
  0
ELLIPSE
  5
4A4
100
AcDbEntity
  8
RACCORDO
100
AcDbEllipse
 62
7
  6
CONTINUOUS
 10
-17.2189186582
 20
-11.4413493088
 30
0.0
 11
-0.1341484654
 21
0.2683369961
 31
0.0
 40
0.6125552124
 41
-2.255296188
 42
-0.6848044477
  0
ELLIPSE
  5
4A5
100
AcDbEntity
  8
RACCORDO
100
AcDbEllipse
 62
7
  6
CONTINUOUS
 10
5.3916892065
 20
-22.7466532412
 30
0.0
 11
-0.1341371037
 21
0.2683722998
 31
0.0
 40
0.6123537661
 41
-2.2553513767
 42
-0.6845550499
  0
ELLIPSE
  5
4A6
100
AcDbEntity
  8
RACCORDO
100
AcDbEllipse
 62
7
  6
CONTINUOUS
 10
-26.4281159468
 20
-6.8367506645
 30
0.0
 11
-0.1341371037
 21
0.2683722998
 31
0.0
 40
0.6123537661
 41
-2.2553513767
 42
-0.6845550499
  0
ELLIPSE
  5
4A7
100
AcDbEntity
  8
RACCORDO
100
AcDbEllipse
 62
7
  6
CONTINUOUS
 10
-32.4032005615
 20
21.4160586389
 30
0.0
 11
-0.1341484654
 21
0.2683369961
 31
0.0
 40
0.6125552124
 41
-2.255296188
 42
-0.6848044477
  0
ELLIPSE
  5
4A8
100
AcDbEntity
  8
RACCORDO
100
AcDbEllipse
 62
7
  6
CONTINUOUS
 10
-32.4032005615
 20
10.7227723729
 30
0.0
 11
-0.1342205464
 21
0.2684010681
 31
0.0
 40
0.6121897086
 41
-3.160544254
 42
-2.2557347926
  0
ELLIPSE
  5
4A9
100
AcDbEntity
  8
RACCORDO
100
AcDbEllipse
 62
7
  6
CONTINUOUS
 10
-32.4032005615
 20
29.7753312561
 30
0.0
 11
-0.1342205464
 21
0.2684010681
 31
0.0
 40
0.6121897086
 41
-3.160544254
 42
-2.2557347926
  0
ELLIPSE
  5
4AA
100
AcDbEntity
  8
RACCORDO
100
AcDbEllipse
 62
7
  6
CONTINUOUS
 10
-32.4032005615
 20
2.3634997556
 30
0.0
 11
-0.1341484654
 21
0.2683369961
 31
0.0
 40
0.6125552124
 41
-2.255296188
 42
-0.6848044477
  0
ELLIPSE
  5
4AB
100
AcDbEntity
  8
RACCORDO
100
AcDbEllipse
 62
7
  6
CONTINUOUS
 10
-3.430336425
 20
-18.3356404254
 30
0.0
 11
-0.1341484654
 21
0.2683369961
 31
0.0
 40
0.6125552124
 41
-2.255296188
 42
-0.6848044477
  0
ELLIPSE
  5
4AC
100
AcDbEntity
  8
RACCORDO
100
AcDbEllipse
 62
7
  6
CONTINUOUS
 10
-32.9787600623
 20
21.1260597406
 30
0.0
 11
-0.1341484654
 21
0.2683369961
 31
0.0
 40
0.6125552124
 41
-2.255296188
 42
-0.7064273196
  0
ELLIPSE
  5
4AD
100
AcDbEntity
  8
RACCORDO
100
AcDbEllipse
 62
7
  6
CONTINUOUS
 10
-22.326896616
 20
-9.4651389786
 30
0.0
 11
-0.1341371037
 21
0.2683722998
 31
0.0
 40
0.6123537661
 41
-0.6845550499
 42
0.5377482072
  0
ELLIPSE
  5
4AE
100
AcDbEntity
  8
RACCORDO
100
AcDbEllipse
 62
7
  6
CONTINUOUS
 10
-17.794478159
 20
-11.7313482071
 30
0.0
 11
-0.1341484654
 21
0.2683369961
 31
0.0
 40
0.6125552124
 41
-1.9071044661
 42
-0.6848044477
  0
ELLIPSE
  5
4AF
100
AcDbEntity
  8
RACCORDO
100
AcDbEllipse
 62
7
  6
CONTINUOUS
 10
-32.9787600623
 20
2.0735008573
 30
0.0
 11
-0.1341484654
 21
0.2683369961
 31
0.0
 40
0.6125552124
 41
-2.255296188
 42
-0.7064273196
  0
ELLIPSE
  5
4B0
100
AcDbEntity
  8
RACCORDO
100
AcDbEllipse
 62
7
  6
CONTINUOUS
 10
-26.9938013718
 20
-7.1316866007
 30
0.0
 11
-0.1341371037
 21
0.2683722998
 31
0.0
 40
0.6123537661
 41
-1.9068583071
 42
-0.6845550499
  0
ELLIPSE
  5
4B1
100
AcDbEntity
  8
RACCORDO
100
AcDbEllipse
 62
7
  6
CONTINUOUS
 10
-32.9787600623
 20
29.5095188053
 30
0.0
 11
-0.1342205464
 21
0.2684010681
 31
0.0
 40
0.6121897086
 41
2.4785816461
 42
4.0274505145
  0
ELLIPSE
  5
4B2
100
AcDbEntity
  8
RACCORDO
100
AcDbEllipse
 62
7
  6
CONTINUOUS
 10
-32.9787600623
 20
10.456959922
 30
0.0
 11
-0.1342205464
 21
0.2684010681
 31
0.0
 40
0.6121897086
 41
2.4785816461
 42
4.0274505145
  0
ELLIPSE
  5
4B3
100
AcDbEntity
  8
RACCORDO
100
AcDbEllipse
 62
7
  6
CONTINUOUS
 10
25.4028111141
 20
-33.3299928437
 30
0.0
 11
-0.1341371037
 21
0.2683722998
 31
0.0
 40
0.6123537661
 41
-0.6845550499
 42
0.5377482072
  0
ELLIPSE
  5
4B4
100
AcDbEntity
  8
ASSI
100
AcDbEllipse
 62
7
  6
CONTINUOUS
 10
-2.4499785644
 20
-17.6687755259
 30
0.0
 11
0.1997674032
 21
0.1243735635
 31
0.0
 40
0.0775313764
 41
5.4495541764
 42
6.9679906257
  0
ELLIPSE
  5
4B5
100
AcDbEntity
  8
ASSI
100
AcDbEllipse
 62
7
  6
CONTINUOUS
 10
13.4599240123
 20
-25.6237268142
 30
0.0
 11
0.1997674032
 21
0.1243735635
 31
0.0
 40
0.0775313764
 41
5.4495541764
 42
6.9679906257
  0
ELLIPSE
  5
4B6
100
AcDbEntity
  8
RACCORDO
100
AcDbEllipse
 62
7
  6
CONTINUOUS
 10
14.7957388969
 20
-28.4597907215
 30
0.0
 11
-0.1341484654
 21
0.2683369961
 31
0.0
 40
0.6125552124
 41
4.3463944586
 42
5.5983808594
  0
ELLIPSE
  5
4B7
100
AcDbEntity
  8
RACCORDO
100
AcDbEllipse
 62
7
  6
CONTINUOUS
 10
10.3419071743
 20
-26.2328748602
 30
0.0
 11
-0.1342205464
 21
0.2684010681
 31
0.0
 40
0.6121897086
 41
-0.6846338794
 42
0.8858578609
  0
ELLIPSE
  5
4B8
100
AcDbEntity
  8
ASSI
100
AcDbEllipse
 62
7
  6
CONTINUOUS
 10
-18.3598811411
 20
-9.7138242375
 30
0.0
 11
0.1997674032
 21
0.1243735635
 31
0.0
 40
0.0775313764
 41
5.4495541764
 42
6.9679906257
  0
ELLIPSE
  5
4B9
100
AcDbEntity
  8
RACCORDO
100
AcDbEllipse
 62
7
  6
CONTINUOUS
 10
1.0071566637
 20
-21.565499605
 30
0.0
 11
-0.1341484654
 21
0.2683369961
 31
0.0
 40
0.6125552124
 41
4.3463944586
 42
5.5983808594
  0
ELLIPSE
  5
4BA
100
AcDbEntity
  8
RACCORDO
100
AcDbEllipse
 62
7
  6
CONTINUOUS
 10
-3.4466750588
 20
-19.3385837437
 30
0.0
 11
-0.1342205464
 21
0.2684010681
 31
0.0
 40
0.6121897086
 41
-0.6846338794
 42
0.8858578609
  0
ELLIPSE
  5
4BB
100
AcDbEntity
  8
RACCORDO
100
AcDbEllipse
 62
7
  6
CONTINUOUS
 10
-12.7814255694
 20
-14.6712084884
 30
0.0
 11
-0.1341484654
 21
0.2683369961
 31
0.0
 40
0.6125552124
 41
4.3463944586
 42
5.5983808594
  0
ELLIPSE
  5
4BC
100
AcDbEntity
  8
RACCORDO
100
AcDbEllipse
 62
7
  6
CONTINUOUS
 10
-17.235257292
 20
-12.4442926271
 30
0.0
 11
-0.1342205464
 21
0.2684010681
 31
0.0
 40
0.6121897086
 41
-0.6846338794
 42
0.8858578609
  0
ELLIPSE
  5
4BD
100
AcDbEntity
  8
RACCORDO
100
AcDbEllipse
 62
7
  6
CONTINUOUS
 10
16.2034879013
 20
-28.7303312372
 30
0.0
 11
-0.1342205464
 21
0.2684010681
 31
0.0
 40
0.6121897086
 41
-0.6846338794
 42
0.5376661363
  0
ELLIPSE
  5
4BE
100
AcDbEntity
  8
RACCORDO
100
AcDbEllipse
 62
7
  6
CONTINUOUS
 10
20.7359063583
 20
-30.9965404657
 30
0.0
 11
-0.1341371037
 21
0.2683722998
 31
0.0
 40
0.6123537661
 41
-1.9068583071
 42
-0.6845550499
  0
ELLIPSE
  5
4BF
100
AcDbEntity
  8
ASSI
100
AcDbEllipse
 62
7
  6
CONTINUOUS
 10
-18.2182657059
 20
-9.2724312378
 30
0.0
 11
0.0823576675
 21
0.1823694112
 31
0.0
 40
0.5796795686
 41
0.6094740628
 42
0.6618339404
  0
ELLIPSE
  5
4C0
100
AcDbEntity
  8
RACCORDO
100
AcDbEllipse
 62
7
  6
CONTINUOUS
 10
2.4149056681
 20
-21.8360401207
 30
0.0
 11
-0.1342205464
 21
0.2684010681
 31
0.0
 40
0.6121897086
 41
-0.6846338794
 42
0.5376661363
  0
ELLIPSE
  5
4C1
100
AcDbEntity
  8
RACCORDO
100
AcDbEllipse
 62
7
  6
CONTINUOUS
 10
4.8260037816
 20
-23.0415891774
 30
0.0
 11
-0.1341371037
 21
0.2683722998
 31
0.0
 40
0.6123537661
 41
-1.9068583071
 42
-0.6845550499
  0
ELLIPSE
  5
4C2
100
AcDbEntity
  8
RACCORDO
100
AcDbEllipse
 62
7
  6
CONTINUOUS
 10
-6.4169940393
 20
-17.420090267
 30
0.0
 11
-0.1341371037
 21
0.2683722998
 31
0.0
 40
0.6123537661
 41
-0.6845550499
 42
0.5377482072
  0
ELLIPSE
  5
4C3
100
AcDbEntity
  8
RACCORDO
100
AcDbEllipse
 62
7
  6
CONTINUOUS
 10
-4.0058959258
 20
-18.6256393237
 30
0.0
 11
-0.1341484654
 21
0.2683369961
 31
0.0
 40
0.6125552124
 41
-1.9071044661
 42
-0.6848044477
  0
ELLIPSE
  5
4C4
100
AcDbEntity
  8
ASSI
100
AcDbEllipse
 62
7
  6
CONTINUOUS
 10
13.6015394475
 20
-25.2689363549
 30
0.0
 11
0.0823576675
 21
0.1823694112
 31
0.0
 40
0.5796795686
 41
0.6094740628
 42
0.6618339404
  0
ELLIPSE
  5
4C5
100
AcDbEntity
  8
ASSI
100
AcDbEllipse
 62
7
  6
CONTINUOUS
 10
-2.3083631292
 20
-17.3139850665
 30
0.0
 11
0.0823576675
 21
0.1823694112
 31
0.0
 40
0.5796795686
 41
0.6094740628
 42
0.6618339404
  0
ELLIPSE
  5
4C6
100
AcDbEntity
  8
RACCORDO
100
AcDbEllipse
 62
7
  6
CONTINUOUS
 10
-33.4104296879
 20
8.7842049139
 30
0.0
 11
-0.1341484654
 21
0.2683369961
 31
0.0
 40
0.6125552124
 41
-2.255296188
 42
-0.6848044477
  0
ELLIPSE
  5
4C7
100
AcDbEntity
  8
RACCORDO
100
AcDbEllipse
 62
7
  6
CONTINUOUS
 10
-33.4104296879
 20
22.3819562369
 30
0.0
 11
-0.1342205464
 21
0.2684010681
 31
0.0
 40
0.6121897086
 41
2.4569587742
 42
4.0274505145
  0
ELLIPSE
  5
4C8
100
AcDbEntity
  8
RACCORDO
100
AcDbEllipse
 62
7
  6
CONTINUOUS
 10
-33.4104296879
 20
3.3293973536
 30
0.0
 11
-0.1342205464
 21
0.2684010681
 31
0.0
 40
0.6121897086
 41
2.4569587742
 42
4.0274505145
  0
ELLIPSE
  5
4C9
100
AcDbEntity
  8
RACCORDO
100
AcDbEllipse
 62
7
  6
CONTINUOUS
 10
-33.4104296879
 20
27.8367637971
 30
0.0
 11
-0.1341484654
 21
0.2683369961
 31
0.0
 40
0.6125552124
 41
-2.255296188
 42
-0.6848044477
  0
ELLIPSE
  5
4CA
100
AcDbEntity
  8
SMUSSO
100
AcDbEllipse
 62
7
  6
CONTINUOUS
 10
-50.9175808019
 20
68.639300122
 30
0.0
 11
-0.268640788
 21
0.9802821504
 31
0.0
 40
0.3951602023
 41
0.1790466627
 42
0.9644448261
  0
ELLIPSE
  5
4CB
100
AcDbEntity
  8
SMUSSO
100
AcDbEllipse
 62
7
  6
CONTINUOUS
 10
-50.9175808019
 20
-21.4273418716
 30
0.0
 11
-0.268640788
 21
0.9802821504
 31
0.0
 40
0.3951602023
 41
0.9644448261
 42
1.7498429895
  0
ELLIPSE
  5
4CC
100
AcDbEntity
  8
SMUSSO
100
AcDbEllipse
 62
7
  6
CONTINUOUS
 10
-50.9175808019
 20
-21.4273418716
 30
0.0
 11
-0.6685268303
 21
0.7774608711
 31
0.0
 40
0.423927136
 41
1.5651843117
 42
2.3505824751
  0
ELLIPSE
  5
4CD
100
AcDbEntity
  8
SMUSSO
100
AcDbEllipse
 62
7
  6
CONTINUOUS
 10
47.0167083924
 20
19.6721555248
 30
0.0
 11
-0.0351548098
 21
1.0451726698
 31
0.0
 40
0.7123478368
 41
-1.1543313489
 42
-0.3689331855
  0
ELLIPSE
  5
4CE
100
AcDbEntity
  8
SMUSSO
100
AcDbEllipse
 62
7
  6
CONTINUOUS
 10
47.0167083924
 20
19.6721555248
 30
0.0
 11
0.7972192175
 21
-0.6616331853
 31
0.0
 40
0.76072271
 41
0.5631481298
 42
1.3485462932
  0
ELLIPSE
  5
4CF
100
AcDbEntity
  8
SMUSSO
100
AcDbEllipse
 62
7
  6
CONTINUOUS
 10
-50.9175808019
 20
68.639300122
 30
0.0
 11
-0.0351548098
 21
1.0451726698
 31
0.0
 40
0.7123478368
 41
-0.3689331855
 42
0.4164649779
  0
ELLIPSE
  5
4D0
100
AcDbEntity
  8
SMUSSO
100
AcDbEllipse
 62
7
  6
CONTINUOUS
 10
47.0167083924
 20
-70.3944864688
 30
0.0
 11
0.7972192175
 21
-0.6616331853
 31
0.0
 40
0.76072271
 41
-0.2222500336
 42
0.5631481298
  0
ELLIPSE
  5
4D1
100
AcDbEntity
  8
SMUSSO
100
AcDbEllipse
 62
7
  6
CONTINUOUS
 10
47.0167083924
 20
-70.3944864688
 30
0.0
 11
-0.6685268303
 21
0.7774608711
 31
0.0
 40
0.423927136
 41
2.3505824751
 42
3.1359806385
  0
ENDSEC
  0
SECTION
  2
OBJECTS
  0
DICTIONARY
  5
C
100
AcDbDictionary
280
0
281
1
  3
ACAD_GROUP
350
D
  3
ACAD_MLINESTYLE
350
17
  3
ACAD_LAYOUT
350
1A
  3
ACAD_PLOTSETTINGS
350
19
  3
ACAD_PLOTSTYLENAME
350
E
  0
DICTIONARY
  5
D
102
{ACAD_REACTORS
330
C
102
}
100
AcDbDictionary
280
0
281
1
  0
ACDBDICTIONARYWDFLT
  5
E
102
{ACAD_REACTORS
330
C
102
}
100
AcDbDictionary
281
1
  3
Normal
350
F
100
AcDbDictionaryWithDefault
340
F
  0
DICTIONARY
  5
17
102
{ACAD_REACTORS
330
C
102
}
100
AcDbDictionary
280
0
281
1
  3
Standard
350
18
  0
DICTIONARY
  5
19
102
{ACAD_REACTORS
330
C
102
}
100
AcDbDictionary
281
1
  0
DICTIONARY
  5
1A
102
{ACAD_REACTORS
330
C
102
}
100
AcDbDictionary
281
1
  3
Model
350
4D2
  3
Layout1
350
4D3
  0
ACDBPLACEHOLDER
  5
F
102
{ACAD_REACTORS
330
E
102
}
  0
MLINESTYLE
  5
18
102
{ACAD_REACTORS
330
17
102
}
100
AcDbMlineStyle
  2
STANDARD
 70
0
  3

 62
256
 51
90.0
 52
90.0
 71
2
 49
0.5
 62
256
  6
BYLAYER
 49
-0.5
 62
256
  6
BYLAYER
  0
LAYOUT
  5
4D2
102
{ACAD_REACTORS
330
1A
102
}
100
AcDbPlotSettings
  1

  2
none_device
  4
ISO_A4_(297.00_x_210.00_MM)
  6

 40
0.0
 41
0.0
 42
0.0
 43
0.0
 44
297.0
 45
210.0
 46
0.0
 47
0.0
 48
0.0
 49
0.0
140
0.0
141
0.0
142
1.0
143
1.0
 70
1024
 72
1
 73
0
 74
0
  7

 75
0
147
1.0
148
0.0
149
0.0
100
AcDbLayout
  1
Model
 70
0
 71
0
 10
0.0
 20
0.0
 11
297.0
 21
210.0
 12
0.0
 22
0.0
 32
0.0
 14
0.0
 24
0.0
 34
0.0
 15
0.0
 25
0.0
 35
0.0
146
0.0
 13
0.0
 23
0.0
 33
0.0
 16
1.0
 26
0.0
 36
0.0
 17
0.0
 27
1.0
 37
0.0
 76
0
330
212
345
0
346
0
  0
LAYOUT
  5
4D3
102
{ACAD_REACTORS
330
1A
102
}
100
AcDbPlotSettings
  1

  2
none_device
  4
ISO_A4_(297.00_x_210.00_MM)
  6

 40
0.0
 41
0.0
 42
0.0
 43
0.0
 44
297.0
 45
210.0
 46
0.0
 47
0.0
 48
0.0
 49
0.0
140
0.0
141
0.0
142
1.0
143
1.0
 70
0
 72
1
 73
0
 74
0
  7

 75
0
147
1.0
148
0.0
149
0.0
100
AcDbLayout
  1
Layout1
 70
0
 71
1
 10
0.0
 20
0.0
 11
297.0
 21
210.0
 12
0.0
 22
0.0
 32
0.0
 14
0.0
 24
0.0
 34
0.0
 15
0.0
 25
0.0
 35
0.0
146
0.0
 13
0.0
 23
0.0
 33
0.0
 16
1.0
 26
0.0
 36
0.0
 17
0.0
 27
1.0
 37
0.0
 76
0
330
213
345
0
346
0
  0
ENDSEC
  0
EOF
