  0
SECTION
  2
HEADER
  9
$ACADVER
  1
AC1015
  9
$DWGCODEPAGE
  3
ANSI_1252
  9
$EXTMAX
 10
297.0
 20
210.0
 30
0.0
  9
$EXTMIN
 10
0.0
 20
0.0
 30
0.0
  9
$LIMMIN
 10
0.0
 20
0.0
  9
$LIMMAX
 10
297.0
 20
210.0
  9
$VIEWCTR
 10
148.5
 20
105.0
  9
$VIEWSIZE
 40
210.0
  9
$CLAYER
  8
0
  9
$LTSCALE
 40
16.335
  9
$CELTYPE
  6
BYLAYER
  9
$DIMSCALE
 40
1.0
  9
$DIMASZ
 40
3.0
  9
$DIMEXO
 40
1.85625
  9
$DIMDLI
 40
11.286
  9
$DIMEXE
 40
5.346
  9
$DIMCEN
 40
2.673
  9
$DIMLFAC
 40
1.0
  9
$DIMBLK
  1
_FILLED
  9
$DIMTXT
 40
3.0
  9
$DIMTOL
 70
1
  9
$DIMLIM
 70
0
  9
$DIMTFAC
 40
1.0
  9
$DIMTP
 40
0.01
  9
$DIMTM
 40
0.01
  9
$PDMODE
 70
3
  9
$PDSIZE
 40
3.0
  9
$HANDSEED
  5
547
  9
$TILEMODE
 70
1
  9
$MEASUREMENT
 70
1
  9
$INSUNITS
 70
4
  0
ENDSEC
  0
SECTION
  2
CLASSES
  0
CLASS
  1
ACDBDICTIONARYWDFLT
  2
AcDbDictionaryWithDefault
  3
AutoCAD 2000
 90
0
280
0
281
0
  0
CLASS
  1
ACDBPLACEHOLDER
  2
AcDbPlaceHolder
  3
AutoCAD 2000
 90
0
280
0
281
0
  0
CLASS
  1
LAYOUT
  2
AcDbLayout
  3
AutoCAD 2000
 90
0
280
0
281
0
  0
ENDSEC
  0
SECTION
  2
TABLES
  0
TABLE
  2
VPORT
  5
8
100
AcDbSymbolTable
 70
2
  0
VPORT
  5
1F4
100
AcDbSymbolTableRecord
100
AcDbViewportTableRecord
  2
*ACTIVE
 70
0
 10
0.0
 20
0.0
 11
1.0
 21
1.0
 12
148.5
 22
105.0
 13
0.0
 23
0.0
 14
1.0
 24
1.0
 15
0.0
 25
0.0
 16
0.0
 26
0.0
 36
1.0
 17
0.0
 27
0.0
 37
0.0
 40
210.0
 41
1.4142857143
 42
50.0
 43
0.0
 44
0.0
 50
0.0
 51
0.0
 71
0
 72
100
 73
1
 74
1
 75
0
 76
0
 77
0
 78
0
  0
ENDTAB
  0
TABLE
  2
LTYPE
  5
5
100
AcDbSymbolTable
 70
6
  0
LTYPE
  5
14
100
AcDbSymbolTableRecord
100
AcDbLinetypeTableRecord
  2
BYBLOCK
 70
0
  3

 72
65
 73
0
 40
0.0
  0
LTYPE
  5
15
100
AcDbSymbolTableRecord
100
AcDbLinetypeTableRecord
  2
BYLAYER
 70
0
  3

 72
65
 73
0
 40
0.0
  0
LTYPE
  5
16
100
AcDbSymbolTableRecord
100
AcDbLinetypeTableRecord
  2
CONTINUOUS
 70
64
  3
Solid line
 72
65
 73
0
 40
0.0
  0
LTYPE
  5
1F5
100
AcDbSymbolTableRecord
100
AcDbLinetypeTableRecord
  2
CENTER
 70
64
  3
____ _ ____ _ ____ _ ____ _ ____ _ ____ _ ____
 72
65
 73
4
 40
0.6
 49
0.375
 74
0
 49
-0.075
 74
0
 49
0.075
 74
0
 49
-0.075
 74
0
  0
LTYPE
  5
1F6
100
AcDbSymbolTableRecord
100
AcDbLinetypeTableRecord
  2
HIDDEN
 70
64
  3
- - - - - - - - - - - - - - - - - - - -
 72
65
 73
2
 40
0.2
 49
0.1
 74
0
 49
-0.1
 74
0
  0
LTYPE
  5
1F7
100
AcDbSymbolTableRecord
100
AcDbLinetypeTableRecord
  2
PHANTOM
 70
64
  3
_____ _ _ _____ _ _ _____ _ _ _____
 72
65
 73
6
 40
0.8
 49
0.45
 74
0
 49
-0.05
 74
0
 49
0.1
 74
0
 49
-0.05
 74
0
 49
0.1
 74
0
 49
-0.05
 74
0
  0
LTYPE
  5
1F8
100
AcDbSymbolTableRecord
100
AcDbLinetypeTableRecord
  2
DOT
 70
64
  3
. . . . . . . . . . . . . . . . . . . .
 72
65
 73
2
 40
0.2
 49
0.1
 74
0
 49
-0.1
 74
0
  0
LTYPE
  5
1F9
100
AcDbSymbolTableRecord
100
AcDbLinetypeTableRecord
  2
DASHED
 70
64
  3
- - - - - - - - - - - - - - - - - - - -
 72
65
 73
2
 40
0.2
 49
0.1
 74
0
 49
-0.1
 74
0
  0
ENDTAB
  0
TABLE
  2
LAYER
  5
2
100
AcDbSymbolTable
 70
36
  0
LAYER
  5
10
100
AcDbSymbolTableRecord
100
AcDbLayerTableRecord
  2
0
 70
0
 62
7
  6
CONTINUOUS
370
-3
390
F
  0
LAYER
  5
1FA
100
AcDbSymbolTableRecord
100
AcDbLayerTableRecord
  2
DEFAULT_1
 70
0
 62
7
  6
CENTER
370
-3
390
F
  0
LAYER
  5
1FB
100
AcDbSymbolTableRecord
100
AcDbLayerTableRecord
  2
DEFAULT_2
 70
0
 62
7
  6
HIDDEN
370
-3
390
F
  0
LAYER
  5
1FC
100
AcDbSymbolTableRecord
100
AcDbLayerTableRecord
  2
DEFAULT_3
 70
0
 62
7
  6
PHANTOM
370
-3
390
F
  0
LAYER
  5
1FD
100
AcDbSymbolTableRecord
100
AcDbLayerTableRecord
  2
ASSI
 70
0
 62
7
  6
CONTINUOUS
370
-3
390
F
  0
LAYER
  5
1FE
100
AcDbSymbolTableRecord
100
AcDbLayerTableRecord
  2
COORDINATE
 70
0
 62
7
  6
CONTINUOUS
370
-3
390
F
  0
LAYER
  5
1FF
100
AcDbSymbolTableRecord
100
AcDbLayerTableRecord
  2
COORD_ORIGINE
 70
0
 62
7
  6
CONTINUOUS
370
-3
390
F
  0
LAYER
  5
200
100
AcDbSymbolTableRecord
100
AcDbLayerTableRecord
  2
COPY_PUBLISH
 70
0
 62
7
  6
CONTINUOUS
370
-3
390
F
  0
LAYER
  5
201
100
AcDbSymbolTableRecord
100
AcDbLayerTableRecord
  2
COSMETIC
 70
0
 62
7
  6
CONTINUOUS
370
-3
390
F
  0
LAYER
  5
202
100
AcDbSymbolTableRecord
100
AcDbLayerTableRecord
  2
CURVE
 70
0
 62
7
  6
CONTINUOUS
370
-3
390
F
  0
LAYER
  5
203
100
AcDbSymbolTableRecord
100
AcDbLayerTableRecord
  2
DRAFT
 70
0
 62
7
  6
CONTINUOUS
370
-3
390
F
  0
LAYER
  5
204
100
AcDbSymbolTableRecord
100
AcDbLayerTableRecord
  2
IMPORT_IGES
 70
0
 62
7
  6
CONTINUOUS
370
-3
390
F
  0
LAYER
  5
205
100
AcDbSymbolTableRecord
100
AcDbLayerTableRecord
  2
INTFCLR_2
 70
0
 62
7
  6
CONTINUOUS
370
-3
390
F
  0
LAYER
  5
206
100
AcDbSymbolTableRecord
100
AcDbLayerTableRecord
  2
PIANI
 70
0
 62
7
  6
CONTINUOUS
370
-3
390
F
  0
LAYER
  5
207
100
AcDbSymbolTableRecord
100
AcDbLayerTableRecord
  2
PIANI_ORIGINE
 70
0
 62
7
  6
CONTINUOUS
370
-3
390
F
  0
LAYER
  5
208
100
AcDbSymbolTableRecord
100
AcDbLayerTableRecord
  2
PIANI_RIFERIMENTO
 70
0
 62
7
  6
CONTINUOUS
370
-3
390
F
  0
LAYER
  5
209
100
AcDbSymbolTableRecord
100
AcDbLayerTableRecord
  2
PUNTI
 70
0
 62
7
  6
CONTINUOUS
370
-3
390
F
  0
LAYER
  5
20A
100
AcDbSymbolTableRecord
100
AcDbLayerTableRecord
  2
RACCORDO
 70
0
 62
7
  6
CONTINUOUS
370
-3
390
F
  0
LAYER
  5
20B
100
AcDbSymbolTableRecord
100
AcDbLayerTableRecord
  2
SMUSSO
 70
0
 62
7
  6
CONTINUOUS
370
-3
390
F
  0
LAYER
  5
20C
100
AcDbSymbolTableRecord
100
AcDbLayerTableRecord
  2
SNAPLINE
 70
0
 62
7
  6
CONTINUOUS
370
-3
390
F
  0
LAYER
  5
20D
100
AcDbSymbolTableRecord
100
AcDbLayerTableRecord
  2
SUPERFICI
 70
0
 62
7
  6
CONTINUOUS
370
-3
390
F
  0
LAYER
  5
20E
100
AcDbSymbolTableRecord
100
AcDbLayerTableRecord
  2
TRASH
 70
0
 62
7
  6
CONTINUOUS
370
-3
390
F
  0
LAYER
  5
20F
100
AcDbSymbolTableRecord
100
AcDbLayerTableRecord
  2
XSEC_DATUMS
 70
0
 62
7
  6
CONTINUOUS
370
-3
390
F
  0
ENDTAB
  0
TABLE
  2
STYLE
  5
3
100
AcDbSymbolTable
 70
1
  0
STYLE
  5
11
100
AcDbSymbolTableRecord
100
AcDbTextStyleTableRecord
  2
STANDARD
 70
0
 40
0.0
 41
0.8
 50
0.0
 71
0
 42
0.2
  3
txt
  4

  0
STYLE
  5
210
100
AcDbSymbolTableRecord
100
AcDbTextStyleTableRecord
  2
TEXTSTYLE_1
 70
0
 40
0.0
 41
0.8
 50
0.0
 71
0
 42
0.2
  3
gdt
  4

  0
ENDTAB
  0
TABLE
  2
VIEW
  5
6
100
AcDbSymbolTable
 70
0
  0
ENDTAB
  0
TABLE
  2
UCS
  5
7
100
AcDbSymbolTable
 70
0
  0
ENDTAB
  0
TABLE
  2
APPID
  5
9
100
AcDbSymbolTable
 70
1
  0
APPID
  5
211
100
AcDbSymbolTableRecord
100
AcDbRegAppTableRecord
  2
ACAD
 70
0
  0
ENDTAB
  0
TABLE
  2
BLOCK_RECORD
  5
1
100
AcDbSymbolTable
 70
0
  0
BLOCK_RECORD
  5
212
100
AcDbSymbolTableRecord
100
AcDbBlockTableRecord
  2
*Model_Space
  0
BLOCK_RECORD
  5
213
100
AcDbSymbolTableRecord
100
AcDbBlockTableRecord
  2
*Paper_Space
  0
ENDTAB
  0
TABLE
  2
DIMSTYLE
  5
A
100
AcDbSymbolTable
 70
1
100
AcDbDimStyleTable
 71
0
  0
DIMSTYLE
105
214
100
AcDbSymbolTableRecord
100
AcDbDimStyleTableRecord
  2
STANDARD
 70
0
  3

  4

 40
1.0
 41
3.0
 42
0.0625
 43
0.38
 44
0.18
 45
0.0
 46
0.0
 47
0.01
 48
0.01
140
3.0
141
0.09
142
0.0
143
25.4
144
1.0
145
0.0
146
1.0
147
0.09
 71
1.0
 72
0.0
 73
0
 74
0
 75
0
 76
0
 77
1
 78
8
170
0
171
2
172
0
173
0
174
0
175
0
176
0
177
0
178
0
270
2
271
2
272
2
273
2
274
2
275
0
280
0
281
0
282
0
283
1
284
8
285
0
286
0
287
3
288
0
340
11
  0
ENDTAB
  0
ENDSEC
  0
SECTION
  2
BLOCKS
  0
BLOCK
  5
20
100
AcDbEntity
  8
0
100
AcDbBlockBegin
  2
*Model_Space
 70
0
 10
0.0
 20
0.0
 30
0.0
  3
*Model_Space
  1

  0
ENDBLK
  5
21
100
AcDbEntity
  8
0
100
AcDbBlockEnd
  0
BLOCK
  5
1C
100
AcDbEntity
  8
0
100
AcDbBlockBegin
  2
*Paper_Space
 70
0
 10
0.0
 20
0.0
 30
0.0
  3
*Paper_Space
  1

  0
ENDBLK
  5
1D
100
AcDbEntity
  8
0
100
AcDbBlockEnd
  0
ENDSEC
  0
SECTION
  2
ENTITIES
  0
LINE
  5
215
100
AcDbEntity
  8
SMUSSO
100
AcDbLine
 62
7
  6
CONTINUOUS
 10
-73.8042702863
 20
81.2786134549
 11
-74.5113770675
 21
80.7661414417
  0
LINE
  5
216
100
AcDbEntity
  8
SMUSSO
100
AcDbLine
 62
7
  6
CONTINUOUS
 10
-74.2184838487
 20
79.9125880511
 11
-74.5113770675
 21
79.7003151929
  0
LINE
  5
217
100
AcDbEntity
  8
SMUSSO
100
AcDbLine
 62
7
  6
CONTINUOUS
 10
-73.8042702863
 20
81.2786134549
 11
-71.3647518913
 21
82.4983726524
  0
LINE
  5
218
100
AcDbEntity
  8
SMUSSO
100
AcDbLine
 62
7
  6
CONTINUOUS
 10
-73.8042702863
 20
81.2786134549
 11
-74.2184838487
 21
79.9125880511
  0
LINE
  5
219
100
AcDbEntity
  8
SMUSSO
100
AcDbLine
 62
7
  6
CONTINUOUS
 10
-74.5113770675
 20
80.7661414417
 11
-74.5113770675
 21
-9.0426700828
  0
LWPOLYLINE
  5
21A
100
AcDbEntity
  8
RACCORDO
100
AcDbPolyline
 62
7
  6
CONTINUOUS
 90
15
 70
0
 10
-61.2314460939
 20
49.901541594
 10
-61.2577738068
 20
49.886161601
 10
-61.2892016546
 20
49.8644386531
 10
-61.3189000663
 20
49.839966515
 10
-61.3466507306
 20
49.8128909874
 10
-61.3723936406
 20
49.7832100946
 10
-61.3959394418
 20
49.7510384087
 10
-61.4170985414
 20
49.7165319886
 10
-61.4358067804
 20
49.6796771129
 10
-61.4519180934
 20
49.6405688582
 10
-61.4652710874
 20
49.5993509874
 10
-61.4757699167
 20
49.5559867693
 10
-61.4832793377
 20
49.5104935908
 10
-61.4876268481
 20
49.4629996182
 10
-61.488725964
 20
49.423404813
  0
LINE
  5
21B
100
AcDbEntity
  8
RACCORDO
100
AcDbLine
 62
7
  6
CONTINUOUS
 10
-61.2314308107
 20
49.9015543042
 11
-59.8715066941
 21
50.6352645692
  0
LINE
  5
21C
100
AcDbEntity
  8
RACCORDO
100
AcDbLine
 62
7
  6
CONTINUOUS
 10
-60.9096347502
 20
49.8862560875
 11
-59.5512069946
 21
50.6191590262
  0
LINE
  5
21D
100
AcDbEntity
  8
SMUSSO
100
AcDbLine
 62
7
  6
CONTINUOUS
 10
-74.5113770675
 20
-9.0426700828
 11
-74.2184838487
 21
-9.5478361598
  0
LWPOLYLINE
  5
21E
100
AcDbEntity
  8
RACCORDO
100
AcDbPolyline
 62
7
  6
CONTINUOUS
 90
14
 70
0
 10
-61.4881344315
 20
5.1244254633
 10
-61.4843910415
 20
5.0734530395
 10
-61.4773185695
 20
5.0225317702
 10
-61.4670500731
 20
4.9717989323
 10
-61.4537078411
 20
4.9214804515
 10
-61.4373909477
 20
4.8717127376
 10
-61.418179037
 20
4.8226542022
 10
-61.3962019056
 20
4.7746221718
 10
-61.3715043588
 20
4.727714052
 10
-61.3441667926
 20
4.6821752807
 10
-61.314459103
 20
4.6385000023
 10
-61.2824220364
 20
4.5968004469
 10
-61.248142342
 20
4.5572961339
 10
-61.2120297604
 20
4.5205074021
  0
LINE
  5
21F
100
AcDbEntity
  8
RACCORDO
100
AcDbLine
 62
7
  6
CONTINUOUS
 10
-61.4887260968
 20
5.1540079867
 11
-61.4881344315
 21
5.1244254633
  0
LINE
  5
220
100
AcDbEntity
  8
RACCORDO
100
AcDbLine
 62
7
  6
CONTINUOUS
 10
-61.4887321698
 20
49.4233815546
 11
-61.4887321698
 21
5.15390221
  0
LINE
  5
221
100
AcDbEntity
  8
RACCORDO
100
AcDbLine
 62
7
  6
CONTINUOUS
 10
-61.4008642043
 20
49.3212185869
 11
-61.4008642042
 21
5.0478361895
  0
LINE
  5
222
100
AcDbEntity
  8
RACCORDO
100
AcDbLine
 62
7
  6
CONTINUOUS
 10
-59.7484133917
 20
6.4604432635
 11
-59.7484133917
 21
46.2522576554
  0
LINE
  5
223
100
AcDbEntity
  8
RACCORDO
100
AcDbLine
 62
7
  6
CONTINUOUS
 10
-59.3642084265
 20
6.4436366554
 11
-59.3642084265
 21
46.2354506991
  0
LINE
  5
224
100
AcDbEntity
  8
DRAFT
100
AcDbLine
 62
7
  6
CONTINUOUS
 10
-56.9860959252
 20
40.117874149
 11
-57.4999048123
 21
39.8325528588
  0
LINE
  5
225
100
AcDbEntity
  8
RACCORDO
100
AcDbLine
 62
7
  6
CONTINUOUS
 10
-56.5167114371
 20
40.3142405487
 11
-57.4519956258
 21
39.842992339
  0
LINE
  5
226
100
AcDbEntity
  8
RACCORDO
100
AcDbLine
 62
7
  6
CONTINUOUS
 10
-56.3046117115
 20
39.9484226347
 11
-57.2398959002
 21
39.477174425
  0
LINE
  5
227
100
AcDbEntity
  8
RACCORDO
100
AcDbLine
 62
7
  6
CONTINUOUS
 10
-56.7983521988
 20
41.1449132493
 11
-56.2326667739
 21
41.415662738
  0
LINE
  5
228
100
AcDbEntity
  8
RACCORDO
100
AcDbLine
 62
7
  6
CONTINUOUS
 10
-56.8781000357
 20
40.981749747
 11
-56.3124146107
 21
41.2524992358
  0
LINE
  5
229
100
AcDbEntity
  8
SMUSSO
100
AcDbLine
 62
7
  6
CONTINUOUS
 10
72.0718586724
 20
-81.9859006392
 11
70.6576451101
 21
-81.6271811716
  0
LINE
  5
22A
100
AcDbEntity
  8
RACCORDO
100
AcDbLine
 62
7
  6
CONTINUOUS
 10
-57.8558913635
 20
45.7028403485
 11
-57.8558913635
 21
7.5557998421
  0
LINE
  5
22B
100
AcDbEntity
  8
RACCORDO
100
AcDbLine
 62
7
  6
CONTINUOUS
 10
-57.7953503965
 20
45.672569865
 11
-57.7953503965
 21
7.5807529031
  0
LINE
  5
22C
100
AcDbEntity
  8
RACCORDO
100
AcDbLine
 62
7
  6
CONTINUOUS
 10
-57.4999048123
 20
7.7296148258
 11
-57.4999048123
 21
45.5248470729
  0
LINE
  5
22D
100
AcDbEntity
  8
RACCORDO
100
AcDbLine
 62
7
  6
CONTINUOUS
 10
-57.2398959002
 20
39.477174425
 11
-57.2398959002
 21
34.0222085728
  0
LINE
  5
22E
100
AcDbEntity
  8
RACCORDO
100
AcDbLine
 62
7
  6
CONTINUOUS
 10
-57.2398959002
 20
20.4246155417
 11
-57.2398959002
 21
14.9696496896
  0
LINE
  5
22F
100
AcDbEntity
  8
RACCORDO
100
AcDbLine
 62
7
  6
CONTINUOUS
 10
-56.9860959252
 20
45.2679426294
 11
-56.9860959252
 21
40.117874149
  0
LINE
  5
230
100
AcDbEntity
  8
DRAFT
100
AcDbLine
 62
7
  6
CONTINUOUS
 10
-56.9860959252
 20
33.6226836206
 11
-56.9860959252
 21
21.0653152657
  0
LINE
  5
231
100
AcDbEntity
  8
RACCORDO
100
AcDbLine
 62
7
  6
CONTINUOUS
 10
-56.9860959252
 20
14.5701247373
 11
-56.9860959252
 21
7.9745437962
  0
LINE
  5
232
100
AcDbEntity
  8
RACCORDO
100
AcDbLine
 62
7
  6
CONTINUOUS
 10
-56.8082262746
 20
22.097212258
 11
-56.8082262746
 21
32.7664703684
  0
LINE
  5
233
100
AcDbEntity
  8
RACCORDO
100
AcDbLine
 62
7
  6
CONTINUOUS
 10
-56.7983521988
 20
7.7560343856
 11
-56.7983521988
 21
13.7088953013
  0
LINE
  5
234
100
AcDbEntity
  8
RACCORDO
100
AcDbLine
 62
7
  6
CONTINUOUS
 10
-56.7983521988
 20
41.1449132493
 11
-56.7983521988
 21
45.1740707662
  0
LINE
  5
235
100
AcDbEntity
  8
RACCORDO
100
AcDbLine
 62
7
  6
CONTINUOUS
 10
-56.6922861816
 20
41.0706843453
 11
-56.6922861816
 21
40.4020279209
  0
LINE
  5
236
100
AcDbEntity
  8
RACCORDO
100
AcDbLine
 62
7
  6
CONTINUOUS
 10
-56.6922861816
 20
34.1488104236
 11
-56.6922861816
 21
33.5460470218
  0
LINE
  5
237
100
AcDbEntity
  8
RACCORDO
100
AcDbLine
 62
7
  6
CONTINUOUS
 10
-56.6922861816
 20
22.0244547706
 11
-56.6922861816
 21
21.3494690377
  0
LINE
  5
238
100
AcDbEntity
  8
RACCORDO
100
AcDbLine
 62
7
  6
CONTINUOUS
 10
-56.6922861816
 20
15.0962515404
 11
-56.6922861816
 21
14.4934881385
  0
LINE
  5
239
100
AcDbEntity
  8
RACCORDO
100
AcDbLine
 62
7
  6
CONTINUOUS
 10
-56.5458395722
 20
41.1407769142
 11
-56.5458395722
 21
40.5147831192
  0
LINE
  5
23A
100
AcDbEntity
  8
RACCORDO
100
AcDbLine
 62
7
  6
CONTINUOUS
 10
-56.5458395722
 20
34.2164443209
 11
-56.5458395722
 21
33.4728237171
  0
LINE
  5
23B
100
AcDbEntity
  8
RACCORDO
100
AcDbLine
 62
7
  6
CONTINUOUS
 10
-56.5458395722
 20
22.0920886679
 11
-56.5458395722
 21
21.4622242359
  0
LINE
  5
23C
100
AcDbEntity
  8
RACCORDO
100
AcDbLine
 62
7
  6
CONTINUOUS
 10
-56.5458395722
 20
15.1638854377
 11
-56.5458395722
 21
14.4202648338
  0
LINE
  5
23D
100
AcDbEntity
  8
RACCORDO
100
AcDbLine
 62
7
  6
CONTINUOUS
 10
-56.3046117115
 20
39.9484226347
 11
-56.3046117115
 21
34.4541538054
  0
LINE
  5
23E
100
AcDbEntity
  8
RACCORDO
100
AcDbLine
 62
7
  6
CONTINUOUS
 10
-56.3046117115
 20
20.8958637514
 11
-56.3046117115
 21
15.4015949222
  0
LINE
  5
23F
100
AcDbEntity
  8
RACCORDO
100
AcDbLine
 62
7
  6
CONTINUOUS
 10
-56.2326667739
 20
8.0509703218
 11
-56.2326667739
 21
14.0038312375
  0
LINE
  5
240
100
AcDbEntity
  8
RACCORDO
100
AcDbLine
 62
7
  6
CONTINUOUS
 10
-56.2326667739
 20
22.3630247088
 11
-56.2326667739
 21
33.0564692667
  0
LINE
  5
241
100
AcDbEntity
  8
RACCORDO
100
AcDbLine
 62
7
  6
CONTINUOUS
 10
-56.2326667739
 20
41.415662738
 11
-56.2326667739
 21
44.8912280537
  0
LINE
  5
242
100
AcDbEntity
  8
RACCORDO
100
AcDbLine
 62
7
  6
CONTINUOUS
 10
-55.526759893
 20
7.8609333453
 11
-55.526759893
 21
7.6980168814
  0
LINE
  5
243
100
AcDbEntity
  8
RACCORDO
100
AcDbLine
 62
7
  6
CONTINUOUS
 10
-52.9636375056
 20
31.692192559
 11
-52.9636375056
 21
27.1124803204
  0
LINE
  5
244
100
AcDbEntity
  8
RACCORDO
100
AcDbLine
 62
7
  6
CONTINUOUS
 10
-52.8794394457
 20
31.7963913146
 11
-52.8794394457
 21
27.2166790759
  0
LINE
  5
245
100
AcDbEntity
  8
DRAFT
100
AcDbLine
 62
7
  6
CONTINUOUS
 10
-56.9860959252
 20
33.6226836206
 11
-57.4999048123
 21
33.3373623305
  0
LINE
  5
246
100
AcDbEntity
  8
RACCORDO
100
AcDbLine
 62
7
  6
CONTINUOUS
 10
-56.9860959252
 20
33.1495352986
 11
-56.4447664995
 21
33.4222871807
  0
LINE
  5
247
100
AcDbEntity
  8
RACCORDO
100
AcDbLine
 62
7
  6
CONTINUOUS
 10
-56.8082262746
 20
32.7664703684
 11
-56.2326667739
 21
33.0564692667
  0
LINE
  5
248
100
AcDbEntity
  8
RACCORDO
100
AcDbLine
 62
7
  6
CONTINUOUS
 10
-56.2326667739
 20
30.5417508839
 11
-53.1757372313
 21
32.058010473
  0
LINE
  5
249
100
AcDbEntity
  8
RACCORDO
100
AcDbLine
 62
7
  6
CONTINUOUS
 10
-56.2326667739
 20
30.0707299424
 11
-52.9636375056
 21
31.692192559
  0
LINE
  5
24A
100
AcDbEntity
  8
RACCORDO
100
AcDbLine
 62
7
  6
CONTINUOUS
 10
-57.2398959002
 20
34.0222085728
 11
-56.3046117115
 21
34.4541538054
  0
LINE
  5
24B
100
AcDbEntity
  8
RACCORDO
100
AcDbLine
 62
7
  6
CONTINUOUS
 10
-57.3210332557
 20
33.8584341889
 11
-56.3857490669
 21
34.2903794215
  0
LINE
  5
24C
100
AcDbEntity
  8
RACCORDO
100
AcDbLine
 62
7
  6
CONTINUOUS
 10
-53.6319160014
 20
32.2320950563
 11
-55.8817730548
 21
31.1930365113
  0
LINE
  5
24D
100
AcDbEntity
  8
RACCORDO
100
AcDbLine
 62
7
  6
CONTINUOUS
 10
-53.5024301739
 20
32.2213569444
 11
-55.8084350139
 21
31.1563674909
  0
LINE
  5
24E
100
AcDbEntity
  8
SMUSSO
100
AcDbLine
 62
7
  6
CONTINUOUS
 10
-73.8042702863
 20
-9.9138615636
 11
-74.2184838487
 21
-9.5478361598
  0
LINE
  5
24F
100
AcDbEntity
  8
RACCORDO
100
AcDbLine
 62
7
  6
CONTINUOUS
 10
-50.2576144728
 20
4.8035969742
 11
-50.2576144728
 21
4.3508515062
  0
LINE
  5
250
100
AcDbEntity
  8
ASSI
100
AcDbLine
 62
7
  6
CONTINUOUS
 10
-48.7272818665
 20
3.585685203
 11
-48.7019795542
 21
3.6293252364
  0
LINE
  5
251
100
AcDbEntity
  8
ASSI
100
AcDbLine
 62
7
  6
CONTINUOUS
 10
-48.4437773372
 20
3.6416454842
 11
-48.3484261636
 21
3.8061019317
  0
LINE
  5
252
100
AcDbEntity
  8
ASSI
100
AcDbLine
 62
7
  6
CONTINUOUS
 10
-48.0902239466
 20
3.8184221795
 11
-47.994872773
 21
3.982878627
  0
LINE
  5
253
100
AcDbEntity
  8
DRAFT
100
AcDbLine
 62
7
  6
CONTINUOUS
 10
-56.9860959252
 20
21.0653152657
 11
-57.4999048123
 21
20.7799939756
  0
LINE
  5
254
100
AcDbEntity
  8
RACCORDO
100
AcDbLine
 62
7
  6
CONTINUOUS
 10
-52.9636375056
 20
27.1124803204
 11
-56.2326667739
 21
25.3487640331
  0
LINE
  5
255
100
AcDbEntity
  8
RACCORDO
100
AcDbLine
 62
7
  6
CONTINUOUS
 10
-53.0369922996
 20
26.9526548146
 11
-56.2326667739
 21
25.2285151216
  0
LINE
  5
256
100
AcDbEntity
  8
RACCORDO
100
AcDbLine
 62
7
  6
CONTINUOUS
 10
-56.5167114371
 20
21.2616816654
 11
-57.4519956258
 21
20.7904334557
  0
LINE
  5
257
100
AcDbEntity
  8
RACCORDO
100
AcDbLine
 62
7
  6
CONTINUOUS
 10
-56.3046117115
 20
20.8958637514
 11
-57.2398959002
 21
20.4246155417
  0
LINE
  5
258
100
AcDbEntity
  8
RACCORDO
100
AcDbLine
 62
7
  6
CONTINUOUS
 10
-56.8082262746
 20
22.097212258
 11
-56.2326667739
 21
22.3630247088
  0
LINE
  5
259
100
AcDbEntity
  8
RACCORDO
100
AcDbLine
 62
7
  6
CONTINUOUS
 10
-56.8893636301
 20
21.933437874
 11
-56.3138041293
 21
22.1992503249
  0
LINE
  5
25A
100
AcDbEntity
  8
ASSI
100
AcDbLine
 62
7
  6
CONTINUOUS
 10
-42.2528827364
 20
2.6508447843
 11
-42.2528827364
 21
2.1387186494
  0
LINE
  5
25B
100
AcDbEntity
  8
ASSI
100
AcDbLine
 62
7
  6
CONTINUOUS
 10
-42.2015117015
 20
2.6666032162
 11
-42.2015117015
 21
2.1560524317
  0
LINE
  5
25C
100
AcDbEntity
  8
DRAFT
100
AcDbLine
 62
7
  6
CONTINUOUS
 10
-42.7793503822
 20
1.5821760482
 11
-42.7223067303
 21
1.8143899217
  0
LINE
  5
25D
100
AcDbEntity
  8
ASSI
100
AcDbLine
 62
7
  6
CONTINUOUS
 10
-47.736670556
 20
3.9951988748
 11
-47.6413193824
 21
4.1596553223
  0
LINE
  5
25E
100
AcDbEntity
  8
ASSI
100
AcDbLine
 62
7
  6
CONTINUOUS
 10
-47.3831171654
 20
4.1719755701
 11
-47.2877659919
 21
4.3364320176
  0
LINE
  5
25F
100
AcDbEntity
  8
ASSI
100
AcDbLine
 62
7
  6
CONTINUOUS
 10
-47.0295637748
 20
4.3487522653
 11
-46.9342126013
 21
4.5132087129
  0
LINE
  5
260
100
AcDbEntity
  8
ASSI
100
AcDbLine
 62
7
  6
CONTINUOUS
 10
-46.6760103842
 20
4.5255289606
 11
-46.5806592107
 21
4.6899854082
  0
LINE
  5
261
100
AcDbEntity
  8
ASSI
100
AcDbLine
 62
7
  6
CONTINUOUS
 10
-44.1286219403
 20
1.998947905
 11
-44.1057854765
 21
2.0383349788
  0
LINE
  5
262
100
AcDbEntity
  8
ASSI
100
AcDbLine
 62
7
  6
CONTINUOUS
 10
-43.8582981031
 20
2.0321748549
 11
-43.7522320859
 21
2.2151116741
  0
LINE
  5
263
100
AcDbEntity
  8
ASSI
100
AcDbLine
 62
7
  6
CONTINUOUS
 10
-43.5047447125
 20
2.2089515502
 11
-43.3986786953
 21
2.3918883694
  0
LINE
  5
264
100
AcDbEntity
  8
ASSI
100
AcDbLine
 62
7
  6
CONTINUOUS
 10
-43.1511913219
 20
2.3857282455
 11
-43.0451253047
 21
2.5686650647
  0
LINE
  5
265
100
AcDbEntity
  8
ASSI
100
AcDbLine
 62
7
  6
CONTINUOUS
 10
-42.7976379313
 20
2.5625049408
 11
-42.6915719141
 21
2.74544176
  0
LINE
  5
266
100
AcDbEntity
  8
RACCORDO
100
AcDbLine
 62
7
  6
CONTINUOUS
 10
-59.3642084265
 20
6.4436366554
 11
-57.8552335
 21
7.5437623436
  0
LINE
  5
267
100
AcDbEntity
  8
RACCORDO
100
AcDbLine
 62
7
  6
CONTINUOUS
 10
-59.2036034921
 20
6.0516343542
 11
-57.6852326991
 21
7.1586302934
  0
LINE
  5
268
100
AcDbEntity
  8
DRAFT
100
AcDbLine
 62
7
  6
CONTINUOUS
 10
-56.9860959252
 20
14.5701247373
 11
-57.4999048123
 21
14.2848034472
  0
LINE
  5
269
100
AcDbEntity
  8
RACCORDO
100
AcDbLine
 62
7
  6
CONTINUOUS
 10
-56.9860959252
 20
14.0875240429
 11
-56.4447988082
 21
14.3697444518
  0
LINE
  5
26A
100
AcDbEntity
  8
RACCORDO
100
AcDbLine
 62
7
  6
CONTINUOUS
 10
-56.7983521988
 20
13.7088953013
 11
-56.2326667739
 21
14.0038312375
  0
LINE
  5
26B
100
AcDbEntity
  8
RACCORDO
100
AcDbLine
 62
7
  6
CONTINUOUS
 10
-57.2398959002
 20
14.9696496896
 11
-56.3046117115
 21
15.4015949222
  0
LINE
  5
26C
100
AcDbEntity
  8
RACCORDO
100
AcDbLine
 62
7
  6
CONTINUOUS
 10
-57.3210332557
 20
14.8058753056
 11
-56.3857490669
 21
15.2378205382
  0
LINE
  5
26D
100
AcDbEntity
  8
SMUSSO
100
AcDbLine
 62
7
  6
CONTINUOUS
 10
-73.8042702863
 20
-9.9138615636
 11
71.3647518913
 21
-82.4983726524
  0
LINE
  5
26E
100
AcDbEntity
  8
SMUSSO
100
AcDbLine
 62
7
  6
CONTINUOUS
 10
-74.2184838487
 20
-9.5478361598
 11
70.3647518913
 21
-81.8394540298
  0
LINE
  5
26F
100
AcDbEntity
  8
RACCORDO
100
AcDbLine
 62
7
  6
CONTINUOUS
 10
-61.2120297604
 20
4.5205074021
 11
-61.1741673193
 21
4.4865653583
  0
LINE
  5
270
100
AcDbEntity
  8
RACCORDO
100
AcDbLine
 62
7
  6
CONTINUOUS
 10
-34.667109848
 20
-2.5688916772
 11
-34.667109848
 21
-2.7318081411
  0
LINE
  5
271
100
AcDbEntity
  8
RACCORDO
100
AcDbLine
 62
7
  6
CONTINUOUS
 10
-34.3477118961
 20
-3.1513543141
 11
-34.3477118961
 21
-3.6040997822
  0
LINE
  5
272
100
AcDbEntity
  8
RACCORDO
100
AcDbLine
 62
7
  6
CONTINUOUS
 10
-56.7983521988
 20
7.7560343856
 11
-56.2326667739
 21
8.0509703218
  0
LINE
  5
273
100
AcDbEntity
  8
RACCORDO
100
AcDbLine
 62
7
  6
CONTINUOUS
 10
-57.7953503965
 20
7.5807529031
 11
-57.4999048123
 21
7.7296148258
  0
LINE
  5
274
100
AcDbEntity
  8
RACCORDO
100
AcDbLine
 62
7
  6
CONTINUOUS
 10
-57.5513692064
 20
7.2309986447
 11
-57.2878050867
 21
7.3637969118
  0
LINE
  5
275
100
AcDbEntity
  8
RACCORDO
100
AcDbLine
 62
7
  6
CONTINUOUS
 10
-56.0205895355
 20
8.296965276
 11
-56.2326667739
 21
8.1917734023
  0
LINE
  5
276
100
AcDbEntity
  8
RACCORDO
100
AcDbLine
 62
7
  6
CONTINUOUS
 10
-57.4977031943
 20
7.7250993365
 11
-56.9860959252
 21
7.9745437962
  0
LINE
  5
277
100
AcDbEntity
  8
RACCORDO
100
AcDbLine
 62
7
  6
CONTINUOUS
 10
-57.28582867
 20
7.3597433073
 11
-56.7742546104
 21
7.609171575
  0
LINE
  5
278
100
AcDbEntity
  8
SMUSSO
100
AcDbLine
 62
7
  6
CONTINUOUS
 10
71.3647518913
 20
-82.4983726524
 11
70.3647518913
 21
-81.8394540298
  0
LWPOLYLINE
  5
279
100
AcDbEntity
  8
RACCORDO
100
AcDbPolyline
 62
7
  6
CONTINUOUS
 90
5
 70
0
 10
-61.1741673193
 20
4.4865653583
 10
-61.1346041772
 20
4.4555885563
 10
-61.0937325638
 20
4.427946456
 10
-61.0517492521
 20
4.4038036453
 10
-61.040066422
 20
4.3978095469
  0
LINE
  5
27A
100
AcDbEntity
  8
DRAFT
100
AcDbLine
 62
7
  6
CONTINUOUS
 10
-27.6655528139
 20
-7.3610985934
 11
-27.6655528139
 21
-6.9451793233
  0
LINE
  5
27B
100
AcDbEntity
  8
RACCORDO
100
AcDbLine
 62
7
  6
CONTINUOUS
 10
-27.2598026374
 20
-7.1280097222
 11
-27.2598026374
 21
-6.6952297976
  0
LINE
  5
27C
100
AcDbEntity
  8
ASSI
100
AcDbLine
 62
7
  6
CONTINUOUS
 10
-26.3429801597
 20
-5.3907090444
 11
-26.3429801597
 21
-5.8162326389
  0
LINE
  5
27D
100
AcDbEntity
  8
ASSI
100
AcDbLine
 62
7
  6
CONTINUOUS
 10
-26.2916091248
 20
-5.3749502167
 11
-26.2916091248
 21
-5.7988988461
  0
LINE
  5
27E
100
AcDbEntity
  8
DRAFT
100
AcDbLine
 62
7
  6
CONTINUOUS
 10
-22.8223095486
 20
-9.665320926
 11
-22.8223095486
 21
-9.7973292197
  0
LINE
  5
27F
100
AcDbEntity
  8
DRAFT
100
AcDbLine
 62
7
  6
CONTINUOUS
 10
-21.8870253598
 20
-9.8344430503
 11
-21.8870253598
 21
-9.1940727163
  0
LINE
  5
280
100
AcDbEntity
  8
DRAFT
100
AcDbLine
 62
7
  6
CONTINUOUS
 10
-26.8694478055
 20
-6.3727752401
 11
-26.8124041536
 21
-6.1405613666
  0
LINE
  5
281
100
AcDbEntity
  8
ASSI
100
AcDbLine
 62
7
  6
CONTINUOUS
 10
-42.5147952188
 20
1.920129117
 11
-42.2600903452
 21
2.1047251679
  0
LINE
  5
282
100
AcDbEntity
  8
ASSI
100
AcDbLine
 62
7
  6
CONTINUOUS
 10
-42.2598962662
 20
2.6471874988
 11
-43.7595580181
 21
1.814415944
  0
LINE
  5
283
100
AcDbEntity
  8
RACCORDO
100
AcDbLine
 62
7
  6
CONTINUOUS
 10
-51.0354319321
 20
4.8745742523
 11
-50.4697465072
 21
5.1695101885
  0
LINE
  5
284
100
AcDbEntity
  8
RACCORDO
100
AcDbLine
 62
7
  6
CONTINUOUS
 10
-50.7008837301
 20
4.5724861348
 11
-50.2576144728
 21
4.8035969742
  0
LINE
  5
285
100
AcDbEntity
  8
RACCORDO
100
AcDbLine
 62
7
  6
CONTINUOUS
 10
-45.9387150834
 20
2.8436962367
 11
-46.5044005084
 21
2.5487603005
  0
LINE
  5
286
100
AcDbEntity
  8
RACCORDO
100
AcDbLine
 62
7
  6
CONTINUOUS
 10
-45.8028417514
 20
2.8360578106
 11
-46.3685271763
 21
2.5411218744
  0
LINE
  5
287
100
AcDbEntity
  8
ASSI
100
AcDbLine
 62
7
  6
CONTINUOUS
 10
-48.7019795542
 20
3.6293252364
 11
-48.560558198
 21
3.7000359146
  0
LINE
  5
288
100
AcDbEntity
  8
ASSI
100
AcDbLine
 62
7
  6
CONTINUOUS
 10
-48.3484261636
 20
3.8061019317
 11
-48.2070048074
 21
3.8768126099
  0
LINE
  5
289
100
AcDbEntity
  8
ASSI
100
AcDbLine
 62
7
  6
CONTINUOUS
 10
-47.994872773
 20
3.982878627
 11
-47.8534514168
 21
4.0535893052
  0
LINE
  5
28A
100
AcDbEntity
  8
ASSI
100
AcDbLine
 62
7
  6
CONTINUOUS
 10
-47.6413193824
 20
4.1596553223
 11
-47.4998980262
 21
4.2303660005
  0
LINE
  5
28B
100
AcDbEntity
  8
ASSI
100
AcDbLine
 62
7
  6
CONTINUOUS
 10
-47.2877659919
 20
4.3364320176
 11
-47.1463446356
 21
4.4071426957
  0
LINE
  5
28C
100
AcDbEntity
  8
ASSI
100
AcDbLine
 62
7
  6
CONTINUOUS
 10
-46.9342126013
 20
4.5132087129
 11
-46.792791245
 21
4.583919391
  0
LINE
  5
28D
100
AcDbEntity
  8
ASSI
100
AcDbLine
 62
7
  6
CONTINUOUS
 10
-46.5806592107
 20
4.6899854082
 11
-46.4392378544
 21
4.7606960863
  0
LINE
  5
28E
100
AcDbEntity
  8
ASSI
100
AcDbLine
 62
7
  6
CONTINUOUS
 10
-44.1057854765
 20
2.0383349788
 11
-43.9643641203
 21
2.1090456569
  0
LINE
  5
28F
100
AcDbEntity
  8
ASSI
100
AcDbLine
 62
7
  6
CONTINUOUS
 10
-43.7522320859
 20
2.2151116741
 11
-43.6108107297
 21
2.2858223522
  0
LINE
  5
290
100
AcDbEntity
  8
ASSI
100
AcDbLine
 62
7
  6
CONTINUOUS
 10
-43.3986786953
 20
2.3918883694
 11
-43.2572573391
 21
2.4625990475
  0
LINE
  5
291
100
AcDbEntity
  8
ASSI
100
AcDbLine
 62
7
  6
CONTINUOUS
 10
-43.0451253047
 20
2.5686650647
 11
-42.9037039485
 21
2.6393757428
  0
LINE
  5
292
100
AcDbEntity
  8
ASSI
100
AcDbLine
 62
7
  6
CONTINUOUS
 10
-42.6915719141
 20
2.74544176
 11
-42.5501505579
 21
2.8161524381
  0
LINE
  5
293
100
AcDbEntity
  8
ASSI
100
AcDbLine
 62
7
  6
CONTINUOUS
 10
-42.4440845407
 20
2.7392816361
 11
-44.0266869716
 21
1.9479804207
  0
LINE
  5
294
100
AcDbEntity
  8
ASSI
100
AcDbLine
 62
7
  6
CONTINUOUS
 10
-46.5173601118
 20
4.7759194216
 11
-48.9328412857
 21
3.6884649126
  0
LWPOLYLINE
  5
295
100
AcDbEntity
  8
RACCORDO
100
AcDbPolyline
 62
7
  6
CONTINUOUS
 90
13
 70
0
 10
54.1603671829
 20
-53.2024075117
 10
54.1749339067
 20
-53.209452859
 10
54.2148066516
 20
-53.226372561
 10
54.2551297757
 20
-53.2400539558
 10
54.2957452835
 20
-53.2504451257
 10
54.3363940728
 20
-53.2574979953
 10
54.3768864405
 20
-53.2612015529
 10
54.4170225177
 20
-53.2615617012
 10
54.4564473365
 20
-53.2586302883
 10
54.49490158
 20
-53.2525053484
 10
54.5321841473
 20
-53.2433020601
 10
54.5680031399
 20
-53.231194471
 10
54.5951388337
 20
-53.219706583
  0
LINE
  5
296
100
AcDbEntity
  8
RACCORDO
100
AcDbLine
 62
7
  6
CONTINUOUS
 10
-61.0400966108
 20
4.397816829
 11
54.1603200503
 21
-53.2023915016
  0
LINE
  5
297
100
AcDbEntity
  8
0
100
AcDbLine
 62
7
  6
CONTINUOUS
 10
-6.0964816272
 20
-22.9676332661
 11
-5.8233503193
 21
-23.1041989201
  0
LINE
  5
298
100
AcDbEntity
  8
0
100
AcDbLine
 62
7
  6
CONTINUOUS
 10
-5.2310585875
 20
-23.400344786
 11
-4.9211223716
 21
-23.555312894
  0
LINE
  5
299
100
AcDbEntity
  8
0
100
AcDbLine
 62
7
  6
CONTINUOUS
 10
-4.7542741626
 20
-23.6387369985
 11
-4.4577666116
 21
-23.786990774
  0
LINE
  5
29A
100
AcDbEntity
  8
0
100
AcDbLine
 62
7
  6
CONTINUOUS
 10
-4.0272899027
 20
-24.0022291284
 11
-3.9838219275
 21
-24.023963116
  0
LINE
  5
29B
100
AcDbEntity
  8
0
100
AcDbLine
 62
7
  6
CONTINUOUS
 10
-3.5516304847
 20
-24.2400588374
 11
-3.2484308751
 21
-24.3916586422
  0
LINE
  5
29C
100
AcDbEntity
  8
0
100
AcDbLine
 62
7
  6
CONTINUOUS
 10
-3.1997628367
 20
-24.4159926614
 11
-2.8931896206
 21
-24.5692792694
  0
LINE
  5
29D
100
AcDbEntity
  8
0
100
AcDbLine
 62
7
  6
CONTINUOUS
 10
-2.3052953859
 20
-24.8632263868
 11
-1.9786360946
 21
-25.0265560325
  0
LINE
  5
29E
100
AcDbEntity
  8
0
100
AcDbLine
 62
7
  6
CONTINUOUS
 10
-1.8876237614
 20
-25.0720625435
 11
-1.5789349642
 21
-25.2264069421
  0
LINE
  5
29F
100
AcDbEntity
  8
0
100
AcDbLine
 62
7
  6
CONTINUOUS
 10
-1.1043109072
 20
-25.4637189706
 11
-0.8061886108
 21
-25.6127801188
  0
LINE
  5
2A0
100
AcDbEntity
  8
RACCORDO
100
AcDbLine
 62
7
  6
CONTINUOUS
 10
-61.1212514029
 20
4.5616723872
 11
-6.1008614896
 21
-22.9485225694
  0
LINE
  5
2A1
100
AcDbEntity
  8
RACCORDO
100
AcDbLine
 62
7
  6
CONTINUOUS
 10
-5.8064295537
 20
-23.0957385373
 11
-5.2310585875
 21
-23.3834240204
  0
LINE
  5
2A2
100
AcDbEntity
  8
RACCORDO
100
AcDbLine
 62
7
  6
CONTINUOUS
 10
-4.904201606
 20
-23.5468525112
 11
-4.7530266797
 21
-23.6224399743
  0
LINE
  5
2A3
100
AcDbEntity
  8
RACCORDO
100
AcDbLine
 62
7
  6
CONTINUOUS
 10
-4.440845846
 20
-23.7785303912
 11
-4.0324709855
 21
-23.9827178214
  0
LINE
  5
2A4
100
AcDbEntity
  8
RACCORDO
100
AcDbLine
 62
7
  6
CONTINUOUS
 10
-3.9669011619
 20
-24.0155027332
 11
-3.5525416632
 21
-24.2226824826
  0
LINE
  5
2A5
100
AcDbEntity
  8
RACCORDO
100
AcDbLine
 62
7
  6
CONTINUOUS
 10
-3.2315101095
 20
-24.3831982594
 11
-3.1929945304
 21
-24.4024560489
  0
LINE
  5
2A6
100
AcDbEntity
  8
RACCORDO
100
AcDbLine
 62
7
  6
CONTINUOUS
 10
-2.876268855
 20
-24.5608188867
 11
-2.3090376101
 21
-24.8444345091
  0
LINE
  5
2A7
100
AcDbEntity
  8
RACCORDO
100
AcDbLine
 62
7
  6
CONTINUOUS
 10
-1.961715329
 20
-25.0180956497
 11
-1.8870149746
 21
-25.0554458268
  0
LINE
  5
2A8
100
AcDbEntity
  8
RACCORDO
100
AcDbLine
 62
7
  6
CONTINUOUS
 10
-1.5620138542
 20
-25.2179463871
 11
-1.1083714007
 21
-25.4447676138
  0
LINE
  5
2A9
100
AcDbEntity
  8
RACCORDO
100
AcDbLine
 62
7
  6
CONTINUOUS
 10
-0.7892675008
 20
-25.6043195638
 11
54.0823520972
 21
-53.0401293627
  0
LINE
  5
2AA
100
AcDbEntity
  8
0
100
AcDbLine
 62
7
  6
CONTINUOUS
 10
-2.8076664697
 20
-24.2490038617
 11
-2.3855852396
 21
-24.4600444767
  0
LINE
  5
2AB
100
AcDbEntity
  8
0
100
AcDbLine
 62
7
  6
CONTINUOUS
 10
-2.4475256723
 20
-24.14815727
 11
-2.7442672756
 21
-23.9997864683
  0
LINE
  5
2AC
100
AcDbEntity
  8
0
100
AcDbLine
 62
7
  6
CONTINUOUS
 10
-1.5789349642
 20
-24.5147463137
 11
-1.4127547486
 21
-24.5978364215
  0
LINE
  5
2AD
100
AcDbEntity
  8
0
100
AcDbLine
 62
7
  6
CONTINUOUS
 10
-2.4773703021
 20
-23.9918135989
 11
-2.6028459194
 21
-23.9290757902
  0
LINE
  5
2AE
100
AcDbEntity
  8
0
100
AcDbLine
 62
7
  6
CONTINUOUS
 10
-1.4120866874
 20
-24.3003440179
 11
-1.5892119718
 21
-24.2117813757
  0
LINE
  5
2AF
100
AcDbEntity
  8
0
100
AcDbLine
 62
7
  6
CONTINUOUS
 10
-1.2706653312
 20
-24.2296333398
 11
-1.4477906156
 21
-24.1410706976
  0
LINE
  5
2B0
100
AcDbEntity
  8
0
100
AcDbLine
 62
7
  6
CONTINUOUS
 10
-2.4342094374
 20
-22.9802692996
 11
-2.7340347334
 21
-22.8303566516
  0
LINE
  5
2B1
100
AcDbEntity
  8
0
100
AcDbLine
 62
7
  6
CONTINUOUS
 10
-3.3872762413
 20
-22.5037358976
 11
-3.6939272391
 21
-22.3504103987
  0
LINE
  5
2B2
100
AcDbEntity
  8
0
100
AcDbLine
 62
7
  6
CONTINUOUS
 10
-4.3105257665
 20
-22.042111135
 11
-4.6202053027
 21
-21.887271367
  0
LINE
  5
2B3
100
AcDbEntity
  8
0
100
AcDbLine
 62
7
  6
CONTINUOUS
 10
-5.3460758694
 20
-21.5243360836
 11
-5.6558006604
 21
-21.3694736881
  0
LINE
  5
2B4
100
AcDbEntity
  8
0
100
AcDbLine
 62
7
  6
CONTINUOUS
 10
-6.2305059394
 20
-21.0821210486
 11
-6.5671920049
 21
-20.9137780159
  0
LINE
  5
2B5
100
AcDbEntity
  8
0
100
AcDbLine
 62
7
  6
CONTINUOUS
 10
-4.9211223716
 20
-21.7367037133
 11
-5.2310585875
 21
-21.5817356054
  0
LINE
  5
2B6
100
AcDbEntity
  8
0
100
AcDbLine
 62
7
  6
CONTINUOUS
 10
-2.2927880811
 20
-22.9095586215
 11
-2.5926133772
 21
-22.7596459735
  0
LINE
  5
2B7
100
AcDbEntity
  8
0
100
AcDbLine
 62
7
  6
CONTINUOUS
 10
-3.2458548851
 20
-22.4330252195
 11
-3.5525058829
 21
-22.2796997206
  0
LINE
  5
2B8
100
AcDbEntity
  8
0
100
AcDbLine
 62
7
  6
CONTINUOUS
 10
-4.1691044103
 20
-21.9714004569
 11
-4.4787839464
 21
-21.8165606888
  0
LINE
  5
2B9
100
AcDbEntity
  8
0
100
AcDbLine
 62
7
  6
CONTINUOUS
 10
-5.2046545132
 20
-21.4536254055
 11
-5.5143793042
 21
-21.29876301
  0
LINE
  5
2BA
100
AcDbEntity
  8
0
100
AcDbLine
 62
7
  6
CONTINUOUS
 10
-6.0890845832
 20
-21.0114103705
 11
-6.4257706486
 21
-20.8430673377
  0
LINE
  5
2BB
100
AcDbEntity
  8
0
100
AcDbLine
 62
7
  6
CONTINUOUS
 10
-4.7797010154
 20
-21.6659930352
 11
-5.0896372313
 21
-21.5110249272
  0
LINE
  5
2BC
100
AcDbEntity
  8
RACCORDO
100
AcDbLine
 62
7
  6
CONTINUOUS
 10
52.3074781472
 20
-50.0876243754
 11
-59.34319062
 21
5.7377100081
  0
LINE
  5
2BD
100
AcDbEntity
  8
ASSI
100
AcDbLine
 62
7
  6
CONTINUOUS
 10
-43.9643641203
 20
2.1090456569
 11
-43.8582981031
 21
2.0321748549
  0
LINE
  5
2BE
100
AcDbEntity
  8
ASSI
100
AcDbLine
 62
7
  6
CONTINUOUS
 10
-43.6108107297
 20
2.2858223522
 11
-43.5047447125
 21
2.2089515502
  0
LINE
  5
2BF
100
AcDbEntity
  8
ASSI
100
AcDbLine
 62
7
  6
CONTINUOUS
 10
-43.2572573391
 20
2.4625990475
 11
-43.1511913219
 21
2.3857282455
  0
LINE
  5
2C0
100
AcDbEntity
  8
ASSI
100
AcDbLine
 62
7
  6
CONTINUOUS
 10
-42.9037039485
 20
2.6393757428
 11
-42.7976379313
 21
2.5625049408
  0
LINE
  5
2C1
100
AcDbEntity
  8
ASSI
100
AcDbLine
 62
7
  6
CONTINUOUS
 10
-42.5501505579
 20
2.8161524381
 11
-42.4440845407
 21
2.7392816361
  0
LINE
  5
2C2
100
AcDbEntity
  8
RACCORDO
100
AcDbLine
 62
7
  6
CONTINUOUS
 10
-18.4378093194
 20
-11.1063056025
 11
-18.4378093194
 21
-11.5590510705
  0
LINE
  5
2C3
100
AcDbEntity
  8
ASSI
100
AcDbLine
 62
7
  6
CONTINUOUS
 10
-42.5147952188
 20
1.920129117
 11
-43.2359963958
 21
1.5526351328
  0
LINE
  5
2C4
100
AcDbEntity
  8
DRAFT
100
AcDbLine
 62
7
  6
CONTINUOUS
 10
-42.9657775723
 20
1.417525721
 11
-42.8586493535
 21
1.4713857896
  0
LINE
  5
2C5
100
AcDbEntity
  8
DRAFT
100
AcDbLine
 62
7
  6
CONTINUOUS
 10
-43.0366372385
 20
1.4529555542
 11
-42.7793503822
 21
1.5821760482
  0
LINE
  5
2C6
100
AcDbEntity
  8
ASSI
100
AcDbLine
 62
7
  6
CONTINUOUS
 10
-42.2528827364
 20
2.1387186494
 11
-43.3324616956
 21
1.6008677827
  0
LINE
  5
2C7
100
AcDbEntity
  8
RACCORDO
100
AcDbLine
 62
7
  6
CONTINUOUS
 10
-36.6370911022
 20
-1.4847919438
 11
-36.9095142073
 21
-1.6106059615
  0
LINE
  5
2C8
100
AcDbEntity
  8
RACCORDO
100
AcDbLine
 62
7
  6
CONTINUOUS
 10
-36.4212813897
 20
-1.5026887969
 11
-36.7872841391
 21
-1.6717209955
  0
LINE
  5
2C9
100
AcDbEntity
  8
RACCORDO
100
AcDbLine
 62
7
  6
CONTINUOUS
 10
-11.1201759379
 20
-14.0333416379
 11
-11.1202223048
 21
-14.0333184625
  0
LINE
  5
2CA
100
AcDbEntity
  8
RACCORDO
100
AcDbLine
 62
7
  6
CONTINUOUS
 10
52.447063494
 20
-49.7736991389
 11
-59.2036034921
 21
6.0516343542
  0
LINE
  5
2CB
100
AcDbEntity
  8
RACCORDO
100
AcDbLine
 62
7
  6
CONTINUOUS
 10
-57.6661212303
 20
7.1475747215
 11
52.6248329533
 21
-47.9979023703
  0
LINE
  5
2CC
100
AcDbEntity
  8
RACCORDO
100
AcDbLine
 62
7
  6
CONTINUOUS
 10
-57.5513692064
 20
7.2309986447
 11
52.6248329533
 21
-47.8571024352
  0
LINE
  5
2CD
100
AcDbEntity
  8
RACCORDO
100
AcDbLine
 62
7
  6
CONTINUOUS
 10
52.6248329533
 20
-47.5925221082
 11
-57.2878050867
 21
7.3637969118
  0
LINE
  5
2CE
100
AcDbEntity
  8
RACCORDO
100
AcDbLine
 62
7
  6
CONTINUOUS
 10
-27.4883702416
 20
-7.3322905795
 11
-22.8223095486
 21
-9.665320926
  0
LINE
  5
2CF
100
AcDbEntity
  8
RACCORDO
100
AcDbLine
 62
7
  6
CONTINUOUS
 10
-11.5784676649
 20
-15.2872418678
 11
-7.1245066975
 21
-17.5142223515
  0
LINE
  5
2D0
100
AcDbEntity
  8
RACCORDO
100
AcDbLine
 62
7
  6
CONTINUOUS
 10
4.3314349118
 20
-23.2421931562
 11
8.7853958792
 21
-25.4691736399
  0
LINE
  5
2D1
100
AcDbEntity
  8
RACCORDO
100
AcDbLine
 62
7
  6
CONTINUOUS
 10
20.2413374885
 20
-31.1971444445
 11
24.6952984559
 21
-33.4241249282
  0
LINE
  5
2D2
100
AcDbEntity
  8
RACCORDO
100
AcDbLine
 62
7
  6
CONTINUOUS
 10
-56.7742546104
 20
7.609171575
 11
-27.6655528139
 21
-6.9451793233
  0
LINE
  5
2D3
100
AcDbEntity
  8
DRAFT
100
AcDbLine
 62
7
  6
CONTINUOUS
 10
-22.362251955
 20
-9.5968297527
 11
-11.7556502372
 21
-14.9001306116
  0
LINE
  5
2D4
100
AcDbEntity
  8
DRAFT
100
AcDbLine
 62
7
  6
CONTINUOUS
 10
-6.4523493783
 20
-17.5517810411
 11
4.1542523395
 21
-22.8550819
  0
LINE
  5
2D5
100
AcDbEntity
  8
DRAFT
100
AcDbLine
 62
7
  6
CONTINUOUS
 10
9.4575531984
 20
-25.5067323294
 11
20.0641549162
 21
-30.8100331883
  0
LINE
  5
2D6
100
AcDbEntity
  8
RACCORDO
100
AcDbLine
 62
7
  6
CONTINUOUS
 10
25.3674557751
 20
-33.4616836178
 11
52.6248329533
 21
-47.0903722069
  0
LINE
  5
2D7
100
AcDbEntity
  8
ASSI
100
AcDbLine
 62
7
  6
CONTINUOUS
 10
48.9390851078
 20
-45.1912070945
 11
46.757435906
 21
-44.1003824936
  0
LINE
  5
2D8
100
AcDbEntity
  8
ASSI
100
AcDbLine
 62
7
  6
CONTINUOUS
 10
-46.5203303524
 20
2.5385006355
 11
-48.7019795542
 21
3.6293252364
  0
LINE
  5
2D9
100
AcDbEntity
  8
RACCORDO
100
AcDbLine
 62
7
  6
CONTINUOUS
 10
52.6248329533
 20
-46.9555581904
 11
49.0908882839
 21
-45.1885858557
  0
LINE
  5
2DA
100
AcDbEntity
  8
RACCORDO
100
AcDbLine
 62
7
  6
CONTINUOUS
 10
44.423983528
 20
-42.8551334778
 11
33.1809857072
 21
-37.2336345673
  0
LINE
  5
2DB
100
AcDbEntity
  8
RACCORDO
100
AcDbLine
 62
7
  6
CONTINUOUS
 10
28.5140809513
 20
-34.9001821894
 11
26.1029182155
 21
-33.6946008215
  0
LINE
  5
2DC
100
AcDbEntity
  8
RACCORDO
100
AcDbLine
 62
7
  6
CONTINUOUS
 10
19.6822458663
 20
-30.4842646469
 11
17.2710831305
 21
-29.278683279
  0
LINE
  5
2DD
100
AcDbEntity
  8
RACCORDO
100
AcDbLine
 62
7
  6
CONTINUOUS
 10
12.6041783747
 20
-26.9452309011
 11
10.3344154559
 21
-25.8103494417
  0
LINE
  5
2DE
100
AcDbEntity
  8
RACCORDO
100
AcDbLine
 62
7
  6
CONTINUOUS
 10
3.7723432896
 20
-22.5293133586
 11
1.3611805538
 21
-21.3237319907
  0
LINE
  5
2DF
100
AcDbEntity
  8
RACCORDO
100
AcDbLine
 62
7
  6
CONTINUOUS
 10
-3.305724202
 20
-18.9902796127
 11
-5.7168869379
 21
-17.7846982448
  0
LINE
  5
2E0
100
AcDbEntity
  8
RACCORDO
100
AcDbLine
 62
7
  6
CONTINUOUS
 10
-12.2789591041
 20
-14.5036621617
 11
-14.5487220229
 21
-13.3687807023
  0
LINE
  5
2E1
100
AcDbEntity
  8
RACCORDO
100
AcDbLine
 62
7
  6
CONTINUOUS
 10
-19.2156267787
 20
-11.0353283244
 11
-21.6267895146
 21
-9.8297469565
  0
LINE
  5
2E2
100
AcDbEntity
  8
RACCORDO
100
AcDbLine
 62
7
  6
CONTINUOUS
 10
-28.0474618638
 20
-6.6194107819
 11
-30.4586245996
 21
-5.413829414
  0
LINE
  5
2E3
100
AcDbEntity
  8
RACCORDO
100
AcDbLine
 62
7
  6
CONTINUOUS
 10
-35.1255293554
 20
-3.080377036
 11
-46.3685271763
 21
2.5411218744
  0
LINE
  5
2E4
100
AcDbEntity
  8
RACCORDO
100
AcDbLine
 62
7
  6
CONTINUOUS
 10
-51.0354319321
 20
4.8745742523
 11
-56.7983521988
 21
7.7560343856
  0
LINE
  5
2E5
100
AcDbEntity
  8
ASSI
100
AcDbLine
 62
7
  6
CONTINUOUS
 10
49.0756331452
 20
-45.118059757
 11
46.8988572622
 21
-44.0296718155
  0
LINE
  5
2E6
100
AcDbEntity
  8
ASSI
100
AcDbLine
 62
7
  6
CONTINUOUS
 10
-46.383782315
 20
2.6116479731
 11
-48.560558198
 21
3.7000359146
  0
LINE
  5
2E7
100
AcDbEntity
  8
ASSI
100
AcDbLine
 62
7
  6
CONTINUOUS
 10
49.2833251398
 20
-45.00977372
 11
47.1109892966
 21
-43.9236057984
  0
LINE
  5
2E8
100
AcDbEntity
  8
ASSI
100
AcDbLine
 62
7
  6
CONTINUOUS
 10
-46.1760903203
 20
2.7199340101
 11
-48.3484261636
 21
3.8061019317
  0
LINE
  5
2E9
100
AcDbEntity
  8
ASSI
100
AcDbLine
 62
7
  6
CONTINUOUS
 10
49.4217864696
 20
-44.9375830286
 11
47.2524106528
 21
-43.8528951202
  0
LINE
  5
2EA
100
AcDbEntity
  8
ASSI
100
AcDbLine
 62
7
  6
CONTINUOUS
 10
-46.0376289906
 20
2.7921247015
 11
-48.2070048074
 21
3.8768126099
  0
LINE
  5
2EB
100
AcDbEntity
  8
RACCORDO
100
AcDbLine
 62
7
  6
CONTINUOUS
 10
-26.5851767992
 20
-6.8449969966
 11
-21.8870253598
 21
-9.1940727163
  0
LINE
  5
2EC
100
AcDbEntity
  8
RACCORDO
100
AcDbLine
 62
7
  6
CONTINUOUS
 10
-10.6752742225
 20
-14.7999482849
 11
-6.1892225088
 21
-17.0429741418
  0
LINE
  5
2ED
100
AcDbEntity
  8
RACCORDO
100
AcDbLine
 62
7
  6
CONTINUOUS
 10
5.2346283542
 20
-22.7548995733
 11
9.7206800679
 21
-24.9979254301
  0
LINE
  5
2EE
100
AcDbEntity
  8
RACCORDO
100
AcDbLine
 62
7
  6
CONTINUOUS
 10
21.1445309309
 20
-30.7098508616
 11
25.6305826446
 21
-32.9528767185
  0
LINE
  5
2EF
100
AcDbEntity
  8
RACCORDO
100
AcDbLine
 62
7
  6
CONTINUOUS
 10
52.6248329533
 20
-46.3777795417
 11
49.6565737088
 21
-44.8936499195
  0
LINE
  5
2F0
100
AcDbEntity
  8
RACCORDO
100
AcDbLine
 62
7
  6
CONTINUOUS
 10
44.989668953
 20
-42.5601975416
 11
33.7466711321
 21
-36.9386986312
  0
LINE
  5
2F1
100
AcDbEntity
  8
RACCORDO
100
AcDbLine
 62
7
  6
CONTINUOUS
 10
29.0797663763
 20
-34.6052462532
 11
26.6587295646
 21
-33.3947278474
  0
LINE
  5
2F2
100
AcDbEntity
  8
RACCORDO
100
AcDbLine
 62
7
  6
CONTINUOUS
 10
20.2578053671
 20
-30.1942657486
 11
17.8367685554
 21
-28.9837473428
  0
LINE
  5
2F3
100
AcDbEntity
  8
RACCORDO
100
AcDbLine
 62
7
  6
CONTINUOUS
 10
13.1698637996
 20
-26.6502949649
 11
10.890226805
 21
-25.5104764676
  0
LINE
  5
2F4
100
AcDbEntity
  8
RACCORDO
100
AcDbLine
 62
7
  6
CONTINUOUS
 10
4.3479027904
 20
-22.2393144603
 11
1.9268659787
 21
-21.0287960545
  0
LINE
  5
2F5
100
AcDbEntity
  8
RACCORDO
100
AcDbLine
 62
7
  6
CONTINUOUS
 10
-2.7400387771
 20
-18.6953436765
 11
-5.1610755888
 21
-17.4848252707
  0
LINE
  5
2F6
100
AcDbEntity
  8
RACCORDO
100
AcDbLine
 62
7
  6
CONTINUOUS
 10
-11.7033996034
 20
-14.2136632634
 11
-13.983036598
 21
-13.0738447661
  0
LINE
  5
2F7
100
AcDbEntity
  8
RACCORDO
100
AcDbLine
 62
7
  6
CONTINUOUS
 10
-18.6499413538
 20
-10.7403923882
 11
-21.0709781655
 21
-9.5298739824
  0
LINE
  5
2F8
100
AcDbEntity
  8
RACCORDO
100
AcDbLine
 62
7
  6
CONTINUOUS
 10
-27.471902363
 20
-6.3294118836
 11
-29.8929391747
 21
-5.1188934778
  0
LINE
  5
2F9
100
AcDbEntity
  8
RACCORDO
100
AcDbLine
 62
7
  6
CONTINUOUS
 10
-34.5598439305
 20
-2.7854410998
 11
-45.8028417514
 21
2.8360578106
  0
LINE
  5
2FA
100
AcDbEntity
  8
RACCORDO
100
AcDbLine
 62
7
  6
CONTINUOUS
 10
-50.4697465072
 20
5.1695101885
 11
-56.2326667739
 21
8.0509703218
  0
LINE
  5
2FB
100
AcDbEntity
  8
ASSI
100
AcDbLine
 62
7
  6
CONTINUOUS
 10
51.3536299837
 20
-45.6913727513
 11
47.4645426871
 21
-43.7468291031
  0
LINE
  5
2FC
100
AcDbEntity
  8
ASSI
100
AcDbLine
 62
7
  6
CONTINUOUS
 10
-44.1057854765
 20
2.0383349788
 11
-47.994872773
 21
3.982878627
  0
LINE
  5
2FD
100
AcDbEntity
  8
ASSI
100
AcDbLine
 62
7
  6
CONTINUOUS
 10
51.4950513399
 20
-45.6206620732
 11
47.6059640434
 21
-43.6761184249
  0
LINE
  5
2FE
100
AcDbEntity
  8
ASSI
100
AcDbLine
 62
7
  6
CONTINUOUS
 10
-43.9643641203
 20
2.1090456569
 11
-47.8534514168
 21
4.0535893052
  0
LINE
  5
2FF
100
AcDbEntity
  8
RACCORDO
100
AcDbLine
 62
7
  6
CONTINUOUS
 10
-56.2326667739
 20
8.4030038952
 11
-56.0205895355
 21
8.296965276
  0
LINE
  5
300
100
AcDbEntity
  8
RACCORDO
100
AcDbLine
 62
7
  6
CONTINUOUS
 10
-36.4212813897
 20
-1.5026887969
 11
-35.1609394905
 21
-2.1328597465
  0
LINE
  5
301
100
AcDbEntity
  8
RACCORDO
100
AcDbLine
 62
7
  6
CONTINUOUS
 10
-12.5917828637
 20
-13.4174380599
 11
-11.3376122619
 21
-14.0445233608
  0
LINE
  5
302
100
AcDbEntity
  8
RACCORDO
100
AcDbLine
 62
7
  6
CONTINUOUS
 10
11.2438869597
 20
-25.3352729716
 11
12.4980575615
 21
-25.9623582725
  0
LINE
  5
303
100
AcDbEntity
  8
RACCORDO
100
AcDbLine
 62
7
  6
CONTINUOUS
 10
35.0672141883
 20
-37.2469365859
 11
36.3275560874
 21
-37.8771075355
  0
LINE
  5
304
100
AcDbEntity
  8
ASSI
100
AcDbLine
 62
7
  6
CONTINUOUS
 10
51.7071833743
 20
-45.514596056
 11
47.8180960777
 21
-43.5700524078
  0
LINE
  5
305
100
AcDbEntity
  8
ASSI
100
AcDbLine
 62
7
  6
CONTINUOUS
 10
-43.7522320859
 20
2.2151116741
 11
-47.6413193824
 21
4.1596553223
  0
LINE
  5
306
100
AcDbEntity
  8
RACCORDO
100
AcDbLine
 62
7
  6
CONTINUOUS
 10
-56.2326667739
 20
8.5229037801
 11
-55.8031530952
 21
8.3081469408
  0
LINE
  5
307
100
AcDbEntity
  8
RACCORDO
100
AcDbLine
 62
7
  6
CONTINUOUS
 10
-36.2038449494
 20
-1.4915071321
 11
-34.9435030502
 21
-2.1216780817
  0
LINE
  5
308
100
AcDbEntity
  8
RACCORDO
100
AcDbLine
 62
7
  6
CONTINUOUS
 10
-12.3743464234
 20
-13.4062563951
 11
-11.1201758216
 21
-14.033341696
  0
LINE
  5
309
100
AcDbEntity
  8
RACCORDO
100
AcDbLine
 62
7
  6
CONTINUOUS
 10
11.4613234
 20
-25.3240913068
 11
12.7154940017
 21
-25.9511766077
  0
LINE
  5
30A
100
AcDbEntity
  8
RACCORDO
100
AcDbLine
 62
7
  6
CONTINUOUS
 10
35.2846506286
 20
-37.2357549211
 11
36.5449925277
 21
-37.8659258707
  0
LINE
  5
30B
100
AcDbEntity
  8
ASSI
100
AcDbLine
 62
7
  6
CONTINUOUS
 10
51.8486047305
 20
-45.4438853779
 11
47.959517434
 21
-43.4993417296
  0
LINE
  5
30C
100
AcDbEntity
  8
ASSI
100
AcDbLine
 62
7
  6
CONTINUOUS
 10
-43.6108107297
 20
2.2858223522
 11
-47.4998980262
 21
4.2303660005
  0
LINE
  5
30D
100
AcDbEntity
  8
ASSI
100
AcDbLine
 62
7
  6
CONTINUOUS
 10
52.0607367649
 20
-45.3378193607
 11
48.1716494683
 21
-43.3932757125
  0
LINE
  5
30E
100
AcDbEntity
  8
ASSI
100
AcDbLine
 62
7
  6
CONTINUOUS
 10
-43.3986786953
 20
2.3918883694
 11
-47.2877659919
 21
4.3364320176
  0
LINE
  5
30F
100
AcDbEntity
  8
ASSI
100
AcDbLine
 62
7
  6
CONTINUOUS
 10
52.2021581211
 20
-45.2671086826
 11
48.3130708246
 21
-43.3225650343
  0
LINE
  5
310
100
AcDbEntity
  8
ASSI
100
AcDbLine
 62
7
  6
CONTINUOUS
 10
-43.2572573391
 20
2.4625990475
 11
-47.1463446356
 21
4.4071426957
  0
LINE
  5
311
100
AcDbEntity
  8
ASSI
100
AcDbLine
 62
7
  6
CONTINUOUS
 10
52.4142901555
 20
-45.1610426654
 11
48.5252028589
 21
-43.2164990172
  0
LINE
  5
312
100
AcDbEntity
  8
ASSI
100
AcDbLine
 62
7
  6
CONTINUOUS
 10
-43.0451253047
 20
2.5686650647
 11
-46.9342126013
 21
4.5132087129
  0
LINE
  5
313
100
AcDbEntity
  8
ASSI
100
AcDbLine
 62
7
  6
CONTINUOUS
 10
52.5557115117
 20
-45.0903319873
 11
48.6666242152
 21
-43.145788339
  0
LINE
  5
314
100
AcDbEntity
  8
ASSI
100
AcDbLine
 62
7
  6
CONTINUOUS
 10
-42.9037039485
 20
2.6393757428
 11
-46.792791245
 21
4.583919391
  0
LINE
  5
315
100
AcDbEntity
  8
ASSI
100
AcDbLine
 62
7
  6
CONTINUOUS
 10
52.6248329533
 20
-44.9127606737
 11
48.8787562495
 21
-43.0397223219
  0
LINE
  5
316
100
AcDbEntity
  8
ASSI
100
AcDbLine
 62
7
  6
CONTINUOUS
 10
-42.6915719141
 20
2.74544176
 11
-46.5806592107
 21
4.6899854082
  0
LINE
  5
317
100
AcDbEntity
  8
ASSI
100
AcDbLine
 62
7
  6
CONTINUOUS
 10
-30.6074575351
 20
-3.2656344071
 11
-26.3499936895
 21
-5.3943663299
  0
LINE
  5
318
100
AcDbEntity
  8
ASSI
100
AcDbLine
 62
7
  6
CONTINUOUS
 10
-14.6975549584
 20
-11.2205856955
 11
-10.4400911128
 21
-13.3493176182
  0
LINE
  5
319
100
AcDbEntity
  8
ASSI
100
AcDbLine
 62
7
  6
CONTINUOUS
 10
1.2123476183
 20
-19.1755369838
 11
5.4698114639
 21
-21.3042689066
  0
LINE
  5
31A
100
AcDbEntity
  8
ASSI
100
AcDbLine
 62
7
  6
CONTINUOUS
 10
17.122250195
 20
-27.1304882722
 11
21.3797140406
 21
-29.2592201949
  0
LINE
  5
31B
100
AcDbEntity
  8
ASSI
100
AcDbLine
 62
7
  6
CONTINUOUS
 10
33.0321527717
 20
-35.0854395605
 11
37.2896166173
 21
-37.2141714833
  0
LINE
  5
31C
100
AcDbEntity
  8
ASSI
100
AcDbLine
 62
7
  6
CONTINUOUS
 10
-30.4856539665
 20
-3.2761344744
 11
-26.2929118199
 21
-5.3725055477
  0
LINE
  5
31D
100
AcDbEntity
  8
ASSI
100
AcDbLine
 62
7
  6
CONTINUOUS
 10
-14.5757513898
 20
-11.2310857628
 11
-10.3830092432
 21
-13.3274568361
  0
LINE
  5
31E
100
AcDbEntity
  8
ASSI
100
AcDbLine
 62
7
  6
CONTINUOUS
 10
1.3341511869
 20
-19.1860370511
 11
5.5268933335
 21
-21.2824081244
  0
LINE
  5
31F
100
AcDbEntity
  8
ASSI
100
AcDbLine
 62
7
  6
CONTINUOUS
 10
17.2440537636
 20
-27.1409883394
 11
21.4367959102
 21
-29.2373594127
  0
LINE
  5
320
100
AcDbEntity
  8
ASSI
100
AcDbLine
 62
7
  6
CONTINUOUS
 10
33.1539563403
 20
-35.0959396278
 11
37.3466984869
 21
-37.1923107011
  0
LINE
  5
321
100
AcDbEntity
  8
ASSI
100
AcDbLine
 62
7
  6
CONTINUOUS
 10
-46.5173601118
 20
4.7759194216
 11
-46.4630756478
 21
4.7487771896
  0
LINE
  5
322
100
AcDbEntity
  8
ASSI
100
AcDbLine
 62
7
  6
CONTINUOUS
 10
-42.4440845407
 20
2.7392816361
 11
-42.2598962662
 21
2.6471874988
  0
LINE
  5
323
100
AcDbEntity
  8
ASSI
100
AcDbLine
 62
7
  6
CONTINUOUS
 10
48.9420553484
 20
-42.9537883085
 11
48.9963398124
 21
-42.9809305404
  0
LINE
  5
324
100
AcDbEntity
  8
ASSI
100
AcDbLine
 62
7
  6
CONTINUOUS
 10
52.6248329533
 20
-44.7713393175
 11
49.0201776058
 21
-42.9690116438
  0
LINE
  5
325
100
AcDbEntity
  8
ASSI
100
AcDbLine
 62
7
  6
CONTINUOUS
 10
-42.5501505579
 20
2.8161524381
 11
-46.4392378544
 21
4.7606960863
  0
LINE
  5
326
100
AcDbEntity
  8
ASSI
100
AcDbLine
 62
7
  6
CONTINUOUS
 10
-46.3955575895
 20
4.7654198775
 11
-42.2028133503
 21
2.6690477579
  0
LINE
  5
327
100
AcDbEntity
  8
ASSI
100
AcDbLine
 62
7
  6
CONTINUOUS
 10
49.0638578707
 20
-42.9642878526
 11
52.6248329533
 21
-44.7447753939
  0
LINE
  5
328
100
AcDbEntity
  8
DRAFT
100
AcDbLine
 62
7
  6
CONTINUOUS
 10
-11.7556502372
 20
-15.3160498818
 11
-11.7556502372
 21
-14.9001306116
  0
LINE
  5
329
100
AcDbEntity
  8
RACCORDO
100
AcDbLine
 62
7
  6
CONTINUOUS
 10
-10.9964534342
 20
-14.6603902416
 11
-10.9964534342
 21
-14.8922684469
  0
LINE
  5
32A
100
AcDbEntity
  8
RACCORDO
100
AcDbLine
 62
7
  6
CONTINUOUS
 10
-10.8437826194
 20
-14.4805552915
 11
-10.8437826194
 21
-14.8098990398
  0
LINE
  5
32B
100
AcDbEntity
  8
ASSI
100
AcDbLine
 62
7
  6
CONTINUOUS
 10
-10.433077583
 20
-13.3456603328
 11
-10.433077583
 21
-13.7711839273
  0
LINE
  5
32C
100
AcDbEntity
  8
ASSI
100
AcDbLine
 62
7
  6
CONTINUOUS
 10
-10.3817065481
 20
-13.3299015051
 11
-10.3817065481
 21
-13.7538501345
  0
LINE
  5
32D
100
AcDbEntity
  8
RACCORDO
100
AcDbLine
 62
7
  6
CONTINUOUS
 10
-10.8437826194
 20
-14.480556667
 11
-10.8437826248
 21
-14.4805920026
  0
LINE
  5
32E
100
AcDbEntity
  8
DRAFT
100
AcDbLine
 62
7
  6
CONTINUOUS
 10
-10.9287477903
 20
-14.2023560051
 11
-10.9025015769
 21
-14.095512655
  0
LINE
  5
32F
100
AcDbEntity
  8
ASSI
100
AcDbLine
 62
7
  6
CONTINUOUS
 10
-26.6048926421
 20
-6.0348221713
 11
-26.3501877685
 21
-5.8502261204
  0
LINE
  5
330
100
AcDbEntity
  8
ASSI
100
AcDbLine
 62
7
  6
CONTINUOUS
 10
-26.3499936895
 20
-5.3943663299
 11
-27.7675915479
 21
-6.1815672911
  0
LINE
  5
331
100
AcDbEntity
  8
RACCORDO
100
AcDbLine
 62
7
  6
CONTINUOUS
 10
-26.7224703922
 20
-6.8381066486
 11
-27.6256638345
 21
-7.3254002316
  0
LINE
  5
332
100
AcDbEntity
  8
RACCORDO
100
AcDbLine
 62
7
  6
CONTINUOUS
 10
-26.5851767992
 20
-6.8449969966
 11
-27.4883702416
 21
-7.3322905795
  0
LINE
  5
333
100
AcDbEntity
  8
RACCORDO
100
AcDbLine
 62
7
  6
CONTINUOUS
 10
-35.1255293554
 20
-3.080377036
 11
-34.5598439305
 21
-2.7854410998
  0
LINE
  5
334
100
AcDbEntity
  8
RACCORDO
100
AcDbLine
 62
7
  6
CONTINUOUS
 10
-34.7909811534
 20
-3.3824651535
 11
-34.3477118961
 21
-3.1513543141
  0
LINE
  5
335
100
AcDbEntity
  8
RACCORDO
100
AcDbLine
 62
7
  6
CONTINUOUS
 10
-30.0288125067
 20
-5.1112550517
 11
-30.5944979317
 21
-5.4061909879
  0
LINE
  5
336
100
AcDbEntity
  8
RACCORDO
100
AcDbLine
 62
7
  6
CONTINUOUS
 10
-29.8929391747
 20
-5.1188934778
 11
-30.4586245996
 21
-5.413829414
  0
LINE
  5
337
100
AcDbEntity
  8
ASSI
100
AcDbLine
 62
7
  6
CONTINUOUS
 10
-26.6048926421
 20
-6.0348221713
 11
-27.3628699112
 21
-6.4210557154
  0
LINE
  5
338
100
AcDbEntity
  8
RACCORDO
100
AcDbLine
 62
7
  6
CONTINUOUS
 10
-28.0474618638
 20
-6.6194107819
 11
-27.471902363
 21
-6.3294118836
  0
LINE
  5
339
100
AcDbEntity
  8
ASSI
100
AcDbLine
 62
7
  6
CONTINUOUS
 10
-26.3429801597
 20
-5.8162326389
 11
-27.4283442395
 21
-6.3569656775
  0
LINE
  5
33A
100
AcDbEntity
  8
RACCORDO
100
AcDbLine
 62
7
  6
CONTINUOUS
 10
-35.1609394905
 20
-2.1328597465
 11
-35.5143842372
 21
-2.3081709465
  0
LINE
  5
33B
100
AcDbEntity
  8
ASSI
100
AcDbLine
 62
7
  6
CONTINUOUS
 10
-30.6074575351
 20
-3.2656344071
 11
-32.9317975218
 21
-4.3120569693
  0
LINE
  5
33C
100
AcDbEntity
  8
SMUSSO
100
AcDbLine
 62
7
  6
CONTINUOUS
 10
72.0718586724
 20
7.4745235717
 11
70.6576451101
 21
7.1158041041
  0
LINE
  5
33D
100
AcDbEntity
  8
DRAFT
100
AcDbLine
 62
7
  6
CONTINUOUS
 10
-57.4999048123
 20
14.8270291809
 11
-56.9860959252
 21
14.5701247373
  0
LINE
  5
33E
100
AcDbEntity
  8
RACCORDO
100
AcDbLine
 62
7
  6
CONTINUOUS
 10
-57.4519956258
 20
14.8159315012
 11
-57.4999048123
 21
14.8398860944
  0
LINE
  5
33F
100
AcDbEntity
  8
RACCORDO
100
AcDbLine
 62
7
  6
CONTINUOUS
 10
-56.4447988082
 20
14.3697444518
 11
-57.3202387077
 21
14.8074644015
  0
LINE
  5
340
100
AcDbEntity
  8
RACCORDO
100
AcDbLine
 62
7
  6
CONTINUOUS
 10
-57.4519956258
 20
20.7904334557
 11
-57.467313256
 21
20.7980922708
  0
LINE
  5
341
100
AcDbEntity
  8
ASSI
100
AcDbLine
 62
7
  6
CONTINUOUS
 10
51.4950513399
 20
-45.6206620732
 11
51.6011173571
 21
-45.6975328752
  0
LINE
  5
342
100
AcDbEntity
  8
0
100
AcDbLine
 62
7
  6
CONTINUOUS
 10
-4.3908820883
 20
-22.6329866334
 11
-4.0272899027
 21
-24.0022291284
  0
LINE
  5
343
100
AcDbEntity
  8
0
100
AcDbLine
 62
7
  6
CONTINUOUS
 10
-4.003863455
 20
-23.2050789552
 11
-4.3105257665
 21
-22.042111135
  0
LINE
  5
344
100
AcDbEntity
  8
0
100
AcDbLine
 62
7
  6
CONTINUOUS
 10
-3.9111859634
 20
-22.9495149587
 11
-4.1691044103
 21
-21.9714004569
  0
LINE
  5
345
100
AcDbEntity
  8
0
100
AcDbLine
 62
7
  6
CONTINUOUS
 10
-6.5671920049
 20
-20.9137780159
 11
-6.0964816272
 21
-22.9676332661
  0
LINE
  5
346
100
AcDbEntity
  8
0
100
AcDbLine
 62
7
  6
CONTINUOUS
 10
-1.9786360946
 20
-25.0265560325
 11
-2.4342094374
 21
-22.9802692996
  0
LINE
  5
347
100
AcDbEntity
  8
0
100
AcDbLine
 62
7
  6
CONTINUOUS
 10
-1.8876237614
 20
-24.7294244792
 11
-2.2927880811
 21
-22.9095586215
  0
LINE
  5
348
100
AcDbEntity
  8
0
100
AcDbLine
 62
7
  6
CONTINUOUS
 10
-5.9474758437
 20
-22.4753658324
 11
-6.2305059394
 21
-21.0821210486
  0
LINE
  5
349
100
AcDbEntity
  8
0
100
AcDbLine
 62
7
  6
CONTINUOUS
 10
-5.8594725056
 20
-22.1416994604
 11
-6.0890845832
 21
-21.0114103705
  0
LINE
  5
34A
100
AcDbEntity
  8
0
100
AcDbLine
 62
7
  6
CONTINUOUS
 10
-2.3855852396
 20
-24.4600444767
 11
-2.3052953859
 21
-24.8632263868
  0
LINE
  5
34B
100
AcDbEntity
  8
0
100
AcDbLine
 62
7
  6
CONTINUOUS
 10
-2.5899454633
 20
-23.4020788921
 11
-2.4475256723
 21
-24.14815727
  0
LINE
  5
34C
100
AcDbEntity
  8
0
100
AcDbLine
 62
7
  6
CONTINUOUS
 10
-3.2484308751
 20
-24.3916586422
 11
-3.3872762413
 21
-22.5037358976
  0
LINE
  5
34D
100
AcDbEntity
  8
0
100
AcDbLine
 62
7
  6
CONTINUOUS
 10
-3.1199931436
 20
-24.1444056627
 11
-3.2458548851
 21
-22.4330252195
  0
LINE
  5
34E
100
AcDbEntity
  8
0
100
AcDbLine
 62
7
  6
CONTINUOUS
 10
-3.6153075717
 20
-23.0257240929
 11
-3.5516304847
 21
-24.2400588374
  0
LINE
  5
34F
100
AcDbEntity
  8
RACCORDO
100
AcDbLine
 62
7
  6
CONTINUOUS
 10
-5.9771227831
 20
-17.7893943387
 11
-5.9771227831
 21
-17.4087920558
  0
LINE
  5
350
100
AcDbEntity
  8
0
100
AcDbLine
 62
7
  6
CONTINUOUS
 10
-5.2310585875
 20
-21.5817356054
 11
-5.2310585875
 21
-23.400344786
  0
LINE
  5
351
100
AcDbEntity
  8
0
100
AcDbLine
 62
7
  6
CONTINUOUS
 10
-4.9211223716
 20
-23.555312894
 11
-4.9211223716
 21
-21.7367037133
  0
LINE
  5
352
100
AcDbEntity
  8
0
100
AcDbLine
 62
7
  6
CONTINUOUS
 10
-4.7797010154
 20
-23.4846022158
 11
-4.7797010154
 21
-21.6659930352
  0
LINE
  5
353
100
AcDbEntity
  8
RACCORDO
100
AcDbLine
 62
7
  6
CONTINUOUS
 10
-2.5279067427
 20
-19.0612568908
 11
-2.5279067427
 21
-19.5140023589
  0
LINE
  5
354
100
AcDbEntity
  8
0
100
AcDbLine
 62
7
  6
CONTINUOUS
 10
-1.8876237614
 20
-23.2748081983
 11
-1.8876237614
 21
-25.0720625435
  0
LINE
  5
355
100
AcDbEntity
  8
0
100
AcDbLine
 62
7
  6
CONTINUOUS
 10
-1.5892119718
 20
-24.2117813757
 11
-1.5892119718
 21
-23.7125675431
  0
LINE
  5
356
100
AcDbEntity
  8
0
100
AcDbLine
 62
7
  6
CONTINUOUS
 10
-1.5789349642
 20
-25.2264069421
 11
-1.5789349642
 21
-24.5147463137
  0
LINE
  5
357
100
AcDbEntity
  8
0
100
AcDbLine
 62
7
  6
CONTINUOUS
 10
-1.4477906156
 20
-24.1410706976
 11
-1.4477906156
 21
-23.7662889786
  0
LINE
  5
358
100
AcDbEntity
  8
0
100
AcDbLine
 62
7
  6
CONTINUOUS
 10
-1.437513608
 20
-25.155696264
 11
-1.437513608
 21
-24.5854569919
  0
LINE
  5
359
100
AcDbEntity
  8
0
100
AcDbLine
 62
7
  6
CONTINUOUS
 10
-1.0907938029
 20
-24.6216176382
 11
-1.0907938029
 21
-24.6108718859
  0
LINE
  5
35A
100
AcDbEntity
  8
0
100
AcDbLine
 62
7
  6
CONTINUOUS
 10
-4.4577666116
 20
-23.786990774
 11
-4.3908820883
 21
-22.6329866334
  0
LINE
  5
35B
100
AcDbEntity
  8
0
100
AcDbLine
 62
7
  6
CONTINUOUS
 10
-4.3163452553
 20
-23.7162800958
 11
-4.2781618994
 21
-23.0574767041
  0
LINE
  5
35C
100
AcDbEntity
  8
0
100
AcDbLine
 62
7
  6
CONTINUOUS
 10
-4.6202053027
 20
-21.887271367
 11
-4.7542741626
 21
-23.6387369985
  0
LINE
  5
35D
100
AcDbEntity
  8
0
100
AcDbLine
 62
7
  6
CONTINUOUS
 10
-5.6558006604
 20
-21.3694736881
 11
-5.9474758437
 21
-22.4753658324
  0
LINE
  5
35E
100
AcDbEntity
  8
RACCORDO
100
AcDbLine
 62
7
  6
CONTINUOUS
 10
-21.7640831075
 20
-9.8228566085
 11
-21.2082717584
 21
-9.5229836344
  0
LINE
  5
35F
100
AcDbEntity
  8
RACCORDO
100
AcDbLine
 62
7
  6
CONTINUOUS
 10
-21.6267895146
 20
-9.8297469565
 11
-21.0709781655
 21
-9.5298739824
  0
LINE
  5
360
100
AcDbEntity
  8
RACCORDO
100
AcDbLine
 62
7
  6
CONTINUOUS
 10
-19.2156267787
 20
-11.0353283244
 11
-18.6499413538
 21
-10.7403923882
  0
LINE
  5
361
100
AcDbEntity
  8
RACCORDO
100
AcDbLine
 62
7
  6
CONTINUOUS
 10
-27.7108880303
 20
-6.9225117151
 11
-27.2598026374
 21
-6.6952297976
  0
LINE
  5
362
100
AcDbEntity
  8
DRAFT
100
AcDbLine
 62
7
  6
CONTINUOUS
 10
-22.8223095486
 20
-9.665320926
 11
-21.8870253598
 21
-9.1940727163
  0
LINE
  5
363
100
AcDbEntity
  8
DRAFT
100
AcDbLine
 62
7
  6
CONTINUOUS
 10
-27.2640893692
 20
-6.6421079802
 11
-26.9487467768
 21
-6.4835654988
  0
LINE
  5
364
100
AcDbEntity
  8
DRAFT
100
AcDbLine
 62
7
  6
CONTINUOUS
 10
-27.2788555003
 20
-6.5783973436
 11
-26.8694478055
 21
-6.3727752401
  0
LINE
  5
365
100
AcDbEntity
  8
DRAFT
100
AcDbLine
 62
7
  6
CONTINUOUS
 10
-27.6655528139
 20
-6.9451793233
 11
-28.2021444727
 21
-7.1790333952
  0
LINE
  5
366
100
AcDbEntity
  8
DRAFT
100
AcDbLine
 62
7
  6
CONTINUOUS
 10
-22.362251955
 20
-9.5968297527
 11
-22.8988436138
 21
-9.8306838246
  0
LINE
  5
367
100
AcDbEntity
  8
RACCORDO
100
AcDbLine
 62
7
  6
CONTINUOUS
 10
-56.5167114371
 20
21.2616816654
 11
-56.9860959252
 21
21.4963739095
  0
LINE
  5
368
100
AcDbEntity
  8
ASSI
100
AcDbLine
 62
7
  6
CONTINUOUS
 10
51.8486047305
 20
-45.4438853779
 11
51.9546707477
 21
-45.5207561799
  0
LINE
  5
369
100
AcDbEntity
  8
ASSI
100
AcDbLine
 62
7
  6
CONTINUOUS
 10
52.2021581211
 20
-45.2671086826
 11
52.3082241383
 21
-45.3439794846
  0
LINE
  5
36A
100
AcDbEntity
  8
ASSI
100
AcDbLine
 62
7
  6
CONTINUOUS
 10
52.5557115117
 20
-45.0903319873
 11
52.6248329533
 21
-45.1404273976
  0
LINE
  5
36B
100
AcDbEntity
  8
DRAFT
100
AcDbLine
 62
7
  6
CONTINUOUS
 10
4.1542523395
 20
-23.2710011701
 11
4.1542523395
 21
-22.8550819
  0
LINE
  5
36C
100
AcDbEntity
  8
RACCORDO
100
AcDbLine
 62
7
  6
CONTINUOUS
 10
4.560002516
 20
-23.0379122989
 11
4.560002516
 21
-22.6051323743
  0
LINE
  5
36D
100
AcDbEntity
  8
ASSI
100
AcDbLine
 62
7
  6
CONTINUOUS
 10
5.4768249937
 20
-21.3006116211
 11
5.4768249937
 21
-21.7261352156
  0
LINE
  5
36E
100
AcDbEntity
  8
ASSI
100
AcDbLine
 62
7
  6
CONTINUOUS
 10
5.5281960286
 20
-21.2848527934
 11
5.5281960286
 21
-21.7088014228
  0
LINE
  5
36F
100
AcDbEntity
  8
0
100
AcDbLine
 62
7
  6
CONTINUOUS
 10
-2.7442672756
 20
-23.9997864683
 11
-2.5899454633
 21
-23.4020788921
  0
LINE
  5
370
100
AcDbEntity
  8
0
100
AcDbLine
 62
7
  6
CONTINUOUS
 10
-2.6028459194
 20
-23.9290757902
 11
-2.5375917573
 21
-23.6763383032
  0
LINE
  5
371
100
AcDbEntity
  8
0
100
AcDbLine
 62
7
  6
CONTINUOUS
 10
-2.8931896206
 20
-24.5692792694
 11
-2.8076664697
 21
-24.2490038617
  0
LINE
  5
372
100
AcDbEntity
  8
0
100
AcDbLine
 62
7
  6
CONTINUOUS
 10
-2.7517682644
 20
-24.4985685913
 11
-2.6995607274
 21
-24.3030567328
  0
LINE
  5
373
100
AcDbEntity
  8
0
100
AcDbLine
 62
7
  6
CONTINUOUS
 10
-2.7340347334
 20
-22.8303566516
 11
-3.1997628367
 21
-24.4159926614
  0
LINE
  5
374
100
AcDbEntity
  8
0
100
AcDbLine
 62
7
  6
CONTINUOUS
 10
-5.8233503193
 20
-23.1041989201
 11
-5.3460758694
 21
-21.5243360836
  0
LINE
  5
375
100
AcDbEntity
  8
0
100
AcDbLine
 62
7
  6
CONTINUOUS
 10
-5.6819289631
 20
-23.033488242
 11
-5.2046545132
 21
-21.4536254055
  0
LINE
  5
376
100
AcDbEntity
  8
0
100
AcDbLine
 62
7
  6
CONTINUOUS
 10
-3.6939272391
 20
-22.3504103987
 11
-4.003863455
 21
-23.2050789552
  0
LINE
  5
377
100
AcDbEntity
  8
0
100
AcDbLine
 62
7
  6
CONTINUOUS
 10
-3.9838219275
 20
-24.023963116
 11
-3.6153075717
 21
-23.0257240929
  0
LINE
  5
378
100
AcDbEntity
  8
0
100
AcDbLine
 62
7
  6
CONTINUOUS
 10
-3.8424005713
 20
-23.9532524379
 11
-3.6009646712
 21
-23.2992460653
  0
LINE
  5
379
100
AcDbEntity
  8
ASSI
100
AcDbLine
 62
7
  6
CONTINUOUS
 10
-10.6949900654
 20
-13.9897734597
 11
-10.4402851918
 21
-13.8051774088
  0
LINE
  5
37A
100
AcDbEntity
  8
ASSI
100
AcDbLine
 62
7
  6
CONTINUOUS
 10
-10.4400911128
 20
-13.3493176182
 11
-11.4104884974
 21
-13.8881853581
  0
LINE
  5
37B
100
AcDbEntity
  8
RACCORDO
100
AcDbLine
 62
7
  6
CONTINUOUS
 10
-10.8125678155
 20
-14.793057937
 11
-11.7157612578
 21
-15.2803515199
  0
LINE
  5
37C
100
AcDbEntity
  8
RACCORDO
100
AcDbLine
 62
7
  6
CONTINUOUS
 10
-10.6752742225
 20
-14.7999482849
 11
-11.5784676649
 21
-15.2872418678
  0
LINE
  5
37D
100
AcDbEntity
  8
RACCORDO
100
AcDbLine
 62
7
  6
CONTINUOUS
 10
-18.8810785767
 20
-11.3374164419
 11
-18.4378093194
 21
-11.1063056025
  0
LINE
  5
37E
100
AcDbEntity
  8
RACCORDO
100
AcDbLine
 62
7
  6
CONTINUOUS
 10
-14.11890993
 20
-13.06620634
 11
-14.684595355
 21
-13.3611422762
  0
LINE
  5
37F
100
AcDbEntity
  8
RACCORDO
100
AcDbLine
 62
7
  6
CONTINUOUS
 10
-13.983036598
 20
-13.0738447661
 11
-14.5487220229
 21
-13.3687807023
  0
LINE
  5
380
100
AcDbEntity
  8
ASSI
100
AcDbLine
 62
7
  6
CONTINUOUS
 10
-10.6949900654
 20
-13.9897734597
 11
-10.9818468075
 21
-14.1359436691
  0
LINE
  5
381
100
AcDbEntity
  8
RACCORDO
100
AcDbLine
 62
7
  6
CONTINUOUS
 10
-11.7033996034
 20
-14.2136632634
 11
-12.2789591041
 21
-14.5036621617
  0
LINE
  5
382
100
AcDbEntity
  8
RACCORDO
100
AcDbLine
 62
7
  6
CONTINUOUS
 10
-11.3561781221
 20
-14.8265230234
 11
-11.7556502372
 21
-15.0277992999
  0
LINE
  5
383
100
AcDbEntity
  8
ASSI
100
AcDbLine
 62
7
  6
CONTINUOUS
 10
-10.433077583
 20
-13.7711839273
 11
-11.0480849051
 21
-14.0775832123
  0
LINE
  5
384
100
AcDbEntity
  8
RACCORDO
100
AcDbLine
 62
7
  6
CONTINUOUS
 10
-12.8075925762
 20
-13.3995412068
 11
-13.0800156813
 21
-13.5253552245
  0
LINE
  5
385
100
AcDbEntity
  8
RACCORDO
100
AcDbLine
 62
7
  6
CONTINUOUS
 10
-12.5917828637
 20
-13.4174380599
 11
-12.9577856131
 21
-13.5864702585
  0
LINE
  5
386
100
AcDbEntity
  8
RACCORDO
100
AcDbLine
 62
7
  6
CONTINUOUS
 10
-11.3376122619
 20
-14.0445233608
 11
-11.7036150114
 21
-14.2135555594
  0
LINE
  5
387
100
AcDbEntity
  8
ASSI
100
AcDbLine
 62
7
  6
CONTINUOUS
 10
-14.6975549584
 20
-11.2205856955
 11
-17.0218949451
 21
-12.2670082577
  0
LINE
  5
388
100
AcDbEntity
  8
RACCORDO
100
AcDbLine
 62
7
  6
CONTINUOUS
 10
-55.8084350139
 20
31.1563674909
 11
-56.2326667739
 21
31.3684833709
  0
LINE
  5
389
100
AcDbEntity
  8
DRAFT
100
AcDbLine
 62
7
  6
CONTINUOUS
 10
-57.4999048123
 20
33.8795880642
 11
-56.9860959252
 21
33.6226836206
  0
LINE
  5
38A
100
AcDbEntity
  8
RACCORDO
100
AcDbLine
 62
7
  6
CONTINUOUS
 10
-57.4519956258
 20
33.8684903844
 11
-57.4999048123
 21
33.8924449777
  0
LINE
  5
38B
100
AcDbEntity
  8
RACCORDO
100
AcDbLine
 62
7
  6
CONTINUOUS
 10
-56.4447664995
 20
33.4222871807
 11
-57.3202387077
 21
33.8600232848
  0
LINE
  5
38C
100
AcDbEntity
  8
RACCORDO
100
AcDbLine
 62
7
  6
CONTINUOUS
 10
-53.5024301739
 20
32.2213569444
 11
-53.1757372313
 21
32.058010473
  0
LINE
  5
38D
100
AcDbEntity
  8
RACCORDO
100
AcDbLine
 62
7
  6
CONTINUOUS
 10
-53.3719683098
 20
32.2280659432
 11
-53.0452753671
 21
32.0647194719
  0
LINE
  5
38E
100
AcDbEntity
  8
RACCORDO
100
AcDbLine
 62
7
  6
CONTINUOUS
 10
9.9327797936
 20
-25.744345627
 11
9.9327797936
 21
-25.3637433441
  0
LINE
  5
38F
100
AcDbEntity
  8
RACCORDO
100
AcDbLine
 62
7
  6
CONTINUOUS
 10
12.991887204
 20
-26.3983902032
 11
12.991887204
 21
-26.5613066671
  0
LINE
  5
390
100
AcDbEntity
  8
RACCORDO
100
AcDbLine
 62
7
  6
CONTINUOUS
 10
13.381995834
 20
-27.0162081792
 11
13.381995834
 21
-27.4689536472
  0
LINE
  5
391
100
AcDbEntity
  8
DRAFT
100
AcDbLine
 62
7
  6
CONTINUOUS
 10
4.9503573479
 20
-22.2826778168
 11
5.0074009998
 21
-22.0504639433
  0
LINE
  5
392
100
AcDbEntity
  8
RACCORDO
100
AcDbLine
 62
7
  6
CONTINUOUS
 10
-5.8541805308
 20
-17.7778078969
 11
-5.2983691817
 21
-17.4779349228
  0
LINE
  5
393
100
AcDbEntity
  8
RACCORDO
100
AcDbLine
 62
7
  6
CONTINUOUS
 10
-5.7168869379
 20
-17.7846982448
 11
-5.1610755888
 21
-17.4848252707
  0
LINE
  5
394
100
AcDbEntity
  8
RACCORDO
100
AcDbLine
 62
7
  6
CONTINUOUS
 10
-3.305724202
 20
-18.9902796127
 11
-2.7400387771
 21
-18.6953436765
  0
LINE
  5
395
100
AcDbEntity
  8
RACCORDO
100
AcDbLine
 62
7
  6
CONTINUOUS
 10
-2.971176
 20
-19.2923677302
 11
-2.5279067427
 21
-19.0612568908
  0
LINE
  5
396
100
AcDbEntity
  8
RACCORDO
100
AcDbLine
 62
7
  6
CONTINUOUS
 10
-7.1245066975
 20
-17.5142223515
 11
-6.1892225088
 21
-17.0429741418
  0
LINE
  5
397
100
AcDbEntity
  8
RACCORDO
100
AcDbLine
 62
7
  6
CONTINUOUS
 10
-6.3562632384
 20
-17.599824111
 11
-5.9771227831
 21
-17.4087920558
  0
LINE
  5
398
100
AcDbEntity
  8
0
100
AcDbLine
 62
7
  6
CONTINUOUS
 10
-6.4257706486
 20
-20.8430673377
 11
-6.5671920049
 21
-20.9137780159
  0
LINE
  5
399
100
AcDbEntity
  8
RACCORDO
100
AcDbLine
 62
7
  6
CONTINUOUS
 10
-10.9964534342
 20
-14.6603902416
 11
-11.3561781221
 21
-14.8265230234
  0
LINE
  5
39A
100
AcDbEntity
  8
DRAFT
100
AcDbLine
 62
7
  6
CONTINUOUS
 10
-11.7556502372
 20
-14.9001306116
 11
-12.292241896
 21
-15.1339846835
  0
LINE
  5
39B
100
AcDbEntity
  8
DRAFT
100
AcDbLine
 62
7
  6
CONTINUOUS
 10
-6.4523493783
 20
-17.5517810411
 11
-6.9889410371
 21
-17.785635113
  0
LINE
  5
39C
100
AcDbEntity
  8
RACCORDO
100
AcDbLine
 62
7
  6
CONTINUOUS
 10
-57.4519956258
 20
39.842992339
 11
-57.467313256
 21
39.850651154
  0
LINE
  5
39D
100
AcDbEntity
  8
RACCORDO
100
AcDbLine
 62
7
  6
CONTINUOUS
 10
-56.5167114371
 20
40.3142405487
 11
-56.9860959252
 21
40.5489327927
  0
LINE
  5
39E
100
AcDbEntity
  8
RACCORDO
100
AcDbLine
 62
7
  6
CONTINUOUS
 10
-59.2652226643
 20
46.4075059989
 11
52.385446161
 21
-9.4178284138
  0
LINE
  5
39F
100
AcDbEntity
  8
RACCORDO
100
AcDbLine
 62
7
  6
CONTINUOUS
 10
-59.34319062
 20
46.569768139
 11
52.3074781472
 21
-9.2555662445
  0
LINE
  5
3A0
100
AcDbEntity
  8
DRAFT
100
AcDbLine
 62
7
  6
CONTINUOUS
 10
20.0641549162
 20
-31.2259524585
 11
20.0641549162
 21
-30.8100331883
  0
LINE
  5
3A1
100
AcDbEntity
  8
RACCORDO
100
AcDbLine
 62
7
  6
CONTINUOUS
 10
20.4699050927
 20
-30.9928635873
 11
20.4699050927
 21
-30.5600836626
  0
LINE
  5
3A2
100
AcDbEntity
  8
ASSI
100
AcDbLine
 62
7
  6
CONTINUOUS
 10
21.3867275704
 20
-29.2555629095
 11
21.3867275704
 21
-29.681086504
  0
LINE
  5
3A3
100
AcDbEntity
  8
ASSI
100
AcDbLine
 62
7
  6
CONTINUOUS
 10
21.4380986053
 20
-29.2398040818
 11
21.4380986053
 21
-29.6637527112
  0
LINE
  5
3A4
100
AcDbEntity
  8
ASSI
100
AcDbLine
 62
7
  6
CONTINUOUS
 10
5.2149125113
 20
-21.944724748
 11
5.4696173849
 21
-21.7601286971
  0
LINE
  5
3A5
100
AcDbEntity
  8
ASSI
100
AcDbLine
 62
7
  6
CONTINUOUS
 10
5.4698114639
 20
-21.3042689066
 11
4.0522136055
 21
-22.0914698678
  0
LINE
  5
3A6
100
AcDbEntity
  8
RACCORDO
100
AcDbLine
 62
7
  6
CONTINUOUS
 10
5.0973347612
 20
-22.7480092253
 11
4.1941413189
 21
-23.2353028083
  0
LINE
  5
3A7
100
AcDbEntity
  8
RACCORDO
100
AcDbLine
 62
7
  6
CONTINUOUS
 10
5.2346283542
 20
-22.7548995733
 11
4.3314349118
 21
-23.2421931562
  0
LINE
  5
3A8
100
AcDbEntity
  8
RACCORDO
100
AcDbLine
 62
7
  6
CONTINUOUS
 10
1.7909926467
 20
-21.0211576284
 11
1.2253072217
 21
-21.3160935646
  0
LINE
  5
3A9
100
AcDbEntity
  8
RACCORDO
100
AcDbLine
 62
7
  6
CONTINUOUS
 10
1.9268659787
 20
-21.0287960545
 11
1.3611805538
 21
-21.3237319907
  0
LINE
  5
3AA
100
AcDbEntity
  8
ASSI
100
AcDbLine
 62
7
  6
CONTINUOUS
 10
5.2149125113
 20
-21.944724748
 11
4.4569352422
 21
-22.3309582921
  0
LINE
  5
3AB
100
AcDbEntity
  8
RACCORDO
100
AcDbLine
 62
7
  6
CONTINUOUS
 10
3.7723432896
 20
-22.5293133586
 11
4.3479027904
 21
-22.2393144603
  0
LINE
  5
3AC
100
AcDbEntity
  8
RACCORDO
100
AcDbLine
 62
7
  6
CONTINUOUS
 10
4.1089171231
 20
-22.8324142918
 11
4.560002516
 21
-22.6051323743
  0
LINE
  5
3AD
100
AcDbEntity
  8
DRAFT
100
AcDbLine
 62
7
  6
CONTINUOUS
 10
4.5557157842
 20
-22.5520105569
 11
4.8710583766
 21
-22.3934680755
  0
LINE
  5
3AE
100
AcDbEntity
  8
DRAFT
100
AcDbLine
 62
7
  6
CONTINUOUS
 10
4.5409496531
 20
-22.4882999203
 11
4.9503573479
 21
-22.2826778168
  0
LINE
  5
3AF
100
AcDbEntity
  8
0
100
AcDbLine
 62
7
  6
CONTINUOUS
 10
-6.0890845832
 20
-21.0114103705
 11
-6.2305059394
 21
-21.0821210486
  0
LINE
  5
3B0
100
AcDbEntity
  8
0
100
AcDbLine
 62
7
  6
CONTINUOUS
 10
-5.5143793042
 20
-21.29876301
 11
-5.6558006604
 21
-21.3694736881
  0
LINE
  5
3B1
100
AcDbEntity
  8
0
100
AcDbLine
 62
7
  6
CONTINUOUS
 10
-5.2046545132
 20
-21.4536254055
 11
-5.3460758694
 21
-21.5243360836
  0
LINE
  5
3B2
100
AcDbEntity
  8
0
100
AcDbLine
 62
7
  6
CONTINUOUS
 10
-5.0896372313
 20
-21.5110249272
 11
-5.2310585875
 21
-21.5817356054
  0
LINE
  5
3B3
100
AcDbEntity
  8
0
100
AcDbLine
 62
7
  6
CONTINUOUS
 10
-4.7797010154
 20
-21.6659930352
 11
-4.9211223716
 21
-21.7367037133
  0
LINE
  5
3B4
100
AcDbEntity
  8
0
100
AcDbLine
 62
7
  6
CONTINUOUS
 10
-4.4787839464
 20
-21.8165606888
 11
-4.6202053027
 21
-21.887271367
  0
LINE
  5
3B5
100
AcDbEntity
  8
0
100
AcDbLine
 62
7
  6
CONTINUOUS
 10
-4.1691044103
 20
-21.9714004569
 11
-4.3105257665
 21
-22.042111135
  0
LINE
  5
3B6
100
AcDbEntity
  8
0
100
AcDbLine
 62
7
  6
CONTINUOUS
 10
-5.6819289631
 20
-23.033488242
 11
-5.8233503193
 21
-23.1041989201
  0
LINE
  5
3B7
100
AcDbEntity
  8
0
100
AcDbLine
 62
7
  6
CONTINUOUS
 10
-3.5525058829
 20
-22.2796997206
 11
-3.6939272391
 21
-22.3504103987
  0
LINE
  5
3B8
100
AcDbEntity
  8
0
100
AcDbLine
 62
7
  6
CONTINUOUS
 10
-3.2458548851
 20
-22.4330252195
 11
-3.3872762413
 21
-22.5037358976
  0
LINE
  5
3B9
100
AcDbEntity
  8
0
100
AcDbLine
 62
7
  6
CONTINUOUS
 10
-4.7797010154
 20
-23.4846022158
 11
-4.9211223716
 21
-23.555312894
  0
LINE
  5
3BA
100
AcDbEntity
  8
0
100
AcDbLine
 62
7
  6
CONTINUOUS
 10
-2.5926133772
 20
-22.7596459735
 11
-2.7340347334
 21
-22.8303566516
  0
LINE
  5
3BB
100
AcDbEntity
  8
0
100
AcDbLine
 62
7
  6
CONTINUOUS
 10
-4.3163452553
 20
-23.7162800958
 11
-4.4577666116
 21
-23.786990774
  0
LINE
  5
3BC
100
AcDbEntity
  8
0
100
AcDbLine
 62
7
  6
CONTINUOUS
 10
-2.2927880811
 20
-22.9095586215
 11
-2.4342094374
 21
-22.9802692996
  0
LINE
  5
3BD
100
AcDbEntity
  8
0
100
AcDbLine
 62
7
  6
CONTINUOUS
 10
-3.8424005713
 20
-23.9532524379
 11
-3.9838219275
 21
-24.023963116
  0
LINE
  5
3BE
100
AcDbEntity
  8
0
100
AcDbLine
 62
7
  6
CONTINUOUS
 10
-1.7462024051
 20
-23.2040975202
 11
-1.8876237614
 21
-23.2748081983
  0
LINE
  5
3BF
100
AcDbEntity
  8
0
100
AcDbLine
 62
7
  6
CONTINUOUS
 10
-2.6028459194
 20
-23.9290757902
 11
-2.7442672756
 21
-23.9997864683
  0
LINE
  5
3C0
100
AcDbEntity
  8
0
100
AcDbLine
 62
7
  6
CONTINUOUS
 10
-3.1830075565
 20
-24.3589469829
 11
-3.2484308751
 21
-24.3916586422
  0
LINE
  5
3C1
100
AcDbEntity
  8
0
100
AcDbLine
 62
7
  6
CONTINUOUS
 10
-0.9813280392
 20
-23.6056806882
 11
-1.1227493954
 21
-23.6763913663
  0
LINE
  5
3C2
100
AcDbEntity
  8
0
100
AcDbLine
 62
7
  6
CONTINUOUS
 10
-2.7517682644
 20
-24.4985685913
 11
-2.8931896206
 21
-24.5692792694
  0
LINE
  5
3C3
100
AcDbEntity
  8
0
100
AcDbLine
 62
7
  6
CONTINUOUS
 10
-1.4477906156
 20
-24.1410706976
 11
-1.5892119718
 21
-24.2117813757
  0
LINE
  5
3C4
100
AcDbEntity
  8
0
100
AcDbLine
 62
7
  6
CONTINUOUS
 10
-1.2706653312
 20
-24.2296333398
 11
-1.4120866874
 21
-24.3003440179
  0
LINE
  5
3C5
100
AcDbEntity
  8
0
100
AcDbLine
 62
7
  6
CONTINUOUS
 10
-1.8876237614
 20
-24.9810498658
 11
-1.9786360946
 21
-25.0265560325
  0
LINE
  5
3C6
100
AcDbEntity
  8
0
100
AcDbLine
 62
7
  6
CONTINUOUS
 10
-1.0864955019
 20
-24.6194684878
 11
-1.0907938029
 21
-24.6216176382
  0
LINE
  5
3C7
100
AcDbEntity
  8
0
100
AcDbLine
 62
7
  6
CONTINUOUS
 10
-1.047762515
 20
-24.6041792462
 11
-0.9063411588
 21
-24.5334685681
  0
LINE
  5
3C8
100
AcDbEntity
  8
0
100
AcDbLine
 62
7
  6
CONTINUOUS
 10
-1.437513608
 20
-25.155696264
 11
-1.5789349642
 21
-25.2264069421
  0
LINE
  5
3C9
100
AcDbEntity
  8
0
100
AcDbLine
 62
7
  6
CONTINUOUS
 10
-0.7707217559
 20
-24.9969012793
 11
-0.9121431121
 21
-25.0676119574
  0
LINE
  5
3CA
100
AcDbEntity
  8
0
100
AcDbLine
 62
7
  6
CONTINUOUS
 10
-0.6647672546
 20
-25.5420694407
 11
-0.8061886108
 21
-25.6127801188
  0
LINE
  5
3CB
100
AcDbEntity
  8
ASSI
100
AcDbLine
 62
7
  6
CONTINUOUS
 10
5.4768249937
 20
-21.7261352156
 11
4.3914609139
 21
-22.2668682542
  0
LINE
  5
3CC
100
AcDbEntity
  8
ASSI
100
AcDbLine
 62
7
  6
CONTINUOUS
 10
1.2123476183
 20
-19.1755369838
 11
-1.1119923684
 21
-20.221959546
  0
LINE
  5
3CD
100
AcDbEntity
  8
DRAFT
100
AcDbLine
 62
7
  6
CONTINUOUS
 10
4.1542523395
 20
-22.8550819
 11
3.6176606807
 21
-23.0889359719
  0
LINE
  5
3CE
100
AcDbEntity
  8
RACCORDO
100
AcDbLine
 62
7
  6
CONTINUOUS
 10
54.0855389351
 20
-8.0795286262
 11
-61.11806457
 21
49.5222731263
  0
LINE
  5
3CF
100
AcDbEntity
  8
RACCORDO
100
AcDbLine
 62
7
  6
CONTINUOUS
 10
54.2903936147
 20
-7.7141478945
 11
-60.9096347502
 21
49.8862560875
  0
LINE
  5
3D0
100
AcDbEntity
  8
RACCORDO
100
AcDbLine
 62
7
  6
CONTINUOUS
 10
55.6974750371
 20
-7.0051819896
 11
-59.5512069946
 21
50.6191590262
  0
LWPOLYLINE
  5
3D1
100
AcDbEntity
  8
RACCORDO
100
AcDbPolyline
 62
7
  6
CONTINUOUS
 90
26
 70
0
 10
52.385448151
 20
-9.4178295401
 10
52.3960741609
 20
-9.423593464
 10
52.4071296125
 20
-9.4304794219
 10
52.4190446583
 20
-9.4388430891
 10
52.4316393448
 20
-9.4487016998
 10
52.4447464304
 20
-9.4600529597
 10
52.4581820416
 20
-9.4728528823
 10
52.471767228
 20
-9.4870281622
 10
52.4853718926
 20
-9.5025277164
 10
52.4989325077
 20
-9.5193681266
 10
52.5123090863
 20
-9.5374656366
 10
52.5253690753
 20
-9.5567209202
 10
52.5380709263
 20
-9.5771626904
 10
52.5503065356
 20
-9.5987209017
 10
52.5619229139
 20
-9.6212184853
 10
52.5728124156
 20
-9.6445279118
 10
52.5828762978
 20
-9.6685150258
 10
52.5920053168
 20
-9.6929810792
 10
52.6000977586
 20
-9.7176813157
 10
52.6070959094
 20
-9.7424364798
 10
52.6129540318
 20
-9.7670558099
 10
52.6176276126
 20
-9.791256554
 10
52.6211209381
 20
-9.8148723932
 10
52.623448
 20
-9.837710921
 10
52.6246360217
 20
-9.8594371234
 10
52.6248324366
 20
-9.8721967026
  0
LINE
  5
3D2
100
AcDbEntity
  8
RACCORDO
100
AcDbLine
 62
7
  6
CONTINUOUS
 10
25.8426823703
 20
-33.6992969154
 11
25.8426823703
 21
-33.3186946325
  0
LINE
  5
3D3
100
AcDbEntity
  8
RACCORDO
100
AcDbLine
 62
7
  6
CONTINUOUS
 10
29.2918984107
 20
-34.9711594675
 11
29.2918984107
 21
-35.4239049356
  0
LINE
  5
3D4
100
AcDbEntity
  8
DRAFT
100
AcDbLine
 62
7
  6
CONTINUOUS
 10
20.8602599246
 20
-30.2376291052
 11
20.9173035765
 21
-30.0054152317
  0
LINE
  5
3D5
100
AcDbEntity
  8
RACCORDO
100
AcDbLine
 62
7
  6
CONTINUOUS
 10
10.6575295978
 20
-25.5010829643
 11
10.1056299564
 21
-25.7988454824
  0
LINE
  5
3D6
100
AcDbEntity
  8
RACCORDO
100
AcDbLine
 62
7
  6
CONTINUOUS
 10
10.890226805
 20
-25.5104764676
 11
10.3344154559
 21
-25.8103494417
  0
LINE
  5
3D7
100
AcDbEntity
  8
RACCORDO
100
AcDbLine
 62
7
  6
CONTINUOUS
 10
12.6041783747
 20
-26.9452309011
 11
13.1698637996
 21
-26.6502949649
  0
LINE
  5
3D8
100
AcDbEntity
  8
RACCORDO
100
AcDbLine
 62
7
  6
CONTINUOUS
 10
12.9387265767
 20
-27.2473190186
 11
13.381995834
 21
-27.0162081792
  0
LINE
  5
3D9
100
AcDbEntity
  8
RACCORDO
100
AcDbLine
 62
7
  6
CONTINUOUS
 10
10.6575421325
 20
-25.5010761766
 11
10.6634564609
 21
-25.4980150941
  0
LINE
  5
3DA
100
AcDbEntity
  8
RACCORDO
100
AcDbLine
 62
7
  6
CONTINUOUS
 10
8.7853958792
 20
-25.4691736399
 11
9.7206800679
 21
-24.9979254301
  0
LINE
  5
3DB
100
AcDbEntity
  8
RACCORDO
100
AcDbLine
 62
7
  6
CONTINUOUS
 10
9.5536393383
 20
-25.5547753994
 11
9.9327797936
 21
-25.3637433441
  0
LINE
  5
3DC
100
AcDbEntity
  8
SMUSSO
100
AcDbLine
 62
7
  6
CONTINUOUS
 10
71.3647518913
 20
8.6941023661
 11
73.8042702863
 21
9.9138615636
  0
LINE
  5
3DD
100
AcDbEntity
  8
SMUSSO
100
AcDbLine
 62
7
  6
CONTINUOUS
 10
72.0718586724
 20
7.4745235717
 11
74.5113770675
 21
8.6942827692
  0
LINE
  5
3DE
100
AcDbEntity
  8
RACCORDO
100
AcDbLine
 62
7
  6
CONTINUOUS
 10
11.0155416724
 20
-25.3233782336
 11
10.66346115
 21
-25.4980127682
  0
LINE
  5
3DF
100
AcDbEntity
  8
RACCORDO
100
AcDbLine
 62
7
  6
CONTINUOUS
 10
11.2438869597
 20
-25.3352729716
 11
10.890442213
 21
-25.5105841716
  0
LINE
  5
3E0
100
AcDbEntity
  8
RACCORDO
100
AcDbLine
 62
7
  6
CONTINUOUS
 10
12.4980575615
 20
-25.9623582725
 11
12.1446128148
 21
-26.1376694725
  0
LINE
  5
3E1
100
AcDbEntity
  8
DRAFT
100
AcDbLine
 62
7
  6
CONTINUOUS
 10
9.4575531984
 20
-25.5067323294
 11
8.9209615396
 21
-25.7405864013
  0
LINE
  5
3E2
100
AcDbEntity
  8
RACCORDO
100
AcDbLine
 62
7
  6
CONTINUOUS
 10
36.82138573
 20
-38.3131394662
 11
36.82138573
 21
-38.4760559301
  0
LINE
  5
3E3
100
AcDbEntity
  8
ASSI
100
AcDbLine
 62
7
  6
CONTINUOUS
 10
37.2966301471
 20
-37.2105141978
 11
37.2966301471
 21
-37.6360377923
  0
LINE
  5
3E4
100
AcDbEntity
  8
ASSI
100
AcDbLine
 62
7
  6
CONTINUOUS
 10
37.348001182
 20
-37.1947553701
 11
37.348001182
 21
-37.6187039995
  0
LINE
  5
3E5
100
AcDbEntity
  8
ASSI
100
AcDbLine
 62
7
  6
CONTINUOUS
 10
21.1248150879
 20
-29.8996760364
 11
21.3795199616
 21
-29.7150799855
  0
LINE
  5
3E6
100
AcDbEntity
  8
ASSI
100
AcDbLine
 62
7
  6
CONTINUOUS
 10
21.3797140406
 20
-29.2592201949
 11
19.9621161822
 21
-30.0464211562
  0
LINE
  5
3E7
100
AcDbEntity
  8
RACCORDO
100
AcDbLine
 62
7
  6
CONTINUOUS
 10
21.0072373379
 20
-30.7029605137
 11
20.1040438956
 21
-31.1902540966
  0
LINE
  5
3E8
100
AcDbEntity
  8
RACCORDO
100
AcDbLine
 62
7
  6
CONTINUOUS
 10
21.1445309309
 20
-30.7098508616
 11
20.2413374885
 21
-31.1971444445
  0
LINE
  5
3E9
100
AcDbEntity
  8
RACCORDO
100
AcDbLine
 62
7
  6
CONTINUOUS
 10
17.7008952234
 20
-28.9761089167
 11
17.1352097984
 21
-29.2710448529
  0
LINE
  5
3EA
100
AcDbEntity
  8
RACCORDO
100
AcDbLine
 62
7
  6
CONTINUOUS
 10
17.8367685554
 20
-28.9837473428
 11
17.2710831305
 21
-29.278683279
  0
LINE
  5
3EB
100
AcDbEntity
  8
ASSI
100
AcDbLine
 62
7
  6
CONTINUOUS
 10
21.1248150879
 20
-29.8996760364
 11
20.3668378189
 21
-30.2859095804
  0
LINE
  5
3EC
100
AcDbEntity
  8
RACCORDO
100
AcDbLine
 62
7
  6
CONTINUOUS
 10
54.2903936147
 20
-7.7141478945
 11
55.6974750371
 21
-7.0051819896
  0
LINE
  5
3ED
100
AcDbEntity
  8
RACCORDO
100
AcDbLine
 62
7
  6
CONTINUOUS
 10
54.7856812769
 20
-8.5675273788
 11
56.1923743969
 21
-7.8587571223
  0
LINE
  5
3EE
100
AcDbEntity
  8
RACCORDO
100
AcDbLine
 62
7
  6
CONTINUOUS
 10
19.6822458663
 20
-30.4842646469
 11
20.2578053671
 21
-30.1942657486
  0
LINE
  5
3EF
100
AcDbEntity
  8
RACCORDO
100
AcDbLine
 62
7
  6
CONTINUOUS
 10
20.0188196998
 20
-30.7873655801
 11
20.4699050927
 21
-30.5600836626
  0
LINE
  5
3F0
100
AcDbEntity
  8
DRAFT
100
AcDbLine
 62
7
  6
CONTINUOUS
 10
20.4656183609
 20
-30.5069618453
 11
20.7809609533
 21
-30.3484193638
  0
LINE
  5
3F1
100
AcDbEntity
  8
DRAFT
100
AcDbLine
 62
7
  6
CONTINUOUS
 10
20.4508522298
 20
-30.4432512087
 11
20.8602599246
 21
-30.2376291052
  0
LINE
  5
3F2
100
AcDbEntity
  8
ASSI
100
AcDbLine
 62
7
  6
CONTINUOUS
 10
21.3867275704
 20
-29.681086504
 11
20.3013634906
 21
-30.2218195425
  0
LINE
  5
3F3
100
AcDbEntity
  8
ASSI
100
AcDbLine
 62
7
  6
CONTINUOUS
 10
17.122250195
 20
-27.1304882722
 11
14.7979102083
 21
-28.1769108344
  0
LINE
  5
3F4
100
AcDbEntity
  8
DRAFT
100
AcDbLine
 62
7
  6
CONTINUOUS
 10
20.0641549162
 20
-30.8100331883
 11
19.5275632574
 21
-31.0438872602
  0
LWPOLYLINE
  5
3F5
100
AcDbEntity
  8
RACCORDO
100
AcDbPolyline
 62
7
  6
CONTINUOUS
 90
6
 70
0
 10
-59.2858679726
 20
46.4155054129
 10
-59.2858325472
 20
46.4154978717
 10
-59.2842144391
 20
46.4151267397
 10
-59.2801596122
 20
46.4138959207
 10
-59.2739308174
 20
46.411519064
 10
-59.2652288134
 20
46.4075089796
  0
LINE
  5
3F6
100
AcDbEntity
  8
RACCORDO
100
AcDbLine
 62
7
  6
CONTINUOUS
 10
45.2018009874
 20
-42.9261107559
 11
45.2018009874
 21
-43.3788562239
  0
LINE
  5
3F7
100
AcDbEntity
  8
DRAFT
100
AcDbLine
 62
7
  6
CONTINUOUS
 10
36.7858167324
 20
-38.1288549918
 11
36.8272061532
 21
-37.96036652
  0
LINE
  5
3F8
100
AcDbEntity
  8
RACCORDO
100
AcDbLine
 62
7
  6
CONTINUOUS
 10
25.9656246226
 20
-33.6877104736
 11
26.5214359717
 21
-33.3878374995
  0
LINE
  5
3F9
100
AcDbEntity
  8
RACCORDO
100
AcDbLine
 62
7
  6
CONTINUOUS
 10
26.1029182155
 20
-33.6946008215
 11
26.6587295646
 21
-33.3947278474
  0
LINE
  5
3FA
100
AcDbEntity
  8
RACCORDO
100
AcDbLine
 62
7
  6
CONTINUOUS
 10
28.5140809513
 20
-34.9001821894
 11
29.0797663763
 21
-34.6052462532
  0
LINE
  5
3FB
100
AcDbEntity
  8
RACCORDO
100
AcDbLine
 62
7
  6
CONTINUOUS
 10
28.8486291534
 20
-35.2022703069
 11
29.2918984107
 21
-34.9711594675
  0
LINE
  5
3FC
100
AcDbEntity
  8
RACCORDO
100
AcDbLine
 62
7
  6
CONTINUOUS
 10
24.6952984559
 20
-33.4241249282
 11
25.6305826446
 21
-32.9528767185
  0
LINE
  5
3FD
100
AcDbEntity
  8
RACCORDO
100
AcDbLine
 62
7
  6
CONTINUOUS
 10
25.4635419149
 20
-33.5097266877
 11
25.8426823703
 21
-33.3186946325
  0
LINE
  5
3FE
100
AcDbEntity
  8
DRAFT
100
AcDbLine
 62
7
  6
CONTINUOUS
 10
25.3674557751
 20
-33.4616836178
 11
24.8308641163
 21
-33.6955376897
  0
LINE
  5
3FF
100
AcDbEntity
  8
RACCORDO
100
AcDbLine
 62
7
  6
CONTINUOUS
 10
-58.8939824188
 20
46.2218858762
 11
-59.3642084265
 21
46.2354506991
  0
LINE
  5
400
100
AcDbEntity
  8
RACCORDO
100
AcDbLine
 62
7
  6
CONTINUOUS
 10
-59.2833831632
 20
46.4153351333
 11
-59.2833151569
 21
46.4153331594
  0
LINE
  5
401
100
AcDbEntity
  8
SMUSSO
100
AcDbLine
 62
7
  6
CONTINUOUS
 10
70.3647518913
 20
7.6209701811
 11
-74.2184838487
 21
79.9125880511
  0
LINE
  5
402
100
AcDbEntity
  8
SMUSSO
100
AcDbLine
 62
7
  6
CONTINUOUS
 10
71.3647518913
 20
8.6941023661
 11
-73.8042702863
 21
81.2786134549
  0
LINE
  5
403
100
AcDbEntity
  8
SMUSSO
100
AcDbLine
 62
7
  6
CONTINUOUS
 10
-71.3647518913
 20
82.4983726524
 11
73.8042702863
 21
9.9138615636
  0
LINE
  5
404
100
AcDbEntity
  8
RACCORDO
100
AcDbLine
 62
7
  6
CONTINUOUS
 10
52.6248329533
 20
-9.8722334828
 11
52.6248329533
 21
-49.664047906
  0
LINE
  5
405
100
AcDbEntity
  8
RACCORDO
100
AcDbLine
 62
7
  6
CONTINUOUS
 10
52.7127009189
 20
-9.9782994999
 11
52.7127009189
 21
-49.7701138918
  0
LINE
  5
406
100
AcDbEntity
  8
SMUSSO
100
AcDbLine
 62
7
  6
CONTINUOUS
 10
71.3647518913
 20
8.6941023661
 11
70.3647518913
 21
7.6209701811
  0
LINE
  5
407
100
AcDbEntity
  8
ASSI
100
AcDbLine
 62
7
  6
CONTINUOUS
 10
37.0347176646
 20
-37.8546273247
 11
37.2894225383
 21
-37.6700312738
  0
LINE
  5
408
100
AcDbEntity
  8
ASSI
100
AcDbLine
 62
7
  6
CONTINUOUS
 10
37.2896166173
 20
-37.2141714833
 11
36.3192192327
 21
-37.7530392231
  0
LINE
  5
409
100
AcDbEntity
  8
RACCORDO
100
AcDbLine
 62
7
  6
CONTINUOUS
 10
33.6107978001
 20
-36.9310602051
 11
33.0451123751
 21
-37.2259961413
  0
LINE
  5
40A
100
AcDbEntity
  8
RACCORDO
100
AcDbLine
 62
7
  6
CONTINUOUS
 10
33.7466711321
 20
-36.9386986312
 11
33.1809857072
 21
-37.2336345673
  0
LINE
  5
40B
100
AcDbEntity
  8
ASSI
100
AcDbLine
 62
7
  6
CONTINUOUS
 10
37.0347176646
 20
-37.8546273247
 11
36.7219080063
 21
-38.0140220558
  0
LINE
  5
40C
100
AcDbEntity
  8
ASSI
100
AcDbLine
 62
7
  6
CONTINUOUS
 10
37.2966301471
 20
-37.6360377923
 11
36.6653435975
 21
-37.9505474583
  0
LINE
  5
40D
100
AcDbEntity
  8
RACCORDO
100
AcDbLine
 62
7
  6
CONTINUOUS
 10
36.3275560874
 20
-37.8771075355
 11
35.9741113408
 21
-38.0524187355
  0
LINE
  5
40E
100
AcDbEntity
  8
RACCORDO
100
AcDbLine
 62
7
  6
CONTINUOUS
 10
34.8514044757
 20
-37.2290397327
 11
34.5789813707
 21
-37.3548537504
  0
LINE
  5
40F
100
AcDbEntity
  8
RACCORDO
100
AcDbLine
 62
7
  6
CONTINUOUS
 10
35.0672141883
 20
-37.2469365859
 11
34.7012114388
 21
-37.4159687845
  0
LINE
  5
410
100
AcDbEntity
  8
ASSI
100
AcDbLine
 62
7
  6
CONTINUOUS
 10
33.0321527717
 20
-35.0854395605
 11
30.707812785
 21
-36.1318621227
  0
LINE
  5
411
100
AcDbEntity
  8
RACCORDO
100
AcDbLine
 62
7
  6
CONTINUOUS
 10
54.3651517315
 20
-52.8351717775
 11
54.3651517314
 21
-8.5656924259
  0
LINE
  5
412
100
AcDbEntity
  8
RACCORDO
100
AcDbLine
 62
7
  6
CONTINUOUS
 10
54.7852929783
 20
-52.8371860603
 11
54.7856812769
 21
-8.5675273788
  0
LINE
  5
413
100
AcDbEntity
  8
RACCORDO
100
AcDbLine
 62
7
  6
CONTINUOUS
 10
56.1923743969
 20
-52.1873492321
 11
56.1923743969
 21
-7.8587571223
  0
LWPOLYLINE
  5
414
100
AcDbEntity
  8
RACCORDO
100
AcDbPolyline
 62
7
  6
CONTINUOUS
 90
10
 70
0
 10
52.6248329691
 20
-49.6641061881
 10
52.6248017415
 20
-49.6690519381
 10
52.6243133804
 20
-49.6840662117
 10
52.6232708484
 20
-49.6980074026
 10
52.6217441156
 20
-49.7106925181
 10
52.6198571992
 20
-49.7218130581
 10
52.6177438612
 20
-49.7312826447
 10
52.6155621895
 20
-49.739021204
 10
52.6135605319
 20
-49.7447926847
 10
52.61198187
 20
-49.7485670723
  0
LINE
  5
415
100
AcDbEntity
  8
RACCORDO
100
AcDbLine
 62
7
  6
CONTINUOUS
 10
44.423983528
 20
-42.8551334778
 11
44.989668953
 21
-42.5601975416
  0
LINE
  5
416
100
AcDbEntity
  8
RACCORDO
100
AcDbLine
 62
7
  6
CONTINUOUS
 10
44.7585317301
 20
-43.1572215953
 11
45.2018009874
 21
-42.9261107559
  0
LINE
  5
417
100
AcDbEntity
  8
ASSI
100
AcDbLine
 62
7
  6
CONTINUOUS
 10
48.9420553484
 20
-42.9537883085
 11
46.5265741745
 21
-44.0412428175
  0
LINE
  5
418
100
AcDbEntity
  8
SMUSSO
100
AcDbLine
 62
7
  6
CONTINUOUS
 10
73.8042702863
 20
9.9138615636
 11
74.0113770675
 21
9.7308488617
  0
LINE
  5
419
100
AcDbEntity
  8
ASSI
100
AcDbLine
 62
7
  6
CONTINUOUS
 10
46.7321335936
 20
-44.144022527
 11
46.757435906
 21
-44.1003824936
  0
LINE
  5
41A
100
AcDbEntity
  8
ASSI
100
AcDbLine
 62
7
  6
CONTINUOUS
 10
47.015638123
 20
-44.0880622459
 11
47.1109892966
 21
-43.9236057984
  0
LINE
  5
41B
100
AcDbEntity
  8
ASSI
100
AcDbLine
 62
7
  6
CONTINUOUS
 10
47.3691915136
 20
-43.9112855506
 11
47.4645426871
 21
-43.7468291031
  0
LINE
  5
41C
100
AcDbEntity
  8
ASSI
100
AcDbLine
 62
7
  6
CONTINUOUS
 10
47.7227449042
 20
-43.7345088553
 11
47.8180960777
 21
-43.5700524078
  0
LINE
  5
41D
100
AcDbEntity
  8
ASSI
100
AcDbLine
 62
7
  6
CONTINUOUS
 10
48.0762982948
 20
-43.55773216
 11
48.1716494683
 21
-43.3932757125
  0
LINE
  5
41E
100
AcDbEntity
  8
ASSI
100
AcDbLine
 62
7
  6
CONTINUOUS
 10
48.4298516854
 20
-43.3809554647
 11
48.5252028589
 21
-43.2164990172
  0
LINE
  5
41F
100
AcDbEntity
  8
ASSI
100
AcDbLine
 62
7
  6
CONTINUOUS
 10
48.783405076
 20
-43.2041787694
 11
48.8787562495
 21
-43.0397223219
  0
LINE
  5
420
100
AcDbEntity
  8
ASSI
100
AcDbLine
 62
7
  6
CONTINUOUS
 10
51.3307935199
 20
-45.7307598251
 11
51.3536299837
 21
-45.6913727513
  0
LINE
  5
421
100
AcDbEntity
  8
ASSI
100
AcDbLine
 62
7
  6
CONTINUOUS
 10
51.6011173571
 20
-45.6975328752
 11
51.7071833743
 21
-45.514596056
  0
LINE
  5
422
100
AcDbEntity
  8
ASSI
100
AcDbLine
 62
7
  6
CONTINUOUS
 10
52.6248329533
 20
-45.4016470968
 11
51.699857442
 21
-45.9152917861
  0
LINE
  5
423
100
AcDbEntity
  8
RACCORDO
100
AcDbLine
 62
7
  6
CONTINUOUS
 10
49.5207003768
 20
-44.8860114934
 11
48.9550149518
 21
-45.1809474296
  0
LINE
  5
424
100
AcDbEntity
  8
RACCORDO
100
AcDbLine
 62
7
  6
CONTINUOUS
 10
49.6565737088
 20
-44.8936499195
 11
49.0908882839
 21
-45.1885858557
  0
LINE
  5
425
100
AcDbEntity
  8
ASSI
100
AcDbLine
 62
7
  6
CONTINUOUS
 10
52.6248329533
 20
-45.9725288527
 11
52.2234190644
 21
-46.1770725973
  0
LINE
  5
426
100
AcDbEntity
  8
DRAFT
100
AcDbLine
 62
7
  6
CONTINUOUS
 10
52.4936378879
 20
-46.312182009
 11
52.6007661067
 21
-46.2583219405
  0
LINE
  5
427
100
AcDbEntity
  8
DRAFT
100
AcDbLine
 62
7
  6
CONTINUOUS
 10
52.4227782217
 20
-46.2767521759
 11
52.6248329533
 21
-46.1752716238
  0
LINE
  5
428
100
AcDbEntity
  8
ASSI
100
AcDbLine
 62
7
  6
CONTINUOUS
 10
46.757435906
 20
-44.1003824936
 11
46.8988572622
 21
-44.0296718155
  0
LINE
  5
429
100
AcDbEntity
  8
ASSI
100
AcDbLine
 62
7
  6
CONTINUOUS
 10
47.1109892966
 20
-43.9236057984
 11
47.2524106528
 21
-43.8528951202
  0
LINE
  5
42A
100
AcDbEntity
  8
ASSI
100
AcDbLine
 62
7
  6
CONTINUOUS
 10
47.4645426871
 20
-43.7468291031
 11
47.6059640434
 21
-43.6761184249
  0
LINE
  5
42B
100
AcDbEntity
  8
ASSI
100
AcDbLine
 62
7
  6
CONTINUOUS
 10
47.8180960777
 20
-43.5700524078
 11
47.959517434
 21
-43.4993417296
  0
LINE
  5
42C
100
AcDbEntity
  8
ASSI
100
AcDbLine
 62
7
  6
CONTINUOUS
 10
48.1716494683
 20
-43.3932757125
 11
48.3130708246
 21
-43.3225650343
  0
LINE
  5
42D
100
AcDbEntity
  8
ASSI
100
AcDbLine
 62
7
  6
CONTINUOUS
 10
48.5252028589
 20
-43.2164990172
 11
48.6666242152
 21
-43.145788339
  0
LINE
  5
42E
100
AcDbEntity
  8
ASSI
100
AcDbLine
 62
7
  6
CONTINUOUS
 10
48.8787562495
 20
-43.0397223219
 11
49.0201776058
 21
-42.9690116438
  0
LINE
  5
42F
100
AcDbEntity
  8
ASSI
100
AcDbLine
 62
7
  6
CONTINUOUS
 10
51.3536299837
 20
-45.6913727513
 11
51.4950513399
 21
-45.6206620732
  0
LINE
  5
430
100
AcDbEntity
  8
ASSI
100
AcDbLine
 62
7
  6
CONTINUOUS
 10
51.7071833743
 20
-45.514596056
 11
51.8486047305
 21
-45.4438853779
  0
LINE
  5
431
100
AcDbEntity
  8
ASSI
100
AcDbLine
 62
7
  6
CONTINUOUS
 10
52.0607367649
 20
-45.3378193607
 11
52.2021581211
 21
-45.2671086826
  0
LINE
  5
432
100
AcDbEntity
  8
ASSI
100
AcDbLine
 62
7
  6
CONTINUOUS
 10
52.4142901555
 20
-45.1610426654
 11
52.5557115117
 21
-45.0903319873
  0
LINE
  5
433
100
AcDbEntity
  8
ASSI
100
AcDbLine
 62
7
  6
CONTINUOUS
 10
52.6248329533
 20
-45.1856750771
 11
51.4327284886
 21
-45.7817273094
  0
LINE
  5
434
100
AcDbEntity
  8
ASSI
100
AcDbLine
 62
7
  6
CONTINUOUS
 10
52.6248329533
 20
-45.8807944007
 11
52.1269537645
 21
-46.1288399474
  0
LINE
  5
435
100
AcDbEntity
  8
SMUSSO
100
AcDbLine
 62
7
  6
CONTINUOUS
 10
70.6576451101
 20
7.1158041041
 11
70.3647518913
 21
7.6209701811
  0
LINE
  5
436
100
AcDbEntity
  8
SMUSSO
100
AcDbLine
 62
7
  6
CONTINUOUS
 10
72.0718586724
 20
7.4745235717
 11
71.3647518913
 21
8.6941023661
  0
LINE
  5
437
100
AcDbEntity
  8
SMUSSO
100
AcDbLine
 62
7
  6
CONTINUOUS
 10
70.6576451101
 20
-81.6271811716
 11
70.6576451101
 21
7.1158041041
  0
LINE
  5
438
100
AcDbEntity
  8
SMUSSO
100
AcDbLine
 62
7
  6
CONTINUOUS
 10
72.0718586724
 20
-81.9859006392
 11
72.0718586724
 21
7.4745235717
  0
LINE
  5
439
100
AcDbEntity
  8
SMUSSO
100
AcDbLine
 62
7
  6
CONTINUOUS
 10
74.5113770675
 20
-80.7661414417
 11
74.5113770675
 21
8.868476426
  0
LINE
  5
43A
100
AcDbEntity
  8
ASSI
100
AcDbLine
 62
7
  6
CONTINUOUS
 10
51.9546707477
 20
-45.5207561799
 11
52.0607367649
 21
-45.3378193607
  0
LINE
  5
43B
100
AcDbEntity
  8
ASSI
100
AcDbLine
 62
7
  6
CONTINUOUS
 10
52.3082241383
 20
-45.3439794846
 11
52.4142901555
 21
-45.1610426654
  0
LINE
  5
43C
100
AcDbEntity
  8
RACCORDO
100
AcDbLine
 62
7
  6
CONTINUOUS
 10
52.447063494
 20
-49.7736991389
 11
52.6248329533
 21
-49.5505473937
  0
LINE
  5
43D
100
AcDbEntity
  8
RACCORDO
100
AcDbLine
 62
7
  6
CONTINUOUS
 10
52.6123553684
 20
-49.7487345104
 11
52.6123257624
 21
-49.7487716481
  0
LINE
  5
43E
100
AcDbEntity
  8
RACCORDO
100
AcDbLine
 62
7
  6
CONTINUOUS
 10
54.7852929783
 20
-52.8371860603
 11
56.1923743969
 21
-52.1873492321
  0
LINE
  5
43F
100
AcDbEntity
  8
RACCORDO
100
AcDbLine
 62
7
  6
CONTINUOUS
 10
54.5949440282
 20
-53.2198012636
 11
56.0031487034
 21
-52.5694456783
  0
LINE
  5
440
100
AcDbEntity
  8
SMUSSO
100
AcDbLine
 62
7
  6
CONTINUOUS
 10
73.8042702863
 20
9.9138615636
 11
74.5113770675
 21
8.6942827692
  0
LINE
  5
441
100
AcDbEntity
  8
SMUSSO
100
AcDbLine
 62
7
  6
CONTINUOUS
 10
74.0113770675
 20
9.7308488617
 11
74.5113770675
 21
8.868476426
  0
LINE
  5
442
100
AcDbEntity
  8
SMUSSO
100
AcDbLine
 62
7
  6
CONTINUOUS
 10
70.3647518913
 20
-81.8394540298
 11
70.6576451101
 21
-81.6271811716
  0
LINE
  5
443
100
AcDbEntity
  8
SMUSSO
100
AcDbLine
 62
7
  6
CONTINUOUS
 10
71.3647518913
 20
-82.4983726524
 11
72.0718586724
 21
-81.9859006392
  0
LINE
  5
444
100
AcDbEntity
  8
SMUSSO
100
AcDbLine
 62
7
  6
CONTINUOUS
 10
74.5113770675
 20
-80.7661414417
 11
73.8042702863
 21
-81.2786134549
  0
LINE
  5
445
100
AcDbEntity
  8
SMUSSO
100
AcDbLine
 62
7
  6
CONTINUOUS
 10
72.0718586724
 20
-81.9859006392
 11
74.5113770675
 21
-80.7661414417
  0
LINE
  5
446
100
AcDbEntity
  8
SMUSSO
100
AcDbLine
 62
7
  6
CONTINUOUS
 10
71.3647518913
 20
-82.4983726524
 11
73.8042702863
 21
-81.2786134549
  0
ARC
  5
447
100
AcDbEntity
  8
RACCORDO
100
AcDbCircle
 62
7
  6
CONTINUOUS
 10
11.2384785442
 20
-25.7736050796
 40
0.502399305
100
AcDbArc
 50
100.2950146088
 51
116.3430329804
  0
ARC
  5
448
100
AcDbEntity
  8
RACCORDO
100
AcDbCircle
 62
7
  6
CONTINUOUS
 10
-36.4267720649
 20
-1.9409621751
 40
0.502319995
100
AcDbArc
 50
98.9698322227
 51
114.7522457396
  0
ARC
  5
449
100
AcDbEntity
  8
RACCORDO
100
AcDbCircle
 62
7
  6
CONTINUOUS
 10
-12.597273539
 20
-13.8557114381
 40
0.502319995
100
AcDbArc
 50
98.9698322227
 51
114.7522457396
  0
ARC
  5
44A
100
AcDbEntity
  8
RACCORDO
100
AcDbCircle
 62
7
  6
CONTINUOUS
 10
35.061723513
 20
-37.6852099641
 40
0.502319995
100
AcDbArc
 50
98.9698322227
 51
114.7522457396
  0
ARC
  5
44B
100
AcDbEntity
  8
RACCORDO
100
AcDbCircle
 62
7
  6
CONTINUOUS
 10
11.2370099487
 20
-25.7733726261
 40
0.5021625583
100
AcDbArc
 50
63.4601585232
 51
79.3584299017
  0
ARC
  5
44C
100
AcDbEntity
  8
RACCORDO
100
AcDbCircle
 62
7
  6
CONTINUOUS
 10
-36.4280790369
 20
-1.9405125034
 40
0.5018810491
100
AcDbArc
 50
63.4559804215
 51
78.4446987655
  0
ARC
  5
44D
100
AcDbEntity
  8
RACCORDO
100
AcDbCircle
 62
7
  6
CONTINUOUS
 10
-12.5985805109
 20
-13.8552617664
 40
0.5018810491
100
AcDbArc
 50
63.4559804215
 51
78.4446987655
  0
ARC
  5
44E
100
AcDbEntity
  8
RACCORDO
100
AcDbCircle
 62
7
  6
CONTINUOUS
 10
35.0604165411
 20
-37.6847602924
 40
0.5018810491
100
AcDbArc
 50
63.4559804215
 51
78.4446987655
  0
ARC
  5
44F
100
AcDbEntity
  8
RACCORDO
100
AcDbCircle
 62
7
  6
CONTINUOUS
 10
-35.1671227268
 20
-2.5689004379
 40
0.5000125831
100
AcDbArc
 50
359.9981424993
 51
63.436300054
  0
ARC
  5
450
100
AcDbEntity
  8
RACCORDO
100
AcDbCircle
 62
7
  6
CONTINUOUS
 10
12.4918743252
 20
-26.3983989639
 40
0.5000125831
100
AcDbArc
 50
359.9981424993
 51
63.436300054
  0
ARC
  5
451
100
AcDbEntity
  8
RACCORDO
100
AcDbCircle
 62
7
  6
CONTINUOUS
 10
36.3213728512
 20
-38.3131482269
 40
0.5000125831
100
AcDbArc
 50
359.9981424993
 51
63.436300054
  0
ARC
  5
452
100
AcDbEntity
  8
RACCORDO
100
AcDbCircle
 62
7
  6
CONTINUOUS
 10
-56.0267727718
 20
7.8609245846
 40
0.5000125831
100
AcDbArc
 50
359.9981424993
 51
63.436300054
  0
ARC
  5
453
100
AcDbEntity
  8
RACCORDO
100
AcDbCircle
 62
7
  6
CONTINUOUS
 10
-11.3437875755
 20
-14.4805595719
 40
0.5000039303
100
AcDbArc
 50
359.9962855703
 51
63.4406225052
  0
ARC
  5
454
100
AcDbEntity
  8
0
100
AcDbCircle
 62
7
  6
CONTINUOUS
 10
-1.3125624346
 20
-24.8458025829
 40
0.3153414267
100
AcDbArc
 50
42.197204375
 51
45.3104430307
  0
ARC
  5
455
100
AcDbEntity
  8
RACCORDO
100
AcDbCircle
 62
7
  6
CONTINUOUS
 10
-53.1794463528
 20
31.7963855971
 40
0.3000075549
100
AcDbArc
 50
359.9982306104
 51
63.4364765423
  0
ARC
  5
456
100
AcDbEntity
  8
RACCORDO
100
AcDbCircle
 62
7
  6
CONTINUOUS
 10
-53.5061222413
 20
31.9598010429
 40
0.2999366603
100
AcDbArc
 50
63.4376202806
 51
114.7714837855
  0
ARC
  5
457
100
AcDbEntity
  8
RACCORDO
100
AcDbCircle
 62
7
  6
CONTINUOUS
 10
-53.1793731399
 20
27.2167229201
 40
0.2999338858
100
AcDbArc
 50
298.3466504164
 51
359.9940045201
  0
ARC
  5
458
100
AcDbEntity
  8
RACCORDO
100
AcDbCircle
 62
7
  6
CONTINUOUS
 10
11.1038407178
 20
-25.5013953053
 40
0.1987129222
100
AcDbArc
 50
114.9254157885
 51
116.3820773599
  0
ARC
  5
459
100
AcDbEntity
  8
RACCORDO
100
AcDbCircle
 62
7
  6
CONTINUOUS
 10
10.7503857207
 20
-25.6734439293
 40
0.1957856016
100
AcDbArc
 50
108.6619892206
 51
116.3597832332
  0
ARC
  5
45A
100
AcDbEntity
  8
RACCORDO
100
AcDbCircle
 62
7
  6
CONTINUOUS
 10
-57.5850407294
 20
7.3097829209
 40
0.1813437277
100
AcDbArc
 50
236.4614737062
 51
243.4416177581
  0
ARC
  5
45B
100
AcDbEntity
  8
DRAFT
100
AcDbCircle
 62
7
  6
CONTINUOUS
 10
52.542597947
 20
-46.1429976365
 40
0.1291602229
100
AcDbArc
 50
296.7610328244
 51
309.5740668439
  0
ARC
  5
45C
100
AcDbEntity
  8
RACCORDO
100
AcDbCircle
 62
7
  6
CONTINUOUS
 10
-57.7463553114
 20
7.5557493912
 40
0.1095360638
100
AcDbArc
 50
179.9736103086
 51
186.2827302349
  0
ARC
  5
45D
100
AcDbEntity
  8
ASSI
100
AcDbCircle
 62
7
  6
CONTINUOUS
 10
-46.4772745507
 20
4.6978713914
 40
0.0874961196
100
AcDbArc
 50
105.061869074
 51
111.6611297249
  0
ARC
  5
45E
100
AcDbEntity
  8
ASSI
100
AcDbCircle
 62
7
  6
CONTINUOUS
 10
48.9821409095
 20
-43.0318363387
 40
0.0874961196
100
AcDbArc
 50
105.061869074
 51
111.6611297249
  0
SPLINE
  5
45F
100
AcDbEntity
  8
0
100
AcDbSpline
 62
7
  6
CONTINUOUS
 70
0
 71
3
 72
11
 73
7
 74
5
 42
0.0000001
 43
0.0000001
 44
0.0000000001
 12
0.3138156219
 22
-0.2015300707
 32
0.0
 13
0.0047321734
 23
-0.3729238803
 33
0.0
 40
0.0
 40
0.0
 40
0.0
 40
0.0
 40
0.2339806254
 40
0.4918424311
 40
0.7556842856
 40
1.0
 40
1.0
 40
1.0
 40
1.0
 10
-1.3464051402
 20
-23.8232661168
 30
0.0
 10
-1.3219295484
 20
-23.8389841608
 30
0.0
 10
-1.2751861261
 20
-23.8794867156
 30
0.0
 10
-1.2190343449
 20
-23.955858797
 30
0.0
 10
-1.1826424667
 20
-24.0447139753
 30
0.0
 10
-1.1717139581
 20
-24.1077584912
 30
0.0
 10
-1.1713285767
 20
-24.1381288793
 30
0.0
 11
-1.3464051402
 21
-23.8232661168
 31
0.0
 11
-1.2797633545
 21
-23.8796032797
 31
0.0
 11
-1.2228941962
 21
-23.9571576269
 31
0.0
 11
-1.1852767883
 21
-24.0480842886
 31
0.0
 11
-1.1713285767
 21
-24.1381288793
 31
0.0
  0
SPLINE
  5
460
100
AcDbEntity
  8
0
100
AcDbSpline
 62
7
  6
CONTINUOUS
 70
0
 71
3
 72
11
 73
7
 74
5
 42
0.0000001
 43
0.0000001
 44
0.0000000001
 12
0.0026069207
 22
-0.2082217703
 32
0.0
 13
-0.1862537976
 23
-0.093126927
 33
0.0
 40
0.0
 40
0.0
 40
0.0
 40
0.0
 40
0.2862348082
 40
0.5536263841
 40
0.7910497827
 40
1.0
 40
1.0
 40
1.0
 40
1.0
 10
-1.1713285767
 20
-24.1381288793
 30
0.0
 10
-1.1710798462
 20
-24.1579956521
 30
0.0
 10
-1.1735307023
 20
-24.1965420074
 30
0.0
 10
-1.1864917416
 20
-24.2502388182
 30
0.0
 10
-1.2087949448
 20
-24.2951167738
 30
0.0
 10
-1.2326002116
 20
-24.3168810428
 30
0.0
 10
-1.2455728021
 20
-24.32336734
 30
0.0
 11
-1.1713285767
 21
-24.1381288793
 31
0.0
 11
-1.1753837213
 21
-24.1975957656
 31
0.0
 11
-1.1890877939
 21
-24.2515641312
 31
0.0
 11
-1.2124733979
 21
-24.2951242728
 31
0.0
 11
-1.2455728021
 21
-24.32336734
 31
0.0
  0
SPLINE
  5
461
100
AcDbEntity
  8
0
100
AcDbSpline
 62
7
  6
CONTINUOUS
 70
0
 71
3
 72
10
 73
6
 74
4
 42
0.0000001
 43
0.0000001
 44
0.0000000001
 12
0.257046478
 22
-0.0748047261
 32
0.0
 13
0.2252633536
 23
-0.1446549704
 33
0.0
 40
0.0
 40
0.0
 40
0.0
 40
0.0
 40
0.2362920832
 40
0.4814109498
 40
1.0
 40
1.0
 40
1.0
 40
1.0
 10
-1.5892119718
 20
-23.7125675431
 30
0.0
 10
-1.5689659559
 20
-23.7184594646
 30
0.0
 10
-1.5279377204
 20
-23.7313291312
 30
0.0
 10
-1.4452423867
 20
-23.7650892258
 30
0.0
 10
-1.3853448431
 20
-23.7982606222
 30
0.0
 10
-1.3464051402
 20
-23.8232661168
 30
0.0
 11
-1.5892119718
 21
-23.7125675431
 31
0.0
 11
-1.5289833699
 21
-23.7319081379
 31
0.0
 11
-1.4681926688
 21
-23.7566179747
 31
0.0
 11
-1.3464051402
 21
-23.8232661168
 31
0.0
  0
SPLINE
  5
462
100
AcDbEntity
  8
0
100
AcDbSpline
 62
7
  6
CONTINUOUS
 70
0
 71
3
 72
10
 73
6
 74
4
 42
0.0000001
 43
0.0000001
 44
0.0000000001
 12
0.2763115484
 22
-0.1381557742
 32
0.0
 13
0.0793323206
 23
-0.2985656924
 33
0.0
 40
0.0
 40
0.0
 40
0.0
 40
0.0
 40
0.2224105364
 40
0.6042534692
 40
1.0
 40
1.0
 40
1.0
 40
1.0
 10
-1.4127547486
 20
-24.5978364215
 30
0.0
 10
-1.392269882
 20
-24.6080788548
 30
0.0
 10
-1.3406643839
 20
-24.6445390687
 30
0.0
 10
-1.2796885211
 20
-24.729936443
 30
0.0
 10
-1.2503034131
 20
-24.805140938
 30
0.0
 10
-1.2398382495
 20
-24.8445263836
 30
0.0
 11
-1.4127547486
 21
-24.5978364215
 31
0.0
 11
-1.3562802609
 21
-24.6369703841
 31
0.0
 11
-1.2848838326
 21
-24.7308712375
 31
0.0
 11
-1.2398382495
 21
-24.8445263836
 31
0.0
  0
SPLINE
  5
463
100
AcDbEntity
  8
0
100
AcDbSpline
 62
7
  6
CONTINUOUS
 70
0
 71
3
 72
9
 73
5
 74
3
 42
0.0000001
 43
0.0000001
 44
0.0000000001
 12
0.1629167104
 22
-0.6125703128
 32
0.0
 13
0.1303220388
 23
-0.6203228263
 33
0.0
 40
0.0
 40
0.0
 40
0.0
 40
0.0
 40
0.5011449125
 40
1.0
 40
1.0
 40
1.0
 40
1.0
 10
-1.2398382495
 20
-24.8445263836
 30
0.0
 10
-1.2126232893
 20
-24.9468552156
 30
0.0
 10
-1.1706925927
 20
-25.1541192841
 30
0.0
 10
-1.1259815112
 20
-25.3605685713
 30
0.0
 10
-1.1043109072
 20
-25.4637189706
 30
0.0
 11
-1.2398382495
 21
-24.8445263836
 31
0.0
 11
-1.1698982956
 21
-25.1543892533
 31
0.0
 11
-1.1043109072
 21
-25.4637189706
 31
0.0
  0
SPLINE
  5
464
100
AcDbEntity
  8
0
100
AcDbSpline
 62
7
  6
CONTINUOUS
 70
0
 71
3
 72
9
 73
5
 74
3
 42
0.0000001
 43
0.0000001
 44
0.0000000001
 12
0.0372656503
 22
-0.012743675
 32
0.0
 13
0.0356941878
 23
0.0166449663
 33
0.0
 40
0.0
 40
0.0
 40
0.0
 40
0.0
 40
0.512352678
 40
1.0
 40
1.0
 40
1.0
 40
1.0
 10
-1.0907938029
 20
-24.6108718859
 30
0.0
 10
-1.0844294176
 20
-24.6130483046
 30
0.0
 10
-1.0706654829
 20
-24.614070631
 30
0.0
 10
-1.0582681564
 20
-24.6091662473
 30
0.0
 10
-1.0524660981
 20
-24.6064606229
 30
0.0
 11
-1.0907938029
 21
-24.6108718859
 31
0.0
 11
-1.0706841819
 21
-24.6125400953
 31
0.0
 11
-1.0524660981
 21
-24.6064606229
 31
0.0
  0
LINE
  5
465
100
AcDbEntity
  8
0
100
AcDbLine
 62
7
  6
CONTINUOUS
 10
-1.0524660981
 20
-24.6064606229
 11
-1.0477631844
 21
-24.6041795809
  0
SPLINE
  5
466
100
AcDbEntity
  8
RACCORDO
100
AcDbSpline
 62
7
  6
CONTINUOUS
 70
0
 71
3
 72
15
 73
11
 74
9
 42
0.0000001
 43
0.0000001
 44
0.0000000001
 12
-0.0000005386
 22
0.4335126915
 32
0.0
 13
0.387752098
 23
-0.1938596507
 33
0.0
 40
0.0
 40
0.0
 40
0.0
 40
0.0
 40
0.148318045
 40
0.2831791244
 40
0.4055265097
 40
0.5187913042
 40
0.6287511708
 40
0.7421810932
 40
0.8648057617
 40
1.0
 40
1.0
 40
1.0
 40
1.0
 10
-61.4008642043
 20
49.3212185869
 30
0.0
 10
-61.4008642309
 20
49.3426511718
 30
0.0
 10
-61.3970573838
 20
49.3836562294
 30
0.0
 10
-61.3811538237
 20
49.4404558891
 30
0.0
 10
-61.3548513233
 20
49.4877754587
 30
0.0
 10
-61.3188416071
 20
49.5234788856
 30
0.0
 10
-61.274463223
 20
49.5454409263
 30
0.0
 10
-61.2241729621
 20
49.5524494749
 30
0.0
 10
-61.1705093423
 20
49.5447380359
 30
0.0
 10
-61.1355385199
 20
49.5310093623
 30
0.0
 10
-61.11806457
 20
49.5222731263
 30
0.0
 11
-61.4008642043
 21
49.3212185869
 31
0.0
 11
-61.3948742874
 21
49.3852367263
 31
0.0
 11
-61.3784158752
 21
49.4413362694
 31
0.0
 11
-61.3520968355
 21
49.4873847111
 31
0.0
 11
-61.3169099638
 21
49.5216318065
 31
0.0
 11
-61.2741888811
 21
49.5427799137
 31
0.0
 11
-61.2255525402
 21
49.5500270414
 31
0.0
 11
-61.1728457966
 21
49.5431049263
 31
0.0
 11
-61.11806457
 21
49.5222731263
 31
0.0
  0
SPLINE
  5
467
100
AcDbEntity
  8
RACCORDO
100
AcDbSpline
 62
7
  6
CONTINUOUS
 70
0
 71
3
 72
12
 73
8
 74
6
 42
0.0000001
 43
0.0000001
 44
0.0000000001
 12
0.5224462411
 22
-0.2612221468
 32
0.0
 13
0.0000164681
 23
-0.5841122191
 33
0.0
 40
0.0
 40
0.0
 40
0.0
 40
0.0
 40
0.1109174733
 40
0.2309231378
 40
0.4893221374
 40
0.7537633776
 40
1.0
 40
1.0
 40
1.0
 40
1.0
 10
54.0855389351
 20
-8.0795286262
 30
0.0
 10
54.1048550741
 20
-8.0891866597
 30
0.0
 10
54.1427097897
 20
-8.1140182742
 30
0.0
 10
54.2140593191
 20
-8.1774897858
 30
0.0
 10
54.2892029655
 20
-8.2795204717
 30
0.0
 10
54.3487086515
 20
-8.4181179786
 30
0.0
 10
54.3651503797
 20
-8.5177491526
 30
0.0
 10
54.3651517314
 20
-8.5656924259
 30
0.0
 11
54.0855389351
 21
-8.0795286262
 31
0.0
 11
54.1402548983
 21
-8.114222731
 31
0.0
 11
54.1927790995
 21
-8.1606421897
 31
0.0
 11
54.2834498091
 21
-8.2813065952
 31
0.0
 11
54.3439309295
 21
-8.423436689
 31
0.0
 11
54.3651517314
 21
-8.5656924259
 31
0.0
  0
SPLINE
  5
468
100
AcDbEntity
  8
RACCORDO
100
AcDbSpline
 62
7
  6
CONTINUOUS
 70
0
 71
3
 72
9
 73
5
 74
3
 42
0.0000001
 43
0.0000001
 44
0.0000000001
 12
-0.1260316343
 22
-0.0657101216
 32
0.0
 13
-0.1032641788
 23
-0.0976642324
 33
0.0
 40
0.0
 40
0.0
 40
0.0
 40
0.0
 40
0.2371046482
 40
1.0
 40
1.0
 40
1.0
 40
1.0
 10
-57.5513692064
 20
7.2309986447
 30
0.0
 10
-57.5613301018
 20
7.2258052529
 30
0.0
 10
-57.6024448203
 20
7.202191764
 30
0.0
 10
-57.6398613096
 20
7.1724105844
 30
0.0
 10
-57.6661212303
 20
7.1475747215
 30
0.0
 11
-57.5513692064
 21
7.2309986447
 31
0.0
 11
-57.5806191742
 21
7.2142607779
 31
0.0
 11
-57.6661212303
 21
7.1475747215
 31
0.0
  0
SPLINE
  5
469
100
AcDbEntity
  8
RACCORDO
100
AcDbSpline
 62
7
  6
CONTINUOUS
 70
0
 71
3
 72
9
 73
5
 74
3
 42
0.0000001
 43
0.0000001
 44
0.0000000001
 12
-0.1370525478
 22
-0.0578461101
 32
0.0
 13
-0.1164649465
 23
-0.0925499301
 33
0.0
 40
0.0
 40
0.0
 40
0.0
 40
0.0
 40
0.2394545678
 40
1.0
 40
1.0
 40
1.0
 40
1.0
 10
-57.5580936869
 20
7.2353645534
 30
0.0
 10
-57.5690329731
 20
7.2307473816
 30
0.0
 10
-57.6139620818
 20
7.2096902553
 30
0.0
 10
-57.6556997074
 20
7.1820878156
 30
0.0
 10
-57.685225335
 20
7.1586250068
 30
0.0
 11
-57.5580936869
 21
7.2353645534
 31
0.0
 11
-57.5903669389
 21
7.2202876331
 31
0.0
 11
-57.685225335
 21
7.1586250068
 31
0.0
  0
SPLINE
  5
46A
100
AcDbEntity
  8
RACCORDO
100
AcDbSpline
 62
7
  6
CONTINUOUS
 70
0
 71
3
 72
9
 73
5
 74
3
 42
0.0000001
 43
0.0000001
 44
0.0000000001
 12
-0.0583436284
 22
-0.0361513483
 32
0.0
 13
-0.0621148069
 23
-0.0292001666
 33
0.0
 40
0.0
 40
0.0
 40
0.0
 40
0.0
 40
0.2435094819
 40
1.0
 40
1.0
 40
1.0
 40
1.0
 10
-57.7948586647
 20
7.5763626651
 30
0.0
 10
-57.799594407
 20
7.5734282663
 30
0.0
 10
-57.8192298994
 20
7.5616819357
 30
0.0
 10
-57.8395707083
 20
7.5511257711
 30
0.0
 10
-57.8552337958
 20
7.5437625547
 30
0.0
 11
-57.7948586647
 21
7.5763626651
 31
0.0
 11
-57.8091990872
 21
7.5677781537
 31
0.0
 11
-57.8552337958
 21
7.5437625547
 31
0.0
  0
SPLINE
  5
46B
100
AcDbEntity
  8
RACCORDO
100
AcDbSpline
 62
7
  6
CONTINUOUS
 70
0
 71
3
 72
9
 73
5
 74
3
 42
0.0000001
 43
0.0000001
 44
0.0000000001
 12
-0.0589857491
 22
-0.0284808423
 32
0.0
 13
-0.0618223297
 23
-0.0216443186
 33
0.0
 40
0.0
 40
0.0
 40
0.0
 40
0.0
 40
0.2421760493
 40
1.0
 40
1.0
 40
1.0
 40
1.0
 10
-57.7953503965
 20
7.5807529031
 30
0.0
 10
-57.8001120417
 20
7.5784537771
 30
0.0
 10
-57.8199212777
 20
7.5692665656
 30
0.0
 10
-57.8402745495
 20
7.5612673698
 30
0.0
 10
-57.8558913635
 20
7.5557998421
 30
0.0
 11
-57.7953503965
 21
7.5807529031
 31
0.0
 11
-57.809738594
 21
7.5740736082
 31
0.0
 11
-57.8558913635
 21
7.5557998421
 31
0.0
  0
SPLINE
  5
46C
100
AcDbEntity
  8
RACCORDO
100
AcDbSpline
 62
7
  6
CONTINUOUS
 70
0
 71
3
 72
15
 73
11
 74
9
 42
0.0000001
 43
0.0000001
 44
0.0000000001
 12
0.0000005433
 22
-0.4373931379
 32
0.0
 13
-0.3912229335
 23
0.1955949217
 33
0.0
 40
0.0
 40
0.0
 40
0.0
 40
0.0
 40
0.1487956607
 40
0.2840505564
 40
0.4066337084
 40
0.5199163178
 40
0.6296853472
 40
0.7427992355
 40
0.8650888082
 40
1.0
 40
1.0
 40
1.0
 40
1.0
 10
54.3651517315
 20
-52.8351717775
 30
0.0
 10
54.3651517584
 20
-52.8568658445
 30
0.0
 10
54.3620011354
 20
-52.8983993366
 30
0.0
 10
54.3463688146
 20
-52.9560182534
 30
0.0
 10
54.3203084069
 20
-53.0041168405
 30
0.0
 10
54.2843251179
 20
-53.0405145327
 30
0.0
 10
54.2397900284
 20
-53.06301822
 30
0.0
 10
54.1891959548
 20
-53.0703468908
 30
0.0
 10
54.1351575932
 20
-53.0627245842
 30
0.0
 10
54.099945548
 20
-53.0489253441
 30
0.0
 10
54.0823520972
 20
-53.0401293627
 30
0.0
 11
54.3651517315
 21
-52.8351717775
 31
0.0
 11
54.3597190498
 21
-52.9000268378
 31
0.0
 11
54.3436270167
 21
-52.9569557443
 31
0.0
 11
54.3174964295
 21
-53.0037743119
 31
0.0
 11
54.282326996
 21
-53.0386772904
 31
0.0
 11
54.2394710821
 21
-53.060323166
 31
0.0
 11
54.1905762576
 21
-53.0678793137
 31
0.0
 11
54.137523907
 21
-53.0610616481
 31
0.0
 11
54.0823520972
 21
-53.0401293627
 31
0.0
  0
SPLINE
  5
46D
100
AcDbEntity
  8
RACCORDO
100
AcDbSpline
 62
7
  6
CONTINUOUS
 70
0
 71
3
 72
11
 73
7
 74
5
 42
0.0000001
 43
0.0000001
 44
0.0000000001
 12
-0.0000148491
 22
-0.1443860475
 32
0.0
 13
0.1291428057
 23
-0.0645714076
 33
0.0
 40
0.0
 40
0.0
 40
0.0
 40
0.0
 40
0.206582017
 40
0.4344785876
 40
0.6975252505
 40
1.0
 40
1.0
 40
1.0
 40
1.0
 10
-61.4887321002
 20
5.15390221
 30
0.0
 10
-61.4887331228
 20
5.1439596897
 30
0.0
 10
-61.4843347895
 20
5.122889825
 30
0.0
 10
-61.4660066653
 20
5.0941355892
 30
0.0
 10
-61.4374238239
 20
5.0683207044
 30
0.0
 10
-61.4138850168
 20
5.0543465963
 30
0.0
 10
-61.4008642042
 20
5.0478361895
 30
0.0
 11
-61.4887321002
 21
5.15390221
 31
0.0
 11
-61.4829639842
 21
5.1246376882
 31
0.0
 11
-61.4658989187
 21
5.0965035777
 31
0.0
 11
-61.4381592535
 21
5.0705611078
 31
0.0
 11
-61.4008642042
 21
5.0478361895
 31
0.0
  0
SPLINE
  5
46E
100
AcDbEntity
  8
RACCORDO
100
AcDbSpline
 62
7
  6
CONTINUOUS
 70
0
 71
3
 72
11
 73
7
 74
5
 42
0.0000001
 43
0.0000001
 44
0.0000000001
 12
-0.0000143701
 22
-0.1443860401
 32
0.0
 13
0.1291428035
 23
-0.0645713953
 33
0.0
 40
0.0
 40
0.0
 40
0.0
 40
0.0
 40
0.2065819985
 40
0.434478562
 40
0.6975252468
 40
1.0
 40
1.0
 40
1.0
 40
1.0
 10
-61.4887321044
 20
49.4233815546
 30
0.0
 10
-61.4887330939
 20
49.4134390357
 30
0.0
 10
-61.4843347822
 20
49.3923691815
 30
0.0
 10
-61.4660066752
 20
49.3636149272
 30
0.0
 10
-61.4374238207
 20
49.337800059
 30
0.0
 10
-61.4138850168
 20
49.3238259475
 30
0.0
 10
-61.4008642043
 20
49.3173155419
 30
0.0
 11
-61.4887321044
 21
49.4233815546
 31
0.0
 11
-61.4829639738
 21
49.39411704
 31
0.0
 11
-61.4658989244
 21
49.3659829229
 31
0.0
 11
-61.438159253
 21
49.3400404578
 31
0.0
 11
-61.4008642043
 21
49.3173155419
 31
0.0
  0
SPLINE
  5
46F
100
AcDbEntity
  8
RACCORDO
100
AcDbSpline
 62
7
  6
CONTINUOUS
 70
0
 71
3
 72
11
 73
7
 74
5
 42
0.0000001
 43
0.0000001
 44
0.0000000001
 12
-0.1689815347
 22
0.0844616437
 32
0.0
 13
0.0000000046
 23
0.1889140766
 33
0.0
 40
0.0
 40
0.0
 40
0.0
 40
0.0
 40
0.2171654761
 40
0.450392866
 40
0.7103024545
 40
1.0
 40
1.0
 40
1.0
 40
1.0
 10
54.1603219303
 20
-53.2023877408
 30
0.0
 10
54.1480896119
 20
-53.1962736898
 30
0.0
 10
54.1249487115
 20
-53.1786635559
 30
0.0
 10
54.1001408329
 20
-53.1406273742
 30
0.0
 10
54.0853009201
 20
-53.0931119636
 30
0.0
 10
54.0823520968
 20
-53.0583720108
 30
0.0
 10
54.0823520972
 20
-53.0401293627
 30
0.0
 11
54.1603219303
 21
-53.2023877408
 31
0.0
 11
54.1274968235
 21
-53.1777785255
 31
0.0
 11
54.1028341928
 21
-53.1412678053
 31
0.0
 11
54.0875361271
 21
-53.0946112287
 31
0.0
 11
54.0823520972
 21
-53.0401293627
 31
0.0
  0
SPLINE
  5
470
100
AcDbEntity
  8
RACCORDO
100
AcDbSpline
 62
7
  6
CONTINUOUS
 70
0
 71
3
 72
12
 73
8
 74
6
 42
0.0000001
 43
0.0000001
 44
0.0000000001
 12
-0.5224462461
 22
0.2612221493
 32
0.0
 13
-0.0000164681
 23
0.5841122247
 33
0.0
 40
0.0
 40
0.0
 40
0.0
 40
0.0
 40
0.1109174726
 40
0.2309231367
 40
0.4893221362
 40
0.753763377
 40
1.0
 40
1.0
 40
1.0
 40
1.0
 10
-61.1212514029
 20
4.5616723872
 30
0.0
 10
-61.140567542
 20
4.5713304208
 30
0.0
 10
-61.1784222584
 20
4.5961620343
 30
0.0
 10
-61.2497717889
 20
4.6596335459
 30
0.0
 10
-61.3249154368
 20
4.7616642322
 30
0.0
 10
-61.3844211239
 20
4.9002617405
 30
0.0
 10
-61.4008628525
 20
4.9998929157
 30
0.0
 10
-61.4008642042
 20
5.0478361895
 30
0.0
 11
-61.1212514029
 21
4.5616723872
 31
0.0
 11
-61.1759673668
 21
4.5963664913
 31
0.0
 11
-61.2284915689
 21
4.6427859498
 31
0.0
 11
-61.3191622802
 21
4.7634503557
 31
0.0
 11
-61.3796434018
 21
4.9055804509
 31
0.0
 11
-61.4008642042
 21
5.0478361895
 31
0.0
  0
SPLINE
  5
471
100
AcDbEntity
  8
RACCORDO
100
AcDbSpline
 62
7
  6
CONTINUOUS
 70
0
 71
3
 72
11
 73
7
 74
5
 42
0.0000001
 43
0.0000001
 44
0.0000000001
 12
-0.1689813847
 22
0.0844619638
 32
0.0
 13
-0.0000000064
 23
0.1889140855
 33
0.0
 40
0.0
 40
0.0
 40
0.0
 40
0.0
 40
0.2171653099
 40
0.4503927527
 40
0.7103023951
 40
1.0
 40
1.0
 40
1.0
 40
1.0
 10
-61.0400947555
 20
4.3978205401
 30
0.0
 10
-61.0523270538
 20
4.4039346096
 30
0.0
 10
-61.0754678928
 20
4.4215447964
 30
0.0
 10
-61.1002758425
 20
4.4595809206
 30
0.0
 10
-61.1151157342
 20
4.5070963617
 30
0.0
 10
-61.1180645694
 20
4.5418363181
 30
0.0
 10
-61.11806457
 20
4.5600789708
 30
0.0
 11
-61.0400947555
 21
4.3978205401
 31
0.0
 11
-61.0729197975
 21
4.4224297928
 31
0.0
 11
-61.0975824647
 21
4.458940503
 31
0.0
 11
-61.112880534
 21
4.5055970915
 31
0.0
 11
-61.11806457
 21
4.5600789708
 31
0.0
  0
SPLINE
  5
472
100
AcDbEntity
  8
0
100
AcDbSpline
 62
7
  6
CONTINUOUS
 70
0
 71
3
 72
9
 73
5
 74
3
 42
0.0000001
 43
0.0000001
 44
0.0000000001
 12
-0.1087199623
 22
0.5446236221
 32
0.0
 13
-0.1090135263
 23
0.5445649374
 33
0.0
 40
0.0
 40
0.0
 40
0.0
 40
0.0
 40
0.4998343578
 40
1.0
 40
1.0
 40
1.0
 40
1.0
 10
-0.6647672546
 20
-25.5420694407
 30
0.0
 10
-0.6828812454
 20
-25.4513289079
 30
0.0
 10
-0.717282613
 20
-25.2694269638
 30
0.0
 10
-0.7525468157
 20
-25.0876921698
 30
0.0
 10
-0.7707217559
 20
-24.9969012793
 30
0.0
 11
-0.6647672546
 21
-25.5420694407
 31
0.0
 11
-0.7174867823
 21
-25.2695289849
 31
0.0
 11
-0.7707217559
 21
-24.9969012793
 31
0.0
  0
SPLINE
  5
473
100
AcDbEntity
  8
0
100
AcDbSpline
 62
7
  6
CONTINUOUS
 70
0
 71
3
 72
10
 73
6
 74
4
 42
0.0000001
 43
0.0000001
 44
0.0000000001
 12
-0.0793566707
 22
0.3964365251
 32
0.0
 13
-0.2185987309
 23
0.340108798
 33
0.0
 40
0.0
 40
0.0
 40
0.0
 40
0.0
 40
0.2354571265
 40
0.6163656031
 40
1.0
 40
1.0
 40
1.0
 40
1.0
 10
-0.7707217559
 20
-24.9969012793
 30
0.0
 10
-0.7769501204
 20
-24.9657866776
 30
0.0
 10
-0.7926479151
 20
-24.8841912261
 30
0.0
 10
-0.8279320884
 20
-24.7539902444
 30
0.0
 10
-0.870119858
 20
-24.6587676532
 30
0.0
 10
-0.8980738555
 20
-24.6152751754
 30
0.0
 11
-0.7707217559
 21
-24.9969012793
 31
0.0
 11
-0.7898264179
 21
-24.9036424429
 31
0.0
 11
-0.8316117138
 21
-24.7554178818
 31
0.0
 11
-0.8980738555
 21
-24.6152751754
 31
0.0
  0
SPLINE
  5
474
100
AcDbEntity
  8
0
100
AcDbSpline
 62
7
  6
CONTINUOUS
 70
0
 71
3
 72
9
 73
5
 74
3
 42
0.0000001
 43
0.0000001
 44
0.0000000001
 12
-0.0425120404
 22
0.0661427397
 32
0.0
 13
-0.0552298111
 23
0.0559625191
 33
0.0
 40
0.0
 40
0.0
 40
0.0
 40
0.0
 40
0.2563965136
 40
1.0
 40
1.0
 40
1.0
 40
1.0
 10
-0.8980738555
 20
-24.6152751754
 30
0.0
 10
-0.9017071684
 20
-24.6096222528
 30
0.0
 10
-0.916340469
 20
-24.5878832096
 30
0.0
 10
-0.9330093995
 20
-24.5674537126
 30
0.0
 10
-0.9466990929
 20
-24.5535824045
 30
0.0
 11
-0.8980738555
 21
-24.6152751754
 31
0.0
 11
-0.9093448436
 21
-24.5985607115
 31
0.0
 11
-0.9466990929
 21
-24.5535824045
 31
0.0
  0
SPLINE
  5
475
100
AcDbEntity
  8
0
100
AcDbSpline
 62
7
  6
CONTINUOUS
 70
0
 71
3
 72
11
 73
7
 74
5
 42
0.0000001
 43
0.0000001
 44
0.0000000001
 12
-0.6333494509
 22
0.5969143223
 32
0.0
 13
-0.8289470693
 23
0.2651131674
 33
0.0
 40
0.0
 40
0.0
 40
0.0
 40
0.0
 40
0.2725542141
 40
0.5262218346
 40
0.7671916502
 40
1.0
 40
1.0
 40
1.0
 40
1.0
 10
-0.9813280392
 20
-23.6056806882
 30
0.0
 10
-1.0388687265
 20
-23.5514501835
 30
0.0
 10
-1.1621071579
 20
-23.4595527186
 30
0.0
 10
-1.3573444472
 20
-23.3520122863
 30
0.0
 10
-1.5517115383
 20
-23.2690448965
 30
0.0
 10
-1.6818738054
 20
-23.2246710398
 30
0.0
 10
-1.7462024051
 20
-23.2040975202
 30
0.0
 11
-0.9813280392
 21
-23.6056806882
 31
0.0
 11
-1.1693943561
 21
-23.4611194022
 31
0.0
 11
-1.3622290168
 21
-23.3536304727
 31
0.0
 11
-1.5548164803
 21
-23.2706134874
 31
0.0
 11
-1.7462024051
 21
-23.2040975202
 31
0.0
  0
SPLINE
  5
476
100
AcDbEntity
  8
RACCORDO
100
AcDbSpline
 62
7
  6
CONTINUOUS
 70
0
 71
3
 72
15
 73
11
 74
9
 42
0.0000001
 43
0.0000001
 44
0.0000000001
 12
-0.0000013378
 22
-0.6465687866
 32
0.0
 13
-0.5782744689
 23
0.2892228111
 33
0.0
 40
0.0
 40
0.0
 40
0.0
 40
0.0
 40
0.1488327995
 40
0.2853445702
 40
0.409502329
 40
0.5236322356
 40
0.6329810521
 40
0.7448482043
 40
0.8659132721
 40
1.0
 40
1.0
 40
1.0
 40
1.0
 10
52.7127009189
 20
-49.7701138918
 30
0.0
 10
52.7127008525
 20
-49.8021907726
 30
0.0
 10
52.7085534046
 20
-49.8638279778
 30
0.0
 10
52.6877551404
 20
-49.9501204826
 30
0.0
 10
52.6523405351
 20
-50.0235791742
 30
0.0
 10
52.6022038835
 20
-50.0807734769
 30
0.0
 10
52.5383714775
 20
-50.1176020314
 30
0.0
 10
52.464436687
 20
-50.1309170527
 30
0.0
 10
52.3850146951
 20
-50.120727289
 30
0.0
 10
52.3333244576
 20
-50.1005513555
 30
0.0
 10
52.3074781472
 20
-50.0876243754
 30
0.0
 11
52.7127009189
 21
-49.7701138918
 31
0.0
 11
52.7055599151
 21
-49.8660792117
 31
0.0
 11
52.6840035188
 21
-49.9516706809
 31
0.0
 11
52.6481757782
 21
-50.0235086549
 31
0.0
 11
52.598825829
 21
-50.0783718032
 31
0.0
 11
52.5374639646
 21
-50.1134919993
 31
0.0
 11
52.4664024634
 21
-50.1269777061
 31
0.0
 11
52.3886259165
 21
-50.1181413663
 31
0.0
 11
52.3074781472
 21
-50.0876243754
 31
0.0
  0
SPLINE
  5
477
100
AcDbEntity
  8
RACCORDO
100
AcDbSpline
 62
7
  6
CONTINUOUS
 70
0
 71
3
 72
9
 73
5
 74
3
 42
0.0000001
 43
0.0000001
 44
0.0000000001
 12
0.1725638524
 22
-0.0862952081
 32
0.0
 13
0.1355517648
 23
-0.1372984528
 33
0.0
 40
0.0
 40
0.0
 40
0.0
 40
0.0
 40
0.2348004358
 40
1.0
 40
1.0
 40
1.0
 40
1.0
 10
52.3074781472
 20
-9.2555662445
 30
0.0
 10
52.3209841697
 20
-9.2623202954
 30
0.0
 10
52.3771009921
 20
-9.2938797335
 30
0.0
 10
52.4272738961
 20
-9.3354534929
 30
0.0
 10
52.4618486132
 20
-9.3704737316
 30
0.0
 11
52.3074781472
 21
-9.2555662445
 31
0.0
 11
52.3470089828
 21
-9.277692737
 31
0.0
 11
52.4618486132
 21
-9.3704737316
 31
0.0
  0
SPLINE
  5
478
100
AcDbEntity
  8
RACCORDO
100
AcDbSpline
 62
7
  6
CONTINUOUS
 70
0
 71
3
 72
11
 73
7
 74
5
 42
0.0000001
 43
0.0000001
 44
0.0000000001
 12
0.4722145227
 22
-0.4782993672
 32
0.0
 13
-0.0000048606
 23
-0.672128589
 33
0.0
 40
0.0
 40
0.0
 40
0.0
 40
0.0
 40
0.2506204241
 40
0.5100378095
 40
0.7636254469
 40
1.0
 40
1.0
 40
1.0
 40
1.0
 10
52.4618486132
 20
-9.3704737316
 30
0.0
 10
52.5012974812
 20
-9.4104309284
 30
0.0
 10
52.572409159
 20
-9.501101251
 30
0.0
 10
52.6511616275
 20
-9.6539923754
 30
0.0
 10
52.7004891305
 20
-9.8153833549
 30
0.0
 10
52.7127013019
 20
-9.9253414683
 30
0.0
 10
52.7127009189
 20
-9.9782994999
 30
0.0
 11
52.4618486132
 21
-9.3704737316
 31
0.0
 11
52.5667130061
 21
-9.5023015584
 31
0.0
 11
52.6468690445
 21
-9.6571468398
 31
0.0
 11
52.6962541531
 21
-9.8202789889
 31
0.0
 11
52.7127009189
 21
-9.9782994999
 31
0.0
  0
SPLINE
  5
479
100
AcDbEntity
  8
RACCORDO
100
AcDbSpline
 62
7
  6
CONTINUOUS
 70
0
 71
3
 72
15
 73
11
 74
9
 42
0.0000001
 43
0.0000001
 44
0.0000000001
 12
0.0000057919
 22
0.6465728865
 32
0.0
 13
0.5783296664
 23
-0.2891215911
 33
0.0
 40
0.0
 40
0.0
 40
0.0
 40
0.0
 40
0.1488305474
 40
0.2853412356
 40
0.4094979038
 40
0.5236286482
 40
0.6329768542
 40
0.7448422918
 40
0.8659082755
 40
1.0
 40
1.0
 40
1.0
 40
1.0
 10
-59.7484133917
 20
46.2522576554
 30
0.0
 10
-59.7484131044
 20
46.2843342542
 30
0.0
 10
-59.7442634397
 20
46.3459709083
 30
0.0
 10
-59.7234654829
 20
46.4322631772
 30
0.0
 10
-59.6880476884
 20
46.5057205564
 30
0.0
 10
-59.6379140742
 20
46.5629165499
 30
0.0
 10
-59.5740862274
 20
46.5997538398
 30
0.0
 10
-59.5001511416
 20
46.613070685
 30
0.0
 10
-59.4207262994
 20
46.6028800275
 30
0.0
 10
-59.3690403607
 20
46.5826910766
 30
0.0
 10
-59.34319062
 20
46.569768139
 30
0.0
 11
-59.7484133917
 21
46.2522576554
 31
0.0
 11
-59.7412705536
 21
46.3482219905
 31
0.0
 11
-59.7197132401
 21
46.4338130841
 31
0.0
 11
-59.6838841924
 21
46.505650187
 31
0.0
 11
-59.634536069
 21
46.5605163356
 31
0.0
 11
-59.5731776892
 21
46.5956427271
 31
0.0
 11
-59.5021173128
 21
46.6091308744
 31
0.0
 11
-59.4243400078
 21
46.6002915657
 31
0.0
 11
-59.34319062
 21
46.569768139
 31
0.0
  0
SPLINE
  5
47A
100
AcDbEntity
  8
RACCORDO
100
AcDbSpline
 62
7
  6
CONTINUOUS
 70
0
 71
3
 72
11
 73
7
 74
5
 42
0.0000001
 43
0.0000001
 44
0.0000000001
 12
-0.7724931025
 22
0.3863943157
 32
0.0
 13
-0.000007735
 23
0.8637396371
 33
0.0
 40
0.0
 40
0.0
 40
0.0
 40
0.0
 40
0.2302539165
 40
0.4899319159
 40
0.7543177587
 40
1.0
 40
1.0
 40
1.0
 40
1.0
 10
-59.34319062
 20
5.7377100081
 30
0.0
 10
-59.4024804741
 20
5.7673662763
 30
0.0
 10
-59.5156103263
 20
5.8568112367
 30
0.0
 10
-59.6430918952
 20
6.0351927579
 30
0.0
 10
-59.7267573015
 20
6.2425127624
 30
0.0
 10
-59.7484127583
 20
6.3897081002
 30
0.0
 10
-59.7484133917
 20
6.4604432635
 30
0.0
 11
-59.34319062
 21
5.7377100081
 31
0.0
 11
-59.5021169214
 21
5.8572736318
 31
0.0
 11
-59.6345359791
 21
6.0383069789
 31
0.0
 11
-59.7197132095
 21
6.2501875394
 31
0.0
 11
-59.7484133917
 21
6.4604432635
 31
0.0
  0
SPLINE
  5
47B
100
AcDbEntity
  8
RACCORDO
100
AcDbSpline
 62
7
  6
CONTINUOUS
 70
0
 71
3
 72
11
 73
7
 74
5
 42
0.0000001
 43
0.0000001
 44
0.0000000001
 12
-0.1291421879
 22
0.0645710939
 32
0.0
 13
-0.0000855061
 23
0.1443853301
 33
0.0
 40
0.0
 40
0.0
 40
0.0
 40
0.0
 40
0.3024155031
 40
0.5655309297
 40
0.7934236663
 40
1.0
 40
1.0
 40
1.0
 40
1.0
 10
52.7127009189
 20
-9.9782994999
 30
0.0
 10
52.699682719
 20
-9.9717904
 30
0.0
 10
52.6761457908
 20
-9.957812339
 30
0.0
 10
52.6475599878
 20
-9.9320032815
 30
0.0
 10
52.6292233719
 20
-9.9032462383
 30
0.0
 10
52.6248429322
 20
-9.8821756795
 30
0.0
 10
52.6248370444
 20
-9.8722334821
 30
0.0
 11
52.7127009189
 21
-9.9782994999
 31
0.0
 11
52.675414265
 21
-9.9555776461
 31
0.0
 11
52.6476646215
 21
-9.9296315774
 31
0.0
 11
52.6305999789
 21
-9.9014980426
 31
0.0
 11
52.6248370444
 21
-9.8722334821
 31
0.0
  0
SPLINE
  5
47C
100
AcDbEntity
  8
RACCORDO
100
AcDbSpline
 62
7
  6
CONTINUOUS
 70
0
 71
3
 72
11
 73
7
 74
5
 42
0.0000001
 43
0.0000001
 44
0.0000000001
 12
0.0000001773
 22
-0.1889139979
 32
0.0
 13
0.1689716344
 23
-0.0844812721
 33
0.0
 40
0.0
 40
0.0
 40
0.0
 40
0.0
 40
0.2895956949
 40
0.5496519097
 40
0.7828349621
 40
1.0
 40
1.0
 40
1.0
 40
1.0
 10
52.3074781472
 20
-9.2555662445
 30
0.0
 10
52.3074781643
 20
-9.2738024714
 30
0.0
 10
52.3104359358
 20
-9.308543962
 30
0.0
 10
52.3252670519
 20
-9.3560615827
 30
0.0
 10
52.3500755845
 20
-9.3941057483
 30
0.0
 10
52.373214089
 20
-9.4117139591
 30
0.0
 10
52.3854456661
 20
-9.4178294187
 30
0.0
 11
52.3074781472
 21
-9.2555662445
 31
0.0
 11
52.3126645162
 21
-9.310028537
 31
0.0
 11
52.327966726
 21
-9.3567128837
 31
0.0
 11
52.3526220077
 21
-9.393218438
 31
0.0
 11
52.3854456661
 21
-9.4178294187
 31
0.0
  0
SPLINE
  5
47D
100
AcDbEntity
  8
RACCORDO
100
AcDbSpline
 62
7
  6
CONTINUOUS
 70
0
 71
3
 72
11
 73
7
 74
5
 42
0.0000001
 43
0.0000001
 44
0.0000000001
 12
-0.0
 22
-0.1889072127
 32
0.0
 13
0.1689603998
 23
-0.0844885691
 33
0.0
 40
0.0
 40
0.0
 40
0.0
 40
0.0
 40
0.2895944377
 40
0.5496508871
 40
0.7828349153
 40
1.0
 40
1.0
 40
1.0
 40
1.0
 10
-59.34319062
 20
46.569768139
 30
0.0
 10
-59.34319062
 20
46.5515326463
 30
0.0
 10
-59.3402331
 20
46.5167924781
 30
0.0
 10
-59.3254032267
 20
46.4692764007
 30
0.0
 10
-59.3005967762
 20
46.4312328355
 30
0.0
 10
-59.2774600447
 20
46.4136240426
 30
0.0
 10
-59.2652292782
 20
46.4075080535
 30
0.0
 11
-59.34319062
 21
46.569768139
 31
0.0
 11
-59.3380047287
 21
46.5153080135
 31
0.0
 11
-59.3227038034
 21
46.468625056
 31
0.0
 11
-59.2980504845
 21
46.4321198629
 31
0.0
 11
-59.2652292782
 21
46.4075080535
 31
0.0
  0
SPLINE
  5
47E
100
AcDbEntity
  8
RACCORDO
100
AcDbSpline
 62
7
  6
CONTINUOUS
 70
0
 71
3
 72
11
 73
7
 74
5
 42
0.0000001
 43
0.0000001
 44
0.0000000001
 12
0.3513444201
 22
-0.1756719836
 32
0.0
 13
0.3707496947
 23
0.1298006597
 33
0.0
 40
0.0
 40
0.0
 40
0.0
 40
0.0
 40
0.2302219959
 40
0.4886887336
 40
0.7531431025
 40
1.0
 40
1.0
 40
1.0
 40
1.0
 10
-59.7484133917
 20
46.2522576554
 30
0.0
 10
-59.7214509872
 20
46.2387764705
 30
0.0
 10
-59.6600259764
 20
46.2185114958
 30
0.0
 10
-59.5617668245
 20
46.2059742374
 30
0.0
 10
-59.4606102113
 20
46.2101819328
 30
0.0
 10
-59.3947157996
 20
46.2247701365
 30
0.0
 10
-59.3642084265
 20
46.2354508659
 30
0.0
 11
-59.7484133917
 21
46.2522576554
 31
0.0
 11
-59.6630586051
 21
46.2223748368
 31
0.0
 11
-59.5624273193
 21
46.2088988877
 31
0.0
 11
-59.4586446944
 21
46.2134328857
 31
0.0
 11
-59.3642084265
 21
46.2354508659
 31
0.0
  0
SPLINE
  5
47F
100
AcDbEntity
  8
0
100
AcDbSpline
 62
7
  6
CONTINUOUS
 70
0
 71
3
 72
18
 73
14
 74
12
 42
0.0000001
 43
0.0000001
 44
0.0000000001
 12
0.9412016311
 22
0.4705978316
 32
0.0
 13
-0.7660302455
 23
0.7214710615
 33
0.0
 40
0.0
 40
0.0
 40
0.0
 40
0.0
 40
0.0457943295
 40
0.0910579491
 40
0.1389648723
 40
0.1905315758
 40
0.3034454283
 40
0.4295778593
 40
0.5663524583
 40
0.7114676476
 40
0.8584343819
 40
0.9305901693
 40
1.0
 40
1.0
 40
1.0
 40
1.0
 10
-1.0477631844
 20
-24.6041795809
 30
0.0
 10
-1.0333959519
 20
-24.5969960102
 30
0.0
 10
-1.0053075514
 20
-24.5816194668
 30
0.0
 10
-0.9669785708
 20
-24.5508490903
 30
0.0
 10
-0.9361166107
 20
-24.5099784239
 30
0.0
 10
-0.9028584391
 20
-24.44296317
 30
0.0
 10
-0.880110946
 20
-24.3421927466
 30
0.0
 10
-0.8790524404
 20
-24.2097931397
 30
0.0
 10
-0.9009797825
 20
-24.0676451538
 30
0.0
 10
-0.9504928843
 20
-23.9247743336
 30
0.0
 10
-1.0122639027
 20
-23.8121788627
 30
0.0
 10
-1.0718782424
 20
-23.7303034206
 30
0.0
 10
-1.1050260522
 20
-23.6930837611
 30
0.0
 10
-1.1227493954
 20
-23.6763913663
 30
0.0
 11
-1.0477631844
 21
-24.6041795809
 31
0.0
 11
-1.0058957838
 21
-24.5803193567
 31
0.0
 11
-0.9690839842
 21
-24.5500940498
 31
0.0
 11
-0.9382036816
 21
-24.5102469174
 31
0.0
 11
-0.9137310576
 21
-24.4618155186
 31
0.0
 11
-0.8851701553
 21
-24.3464806607
 31
0.0
 11
-0.8825048734
 21
-24.2137790135
 31
0.0
 11
-0.9046270806
 21
-24.0715622132
 31
0.0
 11
-0.9541822002
 21
-23.9271227542
 31
0.0
 11
-1.0286004383
 21
-23.7915527119
 31
0.0
 11
-1.0734584205
 21
-23.7302910531
 31
0.0
 11
-1.1227493954
 21
-23.6763913663
 31
0.0
  0
SPLINE
  5
480
100
AcDbEntity
  8
RACCORDO
100
AcDbSpline
 62
7
  6
CONTINUOUS
 70
0
 71
3
 72
11
 73
7
 74
5
 42
0.0000001
 43
0.0000001
 44
0.0000000001
 12
0.3513443496
 22
-0.1756721748
 32
0.0
 13
0.3707496516
 23
0.1298008504
 33
0.0
 40
0.0
 40
0.0
 40
0.0
 40
0.0
 40
0.2302220207
 40
0.4886887503
 40
0.7531431026
 40
1.0
 40
1.0
 40
1.0
 40
1.0
 10
-59.7484133917
 20
6.4604432635
 30
0.0
 10
-59.7214509897
 20
6.4469620625
 30
0.0
 10
-59.6600259793
 20
6.4266970628
 30
0.0
 10
-59.5617668218
 20
6.4141597924
 30
0.0
 10
-59.4606102054
 20
6.418367501
 30
0.0
 10
-59.394715796
 20
6.432955729
 30
0.0
 10
-59.3642084265
 20
6.4436364741
 30
0.0
 11
-59.7484133917
 21
6.4604432635
 31
0.0
 11
-59.6630586022
 21
6.430560408
 31
0.0
 11
-59.5624273154
 21
6.4170844469
 31
0.0
 11
-59.4586446917
 21
6.4216184581
 31
0.0
 11
-59.3642084265
 21
6.4436364741
 31
0.0
  0
SPLINE
  5
481
100
AcDbEntity
  8
RACCORDO
100
AcDbSpline
 62
7
  6
CONTINUOUS
 70
0
 71
3
 72
9
 73
5
 74
3
 42
0.0000001
 43
0.0000001
 44
0.0000000001
 12
-0.0000003285
 22
0.3499495217
 32
0.0
 13
0.2542497459
 23
0.240461503
 33
0.0
 40
0.0
 40
0.0
 40
0.0
 40
0.0
 40
0.4929880511
 40
1.0
 40
1.0
 40
1.0
 40
1.0
 10
-59.34319062
 20
5.7377100081
 30
0.0
 10
-59.3431906739
 20
5.7952169857
 30
0.0
 10
-59.3134169481
 20
5.9117422902
 30
0.0
 10
-59.2465812341
 20
6.0109996636
 30
0.0
 10
-59.2036120144
 20
6.0516386153
 30
0.0
 11
-59.34319062
 21
5.7377100081
 31
0.0
 11
-59.3048270493
 21
5.9059114013
 31
0.0
 11
-59.2036120144
 21
6.0516386153
 31
0.0
  0
SPLINE
  5
482
100
AcDbEntity
  8
RACCORDO
100
AcDbSpline
 62
7
  6
CONTINUOUS
 70
0
 71
3
 72
9
 73
5
 74
3
 42
0.0000001
 43
0.0000001
 44
0.0000000001
 12
0.0
 22
0.3499494896
 32
0.0
 13
0.2542494972
 23
0.2404617193
 33
0.0
 40
0.0
 40
0.0
 40
0.0
 40
0.0
 40
0.4929880284
 40
1.0
 40
1.0
 40
1.0
 40
1.0
 10
52.3074781472
 20
-50.0876243754
 30
0.0
 10
52.3074781472
 20
-50.0301174058
 30
0.0
 10
52.3372519243
 20
-49.9135921434
 30
0.0
 10
52.4040875731
 20
-49.8143347584
 30
0.0
 10
52.4470567527
 20
-49.7736957682
 30
0.0
 11
52.3074781472
 21
-50.0876243754
 31
0.0
 11
52.3458417919
 21
-49.9194230236
 31
0.0
 11
52.4470567527
 21
-49.7736957682
 31
0.0
  0
SPLINE
  5
483
100
AcDbEntity
  8
RACCORDO
100
AcDbSpline
 62
7
  6
CONTINUOUS
 70
0
 71
3
 72
11
 73
7
 74
5
 42
0.0000001
 43
0.0000001
 44
0.0000000001
 12
-0.1290908108
 22
0.0645453496
 32
0.0
 13
-0.00019756
 23
0.144327754
 33
0.0
 40
0.0
 40
0.0
 40
0.0
 40
0.0
 40
0.3023961853
 40
0.5655155062
 40
0.7934233996
 40
1.0
 40
1.0
 40
1.0
 40
1.0
 10
52.7127009189
 20
-49.7701138918
 30
0.0
 10
52.6996887293
 20
-49.7636078026
 30
0.0
 10
52.6761615142
 20
-49.7496365091
 30
0.0
 10
52.6475834891
 20
-49.7238423967
 30
0.0
 10
52.6292436207
 20
-49.6951035499
 30
0.0
 10
52.6248507052
 20
-49.6740444319
 30
0.0
 10
52.6248371015
 20
-49.6641061863
 30
0.0
 11
52.7127009189
 21
-49.7701138918
 31
0.0
 11
52.6754304831
 21
-49.7474041784
 31
0.0
 11
52.6476869256
 21
-49.7214729176
 31
0.0
 11
52.6306170218
 21
-49.6933553353
 31
0.0
 11
52.6248371015
 21
-49.6641061863
 31
0.0
  0
SPLINE
  5
484
100
AcDbEntity
  8
RACCORDO
100
AcDbSpline
 62
7
  6
CONTINUOUS
 70
0
 71
3
 72
11
 73
7
 74
5
 42
0.0000001
 43
0.0000001
 44
0.0000000001
 12
-0.1169025421
 22
-0.1465739986
 32
0.0
 13
-0.1499488772
 23
0.1125409954
 33
0.0
 40
0.0
 40
0.0
 40
0.0
 40
0.0
 40
0.266332925
 40
0.5065046488
 40
0.7425896315
 40
1.0
 40
1.0
 40
1.0
 40
1.0
 10
52.6123227589
 20
-49.7487742225
 30
0.0
 10
52.6019444269
 20
-49.7617867164
 30
0.0
 10
52.5790274613
 20
-49.784463296
 30
0.0
 10
52.5348133079
 20
-49.8030452285
 30
0.0
 10
52.4874707451
 20
-49.79882669
 30
0.0
 10
52.4599291427
 20
-49.7833561517
 30
0.0
 10
52.4470630107
 20
-49.7736997454
 30
0.0
 11
52.6123227589
 21
-49.7487742225
 31
0.0
 11
52.575841828
 21
-49.7828690116
 31
0.0
 11
52.5339658314
 21
-49.7994203688
 31
0.0
 11
52.4898316296
 21
-49.796058123
 31
0.0
 11
52.4470630107
 21
-49.7736997454
 31
0.0
  0
SPLINE
  5
485
100
AcDbEntity
  8
RACCORDO
100
AcDbSpline
 62
7
  6
CONTINUOUS
 70
0
 71
3
 72
13
 73
9
 74
7
 42
0.0000001
 43
0.0000001
 44
0.0000000001
 12
-0.0675117516
 22
0.2266720263
 32
0.0
 13
0.2364132799
 23
-0.0068414324
 33
0.0
 40
0.0
 40
0.0
 40
0.0
 40
0.0
 40
0.2946322964
 40
0.424786959
 40
0.5434979225
 40
0.6533859179
 40
0.7606377002
 40
1.0
 40
1.0
 40
1.0
 40
1.0
 10
-59.3642083822
 20
46.2354506979
 30
0.0
 10
-59.370838763
 20
46.2577123311
 30
0.0
 10
-59.3778506938
 20
46.2909088837
 30
0.0
 10
-59.3770580556
 20
46.3339351342
 30
0.0
 10
-59.370935594
 20
46.3618029353
 30
0.0
 10
-59.358412995
 20
46.3856011165
 30
0.0
 10
-59.3314377955
 20
46.4105702777
 30
0.0
 10
-59.3022448041
 20
46.415880666
 30
0.0
 10
-59.2833819954
 20
46.4153348056
 30
0.0
 11
-59.3642083822
 21
46.2354506979
 31
0.0
 11
-59.3768943731
 21
46.3039703739
 31
0.0
 11
-59.3759789651
 21
46.334739932
 31
0.0
 11
-59.3695385153
 21
46.3620678647
 31
0.0
 11
-59.3571021086
 21
46.3848890928
 31
0.0
 11
-59.3384102942
 21
46.4020375129
 31
0.0
 11
-59.2833819954
 21
46.4153348056
 31
0.0
  0
SPLINE
  5
486
100
AcDbEntity
  8
RACCORDO
100
AcDbSpline
 62
7
  6
CONTINUOUS
 70
0
 71
3
 72
12
 73
8
 74
6
 42
0.0000001
 43
0.0000001
 44
0.0000000001
 12
-0.4414968037
 22
0.1386983562
 32
0.0
 13
0.1107334681
 23
0.4493270087
 33
0.0
 40
0.0
 40
0.0
 40
0.0
 40
0.0
 40
0.113078801
 40
0.232712881
 40
0.4870650352
 40
0.7477061619
 40
1.0
 40
1.0
 40
1.0
 40
1.0
 10
-59.2036026226
 20
6.0516349883
 30
0.0
 10
-59.2202439323
 20
6.0568629362
 30
0.0
 10
-59.2532300553
 20
6.0721542606
 30
0.0
 10
-59.3118793019
 20
6.1202246069
 30
0.0
 10
-59.3626728886
 20
6.2077301283
 30
0.0
 10
-59.3826107903
 20
6.3261728531
 30
0.0
 10
-59.3735208355
 20
6.4058492119
 30
0.0
 10
-59.3642083783
 20
6.4436366905
 30
0.0
 11
-59.2036026226
 21
6.0516349883
 31
0.0
 11
-59.2511287232
 21
6.0735359341
 31
0.0
 11
-59.294112214
 21
6.1084285797
 31
0.0
 11
-59.3553793704
 21
6.2089333294
 31
0.0
 11
-59.3770391614
 21
6.3275896761
 31
0.0
 11
-59.3642083783
 21
6.4436366905
 31
0.0
  0
SPLINE
  5
487
100
AcDbEntity
  8
RACCORDO
100
AcDbSpline
 62
7
  6
CONTINUOUS
 70
0
 71
3
 72
11
 73
7
 74
5
 42
0.0000001
 43
0.0000001
 44
0.0000000001
 12
-0.0842362518
 22
-0.4358691639
 32
0.0
 13
0.3928157731
 23
-0.2068174137
 33
0.0
 40
0.0
 40
0.0
 40
0.0
 40
0.0
 40
0.2513544174
 40
0.4490547317
 40
0.6471863127
 40
1.0
 40
1.0
 40
1.0
 40
1.0
 10
-57.8552335
 20
7.5437623436
 30
0.0
 10
-57.862291218
 20
7.5072431304
 30
0.0
 10
-57.8621262168
 20
7.4393516441
 30
0.0
 10
-57.8386230131
 20
7.3458863673
 30
0.0
 10
-57.7905974269
 20
7.2458527511
 30
0.0
 10
-57.7314297665
 20
7.1829528627
 30
0.0
 10
-57.6852328394
 20
7.1586301912
 30
0.0
 11
-57.8552335
 21
7.5437623436
 31
0.0
 11
-57.8570487798
 21
7.4321922596
 31
0.0
 11
-57.8358902789
 21
7.347014913
 31
0.0
 11
-57.7974391125
 21
7.2679073071
 31
0.0
 11
-57.6852328394
 21
7.1586301912
 31
0.0
  0
SPLINE
  5
488
100
AcDbEntity
  8
RACCORDO
100
AcDbSpline
 62
7
  6
CONTINUOUS
 70
0
 71
3
 72
12
 73
8
 74
6
 42
0.0000001
 43
0.0000001
 44
0.0000000001
 12
0.1085217934
 22
-0.4044988907
 32
0.0
 13
0.3126371469
 23
-0.278665295
 33
0.0
 40
0.0
 40
0.0
 40
0.0
 40
0.0
 40
0.112199262
 40
0.2350803641
 40
0.504055377
 40
0.7738487069
 40
1.0
 40
1.0
 40
1.0
 40
1.0
 10
-57.7948583019
 20
7.5763624852
 30
0.0
 10
-57.7907996135
 20
7.5612343262
 30
0.0
 10
-57.7788433975
 20
7.5304931336
 30
0.0
 10
-57.7466124035
 20
7.4679079208
 30
0.0
 10
-57.69597717
 20
7.3903546813
 30
0.0
 10
-57.629608331
 20
7.3066018121
 30
0.0
 10
-57.5816614544
 20
7.2563712229
 30
0.0
 10
-57.5580936894
 20
7.235364384
 30
0.0
 11
-57.7948583019
 21
7.5763624852
 31
0.0
 11
-57.7786860631
 21
7.5322437136
 31
0.0
 11
-57.7554691724
 21
7.4863152972
 31
0.0
 11
-57.6946651408
 21
7.3914872107
 31
0.0
 11
-57.6243669219
 21
7.30302826
 31
0.0
 11
-57.5580936894
 21
7.235364384
 31
0.0
  0
SPLINE
  5
489
100
AcDbEntity
  8
RACCORDO
100
AcDbSpline
 62
7
  6
CONTINUOUS
 70
0
 71
3
 72
8
 73
4
 74
2
 42
0.0000001
 43
0.0000001
 44
0.0000000001
 12
0.0059833565
 22
-0.0053364591
 32
0.0
 13
0.0072501749
 23
-0.0034224719
 33
0.0
 40
0.0
 40
0.0
 40
0.0
 40
0.0
 40
1.0
 40
1.0
 40
1.0
 40
1.0
 10
-57.5580936894
 20
7.235364384
 30
0.0
 10
-57.5560992372
 20
7.2335855642
 30
0.0
 10
-57.5537859314
 20
7.2321394686
 30
0.0
 10
-57.5513692064
 20
7.2309986447
 30
0.0
 11
-57.5580936894
 21
7.235364384
 31
0.0
 11
-57.5513692064
 21
7.2309986447
 31
0.0
  0
SPLINE
  5
48A
100
AcDbEntity
  8
RACCORDO
100
AcDbSpline
 62
7
  6
CONTINUOUS
 70
0
 71
3
 72
8
 73
4
 74
2
 42
0.0000001
 43
0.0000001
 44
0.0000000001
 12
-0.0001031592
 22
-0.0044167052
 32
0.0
 13
0.0011298774
 23
-0.0042709839
 33
0.0
 40
0.0
 40
0.0
 40
0.0
 40
0.0
 40
1.0
 40
1.0
 40
1.0
 40
1.0
 10
-57.7953503965
 20
7.5807529031
 30
0.0
 10
-57.7953847829
 20
7.579280668
 30
0.0
 10
-57.7952349277
 20
7.5777861465
 30
0.0
 10
-57.7948583019
 20
7.5763624852
 30
0.0
 11
-57.7953503965
 21
7.5807529031
 31
0.0
 11
-57.7948583019
 21
7.5763624852
 31
0.0
  0
SPLINE
  5
48B
100
AcDbEntity
  8
RACCORDO
100
AcDbSpline
 62
7
  6
CONTINUOUS
 70
0
 71
3
 72
11
 73
7
 74
5
 42
0.0000001
 43
0.0000001
 44
0.0000000001
 12
-0.0064027649
 22
1.0264962597
 32
0.0
 13
-0.9153126615
 23
0.4646916164
 33
0.0
 40
0.0
 40
0.0
 40
0.0
 40
0.0
 40
0.246670931
 40
0.5119111179
 40
0.7706382137
 40
1.0
 40
1.0
 40
1.0
 40
1.0
 10
54.7856812769
 20
-8.5675273788
 30
0.0
 10
54.7851548182
 20
-8.4831251161
 30
0.0
 10
54.7551428784
 20
-8.3078662979
 30
0.0
 10
54.6491944381
 20
-8.0640359393
 30
0.0
 10
54.4944512747
 20
-7.8551887847
 30
0.0
 10
54.3607611661
 20
-7.7494797459
 30
0.0
 10
54.2907819171
 20
-7.7139522462
 30
0.0
 11
54.7856812769
 21
-8.5675273788
 31
0.0
 11
54.746858813
 21
-8.3173094973
 31
0.0
 11
54.6391780062
 21
-8.0672342599
 31
0.0
 11
54.4790257215
 21
-7.8553663788
 31
0.0
 11
54.2907819171
 21
-7.7139522462
 31
0.0
  0
SPLINE
  5
48C
100
AcDbEntity
  8
RACCORDO
100
AcDbSpline
 62
7
  6
CONTINUOUS
 70
0
 71
3
 72
11
 73
7
 74
5
 42
0.0000001
 43
0.0000001
 44
0.0000000001
 12
-0.299681524
 22
0.1475650771
 32
0.0
 13
-0.2939897456
 23
-0.1586016938
 33
0.0
 40
0.0
 40
0.0
 40
0.0
 40
0.0
 40
0.2798231701
 40
0.5359571054
 40
0.7731397735
 40
1.0
 40
1.0
 40
1.0
 40
1.0
 10
-60.9096347502
 20
49.8862560875
 30
0.0
 10
-60.9375873615
 20
49.90002013
 30
0.0
 10
-60.9934476384
 20
49.9221144428
 30
0.0
 10
-61.0789301898
 20
49.9370992915
 30
0.0
 10
-61.159808204
 20
49.931507072
 30
0.0
 10
-61.2091553635
 20
49.9135688007
 30
0.0
 10
-61.2313868902
 20
49.9015753286
 30
0.0
 11
-60.9096347502
 21
49.8862560875
 31
0.0
 11
-60.9968429283
 21
49.9198999548
 31
0.0
 11
-61.0812566149
 21
49.9338564255
 31
0.0
 11
-61.1602447741
 21
49.9276819697
 31
0.0
 11
-61.2313868902
 21
49.9015753286
 31
0.0
  0
SPLINE
  5
48D
100
AcDbEntity
  8
RACCORDO
100
AcDbSpline
 62
7
  6
CONTINUOUS
 70
0
 71
3
 72
11
 73
7
 74
5
 42
0.0000001
 43
0.0000001
 44
0.0000000001
 12
-0.3862036914
 22
-0.2022094737
 32
0.0
 13
0.0000000146
 23
-0.435938026
 33
0.0
 40
0.0
 40
0.0
 40
0.0
 40
0.0
 40
0.2308407492
 40
0.4894506686
 40
0.7538191199
 40
1.0
 40
1.0
 40
1.0
 40
1.0
 10
54.2904002815
 20
-7.7141516432
 30
0.0
 10
54.2606830984
 20
-7.7297110386
 30
0.0
 10
54.2041149308
 20
-7.7751054864
 30
0.0
 10
54.138839443
 20
-7.8642220272
 30
0.0
 10
54.0945486684
 20
-7.9678451795
 30
0.0
 10
54.082352096
 20
-8.0421620049
 30
0.0
 10
54.0823520972
 20
-8.0779352072
 30
0.0
 11
54.2904002815
 21
-7.7141516432
 31
0.0
 11
54.2104796495
 21
-7.7753034577
 31
0.0
 11
54.1430478835
 21
-7.8656516206
 31
0.0
 11
54.0981138763
 21
-7.9717793579
 31
0.0
 11
54.0823520972
 21
-8.0779352072
 31
0.0
  0
SPLINE
  5
48E
100
AcDbEntity
  8
RACCORDO
100
AcDbSpline
 62
7
  6
CONTINUOUS
 70
0
 71
3
 72
11
 73
7
 74
5
 42
0.0000001
 43
0.0000001
 44
0.0000000001
 12
-0.3869302045
 22
-0.2017369093
 32
0.0
 13
-0.0000000106
 23
-0.43636311
 33
0.0
 40
0.0
 40
0.0
 40
0.0
 40
0.0
 40
0.2307390512
 40
0.4893391875
 40
0.7537623063
 40
1.0
 40
1.0
 40
1.0
 40
1.0
 10
-60.9096347499
 20
49.8862560873
 30
0.0
 10
-60.9393947193
 20
49.870739893
 30
0.0
 10
-60.9960627333
 20
49.8253721058
 30
0.0
 10
-61.0614568582
 20
49.7362167343
 30
0.0
 10
-61.1058394117
 20
49.6324950131
 30
0.0
 10
-61.1180645692
 20
49.5580894749
 30
0.0
 10
-61.11806457
 20
49.5222731263
 30
0.0
 11
-60.9096347499
 21
49.8862560873
 31
0.0
 11
-60.9896758043
 21
49.8251733384
 31
0.0
 11
-61.0572358037
 21
49.7347890729
 31
0.0
 11
-61.1022668679
 21
49.6285544984
 31
0.0
 11
-61.11806457
 21
49.5222731263
 31
0.0
  0
SPLINE
  5
48F
100
AcDbEntity
  8
RACCORDO
100
AcDbSpline
 62
7
  6
CONTINUOUS
 70
0
 71
3
 72
11
 73
7
 74
5
 42
0.0000001
 43
0.0000001
 44
0.0000000001
 12
0.4079950368
 22
0.1888863769
 32
0.0
 13
0.0027810966
 23
0.4495890112
 33
0.0
 40
0.0
 40
0.0
 40
0.0
 40
0.0
 40
0.2166761523
 40
0.4494780108
 40
0.7094272567
 40
1.0
 40
1.0
 40
1.0
 40
1.0
 10
54.5951508727
 20
-53.2197032434
 30
0.0
 10
54.6246184709
 20
-53.2060608523
 30
0.0
 10
54.6807266918
 20
-53.1656386018
 30
0.0
 10
54.7412202462
 20
-53.0761356822
 30
0.0
 10
54.7777991886
 20
-52.963336257
 30
0.0
 10
54.7854119066
 20
-52.8805528352
 30
0.0
 10
54.7856812769
 20
-52.8370067311
 30
0.0
 11
54.5951508727
 21
-53.2197032434
 31
0.0
 11
54.674581761
 21
-53.1633044703
 31
0.0
 11
54.7346626974
 21
-53.0775986045
 31
0.0
 11
54.7723346792
 21
-52.9669639934
 31
0.0
 11
54.7856812769
 21
-52.8370067311
 31
0.0
  0
SPLINE
  5
490
100
AcDbEntity
  8
RACCORDO
100
AcDbSpline
 62
7
  6
CONTINUOUS
 70
0
 71
3
 72
11
 73
7
 74
5
 42
0.0000001
 43
0.0000001
 44
0.0000000001
 12
-0.3888888757
 22
-0.1877728259
 32
0.0
 13
-0.3862571023
 23
0.1931285652
 33
0.0
 40
0.0
 40
0.0
 40
0.0
 40
0.0
 40
0.236631889
 40
0.5012536727
 40
0.7652017156
 40
1.0
 40
1.0
 40
1.0
 40
1.0
 10
54.7856812769
 20
-8.5675273791
 30
0.0
 10
54.7550067738
 20
-8.582338392
 30
0.0
 10
54.6850478317
 20
-8.6033916585
 30
0.0
 10
54.5747476001
 20
-8.6131539844
 30
0.0
 10
54.4647999365
 20
-8.6024840476
 30
0.0
 10
54.3953825664
 20
-8.5808078445
 30
0.0
 10
54.3651517314
 20
-8.5656924259
 30
0.0
 11
54.7856812769
 21
-8.5675273791
 31
0.0
 11
54.6884429901
 21
-8.5989492944
 31
0.0
 11
54.5746658011
 21
-8.6096207005
 31
0.0
 11
54.4612784252
 21
-8.597958075
 31
0.0
 11
54.3651517314
 21
-8.5656924259
 31
0.0
  0
SPLINE
  5
491
100
AcDbEntity
  8
RACCORDO
100
AcDbSpline
 62
7
  6
CONTINUOUS
 70
0
 71
3
 72
11
 73
7
 74
5
 42
0.0000001
 43
0.0000001
 44
0.0000000001
 12
-0.388767542
 22
-0.1870394454
 32
0.0
 13
-0.3858745531
 23
0.1929372569
 33
0.0
 40
0.0
 40
0.0
 40
0.0
 40
0.0
 40
0.2367532785
 40
0.5013779545
 40
0.765259998
 40
1.0
 40
1.0
 40
1.0
 40
1.0
 10
54.7852926403
 20
-52.8371940445
 30
0.0
 10
54.7546119769
 20
-52.8519547785
 30
0.0
 10
54.6846910889
 20
-52.8729294641
 30
0.0
 10
54.5744874876
 20
-52.8826246548
 30
0.0
 10
54.4646708783
 20
-52.8719297846
 30
0.0
 10
54.3953451292
 20
-52.8502684756
 30
0.0
 10
54.3651517315
 20
-52.8351717783
 30
0.0
 11
54.7852926403
 21
-52.8371940445
 31
0.0
 11
54.6880692224
 21
-52.868502963
 31
0.0
 11
54.5743973927
 21
-52.8790988133
 31
0.0
 11
54.4611546809
 21
-52.8674114677
 31
0.0
 11
54.3651517315
 21
-52.8351717783
 31
0.0
  0
SPLINE
  5
492
100
AcDbEntity
  8
0
100
AcDbSpline
 62
7
  6
CONTINUOUS
 70
0
 71
3
 72
9
 73
5
 74
3
 42
0.0000001
 43
0.0000001
 44
0.0000000001
 12
-0.081898293
 22
0.0180312848
 32
0.0
 13
-0.0758177006
 23
0.035834814
 33
0.0
 40
0.0
 40
0.0
 40
0.0
 40
0.0
 40
0.2423969433
 40
1.0
 40
1.0
 40
1.0
 40
1.0
 10
-1.1918198021
 20
-24.2578794048
 30
0.0
 10
-1.1984371007
 20
-24.2564224953
 30
0.0
 10
-1.2254912992
 20
-24.2492942676
 30
0.0
 10
-1.2515187573
 20
-24.2386828613
 30
0.0
 10
-1.2706653312
 20
-24.2296333398
 30
0.0
 11
-1.1918198021
 21
-24.2578794048
 31
0.0
 11
-1.2114924833
 21
-24.2527621155
 31
0.0
 11
-1.2706653312
 21
-24.2296333398
 31
0.0
  0
SPLINE
  5
493
100
AcDbEntity
  8
0
100
AcDbSpline
 62
7
  6
CONTINUOUS
 70
0
 71
3
 72
10
 73
6
 74
4
 42
0.0000001
 43
0.0000001
 44
0.0000000001
 12
-0.153865818
 22
-0.0769329323
 32
0.0
 13
-0.1555300209
 23
0.0735103982
 33
0.0
 40
0.0
 40
0.0
 40
0.0
 40
0.0
 40
0.4571693139
 40
0.7225206961
 40
1.0
 40
1.0
 40
1.0
 40
1.0
 10
-1.2455728021
 20
-24.32336734
 30
0.0
 10
-1.2690203789
 20
-24.3350911319
 30
0.0
 10
-1.3141810698
 20
-24.3349926692
 30
0.0
 10
-1.3688312022
 20
-24.3192529452
 30
0.0
 10
-1.3977012334
 20
-24.3071432226
 30
0.0
 10
-1.4120866874
 20
-24.3003440179
 30
0.0
 11
-1.2455728021
 21
-24.32336734
 31
0.0
 11
-1.3238985324
 21
-24.3304529149
 31
0.0
 11
-1.3679782651
 21
-24.3185917937
 31
0.0
 11
-1.4120866874
 21
-24.3003440179
 31
0.0
  0
SPLINE
  5
494
100
AcDbEntity
  8
0
100
AcDbSpline
 62
7
  6
CONTINUOUS
 70
0
 71
3
 72
18
 73
14
 74
12
 42
0.0000001
 43
0.0000001
 44
0.0000000001
 12
0.9412005612
 22
0.4705990144
 32
0.0
 13
-0.7660299339
 23
0.721470768
 33
0.0
 40
0.0
 40
0.0
 40
0.0
 40
0.0
 40
0.0457943079
 40
0.09105793
 40
0.1389648729
 40
0.1905315939
 40
0.303445471
 40
0.4295779147
 40
0.5663525134
 40
0.711467691
 40
0.8584344038
 40
0.9305901799
 40
1.0
 40
1.0
 40
1.0
 40
1.0
 10
-0.9063414428
 20
-24.5334687101
 30
0.0
 10
-0.8919742334
 20
-24.5262851247
 30
0.0
 10
-0.8638858563
 20
-24.5109085777
 30
0.0
 10
-0.8255569517
 20
-24.4801381339
 30
0.0
 10
-0.7946950623
 20
-24.4392674265
 30
0.0
 10
-0.7614369704
 20
-24.3722521437
 30
0.0
 10
-0.7386895607
 20
-24.2714817291
 30
0.0
 10
-0.7376311085
 20
-24.139082164
 30
0.0
 10
-0.759558489
 20
-23.9969342433
 30
0.0
 10
-0.8090716
 20
-23.854063505
 30
0.0
 10
-0.8708426009
 20
-23.7414681029
 30
0.0
 10
-0.9304569131
 20
-23.6595927106
 30
0.0
 10
-0.9636047059
 20
-23.6223730736
 30
0.0
 10
-0.9813280392
 20
-23.6056806882
 30
0.0
 11
-0.9063414428
 21
-24.5334687101
 31
0.0
 11
-0.8644741039
 21
-24.5096084631
 31
0.0
 11
-0.8276623683
 21
-24.4793831049
 31
0.0
 11
-0.7967821284
 21
-24.4395359235
 31
0.0
 11
-0.7723095628
 21
-24.3911044992
 31
0.0
 11
-0.7437487577
 21
-24.2757696404
 31
0.0
 11
-0.7410835376
 21
-24.1430680325
 31
0.0
 11
-0.7632057828
 21
-24.0008512977
 31
0.0
 11
-0.8127609126
 21
-23.8564119209
 31
0.0
 11
-0.8871791285
 21
-23.7208419641
 31
0.0
 11
-0.93203709
 21
-23.6595803431
 31
0.0
 11
-0.9813280392
 21
-23.6056806882
 31
0.0
  0
SPLINE
  5
495
100
AcDbEntity
  8
0
100
AcDbSpline
 62
7
  6
CONTINUOUS
 70
0
 71
3
 72
9
 73
5
 74
3
 42
0.0000001
 43
0.0000001
 44
0.0000000001
 12
-0.1087199623
 22
0.5446236221
 32
0.0
 13
-0.1090135263
 23
0.5445649374
 33
0.0
 40
0.0
 40
0.0
 40
0.0
 40
0.0
 40
0.4998343578
 40
1.0
 40
1.0
 40
1.0
 40
1.0
 10
-0.8061886108
 20
-25.6127801188
 30
0.0
 10
-0.8243026017
 20
-25.522039586
 30
0.0
 10
-0.8587039692
 20
-25.3401376419
 30
0.0
 10
-0.893968172
 20
-25.1584028479
 30
0.0
 10
-0.9121431121
 20
-25.0676119574
 30
0.0
 11
-0.8061886108
 21
-25.6127801188
 31
0.0
 11
-0.8589081385
 21
-25.340239663
 31
0.0
 11
-0.9121431121
 21
-25.0676119574
 31
0.0
  0
SPLINE
  5
496
100
AcDbEntity
  8
0
100
AcDbSpline
 62
7
  6
CONTINUOUS
 70
0
 71
3
 72
11
 73
7
 74
5
 42
0.0000001
 43
0.0000001
 44
0.0000000001
 12
-0.092171032
 22
0.4604523263
 32
0.0
 13
-0.3155610442
 23
0.3477543261
 33
0.0
 40
0.0
 40
0.0
 40
0.0
 40
0.0
 40
0.2378309192
 40
0.4940748675
 40
0.7548352936
 40
1.0
 40
1.0
 40
1.0
 40
1.0
 10
-0.9121431121
 20
-25.0676119574
 30
0.0
 10
-0.9194501525
 20
-25.0311086907
 30
0.0
 10
-0.9340757593
 20
-24.9551519269
 30
0.0
 10
-0.9654528235
 20
-24.8410207885
 30
0.0
 10
-1.0099417768
 20
-24.7300544873
 30
0.0
 10
-1.0531575776
 20
-24.6624116815
 30
0.0
 10
-1.0789457211
 20
-24.6339926525
 30
0.0
 11
-0.9121431121
 21
-25.0676119574
 31
0.0
 11
-0.9349006195
 21
-24.958272908
 31
0.0
 11
-0.9673991606
 21
-24.8424158218
 31
0.0
 11
-1.0144873365
 21
-24.7293820791
 31
0.0
 11
-1.0789457211
 21
-24.6339926525
 31
0.0
  0
SPLINE
  5
497
100
AcDbEntity
  8
0
100
AcDbSpline
 62
7
  6
CONTINUOUS
 70
0
 71
3
 72
11
 73
7
 74
5
 42
0.0000001
 43
0.0000001
 44
0.0000000001
 12
-0.6333494509
 22
0.5969143223
 32
0.0
 13
-0.8289470693
 23
0.2651131674
 33
0.0
 40
0.0
 40
0.0
 40
0.0
 40
0.0
 40
0.2725542141
 40
0.5262218346
 40
0.7671916502
 40
1.0
 40
1.0
 40
1.0
 40
1.0
 10
-1.1227493954
 20
-23.6763913663
 30
0.0
 10
-1.1802900827
 20
-23.6221608616
 30
0.0
 10
-1.3035285141
 20
-23.5302633967
 30
0.0
 10
-1.4987658034
 20
-23.4227229645
 30
0.0
 10
-1.6931328945
 20
-23.3397555746
 30
0.0
 10
-1.8232951616
 20
-23.295381718
 30
0.0
 10
-1.8876237614
 20
-23.2748081983
 30
0.0
 11
-1.1227493954
 21
-23.6763913663
 31
0.0
 11
-1.3108157123
 21
-23.5318300803
 31
0.0
 11
-1.503650373
 21
-23.4243411508
 31
0.0
 11
-1.6962378365
 21
-23.3413241655
 31
0.0
 11
-1.8876237614
 21
-23.2748081983
 31
0.0
  0
SPLINE
  5
498
100
AcDbEntity
  8
CURVE
100
AcDbSpline
 62
7
  6
CONTINUOUS
 70
0
 71
3
 72
30
 73
26
 74
24
 42
0.0000001
 43
0.0000001
 44
0.0000000001
 12
-0.05589281
 22
-0.6125978426
 32
0.0
 13
-0.5280198321
 23
0.1479088128
 33
0.0
 40
0.0
 40
0.0
 40
0.0
 40
0.0
 40
0.0625
 40
0.125
 40
0.140625
 40
0.15625
 40
0.1875
 40
0.25
 40
0.28125
 40
0.3125
 40
0.375
 40
0.4375
 40
0.5
 40
0.5625
 40
0.625
 40
0.6875
 40
0.71875
 40
0.75
 40
0.8125
 40
0.84375
 40
0.859375
 40
0.875
 40
0.90625
 40
0.9375
 40
1.0
 40
1.0
 40
1.0
 40
1.0
 10
-56.6569308426
 20
27.1794169019
 30
0.0
 10
-56.6580952761
 20
27.1666544468
 30
0.0
 10
-56.6602259742
 20
27.1409778702
 30
0.0
 10
-56.6635147702
 20
27.1127742207
 30
0.0
 10
-56.6644068165
 20
27.0929764765
 30
0.0
 10
-56.6680731342
 20
27.0821288106
 30
0.0
 10
-56.6738771847
 20
27.0626604208
 30
0.0
 10
-56.6813454051
 20
27.041160458
 30
0.0
 10
-56.6870080008
 20
27.0179658751
 30
0.0
 10
-56.6987797354
 20
27.000550272
 30
0.0
 10
-56.7129095731
 20
26.9783606739
 30
0.0
 10
-56.7292390809
 20
26.9505216691
 30
0.0
 10
-56.7536127794
 20
26.935411657
 30
0.0
 10
-56.7740556448
 20
26.9138625237
 30
0.0
 10
-56.8021776518
 20
26.9053408829
 30
0.0
 10
-56.8249650275
 20
26.8973331225
 30
0.0
 10
-56.8430770511
 20
26.890303776
 30
0.0
 10
-56.8638565831
 20
26.8918714427
 30
0.0
 10
-56.8838500085
 20
26.8908942798
 30
0.0
 10
-56.9016572333
 20
26.8910776499
 30
0.0
 10
-56.9116893106
 20
26.8906747546
 30
0.0
 10
-56.9229274589
 20
26.8946116223
 30
0.0
 10
-56.936562007
 20
26.8980461294
 30
0.0
 10
-56.9586092207
 20
26.9043759105
 30
0.0
 10
-56.9750924452
 20
26.9089354682
 30
0.0
 10
-56.9860928584
 20
26.9120169018
 30
0.0
 11
-56.6569308426
 21
27.1794169019
 31
0.0
 11
-56.6604241432
 21
27.1411295367
 31
0.0
 11
-56.6639174438
 21
27.1028421715
 31
0.0
 11
-56.664790769
 21
27.0932703302
 31
0.0
 11
-56.6671274117
 21
27.084817633
 31
0.0
 11
-56.6722884695
 21
27.0682852867
 31
0.0
 11
-56.6826105853
 21
27.0352205939
 31
0.0
 11
-56.6877716431
 21
27.0186882476
 31
0.0
 11
-56.695797813
 21
27.0048761665
 31
0.0
 11
-56.7128051902
 21
26.9781587594
 31
0.0
 11
-56.7305797793
 21
26.9526431679
 31
0.0
 11
-56.7529576405
 21
26.9343384702
 31
0.0
 11
-56.7753355017
 21
26.9160337724
 31
0.0
 11
-56.8020481258
 21
26.9051596043
 31
0.0
 11
-56.8294832104
 21
26.8955238577
 31
0.0
 11
-56.8434104897
 21
26.8913784026
 31
0.0
 11
-56.8585961913
 21
26.8912674569
 31
0.0
 11
-56.8889675944
 21
26.8910455653
 31
0.0
 11
-56.904153296
 21
26.8909346196
 31
0.0
 11
-56.9118400695
 21
26.891217225
 31
0.0
 11
-56.9200903794
 21
26.8935283002
 31
0.0
 11
-56.9365909991
 21
26.8981504506
 31
0.0
 11
-56.9530916189
 21
26.902772601
 31
0.0
 11
-56.9860928584
 21
26.9120169018
 31
0.0
  0
SPLINE
  5
499
100
AcDbEntity
  8
CURVE
100
AcDbSpline
 62
7
  6
CONTINUOUS
 70
0
 71
3
 72
27
 73
23
 74
21
 42
0.0000001
 43
0.0000001
 44
0.0000000001
 12
0.5179000789
 22
-0.37143206
 32
0.0
 13
0.0581425837
 23
-0.6822298031
 33
0.0
 40
0.0
 40
0.0
 40
0.0
 40
0.0
 40
0.0625
 40
0.125
 40
0.140625
 40
0.15625
 40
0.1875
 40
0.25
 40
0.28125
 40
0.3125
 40
0.375
 40
0.4375
 40
0.5
 40
0.5625
 40
0.625
 40
0.6875
 40
0.71875
 40
0.75
 40
0.8125
 40
0.875
 40
0.9375
 40
1.0
 40
1.0
 40
1.0
 40
1.0
 10
-56.9860928387
 20
27.7759789062
 30
0.0
 10
-56.9753032537
 20
27.7682407383
 30
0.0
 10
-56.9536675816
 20
27.752974652
 30
0.0
 10
-56.9295817104
 20
27.734854182
 30
0.0
 10
-56.9131536671
 20
27.7241536313
 30
0.0
 10
-56.9030774227
 20
27.7137610628
 30
0.0
 10
-56.8852559916
 20
27.6962154841
 30
0.0
 10
-56.8652167745
 20
27.6753301231
 30
0.0
 10
-56.8444080205
 20
27.6562115282
 30
0.0
 10
-56.8262399036
 20
27.6311368971
 30
0.0
 10
-56.8033854076
 20
27.6004271873
 30
0.0
 10
-56.77518507
 20
27.5638913128
 30
0.0
 10
-56.7546318803
 20
27.5219510966
 30
0.0
 10
-56.7301635507
 20
27.482547435
 30
0.0
 10
-56.7137086326
 20
27.4384018966
 30
0.0
 10
-56.6994782249
 20
27.4021056546
 30
0.0
 10
-56.687623413
 20
27.3729394279
 30
0.0
 10
-56.6818790683
 20
27.3440669802
 30
0.0
 10
-56.6723673506
 20
27.3078494999
 30
0.0
 10
-56.662977765
 20
27.2645570747
 30
0.0
 10
-56.6609135828
 20
27.2220958199
 30
0.0
 10
-56.6581421464
 20
27.1936299986
 30
0.0
 10
-56.6569308426
 20
27.1794168777
 30
0.0
 11
-56.9860928387
 21
27.7759789062
 31
0.0
 11
-56.9537240838
 21
27.7527644025
 31
0.0
 11
-56.9213553289
 21
27.7295498987
 31
0.0
 11
-56.9132631401
 21
27.7237462728
 31
0.0
 11
-56.9055875313
 21
27.7163897486
 31
0.0
 11
-56.8903751735
 21
27.7011590673
 31
0.0
 11
-56.8599504579
 21
27.6706977049
 31
0.0
 11
-56.8447381001
 21
27.6554670237
 31
0.0
 11
-56.8307723095
 21
27.6374477935
 31
0.0
 11
-56.8032562506
 21
27.6004798168
 31
0.0
 11
-56.7764595947
 21
27.5629905892
 31
0.0
 11
-56.753979357
 21
27.5223738557
 31
0.0
 11
-56.7314991193
 21
27.4817571222
 31
0.0
 11
-56.7136050374
 21
27.4385002379
 31
0.0
 11
-56.6964753148
 21
27.3948033285
 31
0.0
 11
-56.6883872214
 21
27.3729761503
 31
0.0
 11
-56.6831597353
 21
27.3512766308
 31
0.0
 11
-56.6727047632
 21
27.3078775917
 31
0.0
 11
-56.6641986655
 21
27.2646956031
 31
0.0
 11
-56.6605647541
 21
27.2220562404
 31
0.0
 11
-56.6569308426
 21
27.1794168777
 31
0.0
  0
SPLINE
  5
49A
100
AcDbEntity
  8
CURVE
100
AcDbSpline
 62
7
  6
CONTINUOUS
 70
0
 71
3
 72
9
 73
5
 74
3
 42
0.0000001
 43
0.0000001
 44
0.0000000001
 12
-0.0033076387
 22
-0.1433747049
 32
0.0
 13
-0.0374269361
 23
-0.1252138868
 33
0.0
 40
0.0
 40
0.0
 40
0.0
 40
0.0
 40
0.5
 40
1.0
 40
1.0
 40
1.0
 40
1.0
 10
-0.7954951288
 20
-20.2368725402
 30
0.0
 10
-0.7960464019
 20
-20.2607683243
 30
0.0
 10
-0.7982737601
 20
-20.3081462473
 30
0.0
 10
-0.8091911876
 20
-20.349378987
 30
0.0
 10
-0.8154290103
 20
-20.3702479681
 30
0.0
 11
-0.7954951288
 21
-20.2368725402
 31
0.0
 11
-0.8004462774
 21
-20.3066099515
 31
0.0
 11
-0.8154290103
 21
-20.3702479681
 31
0.0
  0
SPLINE
  5
49B
100
AcDbEntity
  8
CURVE
100
AcDbSpline
 62
7
  6
CONTINUOUS
 70
0
 71
3
 72
9
 73
5
 74
3
 42
0.0000001
 43
0.0000001
 44
0.0000000001
 12
-0.0360784618
 22
0.1562318517
 32
0.0
 13
-0.0035852288
 23
0.1527792562
 33
0.0
 40
0.0
 40
0.0
 40
0.0
 40
0.0
 40
0.5
 40
1.0
 40
1.0
 40
1.0
 40
1.0
 10
-1.4826680272
 20
-20.0366284646
 30
0.0
 10
-1.4886811041
 20
-20.0105898227
 30
0.0
 10
-1.4996860732
 20
-19.9584267216
 30
0.0
 10
-1.5020043719
 20
-19.9087823642
 30
0.0
 10
-1.50260191
 20
-19.8833191549
 30
0.0
 11
-1.4826680272
 21
-20.0366284646
 31
0.0
 11
-1.4975144056
 21
-19.9590564075
 31
0.0
 11
-1.50260191
 21
-19.8833191549
 31
0.0
  0
SPLINE
  5
49C
100
AcDbEntity
  8
CURVE
100
AcDbSpline
 62
7
  6
CONTINUOUS
 70
0
 71
3
 72
67
 73
63
 74
61
 42
0.0000001
 43
0.0000001
 44
0.0000000001
 12
0.1077339104
 22
1.2918281044
 32
0.0
 13
0.1116030897
 23
-1.4252123746
 33
0.0
 40
0.0
 40
0.0
 40
0.0
 40
0.0
 40
0.03125
 40
0.046875
 40
0.0625
 40
0.078125
 40
0.09375
 40
0.109375
 40
0.125
 40
0.140625
 40
0.15625
 40
0.171875
 40
0.1875
 40
0.203125
 40
0.21875
 40
0.234375
 40
0.25
 40
0.265625
 40
0.28125
 40
0.296875
 40
0.3125
 40
0.328125
 40
0.34375
 40
0.359375
 40
0.375
 40
0.390625
 40
0.40625
 40
0.421875
 40
0.4375
 40
0.453125
 40
0.46875
 40
0.484375
 40
0.5
 40
0.515625
 40
0.53125
 40
0.546875
 40
0.5625
 40
0.578125
 40
0.59375
 40
0.609375
 40
0.625
 40
0.640625
 40
0.65625
 40
0.671875
 40
0.6875
 40
0.703125
 40
0.71875
 40
0.734375
 40
0.75
 40
0.765625
 40
0.78125
 40
0.8125
 40
0.84375
 40
0.859375
 40
0.875
 40
0.890625
 40
0.90625
 40
0.921875
 40
0.9375
 40
0.953125
 40
0.96875
 40
1.0
 40
1.0
 40
1.0
 40
1.0
 10
-1.50260191
 20
-19.8833191496
 30
0.0
 10
-1.5014796818
 20
-19.8698626068
 30
0.0
 10
-1.4999473974
 20
-19.8495654381
 30
0.0
 10
-1.4973001196
 20
-19.8229519649
 30
0.0
 10
-1.4968252413
 20
-19.8018683139
 30
0.0
 10
-1.4906101587
 20
-19.785054138
 30
0.0
 10
-1.4860299131
 20
-19.7669986615
 30
0.0
 10
-1.4806505239
 20
-19.7496389125
 30
0.0
 10
-1.4768328719
 20
-19.730737554
 30
0.0
 10
-1.4675674146
 20
-19.7173069061
 30
0.0
 10
-1.4598555116
 20
-19.7023006633
 30
0.0
 10
-1.4513771968
 20
-19.6881260896
 30
0.0
 10
-1.4444109745
 20
-19.6722004346
 30
0.0
 10
-1.4321627943
 20
-19.6624474354
 30
0.0
 10
-1.4213985444
 20
-19.6509057118
 30
0.0
 10
-1.4099805311
 20
-19.64034623
 30
0.0
 10
-1.3996936411
 20
-19.6276465056
 30
0.0
 10
-1.3855360211
 20
-19.6225255097
 30
0.0
 10
-1.3724736926
 20
-19.6152381484
 30
0.0
 10
-1.3589009282
 20
-19.60903752
 30
0.0
 10
-1.3462746158
 20
-19.6006563256
 30
0.0
 10
-1.3303729315
 20
-19.5999106621
 30
0.0
 10
-1.315389051
 20
-19.5969805951
 30
0.0
 10
-1.3000093271
 20
-19.5951526113
 30
0.0
 10
-1.285295173
 20
-19.5911006982
 30
0.0
 10
-1.2683145834
 20
-19.5948424189
 30
0.0
 10
-1.2519713586
 20
-19.5963551389
 30
0.0
 10
-1.2353451102
 20
-19.5989902277
 30
0.0
 10
-1.2192135913
 20
-19.5993648418
 30
0.0
 10
-1.2013861781
 20
-19.6076589863
 30
0.0
 10
-1.1840037156
 20
-19.6137053633
 30
0.0
 10
-1.1665373447
 20
-19.6208232798
 30
0.0
 10
-1.1489616564
 20
-19.625902806
 30
0.0
 10
-1.1319071461
 20
-19.6380643542
 30
0.0
 10
-1.1146925556
 20
-19.6482127847
 30
0.0
 10
-1.0975971078
 20
-19.659331664
 30
0.0
 10
-1.0801851694
 20
-19.6685818656
 30
0.0
 10
-1.0639200507
 20
-19.6843363294
 30
0.0
 10
-1.0473076985
 20
-19.6982494547
 30
0.0
 10
-1.0309374606
 20
-19.7130236718
 30
0.0
 10
-1.0139459994
 20
-19.7261948599
 30
0.0
 10
-0.9991973168
 20
-19.7449170724
 30
0.0
 10
-0.9837964058
 20
-19.7620626341
 30
0.0
 10
-0.96876163
 20
-19.7799637749
 30
0.0
 10
-0.952914542
 20
-19.79641925
 30
0.0
 10
-0.9399505673
 20
-19.8179018086
 30
0.0
 10
-0.9261337419
 20
-19.8379948937
 30
0.0
 10
-0.9128452059
 20
-19.8586187894
 30
0.0
 10
-0.8982963632
 20
-19.8785089161
 30
0.0
 10
-0.8882604578
 20
-19.9008033082
 30
0.0
 10
-0.8735889905
 20
-19.9297833921
 30
0.0
 10
-0.8536442629
 20
-19.9655911253
 30
0.0
 10
-0.8417339346
 20
-20.0040005604
 30
0.0
 10
-0.8309934048
 20
-20.0341876748
 30
0.0
 10
-0.8217541692
 20
-20.0568882906
 30
0.0
 10
-0.8178564201
 20
-20.0796180033
 30
0.0
 10
-0.8124255096
 20
-20.1023540335
 30
0.0
 10
-0.8077857583
 20
-20.1250356967
 30
0.0
 10
-0.8015145315
 20
-20.1479285106
 30
0.0
 10
-0.8009780475
 20
-20.1700310885
 30
0.0
 10
-0.798250545
 20
-20.1997784681
 30
0.0
 10
-0.796657661
 20
-20.2220266158
 30
0.0
 10
-0.7954951288
 20
-20.236872578
 30
0.0
 11
-1.50260191
 21
-19.8833191496
 31
0.0
 11
-1.4992352253
 21
-19.8429495213
 31
0.0
 11
-1.497551883
 21
-19.8227647072
 31
0.0
 11
-1.4958685406
 21
-19.802579893
 31
0.0
 11
-1.4908826316
 21
-19.7848472546
 31
0.0
 11
-1.4858967225
 21
-19.7671146161
 31
0.0
 11
-1.4809108134
 21
-19.7493819776
 31
0.0
 11
-1.4759249044
 21
-19.7316493391
 31
0.0
 11
-1.4678263403
 21
-19.717044307
 31
0.0
 11
-1.4597277763
 21
-19.7024392748
 31
0.0
 11
-1.4516292122
 21
-19.6878342427
 31
0.0
 11
-1.4435306482
 21
-19.6732292105
 31
0.0
 11
-1.432410116
 21
-19.6621493147
 31
0.0
 11
-1.4212895838
 21
-19.6510694188
 31
0.0
 11
-1.4101690516
 21
-19.6399895229
 31
0.0
 11
-1.3990485194
 21
-19.628909627
 31
0.0
 11
-1.3857185697
 21
-19.6221644488
 31
0.0
 11
-1.3723886199
 21
-19.6154192705
 31
0.0
 11
-1.3590586702
 21
-19.6086740923
 31
0.0
 11
-1.3457287205
 21
-19.6019289141
 31
0.0
 11
-1.3305258988
 21
-19.5995465949
 31
0.0
 11
-1.3153230771
 21
-19.5971642756
 31
0.0
 11
-1.3001202554
 21
-19.5947819564
 31
0.0
 11
-1.2849174337
 21
-19.5923996372
 31
0.0
 11
-1.2684208109
 21
-19.5944709188
 31
0.0
 11
-1.251924188
 21
-19.5965422004
 31
0.0
 11
-1.2354275652
 21
-19.5986134819
 31
0.0
 11
-1.2189309423
 21
-19.6006847635
 31
0.0
 11
-1.2014603366
 21
-19.6072843584
 31
0.0
 11
-1.1839897309
 21
-19.6138839532
 31
0.0
 11
-1.1665191251
 21
-19.6204835481
 31
0.0
 11
-1.1490485194
 21
-19.627083143
 31
0.0
 11
-1.1318804661
 21
-19.6377288346
 31
0.0
 11
-1.1147124127
 21
-19.6483745262
 31
0.0
 11
-1.0975443593
 21
-19.6590202177
 31
0.0
 11
-1.080376306
 21
-19.6696659093
 31
0.0
 11
-1.0638621784
 21
-19.6840294397
 31
0.0
 11
-1.0473480509
 21
-19.69839297
 31
0.0
 11
-1.0308339234
 21
-19.7127565003
 31
0.0
 11
-1.0143197958
 21
-19.7271200306
 31
0.0
 11
-0.9990886121
 21
-19.7446542973
 31
0.0
 11
-0.9838574283
 21
-19.7621885639
 31
0.0
 11
-0.9686262446
 21
-19.7797228306
 31
0.0
 11
-0.9533950609
 21
-19.7972570972
 31
0.0
 11
-0.9398084255
 21
-19.8176702297
 31
0.0
 11
-0.9262217901
 21
-19.8380833621
 31
0.0
 11
-0.9126351548
 21
-19.8584964946
 31
0.0
 11
-0.8990485194
 21
-19.878909627
 31
0.0
 11
-0.8880991753
 21
-19.9007100867
 31
0.0
 11
-0.8771498311
 21
-19.9225105463
 31
0.0
 11
-0.8552511428
 21
-19.9661114657
 31
0.0
 11
-0.8389477799
 21
-20.0115023029
 31
0.0
 11
-0.8307960984
 21
-20.0341977215
 31
0.0
 11
-0.8226444169
 21
-20.0568931401
 31
0.0
 11
-0.8176008932
 21
-20.0796190562
 31
0.0
 11
-0.8125573694
 21
-20.1023449724
 31
0.0
 11
-0.8075138457
 21
-20.1250708885
 31
0.0
 11
-0.8024703219
 21
-20.1477968046
 31
0.0
 11
-0.8007265237
 21
-20.170065748
 31
0.0
 11
-0.7989827254
 21
-20.1923346913
 31
0.0
 11
-0.7954951288
 21
-20.236872578
 31
0.0
  0
SPLINE
  5
49D
100
AcDbEntity
  8
RACCORDO
100
AcDbSpline
 62
7
  6
CONTINUOUS
 70
0
 71
3
 72
8
 73
4
 74
2
 42
0.0000001
 43
0.0000001
 44
0.0000000001
 12
0.1754378928
 22
0.0275703537
 32
0.0
 13
0.1740107906
 23
-0.0354799014
 33
0.0
 40
0.0
 40
0.0
 40
0.0
 40
0.0
 40
1.0
 40
1.0
 40
1.0
 40
1.0
 10
-36.505090985
 20
-1.444785267
 30
0.0
 10
-36.4466116873
 20
-1.4355951491
 30
0.0
 10
-36.3855490071
 20
-1.4369770357
 30
0.0
 10
-36.3275454103
 20
-1.4488036695
 30
0.0
 11
-36.505090985
 21
-1.444785267
 31
0.0
 11
-36.3275454103
 21
-1.4488036695
 31
0.0
  0
SPLINE
  5
49E
100
AcDbEntity
  8
RACCORDO
100
AcDbSpline
 62
7
  6
CONTINUOUS
 70
0
 71
3
 72
8
 73
4
 74
2
 42
0.0000001
 43
0.0000001
 44
0.0000000001
 12
0.1754378928
 22
0.0275703537
 32
0.0
 13
0.1740107906
 23
-0.0354799014
 33
0.0
 40
0.0
 40
0.0
 40
0.0
 40
0.0
 40
1.0
 40
1.0
 40
1.0
 40
1.0
 10
-12.675592459
 20
-13.35953453
 30
0.0
 10
-12.6171131614
 20
-13.350344412
 30
0.0
 10
-12.5560504812
 20
-13.3517262987
 30
0.0
 10
-12.4980468843
 20
-13.3635529325
 30
0.0
 11
-12.675592459
 21
-13.35953453
 31
0.0
 11
-12.4980468843
 21
-13.3635529325
 31
0.0
  0
SPLINE
  5
49F
100
AcDbEntity
  8
RACCORDO
100
AcDbSpline
 62
7
  6
CONTINUOUS
 70
0
 71
3
 72
8
 73
4
 74
2
 42
0.0000001
 43
0.0000001
 44
0.0000000001
 12
0.1781590767
 22
0.0322301011
 32
0.0
 13
0.1779590726
 23
-0.0333167297
 33
0.0
 40
0.0
 40
0.0
 40
0.0
 40
0.0
 40
1.0
 40
1.0
 40
1.0
 40
1.0
 10
11.148691446
 20
-25.2792941059
 30
0.0
 10
11.2080778048
 20
-25.2685507389
 30
0.0
 10
11.2704218336
 20
-25.26874087
 30
0.0
 10
11.3297415245
 20
-25.2798464466
 30
0.0
 11
11.148691446
 21
-25.2792941059
 31
0.0
 11
11.3297415245
 21
-25.2798464466
 31
0.0
  0
SPLINE
  5
4A0
100
AcDbEntity
  8
RACCORDO
100
AcDbSpline
 62
7
  6
CONTINUOUS
 70
0
 71
3
 72
8
 73
4
 74
2
 42
0.0000001
 43
0.0000001
 44
0.0000000001
 12
0.1754378928
 22
0.0275703537
 32
0.0
 13
0.1740107906
 23
-0.0354799014
 33
0.0
 40
0.0
 40
0.0
 40
0.0
 40
0.0
 40
1.0
 40
1.0
 40
1.0
 40
1.0
 10
34.983404593
 20
-37.1890330559
 30
0.0
 10
35.0418838906
 20
-37.179842938
 30
0.0
 10
35.1029465708
 20
-37.1812248247
 30
0.0
 10
35.1609501677
 20
-37.1930514585
 30
0.0
 11
34.983404593
 21
-37.1890330559
 31
0.0
 11
35.1609501677
 21
-37.1930514585
 31
0.0
  0
SPLINE
  5
4A1
100
AcDbEntity
  8
ASSI
100
AcDbSpline
 62
7
  6
CONTINUOUS
 70
0
 71
3
 72
8
 73
4
 74
2
 42
0.0000001
 43
0.0000001
 44
0.0000000001
 12
0.0017199938
 22
-0.0008550042
 32
0.0
 13
0.0000082581
 23
-0.0019207661
 33
0.0
 40
0.0
 40
0.0
 40
0.0
 40
0.0
 40
1.0
 40
1.0
 40
1.0
 40
1.0
 10
37.346984842
 20
-37.1924538832
 30
0.0
 10
37.3475581733
 20
-37.1927388846
 30
0.0
 10
37.3480006055
 20
-37.193442135
 30
0.0
 10
37.3480033582
 20
-37.1940823904
 30
0.0
 11
37.346984842
 21
-37.1924538832
 31
0.0
 11
37.3480033582
 21
-37.1940823904
 31
0.0
  0
SPLINE
  5
4A2
100
AcDbEntity
  8
ASSI
100
AcDbSpline
 62
7
  6
CONTINUOUS
 70
0
 71
3
 72
8
 73
4
 74
2
 42
0.0000001
 43
0.0000001
 44
0.0000000001
 12
-0.0322886643
 22
0.0161348252
 32
0.0
 13
-0.0345470447
 23
0.0104590691
 33
0.0
 40
0.0
 40
0.0
 40
0.0
 40
0.0
 40
1.0
 40
1.0
 40
1.0
 40
1.0
 10
33.1536207011
 20
-35.0957718128
 30
0.0
 10
33.142857813
 20
-35.0903935377
 30
0.0
 10
33.1316569752
 20
-35.0857667014
 30
0.0
 10
33.1201412936
 20
-35.0822803451
 30
0.0
 11
33.1536207011
 21
-35.0957718128
 31
0.0
 11
33.1201412936
 21
-35.0822803451
 31
0.0
  0
SPLINE
  5
4A3
100
AcDbEntity
  8
ASSI
100
AcDbSpline
 62
7
  6
CONTINUOUS
 70
0
 71
3
 72
9
 73
5
 74
3
 42
0.0000001
 43
0.0000001
 44
0.0000000001
 12
-0.0774879905
 22
0.0234593799
 32
0.0
 13
-0.075213758
 23
-0.0299603369
 33
0.0
 40
0.0
 40
0.0
 40
0.0
 40
0.0
 40
0.2646796662
 40
1.0
 40
1.0
 40
1.0
 40
1.0
 10
33.1201412936
 20
-35.0822803451
 30
0.0
 10
33.1133047951
 20
-35.0802106048
 30
0.0
 10
33.0871631114
 20
-35.0738976153
 30
0.0
 10
33.0583774876
 20
-35.0748266855
 30
0.0
 10
33.0399420857
 20
-35.0821701671
 30
0.0
 11
33.1201412936
 21
-35.0822803451
 31
0.0
 11
33.0992812288
 21
-35.0773761097
 31
0.0
 11
33.0399420857
 21
-35.0821701671
 31
0.0
  0
SPLINE
  5
4A4
100
AcDbEntity
  8
ASSI
100
AcDbSpline
 62
7
  6
CONTINUOUS
 70
0
 71
3
 72
8
 73
4
 74
2
 42
0.0000001
 43
0.0000001
 44
0.0000000001
 12
0.0017199938
 22
-0.0008550042
 32
0.0
 13
0.0000082581
 23
-0.0019207661
 33
0.0
 40
0.0
 40
0.0
 40
0.0
 40
0.0
 40
1.0
 40
1.0
 40
1.0
 40
1.0
 10
21.4370822653
 20
-29.2375025949
 30
0.0
 10
21.4376555966
 20
-29.2377875963
 30
0.0
 10
21.4380980288
 20
-29.2384908467
 30
0.0
 10
21.4381007815
 20
-29.2391311021
 30
0.0
 11
21.4370822653
 21
-29.2375025949
 31
0.0
 11
21.4381007815
 21
-29.2391311021
 31
0.0
  0
SPLINE
  5
4A5
100
AcDbEntity
  8
ASSI
100
AcDbSpline
 62
7
  6
CONTINUOUS
 70
0
 71
3
 72
8
 73
4
 74
2
 42
0.0000001
 43
0.0000001
 44
0.0000000001
 12
-0.0322886643
 22
0.0161348252
 32
0.0
 13
-0.0345470447
 23
0.0104590691
 33
0.0
 40
0.0
 40
0.0
 40
0.0
 40
0.0
 40
1.0
 40
1.0
 40
1.0
 40
1.0
 10
17.2437181244
 20
-27.1408205244
 30
0.0
 10
17.2329552363
 20
-27.1354422494
 30
0.0
 10
17.2217543985
 20
-27.1308154131
 30
0.0
 10
17.2102387169
 20
-27.1273290567
 30
0.0
 11
17.2437181244
 21
-27.1408205244
 31
0.0
 11
17.2102387169
 21
-27.1273290567
 31
0.0
  0
SPLINE
  5
4A6
100
AcDbEntity
  8
ASSI
100
AcDbSpline
 62
7
  6
CONTINUOUS
 70
0
 71
3
 72
9
 73
5
 74
3
 42
0.0000001
 43
0.0000001
 44
0.0000000001
 12
-0.0774879905
 22
0.0234593799
 32
0.0
 13
-0.075213758
 23
-0.0299603369
 33
0.0
 40
0.0
 40
0.0
 40
0.0
 40
0.0
 40
0.2646796662
 40
1.0
 40
1.0
 40
1.0
 40
1.0
 10
17.2102387169
 20
-27.1273290567
 30
0.0
 10
17.2034022184
 20
-27.1252593164
 30
0.0
 10
17.1772605347
 20
-27.118946327
 30
0.0
 10
17.1484749109
 20
-27.1198753971
 30
0.0
 10
17.130039509
 20
-27.1272188788
 30
0.0
 11
17.2102387169
 21
-27.1273290567
 31
0.0
 11
17.1893786521
 21
-27.1224248214
 31
0.0
 11
17.130039509
 21
-27.1272188788
 31
0.0
  0
SPLINE
  5
4A7
100
AcDbEntity
  8
ASSI
100
AcDbSpline
 62
7
  6
CONTINUOUS
 70
0
 71
3
 72
8
 73
4
 74
2
 42
0.0000001
 43
0.0000001
 44
0.0000000001
 12
0.0017199938
 22
-0.0008550042
 32
0.0
 13
0.0000082581
 23
-0.0019207661
 33
0.0
 40
0.0
 40
0.0
 40
0.0
 40
0.0
 40
1.0
 40
1.0
 40
1.0
 40
1.0
 10
5.5271796886
 20
-21.2825513066
 30
0.0
 10
5.5277530199
 20
-21.2828363079
 30
0.0
 10
5.5281954521
 20
-21.2835395583
 30
0.0
 10
5.5281982048
 20
-21.2841798137
 30
0.0
 11
5.5271796886
 21
-21.2825513066
 31
0.0
 11
5.5281982048
 21
-21.2841798137
 31
0.0
  0
SPLINE
  5
4A8
100
AcDbEntity
  8
ASSI
100
AcDbSpline
 62
7
  6
CONTINUOUS
 70
0
 71
3
 72
8
 73
4
 74
2
 42
0.0000001
 43
0.0000001
 44
0.0000000001
 12
-0.0322886643
 22
0.0161348252
 32
0.0
 13
-0.0345470447
 23
0.0104590691
 33
0.0
 40
0.0
 40
0.0
 40
0.0
 40
0.0
 40
1.0
 40
1.0
 40
1.0
 40
1.0
 10
1.3338155477
 20
-19.1858692361
 30
0.0
 10
1.3230526596
 20
-19.180490961
 30
0.0
 10
1.3118518218
 20
-19.1758641247
 30
0.0
 10
1.3003361402
 20
-19.1723777684
 30
0.0
 11
1.3338155477
 21
-19.1858692361
 31
0.0
 11
1.3003361402
 21
-19.1723777684
 31
0.0
  0
SPLINE
  5
4A9
100
AcDbEntity
  8
ASSI
100
AcDbSpline
 62
7
  6
CONTINUOUS
 70
0
 71
3
 72
9
 73
5
 74
3
 42
0.0000001
 43
0.0000001
 44
0.0000000001
 12
-0.0774879905
 22
0.0234593799
 32
0.0
 13
-0.075213758
 23
-0.0299603369
 33
0.0
 40
0.0
 40
0.0
 40
0.0
 40
0.0
 40
0.2646796662
 40
1.0
 40
1.0
 40
1.0
 40
1.0
 10
1.3003361402
 20
-19.1723777684
 30
0.0
 10
1.2934996417
 20
-19.1703080281
 30
0.0
 10
1.267357958
 20
-19.1639950386
 30
0.0
 10
1.2385723342
 20
-19.1649241088
 30
0.0
 10
1.2201369323
 20
-19.1722675904
 30
0.0
 11
1.3003361402
 21
-19.1723777684
 31
0.0
 11
1.2794760754
 21
-19.167473533
 31
0.0
 11
1.2201369323
 21
-19.1722675904
 31
0.0
  0
SPLINE
  5
4AA
100
AcDbEntity
  8
ASSI
100
AcDbSpline
 62
7
  6
CONTINUOUS
 70
0
 71
3
 72
8
 73
4
 74
2
 42
0.0000001
 43
0.0000001
 44
0.0000000001
 12
0.0017199938
 22
-0.0008550042
 32
0.0
 13
0.0000082581
 23
-0.0019207661
 33
0.0
 40
0.0
 40
0.0
 40
0.0
 40
0.0
 40
1.0
 40
1.0
 40
1.0
 40
1.0
 10
-10.3827228881
 20
-13.3276000182
 30
0.0
 10
-10.3821495568
 20
-13.3278850196
 30
0.0
 10
-10.3817071246
 20
-13.32858827
 30
0.0
 10
-10.3817043719
 20
-13.3292285254
 30
0.0
 11
-10.3827228881
 21
-13.3276000182
 31
0.0
 11
-10.3817043719
 21
-13.3292285254
 31
0.0
  0
SPLINE
  5
4AB
100
AcDbEntity
  8
ASSI
100
AcDbSpline
 62
7
  6
CONTINUOUS
 70
0
 71
3
 72
8
 73
4
 74
2
 42
0.0000001
 43
0.0000001
 44
0.0000000001
 12
-0.0322886643
 22
0.0161348252
 32
0.0
 13
-0.0345470447
 23
0.0104590691
 33
0.0
 40
0.0
 40
0.0
 40
0.0
 40
0.0
 40
1.0
 40
1.0
 40
1.0
 40
1.0
 10
-14.576087029
 20
-11.2309179477
 30
0.0
 10
-14.5868499171
 20
-11.2255396727
 30
0.0
 10
-14.5980507549
 20
-11.2209128364
 30
0.0
 10
-14.6095664365
 20
-11.21742648
 30
0.0
 11
-14.576087029
 21
-11.2309179477
 31
0.0
 11
-14.6095664365
 21
-11.21742648
 31
0.0
  0
SPLINE
  5
4AC
100
AcDbEntity
  8
ASSI
100
AcDbSpline
 62
7
  6
CONTINUOUS
 70
0
 71
3
 72
9
 73
5
 74
3
 42
0.0000001
 43
0.0000001
 44
0.0000000001
 12
-0.0774879905
 22
0.0234593799
 32
0.0
 13
-0.075213758
 23
-0.0299603369
 33
0.0
 40
0.0
 40
0.0
 40
0.0
 40
0.0
 40
0.2646796662
 40
1.0
 40
1.0
 40
1.0
 40
1.0
 10
-14.6095664365
 20
-11.21742648
 30
0.0
 10
-14.616402935
 20
-11.2153567397
 30
0.0
 10
-14.6425446187
 20
-11.2090437503
 30
0.0
 10
-14.6713302425
 20
-11.2099728204
 30
0.0
 10
-14.6897656444
 20
-11.2173163021
 30
0.0
 11
-14.6095664365
 21
-11.21742648
 31
0.0
 11
-14.6304265013
 21
-11.2125222447
 31
0.0
 11
-14.6897656444
 21
-11.2173163021
 31
0.0
  0
SPLINE
  5
4AD
100
AcDbEntity
  8
ASSI
100
AcDbSpline
 62
7
  6
CONTINUOUS
 70
0
 71
3
 72
8
 73
4
 74
2
 42
0.0000001
 43
0.0000001
 44
0.0000000001
 12
0.0017199938
 22
-0.0008550042
 32
0.0
 13
0.0000082581
 23
-0.0019207661
 33
0.0
 40
0.0
 40
0.0
 40
0.0
 40
0.0
 40
1.0
 40
1.0
 40
1.0
 40
1.0
 10
-26.2926254648
 20
-5.3726487299
 30
0.0
 10
-26.2920521335
 20
-5.3729337313
 30
0.0
 10
-26.2916097013
 20
-5.3736369816
 30
0.0
 10
-26.2916069486
 20
-5.374277237
 30
0.0
 11
-26.2926254648
 21
-5.3726487299
 31
0.0
 11
-26.2916069486
 21
-5.374277237
 31
0.0
  0
SPLINE
  5
4AE
100
AcDbEntity
  8
ASSI
100
AcDbSpline
 62
7
  6
CONTINUOUS
 70
0
 71
3
 72
8
 73
4
 74
2
 42
0.0000001
 43
0.0000001
 44
0.0000000001
 12
-0.0322886643
 22
0.0161348252
 32
0.0
 13
-0.0345470447
 23
0.0104590691
 33
0.0
 40
0.0
 40
0.0
 40
0.0
 40
0.0
 40
1.0
 40
1.0
 40
1.0
 40
1.0
 10
-30.4859896057
 20
-3.2759666594
 30
0.0
 10
-30.4967524938
 20
-3.2705883843
 30
0.0
 10
-30.5079533316
 20
-3.265961548
 30
0.0
 10
-30.5194690132
 20
-3.2624751917
 30
0.0
 11
-30.4859896057
 21
-3.2759666594
 31
0.0
 11
-30.5194690132
 21
-3.2624751917
 31
0.0
  0
SPLINE
  5
4AF
100
AcDbEntity
  8
ASSI
100
AcDbSpline
 62
7
  6
CONTINUOUS
 70
0
 71
3
 72
9
 73
5
 74
3
 42
0.0000001
 43
0.0000001
 44
0.0000000001
 12
-0.0774879905
 22
0.0234593799
 32
0.0
 13
-0.075213758
 23
-0.0299603369
 33
0.0
 40
0.0
 40
0.0
 40
0.0
 40
0.0
 40
0.2646796662
 40
1.0
 40
1.0
 40
1.0
 40
1.0
 10
-30.5194690132
 20
-3.2624751917
 30
0.0
 10
-30.5263055117
 20
-3.2604054514
 30
0.0
 10
-30.5524471954
 20
-3.2540924619
 30
0.0
 10
-30.5812328192
 20
-3.2550215321
 30
0.0
 10
-30.5996682211
 20
-3.2623650137
 30
0.0
 11
-30.5194690132
 21
-3.2624751917
 31
0.0
 11
-30.540329078
 21
-3.2575709563
 31
0.0
 11
-30.5996682211
 21
-3.2623650137
 31
0.0
  0
SPLINE
  5
4B0
100
AcDbEntity
  8
ASSI
100
AcDbSpline
 62
7
  6
CONTINUOUS
 70
0
 71
3
 72
8
 73
4
 74
2
 42
0.0000001
 43
0.0000001
 44
0.0000000001
 12
0.0017199875
 22
-0.0008550395
 32
0.0
 13
0.0000082235
 23
-0.0019207763
 33
0.0
 40
0.0
 40
0.0
 40
0.0
 40
0.0
 40
1.0
 40
1.0
 40
1.0
 40
1.0
 10
-42.2025280046
 20
2.6689050811
 30
0.0
 10
-42.2019546755
 20
2.6686200679
 30
0.0
 10
-42.2015122629
 20
2.6679168
 30
0.0
 10
-42.2015095218
 20
2.6672765412
 30
0.0
 11
-42.2025280046
 21
2.6689050811
 31
0.0
 11
-42.2015095218
 21
2.6672765412
 31
0.0
  0
SPLINE
  5
4B1
100
AcDbEntity
  8
ASSI
100
AcDbSpline
 62
7
  6
CONTINUOUS
 70
0
 71
3
 72
8
 73
4
 74
2
 42
0.0000001
 43
0.0000001
 44
0.0000000001
 12
-0.032268327
 22
0.0161247358
 32
0.0
 13
-0.0345239903
 23
0.0104568695
 33
0.0
 40
0.0
 40
0.0
 40
0.0
 40
0.0
 40
1.0
 40
1.0
 40
1.0
 40
1.0
 10
-46.3958917729
 20
4.7655869652
 30
0.0
 10
-46.4066478819
 20
4.7709618771
 30
0.0
 10
-46.4178413425
 20
4.7755862699
 30
0.0
 10
-46.4293493393
 20
4.779071893
 30
0.0
 11
-46.3958917729
 21
4.7655869652
 31
0.0
 11
-46.4293493393
 21
4.779071893
 31
0.0
  0
SPLINE
  5
4B2
100
AcDbEntity
  8
ASSI
100
AcDbSpline
 62
7
  6
CONTINUOUS
 70
0
 71
3
 72
9
 73
5
 74
3
 42
0.0000001
 43
0.0000001
 44
0.0000000001
 12
-0.0479673986
 22
0.0145287038
 32
0.0
 13
-0.0500426309
 23
-0.0027730218
 33
0.0
 40
0.0
 40
0.0
 40
0.0
 40
0.0
 40
0.257878631
 40
1.0
 40
1.0
 40
1.0
 40
1.0
 10
-46.4293493393
 20
4.779071893
 30
0.0
 10
-46.4334725949
 20
4.7803207738
 30
0.0
 10
-46.4496163652
 20
4.7845956032
 30
0.0
 10
-46.4665164294
 20
4.7863613549
 30
0.0
 10
-46.4788956646
 20
4.785675382
 30
0.0
 11
-46.4293493393
 21
4.779071893
 31
0.0
 11
-46.4418491563
 21
4.7823586909
 31
0.0
 11
-46.4788956646
 21
4.785675382
 31
0.0
  0
SPLINE
  5
4B3
100
AcDbEntity
  8
ASSI
100
AcDbSpline
 62
7
  6
CONTINUOUS
 70
0
 71
3
 72
8
 73
4
 74
2
 42
0.0000001
 43
0.0000001
 44
0.0000000001
 12
-0.0213414878
 22
-0.0011825999
 32
0.0
 13
-0.0206349063
 23
-0.005572996
 33
0.0
 40
0.0
 40
0.0
 40
0.0
 40
0.0
 40
1.0
 40
1.0
 40
1.0
 40
1.0
 10
-46.4788956646
 20
4.785675382
 30
0.0
 10
-46.4860094939
 20
4.7852811821
 30
0.0
 10
-46.4931331582
 20
4.7842193159
 30
0.0
 10
-46.5000114603
 20
4.7823616506
 30
0.0
 11
-46.4788956646
 21
4.785675382
 31
0.0
 11
-46.5000114603
 21
4.7823616506
 31
0.0
  0
SPLINE
  5
4B4
100
AcDbEntity
  8
ASSI
100
AcDbSpline
 62
7
  6
CONTINUOUS
 70
0
 71
3
 72
8
 73
4
 74
2
 42
0.0000001
 43
0.0000001
 44
0.0000000001
 12
-0.032268327
 22
0.0161247358
 32
0.0
 13
-0.0345239903
 23
0.0104568695
 33
0.0
 40
0.0
 40
0.0
 40
0.0
 40
0.0
 40
1.0
 40
1.0
 40
1.0
 40
1.0
 10
49.0635236873
 20
-42.9641207649
 30
0.0
 10
49.0527675783
 20
-42.958745853
 30
0.0
 10
49.0415741177
 20
-42.9541214602
 30
0.0
 10
49.0300661209
 20
-42.9506358371
 30
0.0
 11
49.0635236873
 21
-42.9641207649
 31
0.0
 11
49.0300661209
 21
-42.9506358371
 31
0.0
  0
SPLINE
  5
4B5
100
AcDbEntity
  8
ASSI
100
AcDbSpline
 62
7
  6
CONTINUOUS
 70
0
 71
3
 72
9
 73
5
 74
3
 42
0.0000001
 43
0.0000001
 44
0.0000000001
 12
-0.0479673986
 22
0.0145287038
 32
0.0
 13
-0.0500426309
 23
-0.0027730218
 33
0.0
 40
0.0
 40
0.0
 40
0.0
 40
0.0
 40
0.257878631
 40
1.0
 40
1.0
 40
1.0
 40
1.0
 10
49.0300661209
 20
-42.9506358371
 30
0.0
 10
49.0259428652
 20
-42.9493869563
 30
0.0
 10
49.009799095
 20
-42.9451121269
 30
0.0
 10
48.9928990308
 20
-42.9433463752
 30
0.0
 10
48.9805197956
 20
-42.9440323481
 30
0.0
 11
49.0300661209
 21
-42.9506358371
 31
0.0
 11
49.0175663039
 21
-42.9473490392
 31
0.0
 11
48.9805197956
 21
-42.9440323481
 31
0.0
  0
SPLINE
  5
4B6
100
AcDbEntity
  8
ASSI
100
AcDbSpline
 62
7
  6
CONTINUOUS
 70
0
 71
3
 72
8
 73
4
 74
2
 42
0.0000001
 43
0.0000001
 44
0.0000000001
 12
-0.0213414878
 22
-0.0011825999
 32
0.0
 13
-0.0206349063
 23
-0.005572996
 33
0.0
 40
0.0
 40
0.0
 40
0.0
 40
0.0
 40
1.0
 40
1.0
 40
1.0
 40
1.0
 10
48.9805197956
 20
-42.9440323481
 30
0.0
 10
48.9734059663
 20
-42.944426548
 30
0.0
 10
48.966282302
 20
-42.9454884142
 30
0.0
 10
48.9594039999
 20
-42.9473460795
 30
0.0
 11
48.9805197956
 21
-42.9440323481
 31
0.0
 11
48.9594039999
 21
-42.9473460795
 31
0.0
  0
SPLINE
  5
4B7
100
AcDbEntity
  8
RACCORDO
100
AcDbSpline
 62
7
  6
CONTINUOUS
 70
0
 71
3
 72
9
 73
5
 74
3
 42
0.0000001
 43
0.0000001
 44
0.0000000001
 12
0.0317711207
 22
0.0230519767
 32
0.0
 13
0.0285175399
 23
0.0269730914
 33
0.0
 40
0.0
 40
0.0
 40
0.0
 40
0.0
 40
0.2582448239
 40
1.0
 40
1.0
 40
1.0
 40
1.0
 10
-56.6340764995
 20
40.3729669542
 30
0.0
 10
-56.6313415903
 20
40.3749513054
 30
0.0
 10
-56.6208651276
 20
40.3827899347
 30
0.0
 10
-56.610861466
 20
40.3912692552
 30
0.0
 10
-56.6038104551
 20
40.3979383986
 30
0.0
 11
-56.6340764995
 21
40.3729669542
 31
0.0
 11
-56.6259621371
 21
40.3790426043
 31
0.0
 11
-56.6038104551
 21
40.3979383986
 31
0.0
  0
SPLINE
  5
4B8
100
AcDbEntity
  8
RACCORDO
100
AcDbSpline
 62
7
  6
CONTINUOUS
 70
0
 71
3
 72
9
 73
5
 74
3
 42
0.0000001
 43
0.0000001
 44
0.0000000001
 12
0.0968016811
 22
0.0915591105
 32
0.0
 13
0.000000034
 23
0.1332427716
 33
0.0
 40
0.0
 40
0.0
 40
0.0
 40
0.0
 40
0.5349233831
 40
1.0
 40
1.0
 40
1.0
 40
1.0
 10
-56.6038104551
 20
40.3979383986
 30
0.0
 10
-56.5865499608
 20
40.4142641016
 30
0.0
 10
-56.5577163977
 20
40.449376729
 30
0.0
 10
-56.5458419195
 20
40.4941269943
 30
0.0
 10
-56.5458419142
 20
40.5147830267
 30
0.0
 11
-56.6038104551
 21
40.3979383986
 31
0.0
 11
-56.5605551904
 21
40.4545869754
 31
0.0
 11
-56.5458419142
 21
40.5147830267
 31
0.0
  0
SPLINE
  5
4B9
100
AcDbEntity
  8
RACCORDO
100
AcDbSpline
 62
7
  6
CONTINUOUS
 70
0
 71
3
 72
9
 73
5
 74
3
 42
0.0000001
 43
0.0000001
 44
0.0000000001
 12
0.0317711207
 22
0.0230519767
 32
0.0
 13
0.0285175399
 23
0.0269730914
 33
0.0
 40
0.0
 40
0.0
 40
0.0
 40
0.0
 40
0.2582448239
 40
1.0
 40
1.0
 40
1.0
 40
1.0
 10
-56.6340764995
 20
21.3204080709
 30
0.0
 10
-56.6313415903
 20
21.3223924222
 30
0.0
 10
-56.6208651276
 20
21.3302310515
 30
0.0
 10
-56.610861466
 20
21.3387103719
 30
0.0
 10
-56.6038104551
 20
21.3453795153
 30
0.0
 11
-56.6340764995
 21
21.3204080709
 31
0.0
 11
-56.6259621371
 21
21.326483721
 31
0.0
 11
-56.6038104551
 21
21.3453795153
 31
0.0
  0
SPLINE
  5
4BA
100
AcDbEntity
  8
RACCORDO
100
AcDbSpline
 62
7
  6
CONTINUOUS
 70
0
 71
3
 72
9
 73
5
 74
3
 42
0.0000001
 43
0.0000001
 44
0.0000000001
 12
0.0968016811
 22
0.0915591105
 32
0.0
 13
0.000000034
 23
0.1332427716
 33
0.0
 40
0.0
 40
0.0
 40
0.0
 40
0.0
 40
0.5349233831
 40
1.0
 40
1.0
 40
1.0
 40
1.0
 10
-56.6038104551
 20
21.3453795153
 30
0.0
 10
-56.5865499608
 20
21.3617052184
 30
0.0
 10
-56.5577163977
 20
21.3968178458
 30
0.0
 10
-56.5458419195
 20
21.441568111
 30
0.0
 10
-56.5458419142
 20
21.4622241435
 30
0.0
 11
-56.6038104551
 21
21.3453795153
 31
0.0
 11
-56.5605551904
 21
21.4020280921
 31
0.0
 11
-56.5458419142
 21
21.4622241435
 31
0.0
  0
SPLINE
  5
4BB
100
AcDbEntity
  8
DRAFT
100
AcDbSpline
 62
7
  6
CONTINUOUS
 70
0
 71
3
 72
9
 73
5
 74
3
 42
0.0000001
 43
0.0000001
 44
0.0000000001
 12
-0.0332954727
 22
-0.1355395461
 32
0.0
 13
-0.1246927706
 23
-0.0626998406
 33
0.0
 40
0.0
 40
0.0
 40
0.0
 40
0.0
 40
0.5315779866
 40
1.0
 40
1.0
 40
1.0
 40
1.0
 10
-42.7793503822
 20
1.5821760482
 30
0.0
 10
-42.7852500956
 20
1.5581594352
 30
0.0
 10
-42.8030636958
 20
1.5138239483
 30
0.0
 10
-42.8391908771
 20
1.4811739259
 30
0.0
 10
-42.85866049
 20
1.4713839307
 30
0.0
 11
-42.7793503822
 21
1.5821760482
 31
0.0
 11
-42.8093636941
 21
1.5143259194
 31
0.0
 11
-42.85866049
 21
1.4713839307
 31
0.0
  0
SPLINE
  5
4BC
100
AcDbEntity
  8
DRAFT
100
AcDbSpline
 62
7
  6
CONTINUOUS
 70
0
 71
3
 72
9
 73
5
 74
3
 42
0.0000001
 43
0.0000001
 44
0.0000000001
 12
-0.0332954727
 22
-0.1355395461
 32
0.0
 13
-0.1246927706
 23
-0.0626998406
 33
0.0
 40
0.0
 40
0.0
 40
0.0
 40
0.0
 40
0.5315779866
 40
1.0
 40
1.0
 40
1.0
 40
1.0
 10
-26.8694478055
 20
-6.3727752401
 30
0.0
 10
-26.8753475189
 20
-6.3967918531
 30
0.0
 10
-26.8931611191
 20
-6.4411273401
 30
0.0
 10
-26.9292883005
 20
-6.4737773625
 30
0.0
 10
-26.9487579133
 20
-6.4835673577
 30
0.0
 11
-26.8694478055
 21
-6.3727752401
 31
0.0
 11
-26.8994611174
 21
-6.4406253689
 31
0.0
 11
-26.9487579133
 21
-6.4835673577
 31
0.0
  0
SPLINE
  5
4BD
100
AcDbEntity
  8
DRAFT
100
AcDbSpline
 62
7
  6
CONTINUOUS
 70
0
 71
3
 72
9
 73
5
 74
3
 42
0.0000001
 43
0.0000001
 44
0.0000000001
 12
-0.0332954727
 22
-0.1355395461
 32
0.0
 13
-0.1246927706
 23
-0.0626998406
 33
0.0
 40
0.0
 40
0.0
 40
0.0
 40
0.0
 40
0.5315779866
 40
1.0
 40
1.0
 40
1.0
 40
1.0
 10
4.9503573479
 20
-22.2826778168
 30
0.0
 10
4.9444576345
 20
-22.3066944298
 30
0.0
 10
4.9266440343
 20
-22.3510299167
 30
0.0
 10
4.8905168529
 20
-22.3836799392
 30
0.0
 10
4.8710472401
 20
-22.3934699344
 30
0.0
 11
4.9503573479
 21
-22.2826778168
 31
0.0
 11
4.920344036
 21
-22.3505279456
 31
0.0
 11
4.8710472401
 21
-22.3934699344
 31
0.0
  0
SPLINE
  5
4BE
100
AcDbEntity
  8
DRAFT
100
AcDbSpline
 62
7
  6
CONTINUOUS
 70
0
 71
3
 72
9
 73
5
 74
3
 42
0.0000001
 43
0.0000001
 44
0.0000000001
 12
-0.0332954727
 22
-0.1355395461
 32
0.0
 13
-0.1246927706
 23
-0.0626998406
 33
0.0
 40
0.0
 40
0.0
 40
0.0
 40
0.0
 40
0.5315779866
 40
1.0
 40
1.0
 40
1.0
 40
1.0
 10
20.8602599246
 20
-30.2376291052
 30
0.0
 10
20.8543602112
 20
-30.2616457182
 30
0.0
 10
20.836546611
 20
-30.3059812051
 30
0.0
 10
20.8004194296
 20
-30.3386312275
 30
0.0
 10
20.7809498167
 20
-30.3484212227
 30
0.0
 11
20.8602599246
 21
-30.2376291052
 31
0.0
 11
20.8302466127
 21
-30.305479234
 31
0.0
 11
20.7809498167
 21
-30.3484212227
 31
0.0
  0
SPLINE
  5
4BF
100
AcDbEntity
  8
RACCORDO
100
AcDbSpline
 62
7
  6
CONTINUOUS
 70
0
 71
3
 72
9
 73
5
 74
3
 42
0.0000001
 43
0.0000001
 44
0.0000000001
 12
-0.0000256854
 22
-0.1493772331
 32
0.0
 13
-0.1143359048
 23
-0.0961293883
 33
0.0
 40
0.0
 40
0.0
 40
0.0
 40
0.0
 40
0.4593390356
 40
1.0
 40
1.0
 40
1.0
 40
1.0
 10
-55.526762127
 20
7.8609083556
 30
0.0
 10
-55.5267660598
 20
7.8380367575
 30
0.0
 10
-55.5416901707
 20
7.7879079385
 30
0.0
 10
-55.5763875408
 20
7.7504874375
 30
0.0
 10
-55.5969931943
 20
7.7331629683
 30
0.0
 11
-55.526762127
 21
7.8609083556
 31
0.0
 11
-55.5446485196
 21
7.7946658687
 31
0.0
 11
-55.5969931943
 21
7.7331629683
 31
0.0
  0
SPLINE
  5
4C0
100
AcDbEntity
  8
RACCORDO
100
AcDbSpline
 62
7
  6
CONTINUOUS
 70
0
 71
3
 72
10
 73
6
 74
4
 42
0.0000001
 43
0.0000001
 44
0.0000000001
 12
-0.2007783487
 22
0.1003543499
 32
0.0
 13
-0.2024658842
 23
-0.0969046262
 33
0.0
 40
0.0
 40
0.0
 40
0.0
 40
0.0
 40
0.2285889596
 40
0.4671563765
 40
1.0
 40
1.0
 40
1.0
 40
1.0
 10
-55.8031704083
 20
8.3081556305
 30
0.0
 10
-55.8184689795
 20
8.3158022626
 30
0.0
 10
-55.8520874195
 20
8.3271146989
 30
0.0
 10
-55.9274331923
 20
8.3316851064
 30
0.0
 10
-55.9846286504
 20
8.3141769467
 30
0.0
 10
-56.0205895355
 20
8.296965276
 30
0.0
 11
-55.8031704083
 21
8.3081556305
 31
0.0
 11
-55.8517475921
 21
8.3246756972
 31
0.0
 11
-55.9051720537
 21
8.3283284186
 31
0.0
 11
-56.0205895355
 21
8.296965276
 31
0.0
  0
SPLINE
  5
4C1
100
AcDbEntity
  8
RACCORDO
100
AcDbSpline
 62
7
  6
CONTINUOUS
 70
0
 71
3
 72
11
 73
7
 74
5
 42
0.0000001
 43
0.0000001
 44
0.0000000001
 12
0.5878046047
 22
-0.2840366875
 32
0.0
 13
0.0848509815
 23
-0.6472954534
 33
0.0
 40
0.0
 40
0.0
 40
0.0
 40
0.0
 40
0.2272268744
 40
0.4805317991
 40
0.7443161687
 40
1.0
 40
1.0
 40
1.0
 40
1.0
 10
-56.0205895355
 20
8.296965276
 30
0.0
 10
-55.9760678678
 20
8.2754516864
 30
0.0
 10
-55.8900008791
 20
8.2129075761
 30
0.0
 10
-55.7860392466
 20
8.0870546545
 30
0.0
 10
-55.7086578118
 20
7.9363776286
 30
0.0
 10
-55.6793894319
 20
7.8259436488
 30
0.0
 10
-55.6721577572
 20
7.7707759883
 30
0.0
 11
-56.0205895355
 21
8.296965276
 31
0.0
 11
-55.8989087302
 21
8.2121189297
 31
0.0
 11
-55.7924092123
 21
8.085613136
 31
0.0
 11
-55.713712526
 21
7.9324395654
 31
0.0
 11
-55.6721577572
 21
7.7707759883
 31
0.0
  0
SPLINE
  5
4C2
100
AcDbEntity
  8
RACCORDO
100
AcDbSpline
 62
7
  6
CONTINUOUS
 70
0
 71
3
 72
11
 73
7
 74
5
 42
0.0000001
 43
0.0000001
 44
0.0000000001
 12
0.5878046047
 22
-0.2840366875
 32
0.0
 13
0.0848509815
 23
-0.6472954534
 33
0.0
 40
0.0
 40
0.0
 40
0.0
 40
0.0
 40
0.2272268744
 40
0.4805317991
 40
0.7443161687
 40
1.0
 40
1.0
 40
1.0
 40
1.0
 10
12.4980575615
 20
-25.9623582725
 30
0.0
 10
12.5425792292
 20
-25.9838718621
 30
0.0
 10
12.6286462178
 20
-26.0464159724
 30
0.0
 10
12.7326078504
 20
-26.172268894
 30
0.0
 10
12.8099892852
 20
-26.3229459199
 30
0.0
 10
12.8392576651
 20
-26.4333798997
 30
0.0
 10
12.8464893398
 20
-26.4885475602
 30
0.0
 11
12.4980575615
 21
-25.9623582725
 31
0.0
 11
12.6197383668
 21
-26.0472046188
 31
0.0
 11
12.7262378847
 21
-26.1737104125
 31
0.0
 11
12.8049345709
 21
-26.3268839831
 31
0.0
 11
12.8464893398
 21
-26.4885475602
 31
0.0
  0
SPLINE
  5
4C3
100
AcDbEntity
  8
RACCORDO
100
AcDbSpline
 62
7
  6
CONTINUOUS
 70
0
 71
3
 72
11
 73
7
 74
5
 42
0.0000001
 43
0.0000001
 44
0.0000000001
 12
0.5878046047
 22
-0.2840366875
 32
0.0
 13
0.0848509815
 23
-0.6472954534
 33
0.0
 40
0.0
 40
0.0
 40
0.0
 40
0.0
 40
0.2272268744
 40
0.4805317991
 40
0.7443161687
 40
1.0
 40
1.0
 40
1.0
 40
1.0
 10
36.3275560874
 20
-37.8771075355
 30
0.0
 10
36.3720777551
 20
-37.8986211251
 30
0.0
 10
36.4581447438
 20
-37.9611652354
 30
0.0
 10
36.5621063763
 20
-38.087018157
 30
0.0
 10
36.6394878112
 20
-38.2376951829
 30
0.0
 10
36.6687561911
 20
-38.3481291627
 30
0.0
 10
36.6759878657
 20
-38.4032968232
 30
0.0
 11
36.3275560874
 21
-37.8771075355
 31
0.0
 11
36.4492368928
 21
-37.9619538818
 31
0.0
 11
36.5557364107
 21
-38.0884596755
 31
0.0
 11
36.6344330969
 21
-38.2416332461
 31
0.0
 11
36.6759878657
 21
-38.4032968232
 31
0.0
  0
SPLINE
  5
4C4
100
AcDbEntity
  8
RACCORDO
100
AcDbSpline
 62
7
  6
CONTINUOUS
 70
0
 71
3
 72
11
 73
7
 74
5
 42
0.0000001
 43
0.0000001
 44
0.0000000001
 12
0.5878046047
 22
-0.2840366875
 32
0.0
 13
0.0848509815
 23
-0.6472954534
 33
0.0
 40
0.0
 40
0.0
 40
0.0
 40
0.0
 40
0.2272268744
 40
0.4805317991
 40
0.7443161687
 40
1.0
 40
1.0
 40
1.0
 40
1.0
 10
-35.1609394905
 20
-2.1328597465
 30
0.0
 10
-35.1164178228
 20
-2.1543733361
 30
0.0
 10
-35.0303508341
 20
-2.2169174464
 30
0.0
 10
-34.9263892016
 20
-2.342770368
 30
0.0
 10
-34.8490077668
 20
-2.4934473939
 30
0.0
 10
-34.8197393869
 20
-2.6038813737
 30
0.0
 10
-34.8125077122
 20
-2.6590490342
 30
0.0
 11
-35.1609394905
 21
-2.1328597465
 31
0.0
 11
-35.0392586852
 21
-2.2177060928
 31
0.0
 11
-34.9327591673
 21
-2.3442118865
 31
0.0
 11
-34.854062481
 21
-2.4973854571
 31
0.0
 11
-34.8125077122
 21
-2.6590490342
 31
0.0
  0
SPLINE
  5
4C5
100
AcDbEntity
  8
RACCORDO
100
AcDbSpline
 62
7
  6
CONTINUOUS
 70
0
 71
3
 72
12
 73
8
 74
6
 42
0.0000001
 43
0.0000001
 44
0.0000000001
 12
0.0
 22
0.7332228092
 32
0.0
 13
-0.6558144176
 23
0.3279072088
 33
0.0
 40
0.0
 40
0.0
 40
0.0
 40
0.0
 40
0.2472833297
 40
0.5126686892
 40
0.7709371794
 40
0.8902174734
 40
1.0
 40
1.0
 40
1.0
 40
1.0
 10
-11.3561781221
 20
-14.8265230234
 30
0.0
 10
-11.3561781221
 20
-14.7660850975
 30
0.0
 10
-11.3766668588
 20
-14.6405493235
 30
0.0
 10
-11.4505332663
 20
-14.4657559833
 30
0.0
 10
-11.5439340558
 20
-14.3370063476
 30
0.0
 10
-11.6324152084
 20
-14.2568662487
 30
0.0
 10
-11.6794006155
 20
-14.2256627574
 30
0.0
 10
-11.7033996034
 20
-14.2136632634
 30
0.0
 11
-11.3561781221
 21
-14.8265230234
 31
0.0
 11
-11.3826048459
 21
-14.6471454488
 31
0.0
 11
-11.457867193
 21
-14.467703192
 31
0.0
 11
-11.5705366897
 21
-14.3154995268
 31
0.0
 11
-11.6356028793
 21
-14.2570574761
 31
0.0
 11
-11.7033996034
 21
-14.2136632634
 31
0.0
  0
SPLINE
  5
4C6
100
AcDbEntity
  8
RACCORDO
100
AcDbSpline
 62
7
  6
CONTINUOUS
 70
0
 71
3
 72
11
 73
7
 74
5
 42
0.0000001
 43
0.0000001
 44
0.0000000001
 12
0.6512316141
 22
-0.336934202
 32
0.0
 13
-0.0105541963
 23
-0.7331547454
 33
0.0
 40
0.0
 40
0.0
 40
0.0
 40
0.0
 40
0.2280141848
 40
0.4859361893
 40
0.7515579068
 40
1.0
 40
1.0
 40
1.0
 40
1.0
 10
-11.3376122619
 20
-14.0445233608
 30
0.0
 10
-11.28811558
 20
-14.0701319533
 30
0.0
 10
-11.1939046213
 20
-14.1465672777
 30
0.0
 10
-11.0863643
 20
-14.2974409686
 30
0.0
 10
-11.014284671
 20
-14.4735259458
 30
0.0
 10
-10.9955793986
 20
-14.5996747417
 30
0.0
 10
-10.9964534342
 20
-14.6603902416
 30
0.0
 11
-11.3376122619
 21
-14.0445233608
 31
0.0
 11
-11.20513654
 21
-14.146511972
 31
0.0
 11
-11.0937837882
 21
-14.2993699208
 31
0.0
 11
-11.0205013707
 21
-14.479819149
 31
0.0
 11
-10.9964534342
 21
-14.6603902416
 31
0.0
  0
SPLINE
  5
4C7
100
AcDbEntity
  8
RACCORDO
100
AcDbSpline
 62
7
  6
CONTINUOUS
 70
0
 71
3
 72
9
 73
5
 74
3
 42
0.0000001
 43
0.0000001
 44
0.0000000001
 12
0.1969201258
 22
0.0665595788
 32
0.0
 13
0.1859197966
 23
-0.0929598983
 33
0.0
 40
0.0
 40
0.0
 40
0.0
 40
0.0
 40
0.4667201946
 40
1.0
 40
1.0
 40
1.0
 40
1.0
 10
10.6877373573
 20
-25.4879521926
 30
0.0
 10
10.7183728905
 20
-25.4775972928
 30
0.0
 10
10.7899829473
 20
-25.4724409844
 30
0.0
 10
10.857393122
 20
-25.4940596261
 30
0.0
 10
10.890442213
 20
-25.5105841716
 30
0.0
 11
10.6877373573
 21
-25.4879521926
 31
0.0
 11
10.784301759
 21
-25.4786165131
 31
0.0
 11
10.890442213
 21
-25.5105841716
 31
0.0
  0
SPLINE
  5
4C8
100
AcDbEntity
  8
RACCORDO
100
AcDbSpline
 62
7
  6
CONTINUOUS
 70
0
 71
3
 72
10
 73
6
 74
4
 42
0.0000001
 43
0.0000001
 44
0.0000000001
 12
0.209289967
 22
0.0972619934
 32
0.0
 13
0.2077974871
 23
-0.1004111049
 33
0.0
 40
0.0
 40
0.0
 40
0.0
 40
0.0
 40
0.2295603236
 40
0.4689688949
 40
1.0
 40
1.0
 40
1.0
 40
1.0
 10
11.020095516
 20
-25.3211910693
 30
0.0
 10
11.0361104069
 20
-25.3137485711
 30
0.0
 10
11.0710465853
 20
-25.3029193725
 30
0.0
 10
11.1485230414
 20
-25.2993429101
 30
0.0
 10
11.2071046499
 20
-25.3174991649
 30
0.0
 10
11.2438869597
 20
-25.3352729716
 30
0.0
 11
11.020095516
 21
-25.3211910693
 31
0.0
 11
11.070647877
 21
-25.3053396851
 31
0.0
 11
11.1258220432
 21
-25.3024051438
 31
0.0
 11
11.2438869597
 21
-25.3352729716
 31
0.0
  0
SPLINE
  5
4C9
100
AcDbEntity
  8
RACCORDO
100
AcDbSpline
 62
7
  6
CONTINUOUS
 70
0
 71
3
 72
10
 73
6
 74
4
 42
0.0000001
 43
0.0000001
 44
0.0000000001
 12
0.2027091416
 22
0.093592367
 32
0.0
 13
0.1983031934
 23
-0.1025981029
 33
0.0
 40
0.0
 40
0.0
 40
0.0
 40
0.0
 40
0.2284623571
 40
0.4669561241
 40
1.0
 40
1.0
 40
1.0
 40
1.0
 10
34.8514045519
 20
-37.2290398977
 30
0.0
 10
34.866841688
 20
-37.2219124534
 30
0.0
 10
34.9006010205
 20
-37.2117057999
 30
0.0
 10
34.9756549721
 20
-37.2095106496
 30
0.0
 10
35.0319794207
 20
-37.2287068224
 30
0.0
 10
35.0672141883
 20
-37.2469365859
 30
0.0
 11
34.8514045519
 21
-37.2290398977
 31
0.0
 11
34.9001839947
 21
-37.2141229056
 31
0.0
 11
34.9533966114
 21
-37.212153295
 31
0.0
 11
35.0672141883
 21
-37.2469365859
 31
0.0
  0
SPLINE
  5
4CA
100
AcDbEntity
  8
RACCORDO
100
AcDbSpline
 62
7
  6
CONTINUOUS
 70
0
 71
3
 72
10
 73
6
 74
4
 42
0.0000001
 43
0.0000001
 44
0.0000000001
 12
0.2027091416
 22
0.093592367
 32
0.0
 13
0.1983031934
 23
-0.1025981029
 33
0.0
 40
0.0
 40
0.0
 40
0.0
 40
0.0
 40
0.2284623571
 40
0.4669561241
 40
1.0
 40
1.0
 40
1.0
 40
1.0
 10
-36.637091026
 20
-1.4847921087
 30
0.0
 10
-36.62165389
 20
-1.4776646645
 30
0.0
 10
-36.5878945575
 20
-1.4674580109
 30
0.0
 10
-36.5128406058
 20
-1.4652628606
 30
0.0
 10
-36.4565161573
 20
-1.4844590334
 30
0.0
 10
-36.4212813897
 20
-1.5026887969
 30
0.0
 11
-36.637091026
 21
-1.4847921087
 31
0.0
 11
-36.5883115833
 21
-1.4698751166
 31
0.0
 11
-36.5350989665
 21
-1.4679055061
 31
0.0
 11
-36.4212813897
 21
-1.5026887969
 31
0.0
  0
SPLINE
  5
4CB
100
AcDbEntity
  8
RACCORDO
100
AcDbSpline
 62
7
  6
CONTINUOUS
 70
0
 71
3
 72
10
 73
6
 74
4
 42
0.0000001
 43
0.0000001
 44
0.0000000001
 12
0.2027091416
 22
0.093592367
 32
0.0
 13
0.1983031934
 23
-0.1025981029
 33
0.0
 40
0.0
 40
0.0
 40
0.0
 40
0.0
 40
0.2284623571
 40
0.4669561241
 40
1.0
 40
1.0
 40
1.0
 40
1.0
 10
-12.8075925001
 20
-13.3995413717
 30
0.0
 10
-12.792155364
 20
-13.3924139275
 30
0.0
 10
-12.7583960315
 20
-13.3822072739
 30
0.0
 10
-12.6833420798
 20
-13.3800121236
 30
0.0
 10
-12.6270176313
 20
-13.3992082964
 30
0.0
 10
-12.5917828637
 20
-13.4174380599
 30
0.0
 11
-12.8075925001
 21
-13.3995413717
 31
0.0
 11
-12.7588130573
 21
-13.3846243796
 31
0.0
 11
-12.7056004406
 21
-13.3826547691
 31
0.0
 11
-12.5917828637
 21
-13.4174380599
 31
0.0
  0
SPLINE
  5
4CC
100
AcDbEntity
  8
ASSI
100
AcDbSpline
 62
7
  6
CONTINUOUS
 70
0
 71
3
 72
11
 73
7
 74
5
 42
0.0000001
 43
0.0000001
 44
0.0000000001
 12
0.0483159092
 22
0.0240461291
 32
0.0
 13
0.048326814
 23
-0.0240242057
 33
0.0
 40
0.0
 40
0.0
 40
0.0
 40
0.0
 40
0.4141056993
 40
0.7151930062
 40
0.9055096016
 40
1.0
 40
1.0
 40
1.0
 40
1.0
 10
-42.2528827364
 20
2.6508447843
 30
0.0
 10
-42.2462134386
 20
2.6541639973
 30
0.0
 10
-42.2345877233
 20
2.659559943
 30
0.0
 10
-42.219360077
 20
2.6658319446
 30
0.0
 10
-42.2095634661
 20
2.6688270757
 30
0.0
 10
-42.2040501446
 20
2.6696617667
 30
0.0
 10
-42.2025280046
 20
2.6689050811
 30
0.0
 11
-42.2528827364
 21
2.6508447843
 31
0.0
 11
-42.2326159838
 21
2.6602643976
 31
0.0
 11
-42.2175149709
 21
2.6662644745
 31
0.0
 11
-42.2076257758
 21
2.6690395328
 31
0.0
 11
-42.2025280046
 21
2.6689050811
 31
0.0
  0
SPLINE
  5
4CD
100
AcDbEntity
  8
RACCORDO
100
AcDbSpline
 62
7
  6
CONTINUOUS
 70
0
 71
3
 72
11
 73
7
 74
5
 42
0.0000001
 43
0.0000001
 44
0.0000000001
 12
0.3974925321
 22
-0.1920748174
 32
0.0
 13
-0.0061350161
 23
-0.4414242972
 33
0.0
 40
0.0
 40
0.0
 40
0.0
 40
0.0
 40
0.2304286388
 40
0.4885150198
 40
0.752907934
 40
1.0
 40
1.0
 40
1.0
 40
1.0
 10
-53.1757372313
 20
32.058010473
 30
0.0
 10
-53.1452060102
 20
32.0432572935
 30
0.0
 10
-53.0868368757
 20
31.9986818111
 30
0.0
 10
-53.0197861771
 20
31.9091850046
 30
0.0
 10
-52.9748128128
 20
31.8041387025
 30
0.0
 10
-52.963132201
 20
31.7285500396
 30
0.0
 10
-52.9636375056
 20
31.692192559
 30
0.0
 11
-53.1757372313
 21
32.058010473
 31
0.0
 11
-53.093448667
 21
31.9982032989
 31
0.0
 11
-53.0242509264
 21
31.9076868809
 31
0.0
 11
-52.9786675266
 21
31.8002351153
 31
0.0
 11
-52.9636375056
 21
31.692192559
 31
0.0
  0
SPLINE
  5
4CE
100
AcDbEntity
  8
RACCORDO
100
AcDbSpline
 62
7
  6
CONTINUOUS
 70
0
 71
3
 72
11
 73
7
 74
5
 42
0.0000001
 43
0.0000001
 44
0.0000000001
 12
0.0025985231
 22
-0.1842770766
 32
0.0
 13
-0.1621869435
 23
-0.0875225037
 33
0.0
 40
0.0
 40
0.0
 40
0.0
 40
0.0
 40
0.2885747165
 40
0.5479727227
 40
0.7816955354
 40
1.0
 40
1.0
 40
1.0
 40
1.0
 10
-52.9636375056
 20
27.1124803204
 30
0.0
 10
-52.9633875496
 20
27.0947544186
 30
0.0
 10
-52.9657660369
 20
27.0609281129
 30
0.0
 10
-52.9795008176
 20
27.014431438
 30
0.0
 10
-53.0030157816
 20
26.9768289697
 30
0.0
 10
-53.0251903356
 20
26.9590238152
 30
0.0
 10
-53.0369923802
 20
26.9526549641
 30
0.0
 11
-52.9636375056
 21
27.1124803204
 31
0.0
 11
-52.9679032376
 21
27.0594686786
 31
0.0
 11
-52.9820646049
 21
27.0138084576
 31
0.0
 11
-53.0054592674
 21
26.9776413101
 31
0.0
 11
-53.0369923802
 21
26.9526549641
 31
0.0
  0
SPLINE
  5
4CF
100
AcDbEntity
  8
ASSI
100
AcDbSpline
 62
7
  6
CONTINUOUS
 70
0
 71
3
 72
11
 73
7
 74
5
 42
0.0000001
 43
0.0000001
 44
0.0000000001
 12
0.048315538
 22
0.0240467905
 32
0.0
 13
0.0483272103
 23
-0.0240233238
 33
0.0
 40
0.0
 40
0.0
 40
0.0
 40
0.0
 40
0.4141046671
 40
0.7151915315
 40
0.9055086154
 40
1.0
 40
1.0
 40
1.0
 40
1.0
 10
-26.3429801597
 20
-5.3907090444
 30
0.0
 10
-26.3363109298
 20
-5.3873897484
 30
0.0
 10
-26.3246851763
 20
-5.3819939515
 30
0.0
 10
-26.3094575901
 20
-5.3757219189
 30
0.0
 10
-26.2996609557
 20
-5.372726759
 30
0.0
 10
-26.2941476331
 20
-5.3718920641
 30
0.0
 10
-26.2926254648
 20
-5.3726487299
 30
0.0
 11
-26.3429801597
 21
-5.3907090444
 31
0.0
 11
-26.3227134693
 21
-5.3812894665
 31
0.0
 11
-26.3076124942
 21
-5.37528939
 31
0.0
 11
-26.2977232864
 21
-5.3725143058
 31
0.0
 11
-26.2926254648
 21
-5.3726487299
 31
0.0
  0
SPLINE
  5
4D0
100
AcDbEntity
  8
ASSI
100
AcDbSpline
 62
7
  6
CONTINUOUS
 70
0
 71
3
 72
11
 73
7
 74
5
 42
0.0000001
 43
0.0000001
 44
0.0000000001
 12
0.048315538
 22
0.0240467905
 32
0.0
 13
0.0483272103
 23
-0.0240233238
 33
0.0
 40
0.0
 40
0.0
 40
0.0
 40
0.0
 40
0.4141046671
 40
0.7151915315
 40
0.9055086154
 40
1.0
 40
1.0
 40
1.0
 40
1.0
 10
-10.433077583
 20
-13.3456603328
 30
0.0
 10
-10.4264083531
 20
-13.3423410367
 30
0.0
 10
-10.4147825996
 20
-13.3369452398
 30
0.0
 10
-10.3995550134
 20
-13.3306732072
 30
0.0
 10
-10.389758379
 20
-13.3276780474
 30
0.0
 10
-10.3842450564
 20
-13.3268433525
 30
0.0
 10
-10.3827228881
 20
-13.3276000182
 30
0.0
 11
-10.433077583
 21
-13.3456603328
 31
0.0
 11
-10.4128108926
 21
-13.3362407548
 31
0.0
 11
-10.3977099175
 21
-13.3302406784
 31
0.0
 11
-10.3878207097
 21
-13.3274655942
 31
0.0
 11
-10.3827228881
 21
-13.3276000182
 31
0.0
  0
SPLINE
  5
4D1
100
AcDbEntity
  8
ASSI
100
AcDbSpline
 62
7
  6
CONTINUOUS
 70
0
 71
3
 72
11
 73
7
 74
5
 42
0.0000001
 43
0.0000001
 44
0.0000000001
 12
0.048315538
 22
0.0240467905
 32
0.0
 13
0.0483272103
 23
-0.0240233238
 33
0.0
 40
0.0
 40
0.0
 40
0.0
 40
0.0
 40
0.4141046671
 40
0.7151915315
 40
0.9055086154
 40
1.0
 40
1.0
 40
1.0
 40
1.0
 10
5.4768249937
 20
-21.3006116211
 30
0.0
 10
5.4834942236
 20
-21.2972923251
 30
0.0
 10
5.4951199771
 20
-21.2918965282
 30
0.0
 10
5.5103475633
 20
-21.2856244956
 30
0.0
 10
5.5201441977
 20
-21.2826293357
 30
0.0
 10
5.5256575203
 20
-21.2817946408
 30
0.0
 10
5.5271796886
 20
-21.2825513066
 30
0.0
 11
5.4768249937
 21
-21.3006116211
 31
0.0
 11
5.4970916841
 21
-21.2911920432
 31
0.0
 11
5.5121926592
 21
-21.2851919667
 31
0.0
 11
5.522081867
 21
-21.2824168825
 31
0.0
 11
5.5271796886
 21
-21.2825513066
 31
0.0
  0
SPLINE
  5
4D2
100
AcDbEntity
  8
ASSI
100
AcDbSpline
 62
7
  6
CONTINUOUS
 70
0
 71
3
 72
11
 73
7
 74
5
 42
0.0000001
 43
0.0000001
 44
0.0000000001
 12
0.048315538
 22
0.0240467905
 32
0.0
 13
0.0483272103
 23
-0.0240233238
 33
0.0
 40
0.0
 40
0.0
 40
0.0
 40
0.0
 40
0.4141046671
 40
0.7151915315
 40
0.9055086154
 40
1.0
 40
1.0
 40
1.0
 40
1.0
 10
21.3867275704
 20
-29.2555629095
 30
0.0
 10
21.3933968003
 20
-29.2522436134
 30
0.0
 10
21.4050225538
 20
-29.2468478165
 30
0.0
 10
21.42025014
 20
-29.2405757839
 30
0.0
 10
21.4300467744
 20
-29.2375806241
 30
0.0
 10
21.435560097
 20
-29.2367459292
 30
0.0
 10
21.4370822653
 20
-29.2375025949
 30
0.0
 11
21.3867275704
 21
-29.2555629095
 31
0.0
 11
21.4069942608
 21
-29.2461433315
 31
0.0
 11
21.4220952359
 21
-29.2401432551
 31
0.0
 11
21.4319844437
 21
-29.2373681709
 31
0.0
 11
21.4370822653
 21
-29.2375025949
 31
0.0
  0
SPLINE
  5
4D3
100
AcDbEntity
  8
ASSI
100
AcDbSpline
 62
7
  6
CONTINUOUS
 70
0
 71
3
 72
11
 73
7
 74
5
 42
0.0000001
 43
0.0000001
 44
0.0000000001
 12
0.048315538
 22
0.0240467905
 32
0.0
 13
0.0483272103
 23
-0.0240233238
 33
0.0
 40
0.0
 40
0.0
 40
0.0
 40
0.0
 40
0.4141046671
 40
0.7151915315
 40
0.9055086154
 40
1.0
 40
1.0
 40
1.0
 40
1.0
 10
37.2966301471
 20
-37.2105141978
 30
0.0
 10
37.303299377
 20
-37.2071949018
 30
0.0
 10
37.3149251305
 20
-37.2017991049
 30
0.0
 10
37.3301527167
 20
-37.1955270723
 30
0.0
 10
37.3399493511
 20
-37.1925319124
 30
0.0
 10
37.3454626737
 20
-37.1916972175
 30
0.0
 10
37.346984842
 20
-37.1924538832
 30
0.0
 11
37.2966301471
 21
-37.2105141978
 31
0.0
 11
37.3168968375
 21
-37.2010946198
 31
0.0
 11
37.3319978126
 21
-37.1950945434
 31
0.0
 11
37.3418870204
 21
-37.1923194592
 31
0.0
 11
37.346984842
 21
-37.1924538832
 31
0.0
  0
SPLINE
  5
4D4
100
AcDbEntity
  8
RACCORDO
100
AcDbSpline
 62
7
  6
CONTINUOUS
 70
0
 71
3
 72
11
 73
7
 74
5
 42
0.0000001
 43
0.0000001
 44
0.0000000001
 12
-0.0000124808
 22
-0.1402926118
 32
0.0
 13
-0.1245837348
 23
-0.064505117
 33
0.0
 40
0.0
 40
0.0
 40
0.0
 40
0.0
 40
0.2077729763
 40
0.4361383275
 40
0.6987155742
 40
1.0
 40
1.0
 40
1.0
 40
1.0
 10
-52.8794394915
 20
27.2166787201
 30
0.0
 10
-52.8794403559
 20
27.2069623823
 30
0.0
 10
-52.8836201579
 20
27.1864146491
 30
0.0
 10
-52.9011297522
 20
27.1582355618
 30
0.0
 10
-52.9285147949
 20
27.1328163651
 30
0.0
 10
-52.9511257926
 20
27.1189584494
 30
0.0
 10
-52.9636375056
 20
27.1124803204
 30
0.0
 11
-52.8794394915
 21
27.2166787201
 31
0.0
 11
-52.8849546473
 21
27.1880562106
 31
0.0
 11
-52.9012823515
 21
27.1604910567
 31
0.0
 11
-52.9278533623
 21
27.1349764788
 31
0.0
 11
-52.9636375056
 21
27.1124803204
 31
0.0
  0
SPLINE
  5
4D5
100
AcDbEntity
  8
RACCORDO
100
AcDbSpline
 62
7
  6
CONTINUOUS
 70
0
 71
3
 72
11
 73
7
 74
5
 42
0.0000001
 43
0.0000001
 44
0.0000000001
 12
-0.0000400072
 22
-0.140278172
 32
0.0
 13
-0.1245709164
 23
-0.0644984801
 33
0.0
 40
0.0
 40
0.0
 40
0.0
 40
0.0
 40
0.207772967
 40
0.4361420497
 40
0.6987203143
 40
1.0
 40
1.0
 40
1.0
 40
1.0
 10
-52.8794394943
 20
31.7963763211
 30
0.0
 10
-52.8794422651
 20
31.7866609838
 30
0.0
 10
-52.8836251208
 20
31.7661161022
 30
0.0
 10
-52.9011355406
 20
31.7379415503
 30
0.0
 10
-52.9285186788
 20
31.7125261157
 30
0.0
 10
-52.9511272768
 20
31.6986699196
 30
0.0
 10
-52.9636375056
 20
31.692192559
 30
0.0
 11
-52.8794394943
 21
31.7963763211
 31
0.0
 11
-52.8849588338
 21
31.7677576737
 31
0.0
 11
-52.9012878337
 21
31.7401965104
 31
0.0
 11
-52.9278573539
 21
31.7146856464
 31
0.0
 11
-52.9636375056
 21
31.692192559
 31
0.0
  0
SPLINE
  5
4D6
100
AcDbEntity
  8
RACCORDO
100
AcDbSpline
 62
7
  6
CONTINUOUS
 70
0
 71
3
 72
9
 73
5
 74
3
 42
0.0000001
 43
0.0000001
 44
0.0000000001
 12
-0.1199996392
 22
0.0599629832
 32
0.0
 13
-0.1210017713
 23
-0.0579141097
 33
0.0
 40
0.0
 40
0.0
 40
0.0
 40
0.0
 40
0.4650363047
 40
1.0
 40
1.0
 40
1.0
 40
1.0
 10
-53.0452875884
 20
32.0647209829
 30
0.0
 10
-53.0638889847
 20
32.0740159709
 30
0.0
 10
-53.1102632183
 20
32.0821374007
 30
0.0
 10
-53.1541600464
 20
32.0683377884
 30
0.0
 10
-53.1757372313
 20
32.058010473
 30
0.0
 11
-53.0452875884
 21
32.0647209829
 31
0.0
 11
-53.1064846285
 21
32.0768288728
 31
0.0
 11
-53.1757372313
 21
32.058010473
 31
0.0
  0
SPLINE
  5
4D7
100
AcDbEntity
  8
RACCORDO
100
AcDbSpline
 62
7
  6
CONTINUOUS
 70
0
 71
3
 72
10
 73
6
 74
4
 42
0.0000001
 43
0.0000001
 44
0.0000000001
 12
-0.2007849185
 22
0.1003834788
 32
0.0
 13
-0.2024829331
 23
-0.0969127862
 33
0.0
 40
0.0
 40
0.0
 40
0.0
 40
0.0
 40
0.228589462
 40
0.467155801
 40
1.0
 40
1.0
 40
1.0
 40
1.0
 10
-36.2038450607
 20
-1.4915070414
 30
0.0
 10
-36.2191441662
 20
-1.4838581729
 30
0.0
 10
-36.25276449
 20
-1.47254175
 30
0.0
 10
-36.3281165252
 20
-1.4679666137
 30
0.0
 10
-36.3853174376
 20
-1.4854756583
 30
0.0
 10
-36.4212813897
 20
-1.5026887969
 30
0.0
 11
-36.2038450607
 21
-1.4915070414
 31
0.0
 11
-36.2524249769
 21
-1.4749812402
 31
0.0
 11
-36.3058534831
 21
-1.4713251184
 31
0.0
 11
-36.4212813897
 21
-1.5026887969
 31
0.0
  0
SPLINE
  5
4D8
100
AcDbEntity
  8
RACCORDO
100
AcDbSpline
 62
7
  6
CONTINUOUS
 70
0
 71
3
 72
9
 73
5
 74
3
 42
0.0000001
 43
0.0000001
 44
0.0000000001
 12
-0.1200027248
 22
0.0599767827
 32
0.0
 13
-0.1210098253
 23
-0.0579179644
 33
0.0
 40
0.0
 40
0.0
 40
0.0
 40
0.0
 40
0.465035448
 40
1.0
 40
1.0
 40
1.0
 40
1.0
 10
-53.3719722827
 20
32.2280633321
 30
0.0
 10
-53.390574123
 20
32.2373604421
 30
0.0
 10
-53.4369513973
 20
32.2454852251
 30
0.0
 10
-53.4808515183
 20
32.2316849637
 30
0.0
 10
-53.5024301739
 20
32.2213569444
 30
0.0
 11
-53.3719722827
 21
32.2280633321
 31
0.0
 11
-53.4331725719
 21
32.2401756007
 31
0.0
 11
-53.5024301739
 21
32.2213569444
 31
0.0
  0
SPLINE
  5
4D9
100
AcDbEntity
  8
RACCORDO
100
AcDbSpline
 62
7
  6
CONTINUOUS
 70
0
 71
3
 72
9
 73
5
 74
3
 42
0.0000001
 43
0.0000001
 44
0.0000000001
 12
-0.0000256854
 22
-0.1493772331
 32
0.0
 13
-0.1143359048
 23
-0.0961293883
 33
0.0
 40
0.0
 40
0.0
 40
0.0
 40
0.0
 40
0.4593390356
 40
1.0
 40
1.0
 40
1.0
 40
1.0
 10
-34.667112082
 20
-2.5689166669
 30
0.0
 10
-34.6671160148
 20
-2.591788265
 30
0.0
 10
-34.6820401257
 20
-2.641917084
 30
0.0
 10
-34.7167374958
 20
-2.679337585
 30
0.0
 10
-34.7373431493
 20
-2.6966620542
 30
0.0
 11
-34.667112082
 21
-2.5689166669
 31
0.0
 11
-34.6849984746
 21
-2.6351591538
 31
0.0
 11
-34.7373431493
 21
-2.6966620542
 31
0.0
  0
SPLINE
  5
4DA
100
AcDbEntity
  8
RACCORDO
100
AcDbSpline
 62
7
  6
CONTINUOUS
 70
0
 71
3
 72
10
 73
6
 74
4
 42
0.0000001
 43
0.0000001
 44
0.0000000001
 12
-0.2007783487
 22
0.1003543499
 32
0.0
 13
-0.2024658842
 23
-0.0969046262
 33
0.0
 40
0.0
 40
0.0
 40
0.0
 40
0.0
 40
0.2285889596
 40
0.4671563765
 40
1.0
 40
1.0
 40
1.0
 40
1.0
 10
-34.9435203633
 20
-2.121669392
 30
0.0
 10
-34.9588189345
 20
-2.1140227599
 30
0.0
 10
-34.9924373745
 20
-2.1027103236
 30
0.0
 10
-35.0677831473
 20
-2.0981399161
 30
0.0
 10
-35.1249786054
 20
-2.1156480758
 30
0.0
 10
-35.1609394905
 20
-2.1328597465
 30
0.0
 11
-34.9435203633
 21
-2.121669392
 31
0.0
 11
-34.9920975471
 21
-2.1051493253
 31
0.0
 11
-35.0455220087
 21
-2.101496604
 31
0.0
 11
-35.1609394905
 21
-2.1328597465
 31
0.0
  0
SPLINE
  5
4DB
100
AcDbEntity
  8
RACCORDO
100
AcDbSpline
 62
7
  6
CONTINUOUS
 70
0
 71
3
 72
10
 73
6
 74
4
 42
0.0000001
 43
0.0000001
 44
0.0000000001
 12
-0.2007849185
 22
0.1003834788
 32
0.0
 13
-0.2024829331
 23
-0.0969127862
 33
0.0
 40
0.0
 40
0.0
 40
0.0
 40
0.0
 40
0.228589462
 40
0.467155801
 40
1.0
 40
1.0
 40
1.0
 40
1.0
 10
-12.3743465347
 20
-13.4062563044
 30
0.0
 10
-12.3896456402
 20
-13.3986074359
 30
0.0
 10
-12.4232659641
 20
-13.387291013
 30
0.0
 10
-12.4986179993
 20
-13.3827158767
 30
0.0
 10
-12.5558189116
 20
-13.4002249213
 30
0.0
 10
-12.5917828637
 20
-13.4174380599
 30
0.0
 11
-12.3743465347
 21
-13.4062563044
 31
0.0
 11
-12.4229264509
 21
-13.3897305032
 31
0.0
 11
-12.4763549571
 21
-13.3860743814
 31
0.0
 11
-12.5917828637
 21
-13.4174380599
 31
0.0
  0
SPLINE
  5
4DC
100
AcDbEntity
  8
RACCORDO
100
AcDbSpline
 62
7
  6
CONTINUOUS
 70
0
 71
3
 72
11
 73
7
 74
5
 42
0.0000001
 43
0.0000001
 44
0.0000000001
 12
-0.0000812425
 22
-0.2475015482
 32
0.0
 13
-0.2228804517
 23
-0.1076165751
 33
0.0
 40
0.0
 40
0.0
 40
0.0
 40
0.0
 40
0.2053978708
 40
0.43288631
 40
0.6963220094
 40
1.0
 40
1.0
 40
1.0
 40
1.0
 10
-10.8437850628
 20
-14.4805920024
 30
0.0
 10
-10.8437906252
 20
-14.4975374328
 30
0.0
 10
-10.8514897263
 20
-14.5335264176
 30
0.0
 10
-10.8834429129
 20
-14.5823784355
 30
0.0
 10
-10.9330954051
 20
-14.6260427812
 30
0.0
 10
-10.9738921383
 20
-14.6494966465
 30
0.0
 10
-10.9964534342
 20
-14.6603902416
 30
0.0
 11
-10.8437850628
 21
-14.4805920024
 31
0.0
 11
-10.8538357015
 21
-14.5304248573
 31
0.0
 11
-10.8835431076
 21
-14.5782535266
 31
0.0
 11
-10.9317372134
 21
-14.6221678246
 31
0.0
 11
-10.9964534342
 21
-14.6603902416
 31
0.0
  0
SPLINE
  5
4DD
100
AcDbEntity
  8
RACCORDO
100
AcDbSpline
 62
7
  6
CONTINUOUS
 70
0
 71
3
 72
10
 73
6
 74
4
 42
0.0000001
 43
0.0000001
 44
0.0000000001
 12
-0.2007672143
 22
0.1003049638
 32
0.0
 13
-0.2024369874
 23
-0.0968907955
 33
0.0
 40
0.0
 40
0.0
 40
0.0
 40
0.0
 40
0.2285881083
 40
0.4671573455
 40
1.0
 40
1.0
 40
1.0
 40
1.0
 10
-11.1202222917
 20
-14.0333184362
 30
0.0
 10
-11.1355199576
 20
-14.0256755956
 30
0.0
 10
-11.169135203
 20
-14.0143699176
 30
0.0
 10
-11.2444703606
 20
-14.0098075151
 30
0.0
 10
-11.3016565747
 20
-14.0273141779
 30
0.0
 10
-11.3376122619
 20
-14.0445233608
 30
0.0
 11
-11.1202222917
 21
-14.0333184362
 31
0.0
 11
-11.1687948438
 21
-14.0168080898
 31
0.0
 11
-11.2222124478
 21
-14.0131611274
 31
0.0
 11
-11.3376122619
 21
-14.0445233608
 31
0.0
  0
SPLINE
  5
4DE
100
AcDbEntity
  8
RACCORDO
100
AcDbSpline
 62
7
  6
CONTINUOUS
 70
0
 71
3
 72
10
 73
6
 74
4
 42
0.0000001
 43
0.0000001
 44
0.0000000001
 12
-0.2007849323
 22
0.1003834738
 32
0.0
 13
-0.2024829422
 23
-0.0969127905
 33
0.0
 40
0.0
 40
0.0
 40
0.0
 40
0.0
 40
0.2285894578
 40
0.4671557942
 40
1.0
 40
1.0
 40
1.0
 40
1.0
 10
11.4613232977
 20
-25.3240912208
 30
0.0
 10
11.4460241914
 20
-25.3164423528
 30
0.0
 10
11.4124038684
 20
-25.3051259252
 30
0.0
 10
11.3370518292
 20
-25.3005507872
 30
0.0
 10
11.2798509139
 20
-25.318059832
 30
0.0
 10
11.2438869597
 20
-25.3352729716
 30
0.0
 11
11.4613232977
 21
-25.3240912208
 31
0.0
 11
11.4127433811
 21
-25.3075654164
 31
0.0
 11
11.3593148732
 21
-25.3039092926
 31
0.0
 11
11.2438869597
 21
-25.3352729716
 31
0.0
  0
SPLINE
  5
4DF
100
AcDbEntity
  8
RACCORDO
100
AcDbSpline
 62
7
  6
CONTINUOUS
 70
0
 71
3
 72
9
 73
5
 74
3
 42
0.0000001
 43
0.0000001
 44
0.0000000001
 12
-0.0000256854
 22
-0.1493772331
 32
0.0
 13
-0.1143359048
 23
-0.0961293883
 33
0.0
 40
0.0
 40
0.0
 40
0.0
 40
0.0
 40
0.4593390356
 40
1.0
 40
1.0
 40
1.0
 40
1.0
 10
12.99188497
 20
-26.3984151929
 30
0.0
 10
12.9918810372
 20
-26.4212867909
 30
0.0
 10
12.9769569263
 20
-26.47141561
 30
0.0
 10
12.9422595562
 20
-26.5088361109
 30
0.0
 10
12.9216539026
 20
-26.5261605802
 30
0.0
 11
12.99188497
 21
-26.3984151929
 31
0.0
 11
12.9739985774
 21
-26.4646576798
 31
0.0
 11
12.9216539026
 21
-26.5261605802
 31
0.0
  0
SPLINE
  5
4E0
100
AcDbEntity
  8
RACCORDO
100
AcDbSpline
 62
7
  6
CONTINUOUS
 70
0
 71
3
 72
10
 73
6
 74
4
 42
0.0000001
 43
0.0000001
 44
0.0000000001
 12
-0.2007783487
 22
0.1003543499
 32
0.0
 13
-0.2024658842
 23
-0.0969046262
 33
0.0
 40
0.0
 40
0.0
 40
0.0
 40
0.0
 40
0.2285889596
 40
0.4671563765
 40
1.0
 40
1.0
 40
1.0
 40
1.0
 10
12.7154766887
 20
-25.951167918
 30
0.0
 10
12.7001781174
 20
-25.9435212859
 30
0.0
 10
12.6665596775
 20
-25.9322088496
 30
0.0
 10
12.5912139046
 20
-25.927638442
 30
0.0
 10
12.5340184466
 20
-25.9451466018
 30
0.0
 10
12.4980575615
 20
-25.9623582725
 30
0.0
 11
12.7154766887
 21
-25.951167918
 31
0.0
 11
12.6668995048
 21
-25.9346478513
 31
0.0
 11
12.6134750432
 21
-25.9309951299
 31
0.0
 11
12.4980575615
 21
-25.9623582725
 31
0.0
  0
SPLINE
  5
4E1
100
AcDbEntity
  8
RACCORDO
100
AcDbSpline
 62
7
  6
CONTINUOUS
 70
0
 71
3
 72
10
 73
6
 74
4
 42
0.0000001
 43
0.0000001
 44
0.0000000001
 12
-0.2007849185
 22
0.1003834788
 32
0.0
 13
-0.2024829331
 23
-0.0969127862
 33
0.0
 40
0.0
 40
0.0
 40
0.0
 40
0.0
 40
0.228589462
 40
0.467155801
 40
1.0
 40
1.0
 40
1.0
 40
1.0
 10
35.2846505172
 20
-37.2357548304
 30
0.0
 10
35.2693514117
 20
-37.2281059619
 30
0.0
 10
35.2357310879
 20
-37.2167895389
 30
0.0
 10
35.1603790527
 20
-37.2122144027
 30
0.0
 10
35.1031781404
 20
-37.2297234473
 30
0.0
 10
35.0672141883
 20
-37.2469365859
 30
0.0
 11
35.2846505172
 21
-37.2357548304
 31
0.0
 11
35.236070601
 21
-37.2192290291
 31
0.0
 11
35.1826420948
 21
-37.2155729074
 31
0.0
 11
35.0672141883
 21
-37.2469365859
 31
0.0
  0
SPLINE
  5
4E2
100
AcDbEntity
  8
RACCORDO
100
AcDbSpline
 62
7
  6
CONTINUOUS
 70
0
 71
3
 72
9
 73
5
 74
3
 42
0.0000001
 43
0.0000001
 44
0.0000000001
 12
-0.0000256854
 22
-0.1493772331
 32
0.0
 13
-0.1143359048
 23
-0.0961293883
 33
0.0
 40
0.0
 40
0.0
 40
0.0
 40
0.0
 40
0.4593390356
 40
1.0
 40
1.0
 40
1.0
 40
1.0
 10
36.821383496
 20
-38.3131644559
 30
0.0
 10
36.8213795632
 20
-38.3360360539
 30
0.0
 10
36.8064554523
 20
-38.386164873
 30
0.0
 10
36.7717580821
 20
-38.4235853739
 30
0.0
 10
36.7511524286
 20
-38.4409098432
 30
0.0
 11
36.821383496
 21
-38.3131644559
 31
0.0
 11
36.8034971034
 21
-38.3794069428
 31
0.0
 11
36.7511524286
 21
-38.4409098432
 31
0.0
  0
SPLINE
  5
4E3
100
AcDbEntity
  8
RACCORDO
100
AcDbSpline
 62
7
  6
CONTINUOUS
 70
0
 71
3
 72
10
 73
6
 74
4
 42
0.0000001
 43
0.0000001
 44
0.0000000001
 12
-0.2007783487
 22
0.1003543499
 32
0.0
 13
-0.2024658842
 23
-0.0969046262
 33
0.0
 40
0.0
 40
0.0
 40
0.0
 40
0.0
 40
0.2285889596
 40
0.4671563765
 40
1.0
 40
1.0
 40
1.0
 40
1.0
 10
36.5449752147
 20
-37.865917181
 30
0.0
 10
36.5296766434
 20
-37.8582705489
 30
0.0
 10
36.4960582035
 20
-37.8469581126
 30
0.0
 10
36.4207124306
 20
-37.842387705
 30
0.0
 10
36.3635169726
 20
-37.8598958648
 30
0.0
 10
36.3275560874
 20
-37.8771075355
 30
0.0
 11
36.5449752147
 21
-37.865917181
 31
0.0
 11
36.4963980308
 21
-37.8493971143
 31
0.0
 11
36.4429735692
 21
-37.8457443929
 31
0.0
 11
36.3275560874
 21
-37.8771075355
 31
0.0
  0
SPLINE
  5
4E4
100
AcDbEntity
  8
RACCORDO
100
AcDbSpline
 62
7
  6
CONTINUOUS
 70
0
 71
3
 72
9
 73
5
 74
3
 42
0.0000001
 43
0.0000001
 44
0.0000000001
 12
0.1211472951
 22
0.0559346344
 32
0.0
 13
0.1185141191
 23
-0.061316833
 33
0.0
 40
0.0
 40
0.0
 40
0.0
 40
0.0
 40
0.4648521119
 40
1.0
 40
1.0
 40
1.0
 40
1.0
 10
-53.6319159537
 20
32.2320949582
 30
0.0
 10
-53.6131440951
 20
32.2407620692
 30
0.0
 10
-53.5667794668
 20
32.2473838306
 30
0.0
 10
-53.5235710341
 20
32.2322948023
 30
0.0
 10
-53.5024301739
 20
32.2213569444
 30
0.0
 11
-53.6319159537
 21
32.2320949582
 31
0.0
 11
-53.5707207187
 21
32.2422269188
 31
0.0
 11
-53.5024301739
 21
32.2213569444
 31
0.0
  0
ELLIPSE
  5
4E5
100
AcDbEntity
  8
RACCORDO
100
AcDbEllipse
 62
7
  6
CONTINUOUS
 10
55.6973242515
 20
-51.9396394855
 30
0.0
 11
-0.313181275
 21
0.626269159
 31
0.0
 40
0.6121897086
 41
-3.1605525579
 42
-2.2557347926
  0
ELLIPSE
  5
4E6
100
AcDbEntity
  8
RACCORDO
100
AcDbEllipse
 62
7
  6
CONTINUOUS
 10
55.6973242515
 20
-7.6114167234
 30
0.0
 11
-0.3130130858
 21
0.6261196575
 31
0.0
 40
0.6125552124
 41
-2.255296188
 42
-0.6848044477
  0
ELLIPSE
  5
4E7
100
AcDbEntity
  8
RACCORDO
100
AcDbEllipse
 62
7
  6
CONTINUOUS
 10
-59.551056209
 20
50.0127735068
 30
0.0
 11
-0.313181275
 21
0.626269159
 31
0.0
 40
0.6121897086
 41
-0.6846338794
 42
0.0188552051
  0
ELLIPSE
  5
4E8
100
AcDbEntity
  8
RACCORDO
100
AcDbEllipse
 62
7
  6
CONTINUOUS
 10
-57.2877404643
 20
7.6236117977
 30
0.0
 11
-0.1341484654
 21
0.2683369961
 31
0.0
 40
0.6125552124
 41
0.8862964655
 42
2.4567882058
  0
ELLIPSE
  5
4E9
100
AcDbEntity
  8
RACCORDO
100
AcDbEllipse
 62
7
  6
CONTINUOUS
 10
-56.7736727723
 20
7.869044823
 30
0.0
 11
-0.1340229113
 21
0.2684080287
 31
0.0
 40
0.6140178746
 41
0.8880524522
 42
2.4561097232
  0
ELLIPSE
  5
4EA
100
AcDbEntity
  8
RACCORDO
100
AcDbEllipse
 62
7
  6
CONTINUOUS
 10
49.6565737088
 20
-45.1534971166
 30
0.0
 11
-0.1341371037
 21
0.2683722998
 31
0.0
 40
0.6123537661
 41
-0.6845550499
 42
0.0106817792
  0
ELLIPSE
  5
4EB
100
AcDbEntity
  8
RACCORDO
100
AcDbEllipse
 62
7
  6
CONTINUOUS
 10
-29.8929391747
 20
-5.3787406749
 30
0.0
 11
-0.1341371037
 21
0.2683722998
 31
0.0
 40
0.6123537661
 41
-0.6845550499
 42
0.0106817792
  0
ELLIPSE
  5
4EC
100
AcDbEntity
  8
RACCORDO
100
AcDbEllipse
 62
7
  6
CONTINUOUS
 10
-45.8028417514
 20
2.5762106135
 30
0.0
 11
-0.1341371037
 21
0.2683722998
 31
0.0
 40
0.6123537661
 41
-0.6845550499
 42
0.0106817792
  0
ELLIPSE
  5
4ED
100
AcDbEntity
  8
RACCORDO
100
AcDbEllipse
 62
7
  6
CONTINUOUS
 10
-13.983036598
 20
-13.3336919632
 30
0.0
 11
-0.1341371037
 21
0.2683722998
 31
0.0
 40
0.6123537661
 41
-0.6845550499
 42
0.0106817792
  0
ELLIPSE
  5
4EE
100
AcDbEntity
  8
RACCORDO
100
AcDbEllipse
 62
7
  6
CONTINUOUS
 10
33.7466711321
 20
-37.1985458283
 30
0.0
 11
-0.1341371037
 21
0.2683722998
 31
0.0
 40
0.6123537661
 41
-0.6845550499
 42
0.0106817792
  0
ELLIPSE
  5
4EF
100
AcDbEntity
  8
RACCORDO
100
AcDbEllipse
 62
7
  6
CONTINUOUS
 10
26.658794187
 20
-33.6546073557
 30
0.0
 11
-0.1342205464
 21
0.2684010681
 31
0.0
 40
0.6121897086
 41
-0.6846338794
 42
0.0192587573
  0
ELLIPSE
  5
4F0
100
AcDbEntity
  8
RACCORDO
100
AcDbEllipse
 62
7
  6
CONTINUOUS
 10
17.8367685554
 20
-29.2435945399
 30
0.0
 11
-0.1341371037
 21
0.2683722998
 31
0.0
 40
0.6123537661
 41
-0.6845550499
 42
0.0106817792
  0
ELLIPSE
  5
4F1
100
AcDbEntity
  8
RACCORDO
100
AcDbEllipse
 62
7
  6
CONTINUOUS
 10
1.9268659787
 20
-21.2886432516
 30
0.0
 11
-0.1341371037
 21
0.2683722998
 31
0.0
 40
0.6123537661
 41
-0.6845550499
 42
0.0106817792
  0
ELLIPSE
  5
4F2
100
AcDbEntity
  8
RACCORDO
100
AcDbEllipse
 62
7
  6
CONTINUOUS
 10
-5.1610109664
 20
-17.744704779
 30
0.0
 11
-0.1342205464
 21
0.2684010681
 31
0.0
 40
0.6121897086
 41
-0.6846338794
 42
0.0192587573
  0
ELLIPSE
  5
4F3
100
AcDbEntity
  8
RACCORDO
100
AcDbEllipse
 62
7
  6
CONTINUOUS
 10
-21.0709135431
 20
-9.7897534907
 30
0.0
 11
-0.1342205464
 21
0.2684010681
 31
0.0
 40
0.6121897086
 41
-0.6846338794
 42
0.0192587573
  0
ELLIPSE
  5
4F4
100
AcDbEntity
  8
RACCORDO
100
AcDbEllipse
 62
7
  6
CONTINUOUS
 10
21.1445955532
 20
-30.9697303699
 30
0.0
 11
-0.1342205464
 21
0.2684010681
 31
0.0
 40
0.6121897086
 41
-0.6846338794
 42
0.0192587602
  0
ELLIPSE
  5
4F5
100
AcDbEntity
  8
RACCORDO
100
AcDbEllipse
 62
7
  6
CONTINUOUS
 10
-26.5851121768
 20
-7.1048765049
 30
0.0
 11
-0.1342205464
 21
0.2684010681
 31
0.0
 40
0.6121897086
 41
-0.6846338794
 42
0.0192587602
  0
ELLIPSE
  5
4F6
100
AcDbEntity
  8
RACCORDO
100
AcDbEllipse
 62
7
  6
CONTINUOUS
 10
-10.6752096001
 20
-15.0598277932
 30
0.0
 11
-0.1342205464
 21
0.2684010681
 31
0.0
 40
0.6121897086
 41
-0.6846338794
 42
0.0192587602
  0
ELLIPSE
  5
4F7
100
AcDbEntity
  8
RACCORDO
100
AcDbEllipse
 62
7
  6
CONTINUOUS
 10
5.2346929766
 20
-23.0147790816
 30
0.0
 11
-0.1342205464
 21
0.2684010681
 31
0.0
 40
0.6121897086
 41
-0.6846338794
 42
0.0192587602
  0
ELLIPSE
  5
4F8
100
AcDbEntity
  8
RACCORDO
100
AcDbEllipse
 62
7
  6
CONTINUOUS
 10
-2.7400387771
 20
-18.9551908737
 30
0.0
 11
-0.1341371037
 21
0.2683722998
 31
0.0
 40
0.6123537661
 41
-2.2553513767
 42
-0.6845550499
  0
ELLIPSE
  5
4F9
100
AcDbEntity
  8
RACCORDO
100
AcDbEllipse
 62
7
  6
CONTINUOUS
 10
4.347838168
 20
-22.4991293462
 30
0.0
 11
-0.1341484654
 21
0.2683369961
 31
0.0
 40
0.6125552124
 41
-2.255296188
 42
-0.6848044477
  0
ELLIPSE
  5
4FA
100
AcDbEntity
  8
RACCORDO
100
AcDbEllipse
 62
7
  6
CONTINUOUS
 10
13.1698637996
 20
-26.910142162
 30
0.0
 11
-0.1341371037
 21
0.2683722998
 31
0.0
 40
0.6123537661
 41
-2.2553513767
 42
-0.6845550499
  0
ELLIPSE
  5
4FB
100
AcDbEntity
  8
RACCORDO
100
AcDbEllipse
 62
7
  6
CONTINUOUS
 10
20.2577407447
 20
-30.4540806346
 30
0.0
 11
-0.1341484654
 21
0.2683369961
 31
0.0
 40
0.6125552124
 41
-2.255296188
 42
-0.6848044477
  0
ELLIPSE
  5
4FC
100
AcDbEntity
  8
RACCORDO
100
AcDbEllipse
 62
7
  6
CONTINUOUS
 10
29.0797663763
 20
-34.8650934504
 30
0.0
 11
-0.1341371037
 21
0.2683722998
 31
0.0
 40
0.6123537661
 41
-2.2553513767
 42
-0.6845550499
  0
ELLIPSE
  5
4FD
100
AcDbEntity
  8
RACCORDO
100
AcDbEllipse
 62
7
  6
CONTINUOUS
 10
44.989668953
 20
-42.8200447387
 30
0.0
 11
-0.1341371037
 21
0.2683722998
 31
0.0
 40
0.6123537661
 41
-2.2553513767
 42
-0.6845550499
  0
ELLIPSE
  5
4FE
100
AcDbEntity
  8
RACCORDO
100
AcDbEllipse
 62
7
  6
CONTINUOUS
 10
-56.4447988082
 20
41.5217287552
 30
0.0
 11
-0.1341371037
 21
0.2683722998
 31
0.0
 40
0.6123537661
 41
-3.1519578821
 42
-2.2553513767
  0
ELLIPSE
  5
4FF
100
AcDbEntity
  8
RACCORDO
100
AcDbEllipse
 62
7
  6
CONTINUOUS
 10
-56.4448311219
 20
33.1624722948
 30
0.0
 11
-0.1341484654
 21
0.2683369961
 31
0.0
 40
0.6125552124
 41
-2.255296188
 42
-0.6848044477
  0
ELLIPSE
  5
500
100
AcDbEntity
  8
RACCORDO
100
AcDbEllipse
 62
7
  6
CONTINUOUS
 10
-56.4448311219
 20
22.4691860288
 30
0.0
 11
-0.1342205464
 21
0.2684010681
 31
0.0
 40
0.6121897086
 41
-3.1605454984
 42
-2.2557347926
  0
ELLIPSE
  5
501
100
AcDbEntity
  8
RACCORDO
100
AcDbEllipse
 62
7
  6
CONTINUOUS
 10
-56.4447988082
 20
14.1098972547
 30
0.0
 11
-0.1341371037
 21
0.2683722998
 31
0.0
 40
0.6123537661
 41
-2.2553513767
 42
-0.6845550499
  0
ELLIPSE
  5
502
100
AcDbEntity
  8
RACCORDO
100
AcDbEllipse
 62
7
  6
CONTINUOUS
 10
-50.4697465072
 20
4.9096629914
 30
0.0
 11
-0.1341371037
 21
0.2683722998
 31
0.0
 40
0.6123537661
 41
-2.2553513767
 42
-0.6845550499
  0
ELLIPSE
  5
503
100
AcDbEntity
  8
RACCORDO
100
AcDbEllipse
 62
7
  6
CONTINUOUS
 10
-34.5598439305
 20
-3.045288297
 30
0.0
 11
-0.1341371037
 21
0.2683722998
 31
0.0
 40
0.6123537661
 41
-2.2553513767
 42
-0.6845550499
  0
ELLIPSE
  5
504
100
AcDbEntity
  8
RACCORDO
100
AcDbEllipse
 62
7
  6
CONTINUOUS
 10
-27.4719669854
 20
-6.5892267695
 30
0.0
 11
-0.1341484654
 21
0.2683369961
 31
0.0
 40
0.6125552124
 41
-2.255296188
 42
-0.6848044477
  0
ELLIPSE
  5
505
100
AcDbEntity
  8
RACCORDO
100
AcDbEllipse
 62
7
  6
CONTINUOUS
 10
-18.6499413538
 20
-11.0002395853
 30
0.0
 11
-0.1341371037
 21
0.2683722998
 31
0.0
 40
0.6123537661
 41
-2.2553513767
 42
-0.6845550499
  0
ELLIPSE
  5
506
100
AcDbEntity
  8
ASSI
100
AcDbEllipse
 62
7
  6
CONTINUOUS
 10
48.9420553484
 20
-43.1269933892
 30
0.0
 11
0.0974129977
 21
0.1748074534
 31
0.0
 40
0.6437101552
 41
0.6611775963
 42
0.7135374739
  0
ELLIPSE
  5
507
100
AcDbEntity
  8
ASSI
100
AcDbEllipse
 62
7
  6
CONTINUOUS
 10
-46.5173601118
 20
4.6027143409
 30
0.0
 11
0.0974129977
 21
0.1748074534
 31
0.0
 40
0.6437101552
 41
0.6611775963
 42
0.7135374739
  0
ELLIPSE
  5
508
100
AcDbEntity
  8
ASSI
100
AcDbEllipse
 62
7
  6
CONTINUOUS
 10
-30.6074575351
 20
-3.4388394879
 30
0.0
 11
0.0974129977
 21
0.1748074534
 31
0.0
 40
0.6437101552
 41
0.6611775963
 42
0.7135374739
  0
ELLIPSE
  5
509
100
AcDbEntity
  8
ASSI
100
AcDbEllipse
 62
7
  6
CONTINUOUS
 10
-14.6975549584
 20
-11.3937907762
 30
0.0
 11
0.0974129977
 21
0.1748074534
 31
0.0
 40
0.6437101552
 41
0.6611775963
 42
0.7135374739
  0
ELLIPSE
  5
50A
100
AcDbEntity
  8
ASSI
100
AcDbEllipse
 62
7
  6
CONTINUOUS
 10
1.2123476183
 20
-19.3487420646
 30
0.0
 11
0.0974129977
 21
0.1748074534
 31
0.0
 40
0.6437101552
 41
0.6611775963
 42
0.7135374739
  0
ELLIPSE
  5
50B
100
AcDbEntity
  8
ASSI
100
AcDbEllipse
 62
7
  6
CONTINUOUS
 10
17.122250195
 20
-27.3036933529
 30
0.0
 11
0.0974129977
 21
0.1748074534
 31
0.0
 40
0.6437101552
 41
0.6611775963
 42
0.7135374739
  0
ELLIPSE
  5
50C
100
AcDbEntity
  8
ASSI
100
AcDbEllipse
 62
7
  6
CONTINUOUS
 10
33.0321527717
 20
-35.2586446413
 30
0.0
 11
0.0974129977
 21
0.1748074534
 31
0.0
 40
0.6437101552
 41
0.6611775963
 42
0.7135374739
  0
ELLIPSE
  5
50D
100
AcDbEntity
  8
RACCORDO
100
AcDbEllipse
 62
7
  6
CONTINUOUS
 10
9.7206154455
 20
-25.2577403161
 30
0.0
 11
-0.1341484654
 21
0.2683369961
 31
0.0
 40
0.6125552124
 41
-2.255296188
 42
-0.6848044477
  0
ELLIPSE
  5
50E
100
AcDbEntity
  8
RACCORDO
100
AcDbEllipse
 62
7
  6
CONTINUOUS
 10
-6.1892871312
 20
-17.3027890277
 30
0.0
 11
-0.1341484654
 21
0.2683369961
 31
0.0
 40
0.6125552124
 41
-2.255296188
 42
-0.6848044477
  0
ELLIPSE
  5
50F
100
AcDbEntity
  8
RACCORDO
100
AcDbEllipse
 62
7
  6
CONTINUOUS
 10
25.6305180222
 20
-33.2126916044
 30
0.0
 11
-0.1341484654
 21
0.2683369961
 31
0.0
 40
0.6125552124
 41
-2.255296188
 42
-0.6848044477
  0
ELLIPSE
  5
510
100
AcDbEntity
  8
RACCORDO
100
AcDbEllipse
 62
7
  6
CONTINUOUS
 10
-56.5167760595
 20
15.5077562421
 30
0.0
 11
-0.1342205464
 21
0.2684010681
 31
0.0
 40
0.6121897086
 41
-3.1605454984
 42
-2.2557347926
  0
ELLIPSE
  5
511
100
AcDbEntity
  8
RACCORDO
100
AcDbEllipse
 62
7
  6
CONTINUOUS
 10
-56.5167760595
 20
21.0018667795
 30
0.0
 11
-0.1341484654
 21
0.2683369961
 31
0.0
 40
0.6125552124
 41
-2.255296188
 42
-0.6848044477
  0
ELLIPSE
  5
512
100
AcDbEntity
  8
RACCORDO
100
AcDbEllipse
 62
7
  6
CONTINUOUS
 10
-56.5167760595
 20
34.5603151254
 30
0.0
 11
-0.1342205464
 21
0.2684010681
 31
0.0
 40
0.6121897086
 41
-3.1605454984
 42
-2.2557347926
  0
ELLIPSE
  5
513
100
AcDbEntity
  8
RACCORDO
100
AcDbEllipse
 62
7
  6
CONTINUOUS
 10
-56.5167760595
 20
40.0544256627
 30
0.0
 11
-0.1341484654
 21
0.2683369961
 31
0.0
 40
0.6125552124
 41
-2.255296188
 42
-0.6848044477
  0
ELLIPSE
  5
514
100
AcDbEntity
  8
RACCORDO
100
AcDbEllipse
 62
7
  6
CONTINUOUS
 10
-57.0203906226
 20
22.2033735779
 30
0.0
 11
-0.1342205464
 21
0.2684010681
 31
0.0
 40
0.6121897086
 41
2.6190997541
 42
4.0274505145
  0
ELLIPSE
  5
515
100
AcDbEntity
  8
RACCORDO
100
AcDbEllipse
 62
7
  6
CONTINUOUS
 10
-57.0104842332
 20
41.2509792664
 30
0.0
 11
-0.1341371037
 21
0.2683722998
 31
0.0
 40
0.6123537661
 41
2.5723670702
 42
4.0278339304
  0
ELLIPSE
  5
516
100
AcDbEntity
  8
RACCORDO
100
AcDbEllipse
 62
7
  6
CONTINUOUS
 10
24.6952338335
 20
-33.6839398141
 30
0.0
 11
-0.1341484654
 21
0.2683369961
 31
0.0
 40
0.6125552124
 41
4.4621418954
 42
5.5983808594
  0
ELLIPSE
  5
517
100
AcDbEntity
  8
RACCORDO
100
AcDbEllipse
 62
7
  6
CONTINUOUS
 10
20.2414021109
 20
-31.4570239528
 30
0.0
 11
-0.1342205464
 21
0.2684010681
 31
0.0
 40
0.6121897086
 41
-0.6846338794
 42
0.6678779715
  0
ELLIPSE
  5
518
100
AcDbEntity
  8
RACCORDO
100
AcDbEllipse
 62
7
  6
CONTINUOUS
 10
4.3314995342
 20
-23.5020726645
 30
0.0
 11
-0.1342205464
 21
0.2684010681
 31
0.0
 40
0.6121897086
 41
-0.6846338794
 42
0.6678779715
  0
ELLIPSE
  5
519
100
AcDbEntity
  8
RACCORDO
100
AcDbEllipse
 62
7
  6
CONTINUOUS
 10
8.7853312568
 20
-25.7289885258
 30
0.0
 11
-0.1341484654
 21
0.2683369961
 31
0.0
 40
0.6125552124
 41
4.4621418954
 42
5.5983808594
  0
ELLIPSE
  5
51A
100
AcDbEntity
  8
RACCORDO
100
AcDbEllipse
 62
7
  6
CONTINUOUS
 10
-11.5784030425
 20
-15.5471213761
 30
0.0
 11
-0.1342205464
 21
0.2684010681
 31
0.0
 40
0.6121897086
 41
-0.6846338794
 42
0.6678779715
  0
ELLIPSE
  5
51B
100
AcDbEntity
  8
RACCORDO
100
AcDbEllipse
 62
7
  6
CONTINUOUS
 10
-7.1245713199
 20
-17.7740372374
 30
0.0
 11
-0.1341484654
 21
0.2683369961
 31
0.0
 40
0.6125552124
 41
4.4621418954
 42
5.5983808594
  0
ELLIPSE
  5
51C
100
AcDbEntity
  8
RACCORDO
100
AcDbEllipse
 62
7
  6
CONTINUOUS
 10
-27.4883056192
 20
-7.5921700878
 30
0.0
 11
-0.1342205464
 21
0.2684010681
 31
0.0
 40
0.6121897086
 41
-0.6846338794
 42
0.6678779715
  0
ELLIPSE
  5
51D
100
AcDbEntity
  8
ASSI
100
AcDbEllipse
 62
7
  6
CONTINUOUS
 10
-42.2598962662
 20
2.4739824181
 30
0.0
 11
0.0823576675
 21
0.1823694112
 31
0.0
 40
0.5796795686
 41
0.6094740628
 42
0.6618339404
  0
ELLIPSE
  5
51E
100
AcDbEntity
  8
RACCORDO
100
AcDbEllipse
 62
7
  6
CONTINUOUS
 10
-57.4520602482
 20
34.1283698928
 30
0.0
 11
-0.1342205464
 21
0.2684010681
 31
0.0
 40
0.6121897086
 41
2.4569587742
 42
4.0274505145
  0
ELLIPSE
  5
51F
100
AcDbEntity
  8
RACCORDO
100
AcDbEllipse
 62
7
  6
CONTINUOUS
 10
-57.4520602482
 20
15.0758110095
 30
0.0
 11
-0.1342205464
 21
0.2684010681
 31
0.0
 40
0.6121897086
 41
2.4569587742
 42
4.0274505145
  0
ELLIPSE
  5
520
100
AcDbEntity
  8
ASSI
100
AcDbEllipse
 62
7
  6
CONTINUOUS
 10
-26.3499936895
 20
-5.5675714106
 30
0.0
 11
0.0823576675
 21
0.1823694112
 31
0.0
 40
0.5796795686
 41
0.6094740628
 42
0.6618339404
  0
ELLIPSE
  5
521
100
AcDbEntity
  8
ASSI
100
AcDbEllipse
 62
7
  6
CONTINUOUS
 10
-10.4400911128
 20
-13.522522699
 30
0.0
 11
0.0823576675
 21
0.1823694112
 31
0.0
 40
0.5796795686
 41
0.6094740628
 42
0.6618339404
  0
ELLIPSE
  5
522
100
AcDbEntity
  8
ASSI
100
AcDbEllipse
 62
7
  6
CONTINUOUS
 10
5.4698114639
 20
-21.4774739873
 30
0.0
 11
0.0823576675
 21
0.1823694112
 31
0.0
 40
0.5796795686
 41
0.6094740628
 42
0.6618339404
  0
ELLIPSE
  5
523
100
AcDbEntity
  8
ASSI
100
AcDbEllipse
 62
7
  6
CONTINUOUS
 10
21.3797140406
 20
-29.4324252757
 30
0.0
 11
0.0823576675
 21
0.1823694112
 31
0.0
 40
0.5796795686
 41
0.6094740628
 42
0.6618339404
  0
ELLIPSE
  5
524
100
AcDbEntity
  8
ASSI
100
AcDbEllipse
 62
7
  6
CONTINUOUS
 10
37.2896166173
 20
-37.387376564
 30
0.0
 11
0.0823576675
 21
0.1823694112
 31
0.0
 40
0.5796795686
 41
0.6094740628
 42
0.6618339404
  0
ELLIPSE
  5
525
100
AcDbEntity
  8
ASSI
100
AcDbEllipse
 62
7
  6
CONTINUOUS
 10
37.148001182
 20
-37.7421670234
 30
0.0
 11
0.1997674032
 21
0.1243735635
 31
0.0
 40
0.0775313764
 41
5.4495541764
 42
6.9679906257
  0
ELLIPSE
  5
526
100
AcDbEntity
  8
RACCORDO
100
AcDbEllipse
 62
7
  6
CONTINUOUS
 10
-5.7168223155
 20
-18.0445777531
 30
0.0
 11
-0.1342205464
 21
0.2684010681
 31
0.0
 40
0.6121897086
 41
-0.6846338794
 42
0.3837653848
  0
ELLIPSE
  5
527
100
AcDbEntity
  8
RACCORDO
100
AcDbEllipse
 62
7
  6
CONTINUOUS
 10
-3.305724202
 20
-19.2501268099
 30
0.0
 11
-0.1341371037
 21
0.2683722998
 31
0.0
 40
0.6123537661
 41
-1.7529563647
 42
-0.6845550499
  0
ELLIPSE
  5
528
100
AcDbEntity
  8
ASSI
100
AcDbEllipse
 62
7
  6
CONTINUOUS
 10
21.2380986053
 20
-29.787215735
 30
0.0
 11
0.1997674032
 21
0.1243735635
 31
0.0
 40
0.0775313764
 41
5.4495541764
 42
6.9679906257
  0
ELLIPSE
  5
529
100
AcDbEntity
  8
RACCORDO
100
AcDbEllipse
 62
7
  6
CONTINUOUS
 10
1.3611805538
 20
-21.5835791878
 30
0.0
 11
-0.1341371037
 21
0.2683722998
 31
0.0
 40
0.6123537661
 41
-0.6845550499
 42
0.3838462649
  0
ELLIPSE
  5
52A
100
AcDbEntity
  8
RACCORDO
100
AcDbEllipse
 62
7
  6
CONTINUOUS
 10
3.7722786672
 20
-22.7891282445
 30
0.0
 11
-0.1341484654
 21
0.2683369961
 31
0.0
 40
0.6125552124
 41
-1.7532037131
 42
-0.6848044477
  0
ELLIPSE
  5
52B
100
AcDbEntity
  8
RACCORDO
100
AcDbEllipse
 62
7
  6
CONTINUOUS
 10
12.6041783747
 20
-27.2050780982
 30
0.0
 11
-0.1341371037
 21
0.2683722998
 31
0.0
 40
0.6123537661
 41
-1.7529563647
 42
-0.6845550499
  0
ELLIPSE
  5
52C
100
AcDbEntity
  8
RACCORDO
100
AcDbEllipse
 62
7
  6
CONTINUOUS
 10
17.2710831305
 20
-29.5385304761
 30
0.0
 11
-0.1341371037
 21
0.2683722998
 31
0.0
 40
0.6123537661
 41
-0.6845550499
 42
0.3838462649
  0
ELLIPSE
  5
52D
100
AcDbEntity
  8
RACCORDO
100
AcDbEllipse
 62
7
  6
CONTINUOUS
 10
19.6821812439
 20
-30.7440795328
 30
0.0
 11
-0.1341484654
 21
0.2683369961
 31
0.0
 40
0.6125552124
 41
-1.7532037131
 42
-0.6848044477
  0
ELLIPSE
  5
52E
100
AcDbEntity
  8
RACCORDO
100
AcDbEllipse
 62
7
  6
CONTINUOUS
 10
10.3345231599
 20
-26.2434819556
 30
0.0
 11
-0.2237009107
 21
0.4473351135
 31
0.0
 40
0.6121897086
 41
-0.6846338794
 42
0.1260510747
  0
ELLIPSE
  5
52F
100
AcDbEntity
  8
RACCORDO
100
AcDbEllipse
 62
7
  6
CONTINUOUS
 10
28.5140809513
 20
-35.1600293866
 30
0.0
 11
-0.1341371037
 21
0.2683722998
 31
0.0
 40
0.6123537661
 41
-1.7529563647
 42
-0.6845550499
  0
ELLIPSE
  5
530
100
AcDbEntity
  8
RACCORDO
100
AcDbEllipse
 62
7
  6
CONTINUOUS
 10
33.1809857072
 20
-37.4934817645
 30
0.0
 11
-0.1341371037
 21
0.2683722998
 31
0.0
 40
0.6123537661
 41
-0.6845550499
 42
0.3838462649
  0
ELLIPSE
  5
531
100
AcDbEntity
  8
RACCORDO
100
AcDbEllipse
 62
7
  6
CONTINUOUS
 10
44.423983528
 20
-43.1149806749
 30
0.0
 11
-0.1341371037
 21
0.2683722998
 31
0.0
 40
0.6123537661
 41
-1.7529563647
 42
-0.6845550499
  0
ELLIPSE
  5
532
100
AcDbEntity
  8
RACCORDO
100
AcDbEllipse
 62
7
  6
CONTINUOUS
 10
49.0908882839
 20
-45.4484330528
 30
0.0
 11
-0.1341371037
 21
0.2683722998
 31
0.0
 40
0.6123537661
 41
-0.6845550499
 42
0.3838462649
  0
ELLIPSE
  5
533
100
AcDbEntity
  8
RACCORDO
100
AcDbEllipse
 62
7
  6
CONTINUOUS
 10
26.1029828379
 20
-33.9544803298
 30
0.0
 11
-0.1342205464
 21
0.2684010681
 31
0.0
 40
0.6121897086
 41
-0.6846338794
 42
0.3837653848
  0
ELLIPSE
  5
534
100
AcDbEntity
  8
RACCORDO
100
AcDbEllipse
 62
7
  6
CONTINUOUS
 10
-14.5487220229
 20
-13.6286278994
 30
0.0
 11
-0.1341371037
 21
0.2683722998
 31
0.0
 40
0.6123537661
 41
-0.6845550499
 42
0.3838462649
  0
ELLIPSE
  5
535
100
AcDbEntity
  8
RACCORDO
100
AcDbEllipse
 62
7
  6
CONTINUOUS
 10
-12.2790668081
 20
-14.9366869716
 30
0.0
 11
-0.2235807756
 21
0.4472283268
 31
0.0
 40
0.6125552124
 41
-1.4954894069
 42
-0.6848044477
  0
ELLIPSE
  5
536
100
AcDbEntity
  8
RACCORDO
100
AcDbEllipse
 62
7
  6
CONTINUOUS
 10
-21.6267248922
 20
-10.0896264648
 30
0.0
 11
-0.1342205464
 21
0.2684010681
 31
0.0
 40
0.6121897086
 41
-0.6846338794
 42
0.3837653848
  0
ELLIPSE
  5
537
100
AcDbEntity
  8
RACCORDO
100
AcDbEllipse
 62
7
  6
CONTINUOUS
 10
-19.2156267787
 20
-11.2951755215
 30
0.0
 11
-0.1341371037
 21
0.2683722998
 31
0.0
 40
0.6123537661
 41
-1.7529563647
 42
-0.6845550499
  0
ELLIPSE
  5
538
100
AcDbEntity
  8
ASSI
100
AcDbEllipse
 62
7
  6
CONTINUOUS
 10
5.3281960286
 20
-21.8322644467
 30
0.0
 11
0.1997674032
 21
0.1243735635
 31
0.0
 40
0.0775313764
 41
5.4495541764
 42
6.9679906257
  0
ELLIPSE
  5
539
100
AcDbEntity
  8
ASSI
100
AcDbEllipse
 62
7
  6
CONTINUOUS
 10
-10.5817065481
 20
-13.8773131584
 30
0.0
 11
0.1997674032
 21
0.1243735635
 31
0.0
 40
0.0775313764
 41
5.4495541764
 42
6.9679906257
  0
ELLIPSE
  5
53A
100
AcDbEntity
  8
ASSI
100
AcDbEllipse
 62
7
  6
CONTINUOUS
 10
-26.4916091248
 20
-5.92236187
 30
0.0
 11
0.1997674032
 21
0.1243735635
 31
0.0
 40
0.0775313764
 41
5.4495541764
 42
6.9679906257
  0
ELLIPSE
  5
53B
100
AcDbEntity
  8
RACCORDO
100
AcDbEllipse
 62
7
  6
CONTINUOUS
 10
-57.0203906226
 20
32.8724733965
 30
0.0
 11
-0.1341484654
 21
0.2683369961
 31
0.0
 40
0.6125552124
 41
-2.255296188
 42
-0.8469454276
  0
ELLIPSE
  5
53C
100
AcDbEntity
  8
RACCORDO
100
AcDbEllipse
 62
7
  6
CONTINUOUS
 10
-57.0104842332
 20
13.8149613185
 30
0.0
 11
-0.1341371037
 21
0.2683722998
 31
0.0
 40
0.6123537661
 41
-2.2553513767
 42
-0.7998845167
  0
ELLIPSE
  5
53D
100
AcDbEntity
  8
RACCORDO
100
AcDbEllipse
 62
7
  6
CONTINUOUS
 10
-51.0354319321
 20
4.6147270552
 30
0.0
 11
-0.1341371037
 21
0.2683722998
 31
0.0
 40
0.6123537661
 41
-1.7529563647
 42
-0.6845550499
  0
ELLIPSE
  5
53E
100
AcDbEntity
  8
RACCORDO
100
AcDbEllipse
 62
7
  6
CONTINUOUS
 10
-46.3685271763
 20
2.2812746773
 30
0.0
 11
-0.1341371037
 21
0.2683722998
 31
0.0
 40
0.6123537661
 41
-0.6845550499
 42
0.3838462649
  0
ELLIPSE
  5
53F
100
AcDbEntity
  8
RACCORDO
100
AcDbEllipse
 62
7
  6
CONTINUOUS
 10
-35.1255293554
 20
-3.3402242332
 30
0.0
 11
-0.1341371037
 21
0.2683722998
 31
0.0
 40
0.6123537661
 41
-1.7529563647
 42
-0.6845550499
  0
ELLIPSE
  5
540
100
AcDbEntity
  8
RACCORDO
100
AcDbEllipse
 62
7
  6
CONTINUOUS
 10
-30.4586245996
 20
-5.6736766111
 30
0.0
 11
-0.1341371037
 21
0.2683722998
 31
0.0
 40
0.6123537661
 41
-0.6845550499
 42
0.3838462649
  0
ELLIPSE
  5
541
100
AcDbEntity
  8
RACCORDO
100
AcDbEllipse
 62
7
  6
CONTINUOUS
 10
-28.0475264862
 20
-6.8792256678
 30
0.0
 11
-0.1341484654
 21
0.2683369961
 31
0.0
 40
0.6125552124
 41
-1.7532037131
 42
-0.6848044477
  0
ELLIPSE
  5
542
100
AcDbEntity
  8
ASSI
100
AcDbEllipse
 62
7
  6
CONTINUOUS
 10
-42.4015117015
 20
2.0325894183
 30
0.0
 11
0.1997674032
 21
0.1243735635
 31
0.0
 40
0.0775313764
 41
5.4495541764
 42
6.9679906257
  0
ELLIPSE
  5
543
100
AcDbEntity
  8
RACCORDO
100
AcDbEllipse
 62
7
  6
CONTINUOUS
 10
-57.4520602482
 20
20.5306185698
 30
0.0
 11
-0.1341484654
 21
0.2683369961
 31
0.0
 40
0.6125552124
 41
-2.255296188
 42
-0.6848044477
  0
ELLIPSE
  5
544
100
AcDbEntity
  8
RACCORDO
100
AcDbEllipse
 62
7
  6
CONTINUOUS
 10
-57.4520602482
 20
39.583177453
 30
0.0
 11
-0.1341484654
 21
0.2683369961
 31
0.0
 40
0.6125552124
 41
-2.255296188
 42
-0.6848044477
  0
ENDSEC
  0
SECTION
  2
OBJECTS
  0
DICTIONARY
  5
C
100
AcDbDictionary
280
0
281
1
  3
ACAD_GROUP
350
D
  3
ACAD_MLINESTYLE
350
17
  3
ACAD_LAYOUT
350
1A
  3
ACAD_PLOTSETTINGS
350
19
  3
ACAD_PLOTSTYLENAME
350
E
  0
DICTIONARY
  5
D
102
{ACAD_REACTORS
330
C
102
}
100
AcDbDictionary
280
0
281
1
  0
ACDBDICTIONARYWDFLT
  5
E
102
{ACAD_REACTORS
330
C
102
}
100
AcDbDictionary
281
1
  3
Normal
350
F
100
AcDbDictionaryWithDefault
340
F
  0
DICTIONARY
  5
17
102
{ACAD_REACTORS
330
C
102
}
100
AcDbDictionary
280
0
281
1
  3
Standard
350
18
  0
DICTIONARY
  5
19
102
{ACAD_REACTORS
330
C
102
}
100
AcDbDictionary
281
1
  0
DICTIONARY
  5
1A
102
{ACAD_REACTORS
330
C
102
}
100
AcDbDictionary
281
1
  3
Model
350
545
  3
Layout1
350
546
  0
ACDBPLACEHOLDER
  5
F
102
{ACAD_REACTORS
330
E
102
}
  0
MLINESTYLE
  5
18
102
{ACAD_REACTORS
330
17
102
}
100
AcDbMlineStyle
  2
STANDARD
 70
0
  3

 62
256
 51
90.0
 52
90.0
 71
2
 49
0.5
 62
256
  6
BYLAYER
 49
-0.5
 62
256
  6
BYLAYER
  0
LAYOUT
  5
545
102
{ACAD_REACTORS
330
1A
102
}
100
AcDbPlotSettings
  1

  2
none_device
  4
ISO_A4_(297.00_x_210.00_MM)
  6

 40
0.0
 41
0.0
 42
0.0
 43
0.0
 44
297.0
 45
210.0
 46
0.0
 47
0.0
 48
0.0
 49
0.0
140
0.0
141
0.0
142
1.0
143
1.0
 70
1024
 72
1
 73
0
 74
0
  7

 75
0
147
1.0
148
0.0
149
0.0
100
AcDbLayout
  1
Model
 70
0
 71
0
 10
0.0
 20
0.0
 11
297.0
 21
210.0
 12
0.0
 22
0.0
 32
0.0
 14
0.0
 24
0.0
 34
0.0
 15
0.0
 25
0.0
 35
0.0
146
0.0
 13
0.0
 23
0.0
 33
0.0
 16
1.0
 26
0.0
 36
0.0
 17
0.0
 27
1.0
 37
0.0
 76
0
330
212
345
0
346
0
  0
LAYOUT
  5
546
102
{ACAD_REACTORS
330
1A
102
}
100
AcDbPlotSettings
  1

  2
none_device
  4
ISO_A4_(297.00_x_210.00_MM)
  6

 40
0.0
 41
0.0
 42
0.0
 43
0.0
 44
297.0
 45
210.0
 46
0.0
 47
0.0
 48
0.0
 49
0.0
140
0.0
141
0.0
142
1.0
143
1.0
 70
0
 72
1
 73
0
 74
0
  7

 75
0
147
1.0
148
0.0
149
0.0
100
AcDbLayout
  1
Layout1
 70
0
 71
1
 10
0.0
 20
0.0
 11
297.0
 21
210.0
 12
0.0
 22
0.0
 32
0.0
 14
0.0
 24
0.0
 34
0.0
 15
0.0
 25
0.0
 35
0.0
146
0.0
 13
0.0
 23
0.0
 33
0.0
 16
1.0
 26
0.0
 36
0.0
 17
0.0
 27
1.0
 37
0.0
 76
0
330
213
345
0
346
0
  0
ENDSEC
  0
EOF
