  0
SECTION
  2
HEADER
  9
$ACADVER
  1
AC1015
  9
$DWGCODEPAGE
  3
ANSI_1252
  9
$EXTMAX
 10
297.0
 20
210.0
 30
0.0
  9
$EXTMIN
 10
0.0
 20
0.0
 30
0.0
  9
$LIMMIN
 10
0.0
 20
0.0
  9
$LIMMAX
 10
297.0
 20
210.0
  9
$VIEWCTR
 10
148.5
 20
105.0
  9
$VIEWSIZE
 40
210.0
  9
$CLAYER
  8
0
  9
$LTSCALE
 40
16.335
  9
$CELTYPE
  6
BYLAYER
  9
$DIMSCALE
 40
1.0
  9
$DIMASZ
 40
3.0
  9
$DIMEXO
 40
1.85625
  9
$DIMDLI
 40
11.286
  9
$DIMEXE
 40
5.346
  9
$DIMCEN
 40
2.673
  9
$DIMLFAC
 40
1.0
  9
$DIMBLK
  1
_FILLED
  9
$DIMTXT
 40
3.0
  9
$DIMTOL
 70
1
  9
$DIMLIM
 70
0
  9
$DIMTFAC
 40
1.0
  9
$DIMTP
 40
0.01
  9
$DIMTM
 40
0.01
  9
$PDMODE
 70
3
  9
$PDSIZE
 40
3.0
  9
$HANDSEED
  5
57D
  9
$TILEMODE
 70
1
  9
$MEASUREMENT
 70
1
  9
$INSUNITS
 70
4
  0
ENDSEC
  0
SECTION
  2
CLASSES
  0
CLASS
  1
ACDBDICTIONARYWDFLT
  2
AcDbDictionaryWithDefault
  3
AutoCAD 2000
 90
0
280
0
281
0
  0
CLASS
  1
ACDBPLACEHOLDER
  2
AcDbPlaceHolder
  3
AutoCAD 2000
 90
0
280
0
281
0
  0
CLASS
  1
LAYOUT
  2
AcDbLayout
  3
AutoCAD 2000
 90
0
280
0
281
0
  0
ENDSEC
  0
SECTION
  2
TABLES
  0
TABLE
  2
VPORT
  5
8
100
AcDbSymbolTable
 70
2
  0
VPORT
  5
1F4
100
AcDbSymbolTableRecord
100
AcDbViewportTableRecord
  2
*ACTIVE
 70
0
 10
0.0
 20
0.0
 11
1.0
 21
1.0
 12
148.5
 22
105.0
 13
0.0
 23
0.0
 14
1.0
 24
1.0
 15
0.0
 25
0.0
 16
0.0
 26
0.0
 36
1.0
 17
0.0
 27
0.0
 37
0.0
 40
210.0
 41
1.4142857143
 42
50.0
 43
0.0
 44
0.0
 50
0.0
 51
0.0
 71
0
 72
100
 73
1
 74
1
 75
0
 76
0
 77
0
 78
0
  0
ENDTAB
  0
TABLE
  2
LTYPE
  5
5
100
AcDbSymbolTable
 70
6
  0
LTYPE
  5
14
100
AcDbSymbolTableRecord
100
AcDbLinetypeTableRecord
  2
BYBLOCK
 70
0
  3

 72
65
 73
0
 40
0.0
  0
LTYPE
  5
15
100
AcDbSymbolTableRecord
100
AcDbLinetypeTableRecord
  2
BYLAYER
 70
0
  3

 72
65
 73
0
 40
0.0
  0
LTYPE
  5
16
100
AcDbSymbolTableRecord
100
AcDbLinetypeTableRecord
  2
CONTINUOUS
 70
64
  3
Solid line
 72
65
 73
0
 40
0.0
  0
LTYPE
  5
1F5
100
AcDbSymbolTableRecord
100
AcDbLinetypeTableRecord
  2
CENTER
 70
64
  3
____ _ ____ _ ____ _ ____ _ ____ _ ____ _ ____
 72
65
 73
4
 40
0.6
 49
0.375
 74
0
 49
-0.075
 74
0
 49
0.075
 74
0
 49
-0.075
 74
0
  0
LTYPE
  5
1F6
100
AcDbSymbolTableRecord
100
AcDbLinetypeTableRecord
  2
HIDDEN
 70
64
  3
- - - - - - - - - - - - - - - - - - - -
 72
65
 73
2
 40
0.2
 49
0.1
 74
0
 49
-0.1
 74
0
  0
LTYPE
  5
1F7
100
AcDbSymbolTableRecord
100
AcDbLinetypeTableRecord
  2
PHANTOM
 70
64
  3
_____ _ _ _____ _ _ _____ _ _ _____
 72
65
 73
6
 40
0.8
 49
0.45
 74
0
 49
-0.05
 74
0
 49
0.1
 74
0
 49
-0.05
 74
0
 49
0.1
 74
0
 49
-0.05
 74
0
  0
LTYPE
  5
1F8
100
AcDbSymbolTableRecord
100
AcDbLinetypeTableRecord
  2
DOT
 70
64
  3
. . . . . . . . . . . . . . . . . . . .
 72
65
 73
2
 40
0.2
 49
0.1
 74
0
 49
-0.1
 74
0
  0
LTYPE
  5
1F9
100
AcDbSymbolTableRecord
100
AcDbLinetypeTableRecord
  2
DASHED
 70
64
  3
- - - - - - - - - - - - - - - - - - - -
 72
65
 73
2
 40
0.2
 49
0.1
 74
0
 49
-0.1
 74
0
  0
ENDTAB
  0
TABLE
  2
LAYER
  5
2
100
AcDbSymbolTable
 70
36
  0
LAYER
  5
10
100
AcDbSymbolTableRecord
100
AcDbLayerTableRecord
  2
0
 70
0
 62
7
  6
CONTINUOUS
370
-3
390
F
  0
LAYER
  5
1FA
100
AcDbSymbolTableRecord
100
AcDbLayerTableRecord
  2
DEFAULT_1
 70
0
 62
7
  6
CENTER
370
-3
390
F
  0
LAYER
  5
1FB
100
AcDbSymbolTableRecord
100
AcDbLayerTableRecord
  2
DEFAULT_2
 70
0
 62
7
  6
HIDDEN
370
-3
390
F
  0
LAYER
  5
1FC
100
AcDbSymbolTableRecord
100
AcDbLayerTableRecord
  2
DEFAULT_3
 70
0
 62
7
  6
PHANTOM
370
-3
390
F
  0
LAYER
  5
1FD
100
AcDbSymbolTableRecord
100
AcDbLayerTableRecord
  2
ASSI
 70
0
 62
7
  6
CONTINUOUS
370
-3
390
F
  0
LAYER
  5
1FE
100
AcDbSymbolTableRecord
100
AcDbLayerTableRecord
  2
COORDINATE
 70
0
 62
7
  6
CONTINUOUS
370
-3
390
F
  0
LAYER
  5
1FF
100
AcDbSymbolTableRecord
100
AcDbLayerTableRecord
  2
COORD_ORIGINE
 70
0
 62
7
  6
CONTINUOUS
370
-3
390
F
  0
LAYER
  5
200
100
AcDbSymbolTableRecord
100
AcDbLayerTableRecord
  2
COPY_PUBLISH
 70
0
 62
7
  6
CONTINUOUS
370
-3
390
F
  0
LAYER
  5
201
100
AcDbSymbolTableRecord
100
AcDbLayerTableRecord
  2
COSMETIC
 70
0
 62
7
  6
CONTINUOUS
370
-3
390
F
  0
LAYER
  5
202
100
AcDbSymbolTableRecord
100
AcDbLayerTableRecord
  2
CURVE
 70
0
 62
7
  6
CONTINUOUS
370
-3
390
F
  0
LAYER
  5
203
100
AcDbSymbolTableRecord
100
AcDbLayerTableRecord
  2
DRAFT
 70
0
 62
7
  6
CONTINUOUS
370
-3
390
F
  0
LAYER
  5
204
100
AcDbSymbolTableRecord
100
AcDbLayerTableRecord
  2
IMPORT_IGES
 70
0
 62
7
  6
CONTINUOUS
370
-3
390
F
  0
LAYER
  5
205
100
AcDbSymbolTableRecord
100
AcDbLayerTableRecord
  2
INTFCLR_2
 70
0
 62
7
  6
CONTINUOUS
370
-3
390
F
  0
LAYER
  5
206
100
AcDbSymbolTableRecord
100
AcDbLayerTableRecord
  2
PIANI
 70
0
 62
7
  6
CONTINUOUS
370
-3
390
F
  0
LAYER
  5
207
100
AcDbSymbolTableRecord
100
AcDbLayerTableRecord
  2
PIANI_ORIGINE
 70
0
 62
7
  6
CONTINUOUS
370
-3
390
F
  0
LAYER
  5
208
100
AcDbSymbolTableRecord
100
AcDbLayerTableRecord
  2
PIANI_RIFERIMENTO
 70
0
 62
7
  6
CONTINUOUS
370
-3
390
F
  0
LAYER
  5
209
100
AcDbSymbolTableRecord
100
AcDbLayerTableRecord
  2
PUNTI
 70
0
 62
7
  6
CONTINUOUS
370
-3
390
F
  0
LAYER
  5
20A
100
AcDbSymbolTableRecord
100
AcDbLayerTableRecord
  2
RACCORDO
 70
0
 62
7
  6
CONTINUOUS
370
-3
390
F
  0
LAYER
  5
20B
100
AcDbSymbolTableRecord
100
AcDbLayerTableRecord
  2
SMUSSO
 70
0
 62
7
  6
CONTINUOUS
370
-3
390
F
  0
LAYER
  5
20C
100
AcDbSymbolTableRecord
100
AcDbLayerTableRecord
  2
SNAPLINE
 70
0
 62
7
  6
CONTINUOUS
370
-3
390
F
  0
LAYER
  5
20D
100
AcDbSymbolTableRecord
100
AcDbLayerTableRecord
  2
SUPERFICI
 70
0
 62
7
  6
CONTINUOUS
370
-3
390
F
  0
LAYER
  5
20E
100
AcDbSymbolTableRecord
100
AcDbLayerTableRecord
  2
TRASH
 70
0
 62
7
  6
CONTINUOUS
370
-3
390
F
  0
LAYER
  5
20F
100
AcDbSymbolTableRecord
100
AcDbLayerTableRecord
  2
XSEC_DATUMS
 70
0
 62
7
  6
CONTINUOUS
370
-3
390
F
  0
ENDTAB
  0
TABLE
  2
STYLE
  5
3
100
AcDbSymbolTable
 70
1
  0
STYLE
  5
11
100
AcDbSymbolTableRecord
100
AcDbTextStyleTableRecord
  2
STANDARD
 70
0
 40
0.0
 41
0.8
 50
0.0
 71
0
 42
0.2
  3
txt
  4

  0
STYLE
  5
210
100
AcDbSymbolTableRecord
100
AcDbTextStyleTableRecord
  2
TEXTSTYLE_1
 70
0
 40
0.0
 41
0.8
 50
0.0
 71
0
 42
0.2
  3
gdt
  4

  0
ENDTAB
  0
TABLE
  2
VIEW
  5
6
100
AcDbSymbolTable
 70
0
  0
ENDTAB
  0
TABLE
  2
UCS
  5
7
100
AcDbSymbolTable
 70
0
  0
ENDTAB
  0
TABLE
  2
APPID
  5
9
100
AcDbSymbolTable
 70
1
  0
APPID
  5
211
100
AcDbSymbolTableRecord
100
AcDbRegAppTableRecord
  2
ACAD
 70
0
  0
ENDTAB
  0
TABLE
  2
BLOCK_RECORD
  5
1
100
AcDbSymbolTable
 70
0
  0
BLOCK_RECORD
  5
212
100
AcDbSymbolTableRecord
100
AcDbBlockTableRecord
  2
*Model_Space
  0
BLOCK_RECORD
  5
213
100
AcDbSymbolTableRecord
100
AcDbBlockTableRecord
  2
*Paper_Space
  0
ENDTAB
  0
TABLE
  2
DIMSTYLE
  5
A
100
AcDbSymbolTable
 70
1
100
AcDbDimStyleTable
 71
0
  0
DIMSTYLE
105
214
100
AcDbSymbolTableRecord
100
AcDbDimStyleTableRecord
  2
STANDARD
 70
0
  3

  4

 40
1.0
 41
3.0
 42
0.0625
 43
0.38
 44
0.18
 45
0.0
 46
0.0
 47
0.01
 48
0.01
140
3.0
141
0.09
142
0.0
143
25.4
144
1.0
145
0.0
146
1.0
147
0.09
 71
1.0
 72
0.0
 73
0
 74
0
 75
0
 76
0
 77
1
 78
8
170
0
171
2
172
0
173
0
174
0
175
0
176
0
177
0
178
0
270
2
271
2
272
2
273
2
274
2
275
0
280
0
281
0
282
0
283
1
284
8
285
0
286
0
287
3
288
0
340
11
  0
ENDTAB
  0
ENDSEC
  0
SECTION
  2
BLOCKS
  0
BLOCK
  5
20
100
AcDbEntity
  8
0
100
AcDbBlockBegin
  2
*Model_Space
 70
0
 10
0.0
 20
0.0
 30
0.0
  3
*Model_Space
  1

  0
ENDBLK
  5
21
100
AcDbEntity
  8
0
100
AcDbBlockEnd
  0
BLOCK
  5
1C
100
AcDbEntity
  8
0
100
AcDbBlockBegin
  2
*Paper_Space
 70
0
 10
0.0
 20
0.0
 30
0.0
  3
*Paper_Space
  1

  0
ENDBLK
  5
1D
100
AcDbEntity
  8
0
100
AcDbBlockEnd
  0
ENDSEC
  0
SECTION
  2
ENTITIES
  0
LINE
  5
215
100
AcDbEntity
  8
SMUSSO
100
AcDbLine
 62
7
  6
CONTINUOUS
 10
-75.6073925784
 20
80.1544833774
 11
-74.9002857972
 21
81.3740621718
  0
LINE
  5
216
100
AcDbEntity
  8
DRAFT
100
AcDbLine
 62
7
  6
CONTINUOUS
 10
-72.6935579947
 20
82.3764041057
 11
-71.0213144688
 21
83.2591974178
  0
LINE
  5
217
100
AcDbEntity
  8
DRAFT
100
AcDbLine
 62
7
  6
CONTINUOUS
 10
-72.0306683722
 20
82.3405059531
 11
-70.3394470595
 21
83.2222715417
  0
LINE
  5
218
100
AcDbEntity
  8
RACCORDO
100
AcDbLine
 62
7
  6
CONTINUOUS
 10
-75.3474977756
 20
81.4024647675
 11
-73.5797324397
 21
82.2863474355
  0
LINE
  5
219
100
AcDbEntity
  8
SMUSSO
100
AcDbLine
 62
7
  6
CONTINUOUS
 10
-74.9002857972
 20
81.3740621718
 11
-73.1325188442
 21
82.2579456482
  0
LINE
  5
21A
100
AcDbEntity
  8
DRAFT
100
AcDbLine
 62
7
  6
CONTINUOUS
 10
-72.315413625
 20
81.8493930386
 11
-72.0306683722
 21
82.3405059531
  0
LINE
  5
21B
100
AcDbEntity
  8
SMUSSO
100
AcDbLine
 62
7
  6
CONTINUOUS
 10
70.0566043461
 20
-82.7441570784
 11
71.4708179084
 21
-82.7441570784
  0
LINE
  5
21C
100
AcDbEntity
  8
SMUSSO
100
AcDbLine
 62
7
  6
CONTINUOUS
 10
-75.6073925784
 20
-9.9121586162
 11
-75.6073925784
 21
80.8615901586
  0
LWPOLYLINE
  5
21D
100
AcDbEntity
  8
RACCORDO
100
AcDbPolyline
 62
7
  6
CONTINUOUS
 90
15
 70
0
 10
-60.9790216825
 20
50.1096303574
 10
-61.0053493954
 20
50.0942503645
 10
-61.0367772433
 20
50.0725274165
 10
-61.066475655
 20
50.0480552785
 10
-61.0942263193
 20
50.0209797509
 10
-61.1199692293
 20
49.9912988581
 10
-61.1435150305
 20
49.9591271722
 10
-61.1646741301
 20
49.9246207521
 10
-61.183382369
 20
49.8877658763
 10
-61.1994936821
 20
49.8486576217
 10
-61.212846676
 20
49.8074397509
 10
-61.2233455054
 20
49.7640755328
 10
-61.2308549264
 20
49.7185823542
 10
-61.2352024367
 20
49.6710883817
 10
-61.2363015527
 20
49.6314935765
  0
LINE
  5
21E
100
AcDbEntity
  8
DRAFT
100
AcDbLine
 62
7
  6
CONTINUOUS
 10
73.2385848614
 20
-80.9950509002
 11
73.8866508869
 21
-80.995050899
  0
LINE
  5
21F
100
AcDbEntity
  8
RACCORDO
100
AcDbLine
 62
7
  6
CONTINUOUS
 10
-60.9790063994
 20
50.1096430677
 11
-60.6959667717
 21
50.2623494453
  0
LINE
  5
220
100
AcDbEntity
  8
RACCORDO
100
AcDbLine
 62
7
  6
CONTINUOUS
 10
-60.6572103388
 20
50.0943448509
 11
-60.3756670722
 21
50.2462439023
  0
LWPOLYLINE
  5
221
100
AcDbEntity
  8
RACCORDO
100
AcDbPolyline
 62
7
  6
CONTINUOUS
 90
14
 70
0
 10
-61.2357100202
 20
5.3446074511
 10
-61.2319666302
 20
5.2936350273
 10
-61.2248941583
 20
5.2427137579
 10
-61.2146256619
 20
5.1919809198
 10
-61.2012834298
 20
5.1416624388
 10
-61.1849665364
 20
5.0918947247
 10
-61.1657546256
 20
5.0428361891
 10
-61.143777494
 20
4.9948041586
 10
-61.1190799472
 20
4.9478960386
 10
-61.0917423809
 20
4.9023572672
 10
-61.0620346911
 20
4.8586819888
 10
-61.0299976244
 20
4.8169824333
 10
-60.99571793
 20
4.7774781203
 10
-60.9596053484
 20
4.7406893885
  0
LINE
  5
222
100
AcDbEntity
  8
RACCORDO
100
AcDbLine
 62
7
  6
CONTINUOUS
 10
-61.2363016855
 20
5.3741899738
 11
-61.2357100202
 21
5.3446074511
  0
LINE
  5
223
100
AcDbEntity
  8
RACCORDO
100
AcDbLine
 62
7
  6
CONTINUOUS
 10
-61.2363077585
 20
49.6314703181
 11
-61.2363077585
 21
5.3740841972
  0
LINE
  5
224
100
AcDbEntity
  8
RACCORDO
100
AcDbLine
 62
7
  6
CONTINUOUS
 10
-61.1484397929
 20
49.5293073453
 11
-61.1484397929
 21
5.2680181767
  0
LINE
  5
225
100
AcDbEntity
  8
RACCORDO
100
AcDbLine
 62
7
  6
CONTINUOUS
 10
-59.5009260183
 20
6.6770471578
 11
-59.5009260183
 21
46.4688615496
  0
LINE
  5
226
100
AcDbEntity
  8
RACCORDO
100
AcDbLine
 62
7
  6
CONTINUOUS
 10
-59.116721053
 20
6.6602405496
 11
-59.116721053
 21
46.4520545934
  0
LINE
  5
227
100
AcDbEntity
  8
DRAFT
100
AcDbLine
 62
7
  6
CONTINUOUS
 10
-56.4705889978
 20
40.4833109787
 11
-57.0066281058
 21
40.1856451078
  0
LINE
  5
228
100
AcDbEntity
  8
RACCORDO
100
AcDbLine
 62
7
  6
CONTINUOUS
 10
-55.9863813512
 20
40.6722657992
 11
-56.9216655399
 21
40.2010175895
  0
LINE
  5
229
100
AcDbEntity
  8
RACCORDO
100
AcDbLine
 62
7
  6
CONTINUOUS
 10
-55.7742816256
 20
40.3064478852
 11
-56.7095658143
 21
39.8351996755
  0
LINE
  5
22A
100
AcDbEntity
  8
RACCORDO
100
AcDbLine
 62
7
  6
CONTINUOUS
 10
-56.2680221129
 20
41.5029384998
 11
-55.702336688
 21
41.7736879885
  0
LINE
  5
22B
100
AcDbEntity
  8
RACCORDO
100
AcDbLine
 62
7
  6
CONTINUOUS
 10
-56.3477699498
 20
41.3397749976
 11
-55.7820845248
 21
41.6105244863
  0
LINE
  5
22C
100
AcDbEntity
  8
RACCORDO
100
AcDbLine
 62
7
  6
CONTINUOUS
 10
-57.6084039901
 20
45.9194442428
 11
-57.6084039901
 21
7.7724037364
  0
LINE
  5
22D
100
AcDbEntity
  8
RACCORDO
100
AcDbLine
 62
7
  6
CONTINUOUS
 10
-57.5478630231
 20
45.8891737593
 11
-57.5478630231
 21
7.7973567974
  0
LINE
  5
22E
100
AcDbEntity
  8
RACCORDO
100
AcDbLine
 62
7
  6
CONTINUOUS
 10
-57.2164449701
 20
7.9643436512
 11
-57.2164449701
 21
45.7234647328
  0
LINE
  5
22F
100
AcDbEntity
  8
DRAFT
100
AcDbLine
 62
7
  6
CONTINUOUS
 10
-57.0066281058
 20
14.6378956962
 11
-57.0066281058
 21
21.1330862245
  0
LINE
  5
230
100
AcDbEntity
  8
DRAFT
100
AcDbLine
 62
7
  6
CONTINUOUS
 10
-57.0066281058
 20
33.6904545794
 11
-57.0066281058
 21
40.1856451078
  0
LINE
  5
231
100
AcDbEntity
  8
RACCORDO
100
AcDbLine
 62
7
  6
CONTINUOUS
 10
-56.7095658143
 20
39.8351996755
 11
-56.7095658143
 21
34.3802338233
  0
LINE
  5
232
100
AcDbEntity
  8
RACCORDO
100
AcDbLine
 62
7
  6
CONTINUOUS
 10
-56.7095658143
 20
20.7826407922
 11
-56.7095658143
 21
15.3276749401
  0
LINE
  5
233
100
AcDbEntity
  8
RACCORDO
100
AcDbLine
 62
7
  6
CONTINUOUS
 10
-56.4705889978
 20
45.3505367466
 11
-56.4705889978
 21
40.4833109787
  0
LINE
  5
234
100
AcDbEntity
  8
DRAFT
100
AcDbLine
 62
7
  6
CONTINUOUS
 10
-56.4705889978
 20
33.9881204503
 11
-56.4705889978
 21
21.4307520955
  0
LINE
  5
235
100
AcDbEntity
  8
RACCORDO
100
AcDbLine
 62
7
  6
CONTINUOUS
 10
-56.4705889978
 20
14.9355615671
 11
-56.4705889978
 21
8.3218260386
  0
LINE
  5
236
100
AcDbEntity
  8
RACCORDO
100
AcDbLine
 62
7
  6
CONTINUOUS
 10
-56.2778961887
 20
22.4552375085
 11
-56.2778961887
 21
33.1244956189
  0
LINE
  5
237
100
AcDbEntity
  8
RACCORDO
100
AcDbLine
 62
7
  6
CONTINUOUS
 10
-56.2680221129
 20
8.1140596361
 11
-56.2680221129
 21
14.0669205518
  0
LINE
  5
238
100
AcDbEntity
  8
RACCORDO
100
AcDbLine
 62
7
  6
CONTINUOUS
 10
-56.2680221129
 20
41.5029384998
 11
-56.2680221129
 21
45.2492533042
  0
LINE
  5
239
100
AcDbEntity
  8
RACCORDO
100
AcDbLine
 62
7
  6
CONTINUOUS
 10
-56.1619560957
 20
41.4287095958
 11
-56.1619560957
 21
40.7600531714
  0
LINE
  5
23A
100
AcDbEntity
  8
RACCORDO
100
AcDbLine
 62
7
  6
CONTINUOUS
 10
-56.1619560957
 20
34.5068356741
 11
-56.1619560957
 21
33.9040722723
  0
LINE
  5
23B
100
AcDbEntity
  8
RACCORDO
100
AcDbLine
 62
7
  6
CONTINUOUS
 10
-56.1619560957
 20
22.3824800211
 11
-56.1619560957
 21
21.7074942882
  0
LINE
  5
23C
100
AcDbEntity
  8
RACCORDO
100
AcDbLine
 62
7
  6
CONTINUOUS
 10
-56.1619560957
 20
15.4542767909
 11
-56.1619560957
 21
14.851513389
  0
LINE
  5
23D
100
AcDbEntity
  8
RACCORDO
100
AcDbLine
 62
7
  6
CONTINUOUS
 10
-56.0155094863
 20
41.4988021647
 11
-56.0155094863
 21
40.8728083697
  0
LINE
  5
23E
100
AcDbEntity
  8
RACCORDO
100
AcDbLine
 62
7
  6
CONTINUOUS
 10
-56.0155094863
 20
34.5744695714
 11
-56.0155094863
 21
33.8308489676
  0
LINE
  5
23F
100
AcDbEntity
  8
RACCORDO
100
AcDbLine
 62
7
  6
CONTINUOUS
 10
-56.0155094863
 20
22.4501139184
 11
-56.0155094863
 21
21.8202494865
  0
LINE
  5
240
100
AcDbEntity
  8
RACCORDO
100
AcDbLine
 62
7
  6
CONTINUOUS
 10
-56.0155094863
 20
15.5219106882
 11
-56.0155094863
 21
14.7782900843
  0
LINE
  5
241
100
AcDbEntity
  8
RACCORDO
100
AcDbLine
 62
7
  6
CONTINUOUS
 10
-55.7742816256
 20
40.3064478852
 11
-55.7742816256
 21
34.8121790559
  0
LINE
  5
242
100
AcDbEntity
  8
RACCORDO
100
AcDbLine
 62
7
  6
CONTINUOUS
 10
-55.7742816256
 20
21.2538890019
 11
-55.7742816256
 21
15.7596201727
  0
LINE
  5
243
100
AcDbEntity
  8
RACCORDO
100
AcDbLine
 62
7
  6
CONTINUOUS
 10
-55.702336688
 20
8.4089955723
 11
-55.702336688
 21
14.361856488
  0
LINE
  5
244
100
AcDbEntity
  8
RACCORDO
100
AcDbLine
 62
7
  6
CONTINUOUS
 10
-55.702336688
 20
22.7210499593
 11
-55.702336688
 21
33.4144945172
  0
LINE
  5
245
100
AcDbEntity
  8
RACCORDO
100
AcDbLine
 62
7
  6
CONTINUOUS
 10
-55.702336688
 20
41.7736879885
 11
-55.702336688
 21
44.9664105917
  0
LINE
  5
246
100
AcDbEntity
  8
RACCORDO
100
AcDbLine
 62
7
  6
CONTINUOUS
 10
-54.9964298071
 20
8.2189585958
 11
-54.9964298071
 21
8.0560421319
  0
LINE
  5
247
100
AcDbEntity
  8
RACCORDO
100
AcDbLine
 62
7
  6
CONTINUOUS
 10
-52.4333074198
 20
32.0502178095
 11
-52.4333074198
 21
27.4705055709
  0
LINE
  5
248
100
AcDbEntity
  8
RACCORDO
100
AcDbLine
 62
7
  6
CONTINUOUS
 10
-52.3491093599
 20
32.1544165651
 11
-52.3491093599
 21
27.5747043264
  0
LINE
  5
249
100
AcDbEntity
  8
DRAFT
100
AcDbLine
 62
7
  6
CONTINUOUS
 10
-56.4705889978
 20
33.9881204503
 11
-57.0066281058
 21
33.6904545794
  0
LINE
  5
24A
100
AcDbEntity
  8
RACCORDO
100
AcDbLine
 62
7
  6
CONTINUOUS
 10
-56.4705889978
 20
33.5000918172
 11
-55.9144364136
 21
33.7803124312
  0
LINE
  5
24B
100
AcDbEntity
  8
RACCORDO
100
AcDbLine
 62
7
  6
CONTINUOUS
 10
-56.2778961887
 20
33.1244956189
 11
-55.702336688
 21
33.4144945172
  0
LINE
  5
24C
100
AcDbEntity
  8
RACCORDO
100
AcDbLine
 62
7
  6
CONTINUOUS
 10
-55.702336688
 20
30.8997761344
 11
-52.6454071454
 21
32.4160357235
  0
LINE
  5
24D
100
AcDbEntity
  8
RACCORDO
100
AcDbLine
 62
7
  6
CONTINUOUS
 10
-55.702336688
 20
30.4287551929
 11
-52.4333074198
 21
32.0502178095
  0
LINE
  5
24E
100
AcDbEntity
  8
RACCORDO
100
AcDbLine
 62
7
  6
CONTINUOUS
 10
-56.7095658143
 20
34.3802338233
 11
-55.7742816256
 21
34.8121790559
  0
LINE
  5
24F
100
AcDbEntity
  8
RACCORDO
100
AcDbLine
 62
7
  6
CONTINUOUS
 10
-56.7907031698
 20
34.2164594394
 11
-55.855418981
 21
34.648404672
  0
LINE
  5
250
100
AcDbEntity
  8
RACCORDO
100
AcDbLine
 62
7
  6
CONTINUOUS
 10
-53.1015859156
 20
32.5901203068
 11
-55.3514429689
 21
31.5510617618
  0
LINE
  5
251
100
AcDbEntity
  8
RACCORDO
100
AcDbLine
 62
7
  6
CONTINUOUS
 10
-52.972100088
 20
32.5793821949
 11
-55.278104928
 21
31.5143927414
  0
LINE
  5
252
100
AcDbEntity
  8
SMUSSO
100
AcDbLine
 62
7
  6
CONTINUOUS
 10
-75.6073925784
 20
-9.9121586162
 11
-74.9002857972
 21
-10.4246306294
  0
LINE
  5
253
100
AcDbEntity
  8
SMUSSO
100
AcDbLine
 62
7
  6
CONTINUOUS
 10
-75.6073925784
 20
-9.9121586162
 11
-75.0417047242
 21
-10.3364245068
  0
LINE
  5
254
100
AcDbEntity
  8
RACCORDO
100
AcDbLine
 62
7
  6
CONTINUOUS
 10
-49.7272843869
 20
5.1616222247
 11
-49.7272843869
 21
4.6907221694
  0
LINE
  5
255
100
AcDbEntity
  8
DRAFT
100
AcDbLine
 62
7
  6
CONTINUOUS
 10
-56.4705889978
 20
21.4307520955
 11
-57.0066281058
 21
21.1330862245
  0
LINE
  5
256
100
AcDbEntity
  8
RACCORDO
100
AcDbLine
 62
7
  6
CONTINUOUS
 10
-52.4333074198
 20
27.4705055709
 11
-55.702336688
 21
25.7067892836
  0
LINE
  5
257
100
AcDbEntity
  8
RACCORDO
100
AcDbLine
 62
7
  6
CONTINUOUS
 10
-52.5066622137
 20
27.3106800651
 11
-55.702336688
 21
25.5865403721
  0
LINE
  5
258
100
AcDbEntity
  8
RACCORDO
100
AcDbLine
 62
7
  6
CONTINUOUS
 10
-55.9863813512
 20
21.6197069159
 11
-56.9216655399
 21
21.1484587062
  0
LINE
  5
259
100
AcDbEntity
  8
RACCORDO
100
AcDbLine
 62
7
  6
CONTINUOUS
 10
-55.7742816256
 20
21.2538890019
 11
-56.7095658143
 21
20.7826407922
  0
LINE
  5
25A
100
AcDbEntity
  8
ASSI
100
AcDbLine
 62
7
  6
CONTINUOUS
 10
-41.7225526505
 20
3.0088700348
 11
-41.7225526505
 21
2.4967438999
  0
LINE
  5
25B
100
AcDbEntity
  8
ASSI
100
AcDbLine
 62
7
  6
CONTINUOUS
 10
-41.6711816156
 20
3.0246284667
 11
-41.6711816156
 21
2.5140776822
  0
LINE
  5
25C
100
AcDbEntity
  8
DRAFT
100
AcDbLine
 62
7
  6
CONTINUOUS
 10
-42.2490202963
 20
1.9402012987
 11
-42.1919766444
 21
2.1724151722
  0
LINE
  5
25D
100
AcDbEntity
  8
ASSI
100
AcDbLine
 62
7
  6
CONTINUOUS
 10
-48.2051120814
 20
3.9296360166
 11
-48.1716494683
 21
3.9873504869
  0
LINE
  5
25E
100
AcDbEntity
  8
ASSI
100
AcDbLine
 62
7
  6
CONTINUOUS
 10
-47.9134472513
 20
3.9996707347
 11
-47.8180960777
 21
4.1641271822
  0
LINE
  5
25F
100
AcDbEntity
  8
ASSI
100
AcDbLine
 62
7
  6
CONTINUOUS
 10
-47.5598938607
 20
4.17644743
 11
-47.4645426871
 21
4.3409038775
  0
LINE
  5
260
100
AcDbEntity
  8
ASSI
100
AcDbLine
 62
7
  6
CONTINUOUS
 10
-47.2063404701
 20
4.3532241253
 11
-47.1109892966
 21
4.5176805728
  0
LINE
  5
261
100
AcDbEntity
  8
ASSI
100
AcDbLine
 62
7
  6
CONTINUOUS
 10
-46.8527870795
 20
4.5300008206
 11
-46.757435906
 21
4.6944572681
  0
LINE
  5
262
100
AcDbEntity
  8
ASSI
100
AcDbLine
 62
7
  6
CONTINUOUS
 10
-46.4992336889
 20
4.7067775159
 11
-46.4038825154
 21
4.8712339634
  0
LINE
  5
263
100
AcDbEntity
  8
ASSI
100
AcDbLine
 62
7
  6
CONTINUOUS
 10
-46.1456802983
 20
4.8835542111
 11
-46.0503291248
 21
5.0480106587
  0
LINE
  5
264
100
AcDbEntity
  8
ASSI
100
AcDbLine
 62
7
  6
CONTINUOUS
 10
-43.5982918544
 20
2.3569731555
 11
-43.5754553906
 21
2.3963602293
  0
LINE
  5
265
100
AcDbEntity
  8
ASSI
100
AcDbLine
 62
7
  6
CONTINUOUS
 10
-43.3279680172
 20
2.3902001054
 11
-43.221902
 21
2.5731369246
  0
LINE
  5
266
100
AcDbEntity
  8
ASSI
100
AcDbLine
 62
7
  6
CONTINUOUS
 10
-42.9744146266
 20
2.5669768007
 11
-42.8683486094
 21
2.7499136199
  0
LINE
  5
267
100
AcDbEntity
  8
ASSI
100
AcDbLine
 62
7
  6
CONTINUOUS
 10
-42.620861236
 20
2.743753496
 11
-42.5147952188
 21
2.9266903152
  0
LINE
  5
268
100
AcDbEntity
  8
ASSI
100
AcDbLine
 62
7
  6
CONTINUOUS
 10
-42.2673078454
 20
2.9205301913
 11
-42.1612418282
 21
3.1034670105
  0
LINE
  5
269
100
AcDbEntity
  8
RACCORDO
100
AcDbLine
 62
7
  6
CONTINUOUS
 10
-59.116721053
 20
6.6602405496
 11
-57.6077461266
 21
7.7603662379
  0
LINE
  5
26A
100
AcDbEntity
  8
RACCORDO
100
AcDbLine
 62
7
  6
CONTINUOUS
 10
-58.9561161187
 20
6.2682382484
 11
-57.4377453277
 21
7.3752341889
  0
LINE
  5
26B
100
AcDbEntity
  8
DRAFT
100
AcDbLine
 62
7
  6
CONTINUOUS
 10
-56.4705889978
 20
14.9355615671
 11
-57.0066281058
 21
14.6378956962
  0
LINE
  5
26C
100
AcDbEntity
  8
RACCORDO
100
AcDbLine
 62
7
  6
CONTINUOUS
 10
-56.4705889978
 20
14.4378208246
 11
-55.9144687223
 21
14.7277697023
  0
LINE
  5
26D
100
AcDbEntity
  8
RACCORDO
100
AcDbLine
 62
7
  6
CONTINUOUS
 10
-56.2680221129
 20
14.0669205518
 11
-55.702336688
 21
14.361856488
  0
LINE
  5
26E
100
AcDbEntity
  8
RACCORDO
100
AcDbLine
 62
7
  6
CONTINUOUS
 10
-56.2778961887
 20
22.4552375085
 11
-55.702336688
 21
22.7210499593
  0
LINE
  5
26F
100
AcDbEntity
  8
RACCORDO
100
AcDbLine
 62
7
  6
CONTINUOUS
 10
-56.3590335442
 20
22.2914631245
 11
-55.7834740434
 21
22.5572755754
  0
LINE
  5
270
100
AcDbEntity
  8
RACCORDO
100
AcDbLine
 62
7
  6
CONTINUOUS
 10
-56.7095658143
 20
15.3276749401
 11
-55.7742816256
 21
15.7596201727
  0
LINE
  5
271
100
AcDbEntity
  8
RACCORDO
100
AcDbLine
 62
7
  6
CONTINUOUS
 10
-56.7907031698
 20
15.1639005561
 11
-55.855418981
 21
15.5958457887
  0
LINE
  5
272
100
AcDbEntity
  8
SMUSSO
100
AcDbLine
 62
7
  6
CONTINUOUS
 10
-74.9002857972
 20
-10.4246306294
 11
70.7637111272
 21
-83.2566290916
  0
LINE
  5
273
100
AcDbEntity
  8
SMUSSO
100
AcDbLine
 62
7
  6
CONTINUOUS
 10
-75.6073925784
 20
-9.9121586162
 11
70.0566043461
 21
-82.7441570784
  0
LINE
  5
274
100
AcDbEntity
  8
RACCORDO
100
AcDbLine
 62
7
  6
CONTINUOUS
 10
-60.9596053484
 20
4.7406893885
 11
-60.9217429072
 21
4.7067473448
  0
LINE
  5
275
100
AcDbEntity
  8
RACCORDO
100
AcDbLine
 62
7
  6
CONTINUOUS
 10
-34.1367797621
 20
-2.2108664267
 11
-34.1367797621
 21
-2.3737828906
  0
LINE
  5
276
100
AcDbEntity
  8
RACCORDO
100
AcDbLine
 62
7
  6
CONTINUOUS
 10
-33.8173818102
 20
-2.7933290636
 11
-33.8173818102
 21
-3.2642291189
  0
LINE
  5
277
100
AcDbEntity
  8
RACCORDO
100
AcDbLine
 62
7
  6
CONTINUOUS
 10
-56.2680221129
 20
8.1140596361
 11
-55.702336688
 21
8.4089955723
  0
LINE
  5
278
100
AcDbEntity
  8
RACCORDO
100
AcDbLine
 62
7
  6
CONTINUOUS
 10
-57.5478630231
 20
7.7973567974
 11
-57.2164449701
 21
7.9643436512
  0
LINE
  5
279
100
AcDbEntity
  8
RACCORDO
100
AcDbLine
 62
7
  6
CONTINUOUS
 10
-57.303881833
 20
7.4476025389
 11
-57.0043452445
 21
7.5985257372
  0
LINE
  5
27A
100
AcDbEntity
  8
RACCORDO
100
AcDbLine
 62
7
  6
CONTINUOUS
 10
-55.4902594496
 20
8.6549905265
 11
-55.702336688
 21
8.5497986528
  0
LINE
  5
27B
100
AcDbEntity
  8
RACCORDO
100
AcDbLine
 62
7
  6
CONTINUOUS
 10
-57.2140125803
 20
7.9593548521
 11
-56.4705889978
 21
8.3218260386
  0
LINE
  5
27C
100
AcDbEntity
  8
RACCORDO
100
AcDbLine
 62
7
  6
CONTINUOUS
 10
-56.9986716492
 20
7.5956889395
 11
-56.258747683
 21
7.9564538174
  0
LWPOLYLINE
  5
27D
100
AcDbEntity
  8
RACCORDO
100
AcDbPolyline
 62
7
  6
CONTINUOUS
 90
5
 70
0
 10
-60.9217429072
 20
4.7067473448
 10
-60.8821797651
 20
4.6757705429
 10
-60.8413081517
 20
4.6481284426
 10
-60.79932484
 20
4.623985632
 10
-60.7876420106
 20
4.6179915341
  0
LINE
  5
27E
100
AcDbEntity
  8
DRAFT
100
AcDbLine
 62
7
  6
CONTINUOUS
 10
-27.135222728
 20
-7.0030733429
 11
-27.135222728
 21
-6.60530866
  0
LINE
  5
27F
100
AcDbEntity
  8
RACCORDO
100
AcDbLine
 62
7
  6
CONTINUOUS
 10
-26.7294725515
 20
-6.7699844717
 11
-26.7294725515
 21
-6.3372045471
  0
LINE
  5
280
100
AcDbEntity
  8
ASSI
100
AcDbLine
 62
7
  6
CONTINUOUS
 10
-25.8126500738
 20
-5.0326837939
 11
-25.8126500738
 21
-5.4582073884
  0
LINE
  5
281
100
AcDbEntity
  8
ASSI
100
AcDbLine
 62
7
  6
CONTINUOUS
 10
-25.7612790389
 20
-5.0169249662
 11
-25.7612790389
 21
-5.4408735956
  0
LINE
  5
282
100
AcDbEntity
  8
DRAFT
100
AcDbLine
 62
7
  6
CONTINUOUS
 10
-22.2919794627
 20
-9.3072956755
 11
-22.2919794627
 21
-9.4574585565
  0
LINE
  5
283
100
AcDbEntity
  8
DRAFT
100
AcDbLine
 62
7
  6
CONTINUOUS
 10
-26.3391177196
 20
-6.0147499896
 11
-26.2820740677
 21
-5.7825361161
  0
LINE
  5
284
100
AcDbEntity
  8
ASSI
100
AcDbLine
 62
7
  6
CONTINUOUS
 10
-41.984465133
 20
2.2781543675
 11
-41.7297602593
 21
2.4627504184
  0
LINE
  5
285
100
AcDbEntity
  8
ASSI
100
AcDbLine
 62
7
  6
CONTINUOUS
 10
-41.7295661803
 20
3.0052127493
 11
-43.2292279323
 21
2.1724411945
  0
LINE
  5
286
100
AcDbEntity
  8
RACCORDO
100
AcDbLine
 62
7
  6
CONTINUOUS
 10
-50.5051018462
 20
5.2325995028
 11
-49.9394164213
 21
5.527535439
  0
LINE
  5
287
100
AcDbEntity
  8
RACCORDO
100
AcDbLine
 62
7
  6
CONTINUOUS
 10
-50.188328246
 20
4.921244099
 11
-49.7272843869
 21
5.1616222247
  0
LINE
  5
288
100
AcDbEntity
  8
RACCORDO
100
AcDbLine
 62
7
  6
CONTINUOUS
 10
-45.4083849975
 20
3.2017214872
 11
-45.9740704225
 21
2.906785551
  0
LINE
  5
289
100
AcDbEntity
  8
RACCORDO
100
AcDbLine
 62
7
  6
CONTINUOUS
 10
-45.2725116655
 20
3.1940830611
 11
-45.8381970904
 21
2.8991471249
  0
LINE
  5
28A
100
AcDbEntity
  8
ASSI
100
AcDbLine
 62
7
  6
CONTINUOUS
 10
-48.1716494683
 20
3.9873504869
 11
-48.0302281121
 21
4.0580611651
  0
LINE
  5
28B
100
AcDbEntity
  8
ASSI
100
AcDbLine
 62
7
  6
CONTINUOUS
 10
-47.8180960777
 20
4.1641271822
 11
-47.6766747215
 21
4.2348378604
  0
LINE
  5
28C
100
AcDbEntity
  8
ASSI
100
AcDbLine
 62
7
  6
CONTINUOUS
 10
-47.4645426871
 20
4.3409038775
 11
-47.3231213309
 21
4.4116145557
  0
LINE
  5
28D
100
AcDbEntity
  8
ASSI
100
AcDbLine
 62
7
  6
CONTINUOUS
 10
-47.1109892966
 20
4.5176805728
 11
-46.9695679403
 21
4.588391251
  0
LINE
  5
28E
100
AcDbEntity
  8
ASSI
100
AcDbLine
 62
7
  6
CONTINUOUS
 10
-46.757435906
 20
4.6944572681
 11
-46.6160145497
 21
4.7651679463
  0
LINE
  5
28F
100
AcDbEntity
  8
ASSI
100
AcDbLine
 62
7
  6
CONTINUOUS
 10
-46.4038825154
 20
4.8712339634
 11
-46.2624611591
 21
4.9419446415
  0
LINE
  5
290
100
AcDbEntity
  8
ASSI
100
AcDbLine
 62
7
  6
CONTINUOUS
 10
-46.0503291248
 20
5.0480106587
 11
-45.9089077685
 21
5.1187213368
  0
LINE
  5
291
100
AcDbEntity
  8
ASSI
100
AcDbLine
 62
7
  6
CONTINUOUS
 10
-43.5754553906
 20
2.3963602293
 11
-43.4340340344
 21
2.4670709074
  0
LINE
  5
292
100
AcDbEntity
  8
ASSI
100
AcDbLine
 62
7
  6
CONTINUOUS
 10
-43.221902
 20
2.5731369246
 11
-43.0804806438
 21
2.6438476027
  0
LINE
  5
293
100
AcDbEntity
  8
ASSI
100
AcDbLine
 62
7
  6
CONTINUOUS
 10
-42.8683486094
 20
2.7499136199
 11
-42.7269272532
 21
2.820624298
  0
LINE
  5
294
100
AcDbEntity
  8
ASSI
100
AcDbLine
 62
7
  6
CONTINUOUS
 10
-42.5147952188
 20
2.9266903152
 11
-42.3733738626
 21
2.9974009933
  0
LINE
  5
295
100
AcDbEntity
  8
ASSI
100
AcDbLine
 62
7
  6
CONTINUOUS
 10
-42.1612418282
 20
3.1034670105
 11
-42.019820472
 21
3.1741776886
  0
LINE
  5
296
100
AcDbEntity
  8
ASSI
100
AcDbLine
 62
7
  6
CONTINUOUS
 10
-41.9137544548
 20
3.0973068866
 11
-43.4963568857
 21
2.3060056712
  0
LINE
  5
297
100
AcDbEntity
  8
ASSI
100
AcDbLine
 62
7
  6
CONTINUOUS
 10
-45.9870300259
 20
5.1339446721
 11
-48.4216172287
 21
4.0378885903
  0
LWPOLYLINE
  5
298
100
AcDbEntity
  8
RACCORDO
100
AcDbPolyline
 62
7
  6
CONTINUOUS
 90
13
 70
0
 10
54.4029175184
 20
-52.9772884866
 10
54.4174842422
 20
-52.9843338339
 10
54.4573569871
 20
-53.0012535359
 10
54.4976801112
 20
-53.0149349307
 10
54.5382956191
 20
-53.0253261006
 10
54.5789444083
 20
-53.0323789702
 10
54.619436776
 20
-53.0360825278
 10
54.6595728532
 20
-53.0364426761
 10
54.698997672
 20
-53.0335112632
 10
54.7374519155
 20
-53.0273863234
 10
54.7747344828
 20
-53.018183035
 10
54.8105534754
 20
-53.0060754459
 10
54.8376891692
 20
-52.994587558
  0
LINE
  5
299
100
AcDbEntity
  8
RACCORDO
100
AcDbLine
 62
7
  6
CONTINUOUS
 10
-60.7876721995
 20
4.6179988162
 11
54.4028703858
 21
-52.9772724765
  0
LINE
  5
29A
100
AcDbEntity
  8
0
100
AcDbLine
 62
7
  6
CONTINUOUS
 10
-5.8489942538
 20
-22.7510293719
 11
-5.5758629459
 21
-22.8875950258
  0
LINE
  5
29B
100
AcDbEntity
  8
0
100
AcDbLine
 62
7
  6
CONTINUOUS
 10
-4.9835712141
 20
-23.1837408917
 11
-4.6736349982
 21
-23.3387089997
  0
LINE
  5
29C
100
AcDbEntity
  8
0
100
AcDbLine
 62
7
  6
CONTINUOUS
 10
-4.5067867892
 20
-23.4221331042
 11
-4.2102792382
 21
-23.5703868797
  0
LINE
  5
29D
100
AcDbEntity
  8
0
100
AcDbLine
 62
7
  6
CONTINUOUS
 10
-3.7798025293
 20
-23.7856252341
 11
-3.7363345541
 21
-23.8073592217
  0
LINE
  5
29E
100
AcDbEntity
  8
0
100
AcDbLine
 62
7
  6
CONTINUOUS
 10
-3.3041431113
 20
-24.0234549431
 11
-3.0009435017
 21
-24.1750547479
  0
LINE
  5
29F
100
AcDbEntity
  8
0
100
AcDbLine
 62
7
  6
CONTINUOUS
 10
-2.9522754633
 20
-24.1993887672
 11
-2.6457022472
 21
-24.3526753752
  0
LINE
  5
2A0
100
AcDbEntity
  8
0
100
AcDbLine
 62
7
  6
CONTINUOUS
 10
-2.0578080125
 20
-24.6466224925
 11
-1.7311487212
 21
-24.8099521382
  0
LINE
  5
2A1
100
AcDbEntity
  8
0
100
AcDbLine
 62
7
  6
CONTINUOUS
 10
-1.6401363879
 20
-24.8554586492
 11
-1.3314475908
 21
-25.0098030478
  0
LINE
  5
2A2
100
AcDbEntity
  8
0
100
AcDbLine
 62
7
  6
CONTINUOUS
 10
-0.8568235338
 20
-25.2471150763
 11
-0.5587012374
 21
-25.3961762245
  0
LINE
  5
2A3
100
AcDbEntity
  8
RACCORDO
100
AcDbLine
 62
7
  6
CONTINUOUS
 10
-60.8656401581
 20
4.7802609577
 11
-5.8549392538
 21
-22.7250894944
  0
LINE
  5
2A4
100
AcDbEntity
  8
RACCORDO
100
AcDbLine
 62
7
  6
CONTINUOUS
 10
-5.5528955684
 20
-22.8761113371
 11
-4.9835712141
 21
-23.1607735143
  0
LINE
  5
2A5
100
AcDbEntity
  8
RACCORDO
100
AcDbLine
 62
7
  6
CONTINUOUS
 10
-4.6506676207
 20
-23.327225311
 11
-4.50509352
 21
-23.4000123613
  0
LINE
  5
2A6
100
AcDbEntity
  8
RACCORDO
100
AcDbLine
 62
7
  6
CONTINUOUS
 10
-4.1873118607
 20
-23.558903191
 11
-3.7868350648
 21
-23.7591415889
  0
LINE
  5
2A7
100
AcDbEntity
  8
RACCORDO
100
AcDbLine
 62
7
  6
CONTINUOUS
 10
-3.7133671767
 20
-23.795875533
 11
-3.3053798981
 21
-23.9998691723
  0
LINE
  5
2A8
100
AcDbEntity
  8
RACCORDO
100
AcDbLine
 62
7
  6
CONTINUOUS
 10
-2.9779761242
 20
-24.1635710592
 11
-2.9430885123
 21
-24.1810148652
  0
LINE
  5
2A9
100
AcDbEntity
  8
RACCORDO
100
AcDbLine
 62
7
  6
CONTINUOUS
 10
-2.6227348698
 20
-24.3411916865
 11
-2.0628875153
 21
-24.6211153637
  0
LINE
  5
2AA
100
AcDbEntity
  8
RACCORDO
100
AcDbLine
 62
7
  6
CONTINUOUS
 10
-1.7081813437
 20
-24.7984684495
 11
-1.6371089565
 21
-24.8340046431
  0
LINE
  5
2AB
100
AcDbEntity
  8
RACCORDO
100
AcDbLine
 62
7
  6
CONTINUOUS
 10
-1.3084798689
 20
-24.9983191869
 11
-0.86233501
 21
-25.2213916164
  0
LINE
  5
2AC
100
AcDbEntity
  8
RACCORDO
100
AcDbLine
 62
7
  6
CONTINUOUS
 10
-0.5357335155
 20
-25.3846923636
 11
54.3249024327
 21
-52.8150103377
  0
LINE
  5
2AD
100
AcDbEntity
  8
0
100
AcDbLine
 62
7
  6
CONTINUOUS
 10
-2.5601790962
 20
-24.0323999674
 11
-2.1380978662
 21
-24.2434405825
  0
LINE
  5
2AE
100
AcDbEntity
  8
0
100
AcDbLine
 62
7
  6
CONTINUOUS
 10
-2.2000382989
 20
-23.9315533758
 11
-2.4967799022
 21
-23.7831825741
  0
LINE
  5
2AF
100
AcDbEntity
  8
0
100
AcDbLine
 62
7
  6
CONTINUOUS
 10
-1.3314475908
 20
-24.2981424195
 11
-1.1652673752
 21
-24.3812325273
  0
LINE
  5
2B0
100
AcDbEntity
  8
IMPORT_IGES
100
AcDbLine
 62
7
  6
CONTINUOUS
 10
-2.355358546
 20
-23.712471896
 11
-2.2298829286
 21
-23.7752097046
  0
LINE
  5
2B1
100
AcDbEntity
  8
0
100
AcDbLine
 62
7
  6
CONTINUOUS
 10
-2.2298829286
 20
-23.7752097046
 11
-2.355358546
 21
-23.712471896
  0
LINE
  5
2B2
100
AcDbEntity
  8
0
100
AcDbLine
 62
7
  6
CONTINUOUS
 10
-1.164599314
 20
-24.0837401236
 11
-1.3417245984
 21
-23.9951774814
  0
LINE
  5
2B3
100
AcDbEntity
  8
0
100
AcDbLine
 62
7
  6
CONTINUOUS
 10
-1.0231779578
 20
-24.0130294455
 11
-1.2003032422
 21
-23.9244668033
  0
LINE
  5
2B4
100
AcDbEntity
  8
IMPORT_IGES
100
AcDbLine
 62
7
  6
CONTINUOUS
 10
-1.0231779578
 20
-24.0130294455
 11
-1.2003032422
 21
-23.9244668033
  0
LINE
  5
2B5
100
AcDbEntity
  8
SMUSSO
100
AcDbLine
 62
7
  6
CONTINUOUS
 10
70.0566043461
 20
-82.7441570784
 11
70.7637111272
 21
-83.2566290916
  0
LINE
  5
2B6
100
AcDbEntity
  8
ASSI
100
AcDbLine
 62
7
  6
CONTINUOUS
 10
-43.4340340344
 20
2.4670709074
 11
-43.3279680172
 21
2.3902001054
  0
LINE
  5
2B7
100
AcDbEntity
  8
ASSI
100
AcDbLine
 62
7
  6
CONTINUOUS
 10
-43.0804806438
 20
2.6438476027
 11
-42.9744146266
 21
2.5669768007
  0
LINE
  5
2B8
100
AcDbEntity
  8
ASSI
100
AcDbLine
 62
7
  6
CONTINUOUS
 10
-42.7269272532
 20
2.820624298
 11
-42.620861236
 21
2.743753496
  0
LINE
  5
2B9
100
AcDbEntity
  8
ASSI
100
AcDbLine
 62
7
  6
CONTINUOUS
 10
-42.3733738626
 20
2.9974009933
 11
-42.2673078454
 21
2.9205301913
  0
LINE
  5
2BA
100
AcDbEntity
  8
ASSI
100
AcDbLine
 62
7
  6
CONTINUOUS
 10
-42.019820472
 20
3.1741776886
 11
-41.9137544548
 21
3.0973068866
  0
LINE
  5
2BB
100
AcDbEntity
  8
DRAFT
100
AcDbLine
 62
7
  6
CONTINUOUS
 10
-21.3566952739
 20
-9.4945723871
 11
-21.3566952739
 21
-8.8360474658
  0
LINE
  5
2BC
100
AcDbEntity
  8
RACCORDO
100
AcDbLine
 62
7
  6
CONTINUOUS
 10
-17.9074792335
 20
-10.748280352
 11
-17.9074792335
 21
-11.2191804073
  0
LINE
  5
2BD
100
AcDbEntity
  8
ASSI
100
AcDbLine
 62
7
  6
CONTINUOUS
 10
-41.984465133
 20
2.2781543675
 11
-42.7056663099
 21
1.9106603833
  0
LINE
  5
2BE
100
AcDbEntity
  8
DRAFT
100
AcDbLine
 62
7
  6
CONTINUOUS
 10
-42.4354474864
 20
1.7755509715
 11
-42.3283192676
 21
1.8294110401
  0
LINE
  5
2BF
100
AcDbEntity
  8
DRAFT
100
AcDbLine
 62
7
  6
CONTINUOUS
 10
-42.5063071526
 20
1.8109808047
 11
-42.2490202963
 21
1.9402012987
  0
LINE
  5
2C0
100
AcDbEntity
  8
ASSI
100
AcDbLine
 62
7
  6
CONTINUOUS
 10
-41.7225526505
 20
2.4967438999
 11
-42.8021316098
 21
1.9588930332
  0
LINE
  5
2C1
100
AcDbEntity
  8
RACCORDO
100
AcDbLine
 62
7
  6
CONTINUOUS
 10
-36.1067610163
 20
-1.1267666933
 11
-36.3791841214
 21
-1.252580711
  0
LINE
  5
2C2
100
AcDbEntity
  8
RACCORDO
100
AcDbLine
 62
7
  6
CONTINUOUS
 10
-35.8909513038
 20
-1.1446635464
 11
-36.2569540532
 21
-1.313695745
  0
LINE
  5
2C3
100
AcDbEntity
  8
RACCORDO
100
AcDbLine
 62
7
  6
CONTINUOUS
 10
-10.589845852
 20
-13.6753163874
 11
-10.5898922189
 21
-13.675293212
  0
LINE
  5
2C4
100
AcDbEntity
  8
0
100
AcDbLine
 62
7
  6
CONTINUOUS
 10
-2.186722064
 20
-22.7636654053
 11
-2.48654736
 21
-22.6137527573
  0
LINE
  5
2C5
100
AcDbEntity
  8
0
100
AcDbLine
 62
7
  6
CONTINUOUS
 10
-3.1397888679
 20
-22.2871320034
 11
-3.4464398657
 21
-22.1338065045
  0
LINE
  5
2C6
100
AcDbEntity
  8
0
100
AcDbLine
 62
7
  6
CONTINUOUS
 10
-4.0630383931
 20
-21.8255072408
 11
-4.3727179293
 21
-21.6706674727
  0
LINE
  5
2C7
100
AcDbEntity
  8
0
100
AcDbLine
 62
7
  6
CONTINUOUS
 10
-5.098588496
 20
-21.3077321893
 11
-5.408313287
 21
-21.1528697938
  0
LINE
  5
2C8
100
AcDbEntity
  8
0
100
AcDbLine
 62
7
  6
CONTINUOUS
 10
-5.983018566
 20
-20.8655171543
 11
-6.3197046315
 21
-20.6971741216
  0
LINE
  5
2C9
100
AcDbEntity
  8
0
100
AcDbLine
 62
7
  6
CONTINUOUS
 10
-4.6736349982
 20
-21.520099819
 11
-4.9835712141
 21
-21.3651317111
  0
LINE
  5
2CA
100
AcDbEntity
  8
IMPORT_IGES
100
AcDbLine
 62
7
  6
CONTINUOUS
 10
-6.1782832752
 20
-20.6264634435
 11
-5.8415972098
 21
-20.7948064762
  0
LINE
  5
2CB
100
AcDbEntity
  8
IMPORT_IGES
100
AcDbLine
 62
7
  6
CONTINUOUS
 10
-5.2668919307
 20
-21.0821591157
 11
-4.9571671398
 21
-21.2370215112
  0
LINE
  5
2CC
100
AcDbEntity
  8
IMPORT_IGES
100
AcDbLine
 62
7
  6
CONTINUOUS
 10
-4.231296573
 20
-21.5999567946
 11
-3.9216170369
 21
-21.7547965627
  0
LINE
  5
2CD
100
AcDbEntity
  8
IMPORT_IGES
100
AcDbLine
 62
7
  6
CONTINUOUS
 10
-3.3050185095
 20
-22.0630958264
 11
-2.9983675117
 21
-22.2164213253
  0
LINE
  5
2CE
100
AcDbEntity
  8
IMPORT_IGES
100
AcDbLine
 62
7
  6
CONTINUOUS
 10
-2.3451260038
 20
-22.5430420792
 11
-2.0453007077
 21
-22.6929547272
  0
LINE
  5
2CF
100
AcDbEntity
  8
0
100
AcDbLine
 62
7
  6
CONTINUOUS
 10
-2.0453007077
 20
-22.6929547272
 11
-2.3451260038
 21
-22.5430420792
  0
LINE
  5
2D0
100
AcDbEntity
  8
0
100
AcDbLine
 62
7
  6
CONTINUOUS
 10
-2.9983675117
 20
-22.2164213253
 11
-3.3050185095
 21
-22.0630958264
  0
LINE
  5
2D1
100
AcDbEntity
  8
0
100
AcDbLine
 62
7
  6
CONTINUOUS
 10
-3.9216170369
 20
-21.7547965627
 11
-4.231296573
 21
-21.5999567946
  0
LINE
  5
2D2
100
AcDbEntity
  8
0
100
AcDbLine
 62
7
  6
CONTINUOUS
 10
-4.9571671398
 20
-21.2370215112
 11
-5.2668919307
 21
-21.0821591157
  0
LINE
  5
2D3
100
AcDbEntity
  8
0
100
AcDbLine
 62
7
  6
CONTINUOUS
 10
-5.8415972098
 20
-20.7948064762
 11
-6.1782832752
 21
-20.6264634435
  0
LINE
  5
2D4
100
AcDbEntity
  8
0
100
AcDbLine
 62
7
  6
CONTINUOUS
 10
-4.5322136419
 20
-21.4493891409
 11
-4.8421498578
 21
-21.294421033
  0
LINE
  5
2D5
100
AcDbEntity
  8
IMPORT_IGES
100
AcDbLine
 62
7
  6
CONTINUOUS
 10
-4.5322136419
 20
-21.4493891409
 11
-4.8421498578
 21
-21.294421033
  0
LINE
  5
2D6
100
AcDbEntity
  8
RACCORDO
100
AcDbLine
 62
7
  6
CONTINUOUS
 10
52.5549655206
 20
-49.8710204811
 11
-59.0957032465
 21
5.9543139024
  0
LINE
  5
2D7
100
AcDbEntity
  8
RACCORDO
100
AcDbLine
 62
7
  6
CONTINUOUS
 10
52.6945508674
 20
-49.5570952446
 11
-58.9561161187
 21
6.2682382484
  0
LINE
  5
2D8
100
AcDbEntity
  8
RACCORDO
100
AcDbLine
 62
7
  6
CONTINUOUS
 10
-57.4186338568
 20
7.3641786157
 11
52.8723203267
 21
-47.781298476
  0
LINE
  5
2D9
100
AcDbEntity
  8
RACCORDO
100
AcDbLine
 62
7
  6
CONTINUOUS
 10
-57.303881833
 20
7.4476025389
 11
52.8723203267
 21
-47.6404985409
  0
LINE
  5
2DA
100
AcDbEntity
  8
RACCORDO
100
AcDbLine
 62
7
  6
CONTINUOUS
 10
52.8723203267
 20
-47.3398070484
 11
-57.0043452445
 21
7.5985257372
  0
LINE
  5
2DB
100
AcDbEntity
  8
DRAFT
100
AcDbLine
 62
7
  6
CONTINUOUS
 10
25.332100436
 20
-33.3683464924
 11
20.0287995771
 21
-30.716696063
  0
LINE
  5
2DC
100
AcDbEntity
  8
DRAFT
100
AcDbLine
 62
7
  6
CONTINUOUS
 10
9.4221978593
 20
-25.4133952041
 11
4.1188970004
 21
-22.7617447746
  0
LINE
  5
2DD
100
AcDbEntity
  8
DRAFT
100
AcDbLine
 62
7
  6
CONTINUOUS
 10
-6.4877047174
 20
-17.4584439157
 11
-11.7910055763
 21
-14.8067934863
  0
LINE
  5
2DE
100
AcDbEntity
  8
DRAFT
100
AcDbLine
 62
7
  6
CONTINUOUS
 10
-22.3976072941
 20
-9.5034926274
 11
-27.700908153
 21
-6.8518421979
  0
LINE
  5
2DF
100
AcDbEntity
  8
RACCORDO
100
AcDbLine
 62
7
  6
CONTINUOUS
 10
-26.9580401557
 20
-6.974265329
 11
-22.2919794627
 21
-9.3072956755
  0
LINE
  5
2E0
100
AcDbEntity
  8
RACCORDO
100
AcDbLine
 62
7
  6
CONTINUOUS
 10
-11.048137579
 20
-14.9292166173
 11
-6.5941766116
 21
-17.156197101
  0
LINE
  5
2E1
100
AcDbEntity
  8
RACCORDO
100
AcDbLine
 62
7
  6
CONTINUOUS
 10
4.8617649977
 20
-22.8841679057
 11
9.3157259651
 21
-25.1111483894
  0
LINE
  5
2E2
100
AcDbEntity
  8
RACCORDO
100
AcDbLine
 62
7
  6
CONTINUOUS
 10
20.7716675744
 20
-30.839119194
 11
25.2256285418
 21
-33.0660996777
  0
LINE
  5
2E3
100
AcDbEntity
  8
RACCORDO
100
AcDbLine
 62
7
  6
CONTINUOUS
 10
-56.258747683
 20
7.9564538174
 11
-27.135222728
 21
-6.60530866
  0
LINE
  5
2E4
100
AcDbEntity
  8
DRAFT
100
AcDbLine
 62
7
  6
CONTINUOUS
 10
-21.8319218691
 20
-9.2569590895
 11
-11.2253201513
 21
-14.5602599484
  0
LINE
  5
2E5
100
AcDbEntity
  8
DRAFT
100
AcDbLine
 62
7
  6
CONTINUOUS
 10
-5.9220192924
 20
-17.2119103778
 11
4.6845824254
 21
-22.5152112367
  0
LINE
  5
2E6
100
AcDbEntity
  8
DRAFT
100
AcDbLine
 62
7
  6
CONTINUOUS
 10
9.9878832843
 20
-25.1668616662
 11
20.5944850021
 21
-30.4701625251
  0
LINE
  5
2E7
100
AcDbEntity
  8
RACCORDO
100
AcDbLine
 62
7
  6
CONTINUOUS
 10
25.897785861
 20
-33.1218129545
 11
52.8723203267
 21
-46.6090801874
  0
LINE
  5
2E8
100
AcDbEntity
  8
ASSI
100
AcDbLine
 62
7
  6
CONTINUOUS
 10
49.4694151936
 20
-44.833181844
 11
47.2877659919
 21
-43.7423572431
  0
LINE
  5
2E9
100
AcDbEntity
  8
ASSI
100
AcDbLine
 62
7
  6
CONTINUOUS
 10
-45.9900002665
 20
2.896525886
 11
-48.1716494683
 21
3.9873504869
  0
LINE
  5
2EA
100
AcDbEntity
  8
RACCORDO
100
AcDbLine
 62
7
  6
CONTINUOUS
 10
52.8723203267
 20
-46.4561115837
 11
49.6212183698
 21
-44.8305606052
  0
LINE
  5
2EB
100
AcDbEntity
  8
RACCORDO
100
AcDbLine
 62
7
  6
CONTINUOUS
 10
44.9543136139
 20
-42.4971082273
 11
33.7113157931
 21
-36.8756093168
  0
LINE
  5
2EC
100
AcDbEntity
  8
RACCORDO
100
AcDbLine
 62
7
  6
CONTINUOUS
 10
29.0444110372
 20
-34.5421569389
 11
26.6332483014
 21
-33.336575571
  0
LINE
  5
2ED
100
AcDbEntity
  8
RACCORDO
100
AcDbLine
 62
7
  6
CONTINUOUS
 10
20.2125759522
 20
-30.1262393964
 11
17.8014132164
 21
-28.9206580285
  0
LINE
  5
2EE
100
AcDbEntity
  8
RACCORDO
100
AcDbLine
 62
7
  6
CONTINUOUS
 10
13.1345084605
 20
-26.5872056506
 11
10.8647455418
 21
-25.4523241912
  0
LINE
  5
2EF
100
AcDbEntity
  8
RACCORDO
100
AcDbLine
 62
7
  6
CONTINUOUS
 10
4.3026733755
 20
-22.1712881081
 11
1.8915106397
 21
-20.9657067401
  0
LINE
  5
2F0
100
AcDbEntity
  8
RACCORDO
100
AcDbLine
 62
7
  6
CONTINUOUS
 10
-2.7753941162
 20
-18.6322543622
 11
-5.186556852
 21
-17.4266729943
  0
LINE
  5
2F1
100
AcDbEntity
  8
RACCORDO
100
AcDbLine
 62
7
  6
CONTINUOUS
 10
-11.7486290183
 20
-14.1456369112
 11
-14.018391937
 21
-13.0107554518
  0
LINE
  5
2F2
100
AcDbEntity
  8
RACCORDO
100
AcDbLine
 62
7
  6
CONTINUOUS
 10
-18.6852966929
 20
-10.6773030739
 11
-21.0964594287
 21
-9.471721706
  0
LINE
  5
2F3
100
AcDbEntity
  8
RACCORDO
100
AcDbLine
 62
7
  6
CONTINUOUS
 10
-27.5171317779
 20
-6.2613855314
 11
-29.9282945137
 21
-5.0558041635
  0
LINE
  5
2F4
100
AcDbEntity
  8
RACCORDO
100
AcDbLine
 62
7
  6
CONTINUOUS
 10
-34.5951992696
 20
-2.7223517855
 11
-45.8381970904
 21
2.8991471249
  0
LINE
  5
2F5
100
AcDbEntity
  8
RACCORDO
100
AcDbLine
 62
7
  6
CONTINUOUS
 10
-50.5051018462
 20
5.2325995028
 11
-56.2680221129
 21
8.1140596361
  0
LINE
  5
2F6
100
AcDbEntity
  8
ASSI
100
AcDbLine
 62
7
  6
CONTINUOUS
 10
49.6059632311
 20
-44.7600345065
 11
47.4291873481
 21
-43.671646565
  0
LINE
  5
2F7
100
AcDbEntity
  8
ASSI
100
AcDbLine
 62
7
  6
CONTINUOUS
 10
-45.8534522291
 20
2.9696732236
 11
-48.0302281121
 21
4.0580611651
  0
LINE
  5
2F8
100
AcDbEntity
  8
ASSI
100
AcDbLine
 62
7
  6
CONTINUOUS
 10
49.8136552257
 20
-44.6517484695
 11
47.6413193824
 21
-43.5655805478
  0
LINE
  5
2F9
100
AcDbEntity
  8
ASSI
100
AcDbLine
 62
7
  6
CONTINUOUS
 10
-45.6457602344
 20
3.0779592606
 11
-47.8180960777
 21
4.1641271822
  0
LINE
  5
2FA
100
AcDbEntity
  8
ASSI
100
AcDbLine
 62
7
  6
CONTINUOUS
 10
49.9521165555
 20
-44.5795577781
 11
47.7827407387
 21
-43.4948698697
  0
LINE
  5
2FB
100
AcDbEntity
  8
ASSI
100
AcDbLine
 62
7
  6
CONTINUOUS
 10
-45.5072989047
 20
3.150149952
 11
-47.6766747215
 21
4.2348378604
  0
LINE
  5
2FC
100
AcDbEntity
  8
RACCORDO
100
AcDbLine
 62
7
  6
CONTINUOUS
 10
-26.0548467133
 20
-6.4869717461
 11
-21.3566952739
 21
-8.8360474658
  0
LINE
  5
2FD
100
AcDbEntity
  8
RACCORDO
100
AcDbLine
 62
7
  6
CONTINUOUS
 10
-10.1449441367
 20
-14.4419230344
 11
-5.6588924229
 21
-16.6849488913
  0
LINE
  5
2FE
100
AcDbEntity
  8
RACCORDO
100
AcDbLine
 62
7
  6
CONTINUOUS
 10
5.76495844
 20
-22.3968743227
 11
10.2510101538
 21
-24.6399001796
  0
LINE
  5
2FF
100
AcDbEntity
  8
RACCORDO
100
AcDbLine
 62
7
  6
CONTINUOUS
 10
21.6748610167
 20
-30.3518256111
 11
26.1609127305
 21
-32.594851468
  0
LINE
  5
300
100
AcDbEntity
  8
RACCORDO
100
AcDbLine
 62
7
  6
CONTINUOUS
 10
52.8723203267
 20
-45.878332935
 11
50.1869037947
 21
-44.535624669
  0
LINE
  5
301
100
AcDbEntity
  8
RACCORDO
100
AcDbLine
 62
7
  6
CONTINUOUS
 10
45.5199990389
 20
-42.2021722911
 11
34.277001218
 21
-36.5806733807
  0
LINE
  5
302
100
AcDbEntity
  8
RACCORDO
100
AcDbLine
 62
7
  6
CONTINUOUS
 10
29.6100964622
 20
-34.2472210027
 11
27.1890596505
 21
-33.0367025969
  0
LINE
  5
303
100
AcDbEntity
  8
RACCORDO
100
AcDbLine
 62
7
  6
CONTINUOUS
 10
20.788135453
 20
-29.8362404981
 11
18.3670986413
 21
-28.6257220923
  0
LINE
  5
304
100
AcDbEntity
  8
RACCORDO
100
AcDbLine
 62
7
  6
CONTINUOUS
 10
13.7001938855
 20
-26.2922697144
 11
11.4205568909
 21
-25.1524512171
  0
LINE
  5
305
100
AcDbEntity
  8
RACCORDO
100
AcDbLine
 62
7
  6
CONTINUOUS
 10
4.8782328763
 20
-21.8812892098
 11
2.4571960646
 21
-20.670770804
  0
LINE
  5
306
100
AcDbEntity
  8
RACCORDO
100
AcDbLine
 62
7
  6
CONTINUOUS
 10
-2.2097086912
 20
-18.337318426
 11
-4.6307455029
 21
-17.1268000202
  0
LINE
  5
307
100
AcDbEntity
  8
RACCORDO
100
AcDbLine
 62
7
  6
CONTINUOUS
 10
-11.1730695175
 20
-13.8556380129
 11
-13.4527065121
 21
-12.7158195156
  0
LINE
  5
308
100
AcDbEntity
  8
RACCORDO
100
AcDbLine
 62
7
  6
CONTINUOUS
 10
-18.1196112679
 20
-10.3823671377
 11
-20.5406480796
 21
-9.1718487319
  0
LINE
  5
309
100
AcDbEntity
  8
RACCORDO
100
AcDbLine
 62
7
  6
CONTINUOUS
 10
-26.9415722771
 20
-5.9713866331
 11
-29.3626090888
 21
-4.7608682273
  0
LINE
  5
30A
100
AcDbEntity
  8
RACCORDO
100
AcDbLine
 62
7
  6
CONTINUOUS
 10
-34.0295138446
 20
-2.4274158493
 11
-45.2725116655
 21
3.1940830611
  0
LINE
  5
30B
100
AcDbEntity
  8
RACCORDO
100
AcDbLine
 62
7
  6
CONTINUOUS
 10
-49.9394164213
 20
5.527535439
 11
-55.702336688
 21
8.4089955723
  0
LINE
  5
30C
100
AcDbEntity
  8
ASSI
100
AcDbLine
 62
7
  6
CONTINUOUS
 10
51.8839600696
 20
-45.3333475008
 11
47.994872773
 21
-43.3888038526
  0
LINE
  5
30D
100
AcDbEntity
  8
ASSI
100
AcDbLine
 62
7
  6
CONTINUOUS
 10
-43.5754553906
 20
2.3963602293
 11
-47.4645426871
 21
4.3409038775
  0
LINE
  5
30E
100
AcDbEntity
  8
ASSI
100
AcDbLine
 62
7
  6
CONTINUOUS
 10
52.0253814258
 20
-45.2626368227
 11
48.1362941293
 21
-43.3180931744
  0
LINE
  5
30F
100
AcDbEntity
  8
ASSI
100
AcDbLine
 62
7
  6
CONTINUOUS
 10
-43.4340340344
 20
2.4670709074
 11
-47.3231213309
 21
4.4116145557
  0
LINE
  5
310
100
AcDbEntity
  8
RACCORDO
100
AcDbLine
 62
7
  6
CONTINUOUS
 10
-55.702336688
 20
8.7610291457
 11
-55.4902594496
 21
8.6549905265
  0
LINE
  5
311
100
AcDbEntity
  8
RACCORDO
100
AcDbLine
 62
7
  6
CONTINUOUS
 10
-35.8909513038
 20
-1.1446635464
 11
-34.6306094046
 21
-1.774834496
  0
LINE
  5
312
100
AcDbEntity
  8
RACCORDO
100
AcDbLine
 62
7
  6
CONTINUOUS
 10
-12.0614527778
 20
-13.0594128094
 11
-10.807282176
 21
-13.6864981103
  0
LINE
  5
313
100
AcDbEntity
  8
RACCORDO
100
AcDbLine
 62
7
  6
CONTINUOUS
 10
11.7742170456
 20
-24.9772477211
 11
13.0283876473
 21
-25.604333022
  0
LINE
  5
314
100
AcDbEntity
  8
RACCORDO
100
AcDbLine
 62
7
  6
CONTINUOUS
 10
35.5975442742
 20
-36.8889113354
 11
36.8578861733
 21
-37.519082285
  0
LINE
  5
315
100
AcDbEntity
  8
ASSI
100
AcDbLine
 62
7
  6
CONTINUOUS
 10
52.2375134602
 20
-45.1565708055
 11
48.3484261636
 21
-43.2120271573
  0
LINE
  5
316
100
AcDbEntity
  8
ASSI
100
AcDbLine
 62
7
  6
CONTINUOUS
 10
-43.221902
 20
2.5731369246
 11
-47.1109892966
 21
4.5176805728
  0
LINE
  5
317
100
AcDbEntity
  8
RACCORDO
100
AcDbLine
 62
7
  6
CONTINUOUS
 10
-55.702336688
 20
8.8809290306
 11
-55.2728230093
 21
8.6661721913
  0
LINE
  5
318
100
AcDbEntity
  8
RACCORDO
100
AcDbLine
 62
7
  6
CONTINUOUS
 10
-35.6735148635
 20
-1.1334818816
 11
-34.4131729643
 21
-1.7636528312
  0
LINE
  5
319
100
AcDbEntity
  8
RACCORDO
100
AcDbLine
 62
7
  6
CONTINUOUS
 10
-11.8440163375
 20
-13.0482311446
 11
-10.5898457357
 21
-13.6753164455
  0
LINE
  5
31A
100
AcDbEntity
  8
RACCORDO
100
AcDbLine
 62
7
  6
CONTINUOUS
 10
11.9916534858
 20
-24.9660660563
 11
13.2458240876
 21
-25.5931513572
  0
LINE
  5
31B
100
AcDbEntity
  8
RACCORDO
100
AcDbLine
 62
7
  6
CONTINUOUS
 10
35.8149807144
 20
-36.8777296706
 11
37.0753226136
 21
-37.5079006202
  0
LINE
  5
31C
100
AcDbEntity
  8
ASSI
100
AcDbLine
 62
7
  6
CONTINUOUS
 10
52.3789348164
 20
-45.0858601274
 11
48.4898475199
 21
-43.1413164791
  0
LINE
  5
31D
100
AcDbEntity
  8
ASSI
100
AcDbLine
 62
7
  6
CONTINUOUS
 10
-43.0804806438
 20
2.6438476027
 11
-46.9695679403
 21
4.588391251
  0
LINE
  5
31E
100
AcDbEntity
  8
ASSI
100
AcDbLine
 62
7
  6
CONTINUOUS
 10
52.5910668507
 20
-44.9797941102
 11
48.7019795542
 21
-43.035250462
  0
LINE
  5
31F
100
AcDbEntity
  8
ASSI
100
AcDbLine
 62
7
  6
CONTINUOUS
 10
-42.8683486094
 20
2.7499136199
 11
-46.757435906
 21
4.6944572681
  0
LINE
  5
320
100
AcDbEntity
  8
ASSI
100
AcDbLine
 62
7
  6
CONTINUOUS
 10
52.732488207
 20
-44.9090834321
 11
48.8434009105
 21
-42.9645397838
  0
LINE
  5
321
100
AcDbEntity
  8
ASSI
100
AcDbLine
 62
7
  6
CONTINUOUS
 10
-42.7269272532
 20
2.820624298
 11
-46.6160145497
 21
4.7651679463
  0
LINE
  5
322
100
AcDbEntity
  8
ASSI
100
AcDbLine
 62
7
  6
CONTINUOUS
 10
52.8723203267
 20
-44.7668674576
 11
49.0555329448
 21
-42.8584737667
  0
LINE
  5
323
100
AcDbEntity
  8
ASSI
100
AcDbLine
 62
7
  6
CONTINUOUS
 10
-42.5147952188
 20
2.9266903152
 11
-46.4038825154
 21
4.8712339634
  0
LINE
  5
324
100
AcDbEntity
  8
ASSI
100
AcDbLine
 62
7
  6
CONTINUOUS
 10
52.8723203267
 20
-44.6254461014
 11
49.1969543011
 21
-42.7877630885
  0
LINE
  5
325
100
AcDbEntity
  8
ASSI
100
AcDbLine
 62
7
  6
CONTINUOUS
 10
-42.3733738626
 20
2.9974009933
 11
-46.2624611591
 21
4.9419446415
  0
LINE
  5
326
100
AcDbEntity
  8
ASSI
100
AcDbLine
 62
7
  6
CONTINUOUS
 10
52.8723203267
 20
-44.413314067
 11
49.4090863354
 21
-42.6816970714
  0
LINE
  5
327
100
AcDbEntity
  8
ASSI
100
AcDbLine
 62
7
  6
CONTINUOUS
 10
-42.1612418282
 20
3.1034670105
 11
-46.0503291248
 21
5.0480106587
  0
LINE
  5
328
100
AcDbEntity
  8
ASSI
100
AcDbLine
 62
7
  6
CONTINUOUS
 10
-30.0771274492
 20
-2.9076091566
 11
-25.8196636036
 21
-5.0363410794
  0
LINE
  5
329
100
AcDbEntity
  8
ASSI
100
AcDbLine
 62
7
  6
CONTINUOUS
 10
-14.1672248725
 20
-10.862560445
 11
-9.9097610269
 21
-12.9912923677
  0
LINE
  5
32A
100
AcDbEntity
  8
ASSI
100
AcDbLine
 62
7
  6
CONTINUOUS
 10
1.7426777042
 20
-18.8175117333
 11
6.0001415498
 21
-20.9462436561
  0
LINE
  5
32B
100
AcDbEntity
  8
ASSI
100
AcDbLine
 62
7
  6
CONTINUOUS
 10
17.6525802809
 20
-26.7724630216
 11
21.9100441265
 21
-28.9011949444
  0
LINE
  5
32C
100
AcDbEntity
  8
ASSI
100
AcDbLine
 62
7
  6
CONTINUOUS
 10
33.5624828576
 20
-34.72741431
 11
37.8199467032
 21
-36.8561462328
  0
LINE
  5
32D
100
AcDbEntity
  8
ASSI
100
AcDbLine
 62
7
  6
CONTINUOUS
 10
-29.9553238806
 20
-2.9181092239
 11
-25.762581734
 21
-5.0144802972
  0
LINE
  5
32E
100
AcDbEntity
  8
ASSI
100
AcDbLine
 62
7
  6
CONTINUOUS
 10
-14.0454213039
 20
-10.8730605122
 11
-9.8526791573
 21
-12.9694315855
  0
LINE
  5
32F
100
AcDbEntity
  8
ASSI
100
AcDbLine
 62
7
  6
CONTINUOUS
 10
1.8644812728
 20
-18.8280118006
 11
6.0572234194
 21
-20.9243828739
  0
LINE
  5
330
100
AcDbEntity
  8
ASSI
100
AcDbLine
 62
7
  6
CONTINUOUS
 10
17.7743838495
 20
-26.7829630889
 11
21.9671259961
 21
-28.8793341622
  0
LINE
  5
331
100
AcDbEntity
  8
ASSI
100
AcDbLine
 62
7
  6
CONTINUOUS
 10
33.6842864262
 20
-34.7379143773
 11
37.8770285728
 21
-36.8342854506
  0
LINE
  5
332
100
AcDbEntity
  8
ASSI
100
AcDbLine
 62
7
  6
CONTINUOUS
 10
-45.9870300259
 20
5.1339446721
 11
-45.9327455619
 21
5.1068024401
  0
LINE
  5
333
100
AcDbEntity
  8
ASSI
100
AcDbLine
 62
7
  6
CONTINUOUS
 10
-41.9137544548
 20
3.0973068866
 11
-41.7295661803
 21
3.0052127493
  0
LINE
  5
334
100
AcDbEntity
  8
ASSI
100
AcDbLine
 62
7
  6
CONTINUOUS
 10
49.4723854343
 20
-42.595763058
 11
49.5266698983
 21
-42.6229052899
  0
LINE
  5
335
100
AcDbEntity
  8
ASSI
100
AcDbLine
 62
7
  6
CONTINUOUS
 10
52.8723203267
 20
-44.2718927108
 11
49.5505076916
 21
-42.6109863932
  0
LINE
  5
336
100
AcDbEntity
  8
ASSI
100
AcDbLine
 62
7
  6
CONTINUOUS
 10
-42.019820472
 20
3.1741776886
 11
-45.9089077685
 21
5.1187213368
  0
LINE
  5
337
100
AcDbEntity
  8
ASSI
100
AcDbLine
 62
7
  6
CONTINUOUS
 10
-45.8652275036
 20
5.123445128
 11
-41.6724832644
 21
3.0270730084
  0
LINE
  5
338
100
AcDbEntity
  8
ASSI
100
AcDbLine
 62
7
  6
CONTINUOUS
 10
49.5941879566
 20
-42.6062626021
 11
52.8723203267
 21
-44.2453287872
  0
LINE
  5
339
100
AcDbEntity
  8
DRAFT
100
AcDbLine
 62
7
  6
CONTINUOUS
 10
-11.2253201513
 20
-14.9580246313
 11
-11.2253201513
 21
-14.5602599484
  0
LINE
  5
33A
100
AcDbEntity
  8
RACCORDO
100
AcDbLine
 62
7
  6
CONTINUOUS
 10
-10.4661233483
 20
-14.3023649911
 11
-10.4661233483
 21
-14.5342431964
  0
LINE
  5
33B
100
AcDbEntity
  8
RACCORDO
100
AcDbLine
 62
7
  6
CONTINUOUS
 10
-10.3134525335
 20
-14.122530041
 11
-10.3134525335
 21
-14.4518737893
  0
LINE
  5
33C
100
AcDbEntity
  8
ASSI
100
AcDbLine
 62
7
  6
CONTINUOUS
 10
-9.9027474971
 20
-12.9876350823
 11
-9.9027474971
 21
-13.4131586768
  0
LINE
  5
33D
100
AcDbEntity
  8
ASSI
100
AcDbLine
 62
7
  6
CONTINUOUS
 10
-9.8513764622
 20
-12.9718762546
 11
-9.8513764622
 21
-13.395824884
  0
LINE
  5
33E
100
AcDbEntity
  8
RACCORDO
100
AcDbLine
 62
7
  6
CONTINUOUS
 10
-10.3134525335
 20
-14.1225314165
 11
-10.3134525389
 21
-14.1225667521
  0
LINE
  5
33F
100
AcDbEntity
  8
DRAFT
100
AcDbLine
 62
7
  6
CONTINUOUS
 10
-10.3984177044
 20
-13.8443307546
 11
-10.372171491
 21
-13.7374874045
  0
LINE
  5
340
100
AcDbEntity
  8
ASSI
100
AcDbLine
 62
7
  6
CONTINUOUS
 10
-26.0745625563
 20
-5.6767969208
 11
-25.8198576826
 21
-5.4922008699
  0
LINE
  5
341
100
AcDbEntity
  8
ASSI
100
AcDbLine
 62
7
  6
CONTINUOUS
 10
-25.8196636036
 20
-5.0363410794
 11
-27.237261462
 21
-5.8235420406
  0
LINE
  5
342
100
AcDbEntity
  8
RACCORDO
100
AcDbLine
 62
7
  6
CONTINUOUS
 10
-26.1921403063
 20
-6.4800813981
 11
-27.0953337486
 21
-6.9673749811
  0
LINE
  5
343
100
AcDbEntity
  8
RACCORDO
100
AcDbLine
 62
7
  6
CONTINUOUS
 10
-26.0548467133
 20
-6.4869717461
 11
-26.9580401557
 21
-6.974265329
  0
LINE
  5
344
100
AcDbEntity
  8
RACCORDO
100
AcDbLine
 62
7
  6
CONTINUOUS
 10
-34.5951992696
 20
-2.7223517855
 11
-34.0295138446
 21
-2.4274158493
  0
LINE
  5
345
100
AcDbEntity
  8
RACCORDO
100
AcDbLine
 62
7
  6
CONTINUOUS
 10
-34.2784256694
 20
-3.0337071894
 11
-33.8173818102
 21
-2.7933290636
  0
LINE
  5
346
100
AcDbEntity
  8
RACCORDO
100
AcDbLine
 62
7
  6
CONTINUOUS
 10
-29.4984824208
 20
-4.7532298012
 11
-30.0641678458
 21
-5.0481657374
  0
LINE
  5
347
100
AcDbEntity
  8
RACCORDO
100
AcDbLine
 62
7
  6
CONTINUOUS
 10
-29.3626090888
 20
-4.7608682273
 11
-29.9282945137
 21
-5.0558041635
  0
LINE
  5
348
100
AcDbEntity
  8
ASSI
100
AcDbLine
 62
7
  6
CONTINUOUS
 10
-26.0745625563
 20
-5.6767969208
 11
-26.8325398253
 21
-6.0630304649
  0
LINE
  5
349
100
AcDbEntity
  8
RACCORDO
100
AcDbLine
 62
7
  6
CONTINUOUS
 10
-27.5171317779
 20
-6.2613855314
 11
-26.9415722771
 21
-5.9713866331
  0
LINE
  5
34A
100
AcDbEntity
  8
ASSI
100
AcDbLine
 62
7
  6
CONTINUOUS
 10
-25.8126500738
 20
-5.4582073884
 11
-26.8980141536
 21
-5.998940427
  0
LINE
  5
34B
100
AcDbEntity
  8
RACCORDO
100
AcDbLine
 62
7
  6
CONTINUOUS
 10
-34.6306094046
 20
-1.774834496
 11
-34.9840541513
 21
-1.950145696
  0
LINE
  5
34C
100
AcDbEntity
  8
ASSI
100
AcDbLine
 62
7
  6
CONTINUOUS
 10
-30.0771274492
 20
-2.9076091566
 11
-32.4205734648
 21
-3.9626332916
  0
LINE
  5
34D
100
AcDbEntity
  8
DRAFT
100
AcDbLine
 62
7
  6
CONTINUOUS
 10
-57.0066281058
 20
15.2035811211
 11
-56.4705889978
 21
14.9355615671
  0
LINE
  5
34E
100
AcDbEntity
  8
RACCORDO
100
AcDbLine
 62
7
  6
CONTINUOUS
 10
-56.9216655399
 20
15.1739567517
 11
-57.0066281058
 21
15.2164380346
  0
LINE
  5
34F
100
AcDbEntity
  8
RACCORDO
100
AcDbLine
 62
7
  6
CONTINUOUS
 10
-55.9144687223
 20
14.7277697023
 11
-56.7899086218
 21
15.165489652
  0
LINE
  5
350
100
AcDbEntity
  8
RACCORDO
100
AcDbLine
 62
7
  6
CONTINUOUS
 10
-56.9216655399
 20
21.1484587062
 11
-56.9518063285
 21
21.1635291005
  0
LINE
  5
351
100
AcDbEntity
  8
0
100
AcDbLine
 62
7
  6
CONTINUOUS
 10
-4.1433947148
 20
-22.4163827391
 11
-3.7798025293
 21
-23.7856252341
  0
LINE
  5
352
100
AcDbEntity
  8
0
100
AcDbLine
 62
7
  6
CONTINUOUS
 10
-3.7563760816
 20
-22.988475061
 11
-4.0630383931
 21
-21.8255072408
  0
LINE
  5
353
100
AcDbEntity
  8
0
100
AcDbLine
 62
7
  6
CONTINUOUS
 10
-3.66369859
 20
-22.7329110644
 11
-3.9216170369
 21
-21.7547965627
  0
LINE
  5
354
100
AcDbEntity
  8
IMPORT_IGES
100
AcDbLine
 62
7
  6
CONTINUOUS
 10
-3.9216170369
 20
-21.7547965627
 11
-3.66369859
 21
-22.7329110644
  0
LINE
  5
355
100
AcDbEntity
  8
0
100
AcDbLine
 62
7
  6
CONTINUOUS
 10
-6.3197046315
 20
-20.6971741216
 11
-5.8489942538
 21
-22.7510293719
  0
LINE
  5
356
100
AcDbEntity
  8
0
100
AcDbLine
 62
7
  6
CONTINUOUS
 10
-1.7311487212
 20
-24.8099521382
 11
-2.186722064
 21
-22.7636654053
  0
LINE
  5
357
100
AcDbEntity
  8
0
100
AcDbLine
 62
7
  6
CONTINUOUS
 10
-1.6401363879
 20
-24.512820585
 11
-2.0453007077
 21
-22.6929547272
  0
LINE
  5
358
100
AcDbEntity
  8
IMPORT_IGES
100
AcDbLine
 62
7
  6
CONTINUOUS
 10
-2.0453007077
 20
-22.6929547272
 11
-1.6401363879
 21
-24.512820585
  0
LINE
  5
359
100
AcDbEntity
  8
0
100
AcDbLine
 62
7
  6
CONTINUOUS
 10
-5.6999884703
 20
-22.2587619382
 11
-5.983018566
 21
-20.8655171543
  0
LINE
  5
35A
100
AcDbEntity
  8
IMPORT_IGES
100
AcDbLine
 62
7
  6
CONTINUOUS
 10
-5.8415972098
 20
-20.7948064762
 11
-5.6119851322
 21
-21.9250955662
  0
LINE
  5
35B
100
AcDbEntity
  8
0
100
AcDbLine
 62
7
  6
CONTINUOUS
 10
-5.6119851322
 20
-21.9250955662
 11
-5.8415972098
 21
-20.7948064762
  0
LINE
  5
35C
100
AcDbEntity
  8
0
100
AcDbLine
 62
7
  6
CONTINUOUS
 10
-2.1380978662
 20
-24.2434405825
 11
-2.0578080125
 21
-24.6466224925
  0
LINE
  5
35D
100
AcDbEntity
  8
0
100
AcDbLine
 62
7
  6
CONTINUOUS
 10
-2.3424580899
 20
-23.1854749978
 11
-2.2000382989
 21
-23.9315533758
  0
LINE
  5
35E
100
AcDbEntity
  8
0
100
AcDbLine
 62
7
  6
CONTINUOUS
 10
-3.0009435017
 20
-24.1750547479
 11
-3.1397888679
 21
-22.2871320034
  0
LINE
  5
35F
100
AcDbEntity
  8
0
100
AcDbLine
 62
7
  6
CONTINUOUS
 10
-2.8725057702
 20
-23.9278017684
 11
-2.9983675117
 21
-22.2164213253
  0
LINE
  5
360
100
AcDbEntity
  8
IMPORT_IGES
100
AcDbLine
 62
7
  6
CONTINUOUS
 10
-2.9983675117
 20
-22.2164213253
 11
-2.8725057702
 21
-23.9278017684
  0
LINE
  5
361
100
AcDbEntity
  8
0
100
AcDbLine
 62
7
  6
CONTINUOUS
 10
-3.3678201983
 20
-22.8091201986
 11
-3.3041431113
 21
-24.0234549431
  0
LINE
  5
362
100
AcDbEntity
  8
RACCORDO
100
AcDbLine
 62
7
  6
CONTINUOUS
 10
-5.4467926972
 20
-17.4495236754
 11
-5.4467926972
 21
-17.0507668053
  0
LINE
  5
363
100
AcDbEntity
  8
0
100
AcDbLine
 62
7
  6
CONTINUOUS
 10
-4.9835712141
 20
-21.3651317111
 11
-4.9835712141
 21
-23.1837408917
  0
LINE
  5
364
100
AcDbEntity
  8
0
100
AcDbLine
 62
7
  6
CONTINUOUS
 10
-4.6736349982
 20
-23.3387089997
 11
-4.6736349982
 21
-21.520099819
  0
LINE
  5
365
100
AcDbEntity
  8
0
100
AcDbLine
 62
7
  6
CONTINUOUS
 10
-4.5322136419
 20
-23.2679983216
 11
-4.5322136419
 21
-21.4493891409
  0
LINE
  5
366
100
AcDbEntity
  8
IMPORT_IGES
100
AcDbLine
 62
7
  6
CONTINUOUS
 10
-4.5322136419
 20
-23.2679983216
 11
-4.5322136419
 21
-21.4493891409
  0
LINE
  5
367
100
AcDbEntity
  8
RACCORDO
100
AcDbLine
 62
7
  6
CONTINUOUS
 10
-1.9975766569
 20
-18.7032316403
 11
-1.9975766569
 21
-19.1741316956
  0
LINE
  5
368
100
AcDbEntity
  8
0
100
AcDbLine
 62
7
  6
CONTINUOUS
 10
-1.6401363879
 20
-23.058204304
 11
-1.6401363879
 21
-24.8554586492
  0
LINE
  5
369
100
AcDbEntity
  8
0
100
AcDbLine
 62
7
  6
CONTINUOUS
 10
-1.3417245984
 20
-23.9951774814
 11
-1.3417245984
 21
-23.4959636488
  0
LINE
  5
36A
100
AcDbEntity
  8
0
100
AcDbLine
 62
7
  6
CONTINUOUS
 10
-1.3314475908
 20
-25.0098030478
 11
-1.3314475908
 21
-24.2981424195
  0
LINE
  5
36B
100
AcDbEntity
  8
0
100
AcDbLine
 62
7
  6
CONTINUOUS
 10
-1.2003032422
 20
-23.9244668033
 11
-1.2003032422
 21
-23.5496850872
  0
LINE
  5
36C
100
AcDbEntity
  8
IMPORT_IGES
100
AcDbLine
 62
7
  6
CONTINUOUS
 10
-1.2003032422
 20
-23.9244668033
 11
-1.2003032422
 21
-23.5496850872
  0
LINE
  5
36D
100
AcDbEntity
  8
0
100
AcDbLine
 62
7
  6
CONTINUOUS
 10
-1.1900262345
 20
-24.9390923697
 11
-1.1900262345
 21
-24.3688530976
  0
LINE
  5
36E
100
AcDbEntity
  8
IMPORT_IGES
100
AcDbLine
 62
7
  6
CONTINUOUS
 10
-1.1900262345
 20
-24.9390923697
 11
-1.1900262345
 21
-24.3688530976
  0
LINE
  5
36F
100
AcDbEntity
  8
0
100
AcDbLine
 62
7
  6
CONTINUOUS
 10
-0.8433064295
 20
-24.405013744
 11
-0.8433064295
 21
-24.3942679917
  0
LINE
  5
370
100
AcDbEntity
  8
0
100
AcDbLine
 62
7
  6
CONTINUOUS
 10
-4.2102792382
 20
-23.5703868797
 11
-4.1433947148
 21
-22.4163827391
  0
LINE
  5
371
100
AcDbEntity
  8
0
100
AcDbLine
 62
7
  6
CONTINUOUS
 10
-4.0688578819
 20
-23.4996762016
 11
-4.030674526
 21
-22.8408728099
  0
LINE
  5
372
100
AcDbEntity
  8
IMPORT_IGES
100
AcDbLine
 62
7
  6
CONTINUOUS
 10
-4.030674526
 20
-22.8408728099
 11
-4.0688578819
 21
-23.4996762016
  0
LINE
  5
373
100
AcDbEntity
  8
0
100
AcDbLine
 62
7
  6
CONTINUOUS
 10
-4.3727179293
 20
-21.6706674727
 11
-4.5067867892
 21
-23.4221331042
  0
LINE
  5
374
100
AcDbEntity
  8
0
100
AcDbLine
 62
7
  6
CONTINUOUS
 10
-5.408313287
 20
-21.1528697938
 11
-5.6999884703
 21
-22.2587619382
  0
LINE
  5
375
100
AcDbEntity
  8
RACCORDO
100
AcDbLine
 62
7
  6
CONTINUOUS
 10
-21.2337530216
 20
-9.464831358
 11
-20.6779416725
 21
-9.1649583839
  0
LINE
  5
376
100
AcDbEntity
  8
RACCORDO
100
AcDbLine
 62
7
  6
CONTINUOUS
 10
-21.0964594287
 20
-9.471721706
 11
-20.5406480796
 21
-9.1718487319
  0
LINE
  5
377
100
AcDbEntity
  8
RACCORDO
100
AcDbLine
 62
7
  6
CONTINUOUS
 10
-18.6852966929
 20
-10.6773030739
 11
-18.1196112679
 21
-10.3823671377
  0
LINE
  5
378
100
AcDbEntity
  8
RACCORDO
100
AcDbLine
 62
7
  6
CONTINUOUS
 10
-27.198642803
 20
-6.5735986225
 11
-26.7294725515
 21
-6.3372045471
  0
LINE
  5
379
100
AcDbEntity
  8
DRAFT
100
AcDbLine
 62
7
  6
CONTINUOUS
 10
-22.2919794627
 20
-9.3072956755
 11
-21.3566952739
 21
-8.8360474658
  0
LINE
  5
37A
100
AcDbEntity
  8
DRAFT
100
AcDbLine
 62
7
  6
CONTINUOUS
 10
-26.7337592834
 20
-6.2840827297
 11
-26.4184166909
 21
-6.1255402483
  0
LINE
  5
37B
100
AcDbEntity
  8
DRAFT
100
AcDbLine
 62
7
  6
CONTINUOUS
 10
-26.7485254144
 20
-6.2203720931
 11
-26.3391177196
 21
-6.0147499896
  0
LINE
  5
37C
100
AcDbEntity
  8
DRAFT
100
AcDbLine
 62
7
  6
CONTINUOUS
 10
-27.135222728
 20
-6.60530866
 11
-27.700908153
 21
-6.8518421979
  0
LINE
  5
37D
100
AcDbEntity
  8
DRAFT
100
AcDbLine
 62
7
  6
CONTINUOUS
 10
-21.8319218691
 20
-9.2569590895
 11
-22.3976072941
 21
-9.5034926274
  0
LINE
  5
37E
100
AcDbEntity
  8
RACCORDO
100
AcDbLine
 62
7
  6
CONTINUOUS
 10
-55.9863813512
 20
21.6197069159
 11
-56.4705889978
 21
21.8618107392
  0
LINE
  5
37F
100
AcDbEntity
  8
ASSI
100
AcDbLine
 62
7
  6
CONTINUOUS
 10
52.0253814258
 20
-45.2626368227
 11
52.131447443
 21
-45.3395076247
  0
LINE
  5
380
100
AcDbEntity
  8
ASSI
100
AcDbLine
 62
7
  6
CONTINUOUS
 10
52.3789348164
 20
-45.0858601274
 11
52.4850008336
 21
-45.1627309294
  0
LINE
  5
381
100
AcDbEntity
  8
ASSI
100
AcDbLine
 62
7
  6
CONTINUOUS
 10
52.732488207
 20
-44.9090834321
 11
52.8385542242
 21
-44.9859542341
  0
LINE
  5
382
100
AcDbEntity
  8
DRAFT
100
AcDbLine
 62
7
  6
CONTINUOUS
 10
4.6845824254
 20
-22.9129759196
 11
4.6845824254
 21
-22.5152112367
  0
LINE
  5
383
100
AcDbEntity
  8
RACCORDO
100
AcDbLine
 62
7
  6
CONTINUOUS
 10
5.0903326019
 20
-22.6798870484
 11
5.0903326019
 21
-22.2471071238
  0
LINE
  5
384
100
AcDbEntity
  8
ASSI
100
AcDbLine
 62
7
  6
CONTINUOUS
 10
6.0071550796
 20
-20.9425863706
 11
6.0071550796
 21
-21.3681099651
  0
LINE
  5
385
100
AcDbEntity
  8
ASSI
100
AcDbLine
 62
7
  6
CONTINUOUS
 10
6.0585261145
 20
-20.9268275429
 11
6.0585261145
 21
-21.3507761723
  0
LINE
  5
386
100
AcDbEntity
  8
0
100
AcDbLine
 62
7
  6
CONTINUOUS
 10
-2.4967799022
 20
-23.7831825741
 11
-2.3424580899
 21
-23.1854749978
  0
LINE
  5
387
100
AcDbEntity
  8
0
100
AcDbLine
 62
7
  6
CONTINUOUS
 10
-2.355358546
 20
-23.712471896
 11
-2.2901043839
 21
-23.4597344089
  0
LINE
  5
388
100
AcDbEntity
  8
IMPORT_IGES
100
AcDbLine
 62
7
  6
CONTINUOUS
 10
-2.2901043839
 20
-23.4597344089
 11
-2.355358546
 21
-23.712471896
  0
LINE
  5
389
100
AcDbEntity
  8
0
100
AcDbLine
 62
7
  6
CONTINUOUS
 10
-2.6457022472
 20
-24.3526753752
 11
-2.5601790962
 21
-24.0323999674
  0
LINE
  5
38A
100
AcDbEntity
  8
0
100
AcDbLine
 62
7
  6
CONTINUOUS
 10
-2.504280891
 20
-24.2819646971
 11
-2.452073354
 21
-24.0864528385
  0
LINE
  5
38B
100
AcDbEntity
  8
IMPORT_IGES
100
AcDbLine
 62
7
  6
CONTINUOUS
 10
-2.452073354
 20
-24.0864528385
 11
-2.504280891
 21
-24.2819646971
  0
LINE
  5
38C
100
AcDbEntity
  8
0
100
AcDbLine
 62
7
  6
CONTINUOUS
 10
-2.48654736
 20
-22.6137527573
 11
-2.9522754633
 21
-24.1993887672
  0
LINE
  5
38D
100
AcDbEntity
  8
0
100
AcDbLine
 62
7
  6
CONTINUOUS
 10
-5.5758629459
 20
-22.8875950258
 11
-5.098588496
 21
-21.3077321893
  0
LINE
  5
38E
100
AcDbEntity
  8
0
100
AcDbLine
 62
7
  6
CONTINUOUS
 10
-5.4344415896
 20
-22.8168843477
 11
-4.9571671398
 21
-21.2370215112
  0
LINE
  5
38F
100
AcDbEntity
  8
IMPORT_IGES
100
AcDbLine
 62
7
  6
CONTINUOUS
 10
-4.9571671398
 20
-21.2370215112
 11
-5.4344415896
 21
-22.8168843477
  0
LINE
  5
390
100
AcDbEntity
  8
0
100
AcDbLine
 62
7
  6
CONTINUOUS
 10
-3.4464398657
 20
-22.1338065045
 11
-3.7563760816
 21
-22.988475061
  0
LINE
  5
391
100
AcDbEntity
  8
0
100
AcDbLine
 62
7
  6
CONTINUOUS
 10
-3.7363345541
 20
-23.8073592217
 11
-3.3678201983
 21
-22.8091201986
  0
LINE
  5
392
100
AcDbEntity
  8
0
100
AcDbLine
 62
7
  6
CONTINUOUS
 10
-3.5949131979
 20
-23.7366485436
 11
-3.3534772977
 21
-23.0826421711
  0
LINE
  5
393
100
AcDbEntity
  8
IMPORT_IGES
100
AcDbLine
 62
7
  6
CONTINUOUS
 10
-3.3534772977
 20
-23.0826421711
 11
-3.5949131979
 21
-23.7366485436
  0
LINE
  5
394
100
AcDbEntity
  8
ASSI
100
AcDbLine
 62
7
  6
CONTINUOUS
 10
-10.1646599796
 20
-13.6317482092
 11
-9.9099551059
 21
-13.4471521583
  0
LINE
  5
395
100
AcDbEntity
  8
ASSI
100
AcDbLine
 62
7
  6
CONTINUOUS
 10
-9.9097610269
 20
-12.9912923677
 11
-10.8801584115
 21
-13.5301601076
  0
LINE
  5
396
100
AcDbEntity
  8
RACCORDO
100
AcDbLine
 62
7
  6
CONTINUOUS
 10
-10.2822377296
 20
-14.4350326865
 11
-11.1854311719
 21
-14.9223262694
  0
LINE
  5
397
100
AcDbEntity
  8
RACCORDO
100
AcDbLine
 62
7
  6
CONTINUOUS
 10
-10.1449441367
 20
-14.4419230344
 11
-11.048137579
 21
-14.9292166173
  0
LINE
  5
398
100
AcDbEntity
  8
RACCORDO
100
AcDbLine
 62
7
  6
CONTINUOUS
 10
-18.3685230927
 20
-10.9886584777
 11
-17.9074792335
 21
-10.748280352
  0
LINE
  5
399
100
AcDbEntity
  8
RACCORDO
100
AcDbLine
 62
7
  6
CONTINUOUS
 10
-13.5885798441
 20
-12.7081810895
 11
-14.1542652691
 21
-13.0031170257
  0
LINE
  5
39A
100
AcDbEntity
  8
RACCORDO
100
AcDbLine
 62
7
  6
CONTINUOUS
 10
-13.4527065121
 20
-12.7158195156
 11
-14.018391937
 21
-13.0107554518
  0
LINE
  5
39B
100
AcDbEntity
  8
ASSI
100
AcDbLine
 62
7
  6
CONTINUOUS
 10
-10.1646599796
 20
-13.6317482092
 11
-10.4515167216
 21
-13.7779184186
  0
LINE
  5
39C
100
AcDbEntity
  8
RACCORDO
100
AcDbLine
 62
7
  6
CONTINUOUS
 10
-11.1730695175
 20
-13.8556380129
 11
-11.7486290183
 21
-14.1456369112
  0
LINE
  5
39D
100
AcDbEntity
  8
RACCORDO
100
AcDbLine
 62
7
  6
CONTINUOUS
 10
-10.8258480362
 20
-14.4684977729
 11
-11.2253201513
 21
-14.6697740494
  0
LINE
  5
39E
100
AcDbEntity
  8
ASSI
100
AcDbLine
 62
7
  6
CONTINUOUS
 10
-9.9027474971
 20
-13.4131586768
 11
-10.5177548192
 21
-13.7195579618
  0
LINE
  5
39F
100
AcDbEntity
  8
RACCORDO
100
AcDbLine
 62
7
  6
CONTINUOUS
 10
-12.2772624903
 20
-13.0415159563
 11
-12.5496855954
 21
-13.167329974
  0
LINE
  5
3A0
100
AcDbEntity
  8
RACCORDO
100
AcDbLine
 62
7
  6
CONTINUOUS
 10
-12.0614527778
 20
-13.0594128094
 11
-12.4274555272
 21
-13.228445008
  0
LINE
  5
3A1
100
AcDbEntity
  8
RACCORDO
100
AcDbLine
 62
7
  6
CONTINUOUS
 10
-10.807282176
 20
-13.6864981103
 11
-11.1732849255
 21
-13.8555303089
  0
LINE
  5
3A2
100
AcDbEntity
  8
ASSI
100
AcDbLine
 62
7
  6
CONTINUOUS
 10
-14.1672248725
 20
-10.862560445
 11
-16.5106708881
 21
-11.91758458
  0
LINE
  5
3A3
100
AcDbEntity
  8
SMUSSO
100
AcDbLine
 62
7
  6
CONTINUOUS
 10
70.0566043461
 20
7.3224849152
 11
71.4708179084
 21
7.3224849152
  0
LINE
  5
3A4
100
AcDbEntity
  8
DRAFT
100
AcDbLine
 62
7
  6
CONTINUOUS
 10
73.2385848614
 20
8.1189631492
 11
73.8866508869
 21
8.1189631492
  0
LINE
  5
3A5
100
AcDbEntity
  8
RACCORDO
100
AcDbLine
 62
7
  6
CONTINUOUS
 10
-55.278104928
 20
31.5143927414
 11
-55.702336688
 21
31.7265086214
  0
LINE
  5
3A6
100
AcDbEntity
  8
DRAFT
100
AcDbLine
 62
7
  6
CONTINUOUS
 10
-57.0066281058
 20
34.2561400044
 11
-56.4705889978
 21
33.9881204503
  0
LINE
  5
3A7
100
AcDbEntity
  8
RACCORDO
100
AcDbLine
 62
7
  6
CONTINUOUS
 10
-56.9216655399
 20
34.2265156349
 11
-57.0066281058
 21
34.2689969179
  0
LINE
  5
3A8
100
AcDbEntity
  8
RACCORDO
100
AcDbLine
 62
7
  6
CONTINUOUS
 10
-55.9144364136
 20
33.7803124312
 11
-56.7899086218
 21
34.2180485353
  0
LINE
  5
3A9
100
AcDbEntity
  8
RACCORDO
100
AcDbLine
 62
7
  6
CONTINUOUS
 10
-52.972100088
 20
32.5793821949
 11
-52.6454071454
 21
32.4160357235
  0
LINE
  5
3AA
100
AcDbEntity
  8
RACCORDO
100
AcDbLine
 62
7
  6
CONTINUOUS
 10
-52.8416382239
 20
32.5860911937
 11
-52.5149452812
 21
32.4227447224
  0
LINE
  5
3AB
100
AcDbEntity
  8
RACCORDO
100
AcDbLine
 62
7
  6
CONTINUOUS
 10
10.4631098794
 20
-25.4044749638
 11
10.4631098794
 21
-25.0057180936
  0
LINE
  5
3AC
100
AcDbEntity
  8
RACCORDO
100
AcDbLine
 62
7
  6
CONTINUOUS
 10
13.5222172899
 20
-26.0403649527
 11
13.5222172899
 21
-26.2032814166
  0
LINE
  5
3AD
100
AcDbEntity
  8
RACCORDO
100
AcDbLine
 62
7
  6
CONTINUOUS
 10
13.9123259198
 20
-26.6581829287
 11
13.9123259198
 21
-27.129082984
  0
LINE
  5
3AE
100
AcDbEntity
  8
DRAFT
100
AcDbLine
 62
7
  6
CONTINUOUS
 10
5.4806874338
 20
-21.9246525663
 11
5.5377310857
 21
-21.6924386928
  0
LINE
  5
3AF
100
AcDbEntity
  8
RACCORDO
100
AcDbLine
 62
7
  6
CONTINUOUS
 10
-5.3238504449
 20
-17.4197826464
 11
-4.7680390958
 21
-17.1199096723
  0
LINE
  5
3B0
100
AcDbEntity
  8
RACCORDO
100
AcDbLine
 62
7
  6
CONTINUOUS
 10
-5.186556852
 20
-17.4266729943
 11
-4.6307455029
 21
-17.1268000202
  0
LINE
  5
3B1
100
AcDbEntity
  8
RACCORDO
100
AcDbLine
 62
7
  6
CONTINUOUS
 10
-2.7753941162
 20
-18.6322543622
 11
-2.2097086912
 21
-18.337318426
  0
LINE
  5
3B2
100
AcDbEntity
  8
RACCORDO
100
AcDbLine
 62
7
  6
CONTINUOUS
 10
-2.458620516
 20
-18.9436097661
 11
-1.9975766569
 21
-18.7032316403
  0
LINE
  5
3B3
100
AcDbEntity
  8
RACCORDO
100
AcDbLine
 62
7
  6
CONTINUOUS
 10
-6.5941766116
 20
-17.156197101
 11
-5.6588924229
 21
-16.6849488913
  0
LINE
  5
3B4
100
AcDbEntity
  8
RACCORDO
100
AcDbLine
 62
7
  6
CONTINUOUS
 10
-5.8440180112
 20
-17.2509110185
 11
-5.4467926972
 21
-17.0507668053
  0
LINE
  5
3B5
100
AcDbEntity
  8
0
100
AcDbLine
 62
7
  6
CONTINUOUS
 10
-6.1782832752
 20
-20.6264634435
 11
-6.3197046315
 21
-20.6971741216
  0
LINE
  5
3B6
100
AcDbEntity
  8
0
100
AcDbLine
 62
7
  6
CONTINUOUS
 10
-5.8415972098
 20
-20.7948064762
 11
-5.983018566
 21
-20.8655171543
  0
LINE
  5
3B7
100
AcDbEntity
  8
RACCORDO
100
AcDbLine
 62
7
  6
CONTINUOUS
 10
-10.4661233483
 20
-14.3023649911
 11
-10.8258480362
 21
-14.4684977729
  0
LINE
  5
3B8
100
AcDbEntity
  8
DRAFT
100
AcDbLine
 62
7
  6
CONTINUOUS
 10
-11.2253201513
 20
-14.5602599484
 11
-11.7910055763
 21
-14.8067934863
  0
LINE
  5
3B9
100
AcDbEntity
  8
DRAFT
100
AcDbLine
 62
7
  6
CONTINUOUS
 10
-5.9220192924
 20
-17.2119103778
 11
-6.4877047174
 21
-17.4584439157
  0
LINE
  5
3BA
100
AcDbEntity
  8
RACCORDO
100
AcDbLine
 62
7
  6
CONTINUOUS
 10
-56.9216655399
 20
40.2010175895
 11
-56.9518063285
 21
40.2160879838
  0
LINE
  5
3BB
100
AcDbEntity
  8
RACCORDO
100
AcDbLine
 62
7
  6
CONTINUOUS
 10
-55.9863813512
 20
40.6722657992
 11
-56.4705889978
 21
40.9143696225
  0
LINE
  5
3BC
100
AcDbEntity
  8
RACCORDO
100
AcDbLine
 62
7
  6
CONTINUOUS
 10
-59.0177352908
 20
46.6241098932
 11
52.6329335345
 21
-9.2012245195
  0
LINE
  5
3BD
100
AcDbEntity
  8
RACCORDO
100
AcDbLine
 62
7
  6
CONTINUOUS
 10
-59.0957032465
 20
46.7863720333
 11
52.5549655206
 21
-9.0389623503
  0
LINE
  5
3BE
100
AcDbEntity
  8
DRAFT
100
AcDbLine
 62
7
  6
CONTINUOUS
 10
20.5944850021
 20
-30.867927208
 11
20.5944850021
 21
-30.4701625251
  0
LINE
  5
3BF
100
AcDbEntity
  8
RACCORDO
100
AcDbLine
 62
7
  6
CONTINUOUS
 10
21.0002351786
 20
-30.6348383368
 11
21.0002351786
 21
-30.2020584121
  0
LINE
  5
3C0
100
AcDbEntity
  8
ASSI
100
AcDbLine
 62
7
  6
CONTINUOUS
 10
21.9170576563
 20
-28.897537659
 11
21.9170576563
 21
-29.3230612535
  0
LINE
  5
3C1
100
AcDbEntity
  8
ASSI
100
AcDbLine
 62
7
  6
CONTINUOUS
 10
21.9684286912
 20
-28.8817788313
 11
21.9684286912
 21
-29.3057274607
  0
LINE
  5
3C2
100
AcDbEntity
  8
ASSI
100
AcDbLine
 62
7
  6
CONTINUOUS
 10
5.7452425971
 20
-21.5866994975
 11
5.9999474707
 21
-21.4021034466
  0
LINE
  5
3C3
100
AcDbEntity
  8
ASSI
100
AcDbLine
 62
7
  6
CONTINUOUS
 10
6.0001415498
 20
-20.9462436561
 11
4.5825436914
 21
-21.7334446173
  0
LINE
  5
3C4
100
AcDbEntity
  8
RACCORDO
100
AcDbLine
 62
7
  6
CONTINUOUS
 10
5.6276648471
 20
-22.3899839748
 11
4.7244714048
 21
-22.8772775578
  0
LINE
  5
3C5
100
AcDbEntity
  8
RACCORDO
100
AcDbLine
 62
7
  6
CONTINUOUS
 10
5.76495844
 20
-22.3968743227
 11
4.8617649977
 21
-22.8841679057
  0
LINE
  5
3C6
100
AcDbEntity
  8
RACCORDO
100
AcDbLine
 62
7
  6
CONTINUOUS
 10
2.3213227326
 20
-20.6631323779
 11
1.7556373076
 21
-20.9580683141
  0
LINE
  5
3C7
100
AcDbEntity
  8
RACCORDO
100
AcDbLine
 62
7
  6
CONTINUOUS
 10
2.4571960646
 20
-20.670770804
 11
1.8915106397
 21
-20.9657067401
  0
LINE
  5
3C8
100
AcDbEntity
  8
ASSI
100
AcDbLine
 62
7
  6
CONTINUOUS
 10
5.7452425971
 20
-21.5866994975
 11
4.9872653281
 21
-21.9729330416
  0
LINE
  5
3C9
100
AcDbEntity
  8
RACCORDO
100
AcDbLine
 62
7
  6
CONTINUOUS
 10
4.3026733755
 20
-22.1712881081
 11
4.8782328763
 21
-21.8812892098
  0
LINE
  5
3CA
100
AcDbEntity
  8
RACCORDO
100
AcDbLine
 62
7
  6
CONTINUOUS
 10
4.6211623503
 20
-22.4835011992
 11
5.0903326019
 21
-22.2471071238
  0
LINE
  5
3CB
100
AcDbEntity
  8
DRAFT
100
AcDbLine
 62
7
  6
CONTINUOUS
 10
5.08604587
 20
-22.1939853064
 11
5.4013884625
 21
-22.035442825
  0
LINE
  5
3CC
100
AcDbEntity
  8
DRAFT
100
AcDbLine
 62
7
  6
CONTINUOUS
 10
5.071279739
 20
-22.1302746698
 11
5.4806874338
 21
-21.9246525663
  0
LINE
  5
3CD
100
AcDbEntity
  8
0
100
AcDbLine
 62
7
  6
CONTINUOUS
 10
-5.2668919307
 20
-21.0821591157
 11
-5.408313287
 21
-21.1528697938
  0
LINE
  5
3CE
100
AcDbEntity
  8
0
100
AcDbLine
 62
7
  6
CONTINUOUS
 10
-4.9571671398
 20
-21.2370215112
 11
-5.098588496
 21
-21.3077321893
  0
LINE
  5
3CF
100
AcDbEntity
  8
0
100
AcDbLine
 62
7
  6
CONTINUOUS
 10
-4.8421498578
 20
-21.294421033
 11
-4.9835712141
 21
-21.3651317111
  0
LINE
  5
3D0
100
AcDbEntity
  8
0
100
AcDbLine
 62
7
  6
CONTINUOUS
 10
-4.5322136419
 20
-21.4493891409
 11
-4.6736349982
 21
-21.520099819
  0
LINE
  5
3D1
100
AcDbEntity
  8
0
100
AcDbLine
 62
7
  6
CONTINUOUS
 10
-4.231296573
 20
-21.5999567946
 11
-4.3727179293
 21
-21.6706674727
  0
LINE
  5
3D2
100
AcDbEntity
  8
0
100
AcDbLine
 62
7
  6
CONTINUOUS
 10
-3.9216170369
 20
-21.7547965627
 11
-4.0630383931
 21
-21.8255072408
  0
LINE
  5
3D3
100
AcDbEntity
  8
0
100
AcDbLine
 62
7
  6
CONTINUOUS
 10
-5.4344415896
 20
-22.8168843477
 11
-5.5758629459
 21
-22.8875950258
  0
LINE
  5
3D4
100
AcDbEntity
  8
0
100
AcDbLine
 62
7
  6
CONTINUOUS
 10
-3.3050185095
 20
-22.0630958264
 11
-3.4464398657
 21
-22.1338065045
  0
LINE
  5
3D5
100
AcDbEntity
  8
0
100
AcDbLine
 62
7
  6
CONTINUOUS
 10
-2.9983675117
 20
-22.2164213253
 11
-3.1397888679
 21
-22.2871320034
  0
LINE
  5
3D6
100
AcDbEntity
  8
0
100
AcDbLine
 62
7
  6
CONTINUOUS
 10
-4.5322136419
 20
-23.2679983216
 11
-4.6736349982
 21
-23.3387089997
  0
LINE
  5
3D7
100
AcDbEntity
  8
0
100
AcDbLine
 62
7
  6
CONTINUOUS
 10
-2.3451260038
 20
-22.5430420792
 11
-2.48654736
 21
-22.6137527573
  0
LINE
  5
3D8
100
AcDbEntity
  8
0
100
AcDbLine
 62
7
  6
CONTINUOUS
 10
-4.0688578819
 20
-23.4996762016
 11
-4.2102792382
 21
-23.5703868797
  0
LINE
  5
3D9
100
AcDbEntity
  8
0
100
AcDbLine
 62
7
  6
CONTINUOUS
 10
-2.0453007077
 20
-22.6929547272
 11
-2.186722064
 21
-22.7636654053
  0
LINE
  5
3DA
100
AcDbEntity
  8
0
100
AcDbLine
 62
7
  6
CONTINUOUS
 10
-3.5949131979
 20
-23.7366485436
 11
-3.7363345541
 21
-23.8073592217
  0
LINE
  5
3DB
100
AcDbEntity
  8
0
100
AcDbLine
 62
7
  6
CONTINUOUS
 10
-1.4987150317
 20
-22.9874936259
 11
-1.6401363879
 21
-23.058204304
  0
LINE
  5
3DC
100
AcDbEntity
  8
0
100
AcDbLine
 62
7
  6
CONTINUOUS
 10
-2.355358546
 20
-23.712471896
 11
-2.4967799022
 21
-23.7831825741
  0
LINE
  5
3DD
100
AcDbEntity
  8
0
100
AcDbLine
 62
7
  6
CONTINUOUS
 10
-2.935520183
 20
-24.1423430886
 11
-3.0009435017
 21
-24.1750547479
  0
LINE
  5
3DE
100
AcDbEntity
  8
0
100
AcDbLine
 62
7
  6
CONTINUOUS
 10
-0.7338406658
 20
-23.3890767939
 11
-0.875262022
 21
-23.459787472
  0
LINE
  5
3DF
100
AcDbEntity
  8
0
100
AcDbLine
 62
7
  6
CONTINUOUS
 10
-2.504280891
 20
-24.2819646971
 11
-2.6457022472
 21
-24.3526753752
  0
LINE
  5
3E0
100
AcDbEntity
  8
0
100
AcDbLine
 62
7
  6
CONTINUOUS
 10
-1.2003032422
 20
-23.9244668033
 11
-1.3417245984
 21
-23.9951774814
  0
LINE
  5
3E1
100
AcDbEntity
  8
0
100
AcDbLine
 62
7
  6
CONTINUOUS
 10
-1.0231779578
 20
-24.0130294455
 11
-1.164599314
 21
-24.0837401236
  0
LINE
  5
3E2
100
AcDbEntity
  8
0
100
AcDbLine
 62
7
  6
CONTINUOUS
 10
-1.6401363879
 20
-24.7644459716
 11
-1.7311487212
 21
-24.8099521382
  0
LINE
  5
3E3
100
AcDbEntity
  8
0
100
AcDbLine
 62
7
  6
CONTINUOUS
 10
-0.8390081285
 20
-24.4028645935
 11
-0.8433064295
 21
-24.405013744
  0
LINE
  5
3E4
100
AcDbEntity
  8
0
100
AcDbLine
 62
7
  6
CONTINUOUS
 10
-0.8002751416
 20
-24.387575352
 11
-0.6588537854
 21
-24.3168646738
  0
LINE
  5
3E5
100
AcDbEntity
  8
0
100
AcDbLine
 62
7
  6
CONTINUOUS
 10
-1.1900262345
 20
-24.9390923697
 11
-1.3314475908
 21
-25.0098030478
  0
LINE
  5
3E6
100
AcDbEntity
  8
0
100
AcDbLine
 62
7
  6
CONTINUOUS
 10
-0.5232343825
 20
-24.780297385
 11
-0.6646557387
 21
-24.8510080631
  0
LINE
  5
3E7
100
AcDbEntity
  8
0
100
AcDbLine
 62
7
  6
CONTINUOUS
 10
-0.4172798812
 20
-25.3254655464
 11
-0.5587012374
 21
-25.3961762245
  0
LINE
  5
3E8
100
AcDbEntity
  8
ASSI
100
AcDbLine
 62
7
  6
CONTINUOUS
 10
6.0071550796
 20
-21.3681099651
 11
4.9217909998
 21
-21.9088430037
  0
LINE
  5
3E9
100
AcDbEntity
  8
ASSI
100
AcDbLine
 62
7
  6
CONTINUOUS
 10
1.7426777042
 20
-18.8175117333
 11
-0.6007683114
 21
-19.8725358683
  0
LINE
  5
3EA
100
AcDbEntity
  8
DRAFT
100
AcDbLine
 62
7
  6
CONTINUOUS
 10
4.6845824254
 20
-22.5152112367
 11
4.1188970004
 21
-22.7617447746
  0
LINE
  5
3EB
100
AcDbEntity
  8
RACCORDO
100
AcDbLine
 62
7
  6
CONTINUOUS
 10
54.3280892493
 20
-7.8665028141
 11
-60.8656401587
 21
49.7303618898
  0
LINE
  5
3EC
100
AcDbEntity
  8
RACCORDO
100
AcDbLine
 62
7
  6
CONTINUOUS
 10
54.5329439504
 20
-7.5011220931
 11
-60.6572103388
 21
50.0943448509
  0
LINE
  5
3ED
100
AcDbEntity
  8
RACCORDO
100
AcDbLine
 62
7
  6
CONTINUOUS
 10
-60.3756670722
 20
50.2462439023
 11
54.8248788399
 21
-7.3540290537
  0
LWPOLYLINE
  5
3EE
100
AcDbEntity
  8
RACCORDO
100
AcDbPolyline
 62
7
  6
CONTINUOUS
 90
26
 70
0
 10
52.6329355244
 20
-9.2012256458
 10
52.6435615337
 20
-9.2069895694
 10
52.6546169851
 20
-9.2138755271
 10
52.6665320306
 20
-9.2222391941
 10
52.6791267169
 20
-9.2320978046
 10
52.6922338024
 20
-9.2434490641
 10
52.7056694135
 20
-9.2562489865
 10
52.7192545997
 20
-9.2704242661
 10
52.7328592642
 20
-9.28592382
 10
52.7464198793
 20
-9.3027642299
 10
52.7597964579
 20
-9.3208617398
 10
52.772856447
 20
-9.3401170232
 10
52.7855582982
 20
-9.3605587934
 10
52.7977939076
 20
-9.3821170048
 10
52.8094102861
 20
-9.4046145885
 10
52.820299788
 20
-9.4279240153
 10
52.8303636704
 20
-9.4519111296
 10
52.8394926897
 20
-9.4763771834
 10
52.8475851317
 20
-9.5010774203
 10
52.8545832826
 20
-9.5258325847
 10
52.8604414052
 20
-9.5504519152
 10
52.865114986
 20
-9.5746526597
 10
52.8686083115
 20
-9.5982684991
 10
52.8709353735
 20
-9.621107027
 10
52.8721233951
 20
-9.6428332295
 10
52.8723198101
 20
-9.6555928083
  0
LINE
  5
3EF
100
AcDbEntity
  8
RACCORDO
100
AcDbLine
 62
7
  6
CONTINUOUS
 10
26.3730124561
 20
-33.3594262521
 11
26.3730124561
 21
-32.960669382
  0
LINE
  5
3F0
100
AcDbEntity
  8
RACCORDO
100
AcDbLine
 62
7
  6
CONTINUOUS
 10
29.8222284965
 20
-34.613134217
 11
29.8222284965
 21
-35.0840342723
  0
LINE
  5
3F1
100
AcDbEntity
  8
DRAFT
100
AcDbLine
 62
7
  6
CONTINUOUS
 10
21.3905900105
 20
-29.8796038547
 11
21.4476336624
 21
-29.6473899812
  0
LINE
  5
3F2
100
AcDbEntity
  8
RACCORDO
100
AcDbLine
 62
7
  6
CONTINUOUS
 10
11.1878596837
 20
-25.1430577138
 11
10.6359600422
 21
-25.4408202319
  0
LINE
  5
3F3
100
AcDbEntity
  8
RACCORDO
100
AcDbLine
 62
7
  6
CONTINUOUS
 10
11.4205568909
 20
-25.1524512171
 11
10.8647455418
 21
-25.4523241912
  0
LINE
  5
3F4
100
AcDbEntity
  8
DRAFT
100
AcDbLine
 62
7
  6
CONTINUOUS
 10
72.855511092
 20
9.897416221
 11
74.5467324066
 21
10.7791818087
  0
LINE
  5
3F5
100
AcDbEntity
  8
RACCORDO
100
AcDbLine
 62
7
  6
CONTINUOUS
 10
13.1345084605
 20
-26.5872056506
 11
13.7001938855
 21
-26.2922697144
  0
LINE
  5
3F6
100
AcDbEntity
  8
RACCORDO
100
AcDbLine
 62
7
  6
CONTINUOUS
 10
13.4512820607
 20
-26.8985610544
 11
13.9123259198
 21
-26.6581829287
  0
LINE
  5
3F7
100
AcDbEntity
  8
RACCORDO
100
AcDbLine
 62
7
  6
CONTINUOUS
 10
11.1878722184
 20
-25.1430509261
 11
11.1937865468
 21
-25.1399898436
  0
LINE
  5
3F8
100
AcDbEntity
  8
RACCORDO
100
AcDbLine
 62
7
  6
CONTINUOUS
 10
9.3157259651
 20
-25.1111483894
 11
10.2510101538
 21
-24.6399001796
  0
LINE
  5
3F9
100
AcDbEntity
  8
RACCORDO
100
AcDbLine
 62
7
  6
CONTINUOUS
 10
10.0658845655
 20
-25.2058623068
 11
10.4631098794
 21
-25.0057180936
  0
LINE
  5
3FA
100
AcDbEntity
  8
SMUSSO
100
AcDbLine
 62
7
  6
CONTINUOUS
 10
70.7637111272
 20
8.5420637095
 11
72.5314780802
 21
9.425947186
  0
LINE
  5
3FB
100
AcDbEntity
  8
SMUSSO
100
AcDbLine
 62
7
  6
CONTINUOUS
 10
71.4708179084
 20
7.3224849152
 11
73.2385848614
 21
8.2063683916
  0
LINE
  5
3FC
100
AcDbEntity
  8
RACCORDO
100
AcDbLine
 62
7
  6
CONTINUOUS
 10
11.5458717583
 20
-24.9653529831
 11
11.1937912359
 21
-25.1399875177
  0
LINE
  5
3FD
100
AcDbEntity
  8
RACCORDO
100
AcDbLine
 62
7
  6
CONTINUOUS
 10
11.7742170456
 20
-24.9772477211
 11
11.4207722989
 21
-25.1525589211
  0
LINE
  5
3FE
100
AcDbEntity
  8
RACCORDO
100
AcDbLine
 62
7
  6
CONTINUOUS
 10
13.0283876473
 20
-25.604333022
 11
12.6749429007
 21
-25.779644222
  0
LINE
  5
3FF
100
AcDbEntity
  8
DRAFT
100
AcDbLine
 62
7
  6
CONTINUOUS
 10
73.8866508869
 20
8.1189631492
 11
75.6073925784
 21
8.9498136183
  0
LINE
  5
400
100
AcDbEntity
  8
DRAFT
100
AcDbLine
 62
7
  6
CONTINUOUS
 10
9.9878832843
 20
-25.1668616662
 11
9.4221978593
 21
-25.4133952041
  0
LINE
  5
401
100
AcDbEntity
  8
RACCORDO
100
AcDbLine
 62
7
  6
CONTINUOUS
 10
37.3517158159
 20
-37.9551142157
 11
37.3517158159
 21
-38.1180306796
  0
LINE
  5
402
100
AcDbEntity
  8
ASSI
100
AcDbLine
 62
7
  6
CONTINUOUS
 10
37.826960233
 20
-36.8524889473
 11
37.826960233
 21
-37.2780125418
  0
LINE
  5
403
100
AcDbEntity
  8
ASSI
100
AcDbLine
 62
7
  6
CONTINUOUS
 10
37.8783312679
 20
-36.8367301196
 11
37.8783312679
 21
-37.260678749
  0
LINE
  5
404
100
AcDbEntity
  8
ASSI
100
AcDbLine
 62
7
  6
CONTINUOUS
 10
21.6551451738
 20
-29.5416507858
 11
21.9098500474
 21
-29.357054735
  0
LINE
  5
405
100
AcDbEntity
  8
ASSI
100
AcDbLine
 62
7
  6
CONTINUOUS
 10
21.9100441265
 20
-28.9011949444
 11
20.4924462681
 21
-29.6883959057
  0
LINE
  5
406
100
AcDbEntity
  8
RACCORDO
100
AcDbLine
 62
7
  6
CONTINUOUS
 10
21.5375674238
 20
-30.3449352632
 11
20.6343739815
 21
-30.8322288461
  0
LINE
  5
407
100
AcDbEntity
  8
RACCORDO
100
AcDbLine
 62
7
  6
CONTINUOUS
 10
21.6748610167
 20
-30.3518256111
 11
20.7716675744
 21
-30.839119194
  0
LINE
  5
408
100
AcDbEntity
  8
RACCORDO
100
AcDbLine
 62
7
  6
CONTINUOUS
 10
18.2312253093
 20
-28.6180836662
 11
17.6655398843
 21
-28.9130196024
  0
LINE
  5
409
100
AcDbEntity
  8
RACCORDO
100
AcDbLine
 62
7
  6
CONTINUOUS
 10
18.3670986413
 20
-28.6257220923
 11
17.8014132164
 21
-28.9206580285
  0
LINE
  5
40A
100
AcDbEntity
  8
ASSI
100
AcDbLine
 62
7
  6
CONTINUOUS
 10
21.6551451738
 20
-29.5416507858
 11
20.8971679048
 21
-29.9278843299
  0
LINE
  5
40B
100
AcDbEntity
  8
RACCORDO
100
AcDbLine
 62
7
  6
CONTINUOUS
 10
54.5329439504
 20
-7.5011220931
 11
54.8248788399
 21
-7.3540290537
  0
LINE
  5
40C
100
AcDbEntity
  8
RACCORDO
100
AcDbLine
 62
7
  6
CONTINUOUS
 10
55.0282316124
 20
-8.3545015775
 11
55.3197781997
 21
-8.2076041863
  0
LINE
  5
40D
100
AcDbEntity
  8
RACCORDO
100
AcDbLine
 62
7
  6
CONTINUOUS
 10
20.2125759522
 20
-30.1262393964
 11
20.788135453
 21
-29.8362404981
  0
LINE
  5
40E
100
AcDbEntity
  8
RACCORDO
100
AcDbLine
 62
7
  6
CONTINUOUS
 10
20.531064927
 20
-30.4384524876
 11
21.0002351786
 21
-30.2020584121
  0
LINE
  5
40F
100
AcDbEntity
  8
DRAFT
100
AcDbLine
 62
7
  6
CONTINUOUS
 10
20.9959484467
 20
-30.1489365948
 11
21.3112910392
 21
-29.9903941133
  0
LINE
  5
410
100
AcDbEntity
  8
DRAFT
100
AcDbLine
 62
7
  6
CONTINUOUS
 10
20.9811823157
 20
-30.0852259582
 11
21.3905900105
 21
-29.8796038547
  0
LINE
  5
411
100
AcDbEntity
  8
ASSI
100
AcDbLine
 62
7
  6
CONTINUOUS
 10
21.9170576563
 20
-29.3230612535
 11
20.8316935765
 21
-29.863794292
  0
LINE
  5
412
100
AcDbEntity
  8
ASSI
100
AcDbLine
 62
7
  6
CONTINUOUS
 10
17.6525802809
 20
-26.7724630216
 11
15.3091342653
 21
-27.8274871567
  0
LINE
  5
413
100
AcDbEntity
  8
DRAFT
100
AcDbLine
 62
7
  6
CONTINUOUS
 10
20.5944850021
 20
-30.4701625251
 11
20.0287995771
 21
-30.716696063
  0
LWPOLYLINE
  5
414
100
AcDbEntity
  8
RACCORDO
100
AcDbPolyline
 62
7
  6
CONTINUOUS
 90
6
 70
0
 10
-59.0383805992
 20
46.6321093072
 10
-59.0383451738
 20
46.632101766
 10
-59.0367270657
 20
46.6317306339
 10
-59.0326722388
 20
46.6304998149
 10
-59.026443444
 20
46.6281229582
 10
-59.01774144
 20
46.6241128738
  0
LINE
  5
415
100
AcDbEntity
  8
SMUSSO
100
AcDbLine
 62
7
  6
CONTINUOUS
 10
70.0566043461
 20
7.3224849152
 11
-75.6073925784
 21
80.1544833774
  0
LINE
  5
416
100
AcDbEntity
  8
RACCORDO
100
AcDbLine
 62
7
  6
CONTINUOUS
 10
45.7321310732
 20
-42.5680855054
 11
45.7321310732
 21
-43.0389855607
  0
LINE
  5
417
100
AcDbEntity
  8
DRAFT
100
AcDbLine
 62
7
  6
CONTINUOUS
 10
37.3161468182
 20
-37.7708297413
 11
37.3575362391
 21
-37.6023412695
  0
LINE
  5
418
100
AcDbEntity
  8
RACCORDO
100
AcDbLine
 62
7
  6
CONTINUOUS
 10
26.4959547085
 20
-33.3296852231
 11
27.0517660576
 21
-33.029812249
  0
LINE
  5
419
100
AcDbEntity
  8
RACCORDO
100
AcDbLine
 62
7
  6
CONTINUOUS
 10
26.6332483014
 20
-33.336575571
 11
27.1890596505
 21
-33.0367025969
  0
LINE
  5
41A
100
AcDbEntity
  8
RACCORDO
100
AcDbLine
 62
7
  6
CONTINUOUS
 10
29.0444110372
 20
-34.5421569389
 11
29.6100964622
 21
-34.2472210027
  0
LINE
  5
41B
100
AcDbEntity
  8
RACCORDO
100
AcDbLine
 62
7
  6
CONTINUOUS
 10
29.3611846374
 20
-34.8535123428
 11
29.8222284965
 21
-34.613134217
  0
LINE
  5
41C
100
AcDbEntity
  8
RACCORDO
100
AcDbLine
 62
7
  6
CONTINUOUS
 10
25.2256285418
 20
-33.0660996777
 11
26.1609127305
 21
-32.594851468
  0
LINE
  5
41D
100
AcDbEntity
  8
RACCORDO
100
AcDbLine
 62
7
  6
CONTINUOUS
 10
25.9757871422
 20
-33.1608135952
 11
26.3730124561
 21
-32.960669382
  0
LINE
  5
41E
100
AcDbEntity
  8
ASSI
100
AcDbLine
 62
7
  6
CONTINUOUS
 10
33.5624828576
 20
-34.72741431
 11
31.219036842
 21
-35.782438445
  0
LINE
  5
41F
100
AcDbEntity
  8
DRAFT
100
AcDbLine
 62
7
  6
CONTINUOUS
 10
25.897785861
 20
-33.1218129545
 11
25.332100436
 21
-33.3683464924
  0
LINE
  5
420
100
AcDbEntity
  8
RACCORDO
100
AcDbLine
 62
7
  6
CONTINUOUS
 10
-58.6464950454
 20
46.4384897704
 11
-59.116721053
 21
46.4520545934
  0
LINE
  5
421
100
AcDbEntity
  8
RACCORDO
100
AcDbLine
 62
7
  6
CONTINUOUS
 10
-59.0358957898
 20
46.6319390275
 11
-59.0358277835
 21
46.6319370537
  0
LINE
  5
422
100
AcDbEntity
  8
SMUSSO
100
AcDbLine
 62
7
  6
CONTINUOUS
 10
70.7637111272
 20
8.5420637095
 11
-74.9002857972
 21
81.3740621718
  0
LINE
  5
423
100
AcDbEntity
  8
SMUSSO
100
AcDbLine
 62
7
  6
CONTINUOUS
 10
-73.1325188442
 20
82.2579456482
 11
72.5314780802
 21
9.425947186
  0
LINE
  5
424
100
AcDbEntity
  8
DRAFT
100
AcDbLine
 62
7
  6
CONTINUOUS
 10
72.855511092
 20
9.897416221
 11
-72.0306683722
 21
82.3405059531
  0
LINE
  5
425
100
AcDbEntity
  8
DRAFT
100
AcDbLine
 62
7
  6
CONTINUOUS
 10
-70.3394470595
 20
83.2222715417
 11
74.5467324066
 21
10.7791818087
  0
LINE
  5
426
100
AcDbEntity
  8
RACCORDO
100
AcDbLine
 62
7
  6
CONTINUOUS
 10
52.8723203267
 20
-9.6556295885
 11
52.8723203267
 21
-49.4474440118
  0
LINE
  5
427
100
AcDbEntity
  8
RACCORDO
100
AcDbLine
 62
7
  6
CONTINUOUS
 10
52.9601882923
 20
-9.7616956057
 11
52.9601882923
 21
-49.5535099975
  0
LWPOLYLINE
  5
428
100
AcDbEntity
  8
RACCORDO
100
AcDbPolyline
 62
7
  6
CONTINUOUS
 90
10
 70
0
 10
52.8723203425
 20
-49.4475022938
 10
52.8722891149
 20
-49.4524480438
 10
52.8718007538
 20
-49.4674623175
 10
52.8707582218
 20
-49.4814035083
 10
52.869231489
 20
-49.4940886239
 10
52.8673445726
 20
-49.5052091639
 10
52.8652312346
 20
-49.5146787504
 10
52.8630495629
 20
-49.5224173098
 10
52.8610479053
 20
-49.5281887904
 10
52.8594692434
 20
-49.531963178
  0
LINE
  5
429
100
AcDbEntity
  8
ASSI
100
AcDbLine
 62
7
  6
CONTINUOUS
 10
37.5650477505
 20
-37.4966020742
 11
37.8197526241
 21
-37.3120060233
  0
LINE
  5
42A
100
AcDbEntity
  8
ASSI
100
AcDbLine
 62
7
  6
CONTINUOUS
 10
37.8199467032
 20
-36.8561462328
 11
36.8495493185
 21
-37.3950139726
  0
LINE
  5
42B
100
AcDbEntity
  8
RACCORDO
100
AcDbLine
 62
7
  6
CONTINUOUS
 10
34.1411278859
 20
-36.5730349546
 11
33.575442461
 21
-36.8679708908
  0
LINE
  5
42C
100
AcDbEntity
  8
RACCORDO
100
AcDbLine
 62
7
  6
CONTINUOUS
 10
34.277001218
 20
-36.5806733807
 11
33.7113157931
 21
-36.8756093168
  0
LINE
  5
42D
100
AcDbEntity
  8
ASSI
100
AcDbLine
 62
7
  6
CONTINUOUS
 10
37.5650477505
 20
-37.4966020742
 11
37.2522380922
 21
-37.6559968053
  0
LINE
  5
42E
100
AcDbEntity
  8
ASSI
100
AcDbLine
 62
7
  6
CONTINUOUS
 10
37.826960233
 20
-37.2780125418
 11
37.1956736834
 21
-37.5925222078
  0
LINE
  5
42F
100
AcDbEntity
  8
RACCORDO
100
AcDbLine
 62
7
  6
CONTINUOUS
 10
36.8578861733
 20
-37.519082285
 11
36.5044414266
 21
-37.694393485
  0
LINE
  5
430
100
AcDbEntity
  8
RACCORDO
100
AcDbLine
 62
7
  6
CONTINUOUS
 10
35.3817345616
 20
-36.8710144822
 11
35.1093114566
 21
-36.9968284999
  0
LINE
  5
431
100
AcDbEntity
  8
RACCORDO
100
AcDbLine
 62
7
  6
CONTINUOUS
 10
35.5975442742
 20
-36.8889113354
 11
35.2315415247
 21
-37.057943534
  0
LINE
  5
432
100
AcDbEntity
  8
SMUSSO
100
AcDbLine
 62
7
  6
CONTINUOUS
 10
72.9557421489
 20
9.1256072072
 11
72.6728994364
 21
9.3377392415
  0
LINE
  5
433
100
AcDbEntity
  8
SMUSSO
100
AcDbLine
 62
7
  6
CONTINUOUS
 10
75.3245505175
 20
10.2226053345
 11
74.7588644409
 21
10.646869892
  0
LINE
  5
434
100
AcDbEntity
  8
RACCORDO
100
AcDbLine
 62
7
  6
CONTINUOUS
 10
54.607702067
 20
-52.6100527524
 11
54.6077020669
 21
-8.3526666246
  0
LINE
  5
435
100
AcDbEntity
  8
RACCORDO
100
AcDbLine
 62
7
  6
CONTINUOUS
 10
55.0278433138
 20
-52.6120670352
 11
55.0282316124
 21
-8.3545015775
  0
LINE
  5
436
100
AcDbEntity
  8
RACCORDO
100
AcDbLine
 62
7
  6
CONTINUOUS
 10
55.3197781997
 20
-8.2076041863
 11
55.3197781997
 21
-52.4772418305
  0
LINE
  5
437
100
AcDbEntity
  8
SMUSSO
100
AcDbLine
 62
7
  6
CONTINUOUS
 10
70.0566043461
 20
7.3224849152
 11
70.7637111272
 21
8.5420637095
  0
LINE
  5
438
100
AcDbEntity
  8
DRAFT
100
AcDbLine
 62
7
  6
CONTINUOUS
 10
72.5694054814
 20
9.4039570345
 11
72.855511092
 21
9.897416221
  0
LINE
  5
439
100
AcDbEntity
  8
RACCORDO
100
AcDbLine
 62
7
  6
CONTINUOUS
 10
44.9543136139
 20
-42.4971082273
 11
45.5199990389
 21
-42.2021722911
  0
LINE
  5
43A
100
AcDbEntity
  8
RACCORDO
100
AcDbLine
 62
7
  6
CONTINUOUS
 10
45.2710872141
 20
-42.8084636311
 11
45.7321310732
 21
-42.5680855054
  0
LINE
  5
43B
100
AcDbEntity
  8
ASSI
100
AcDbLine
 62
7
  6
CONTINUOUS
 10
47.2877659919
 20
-43.7423572431
 11
47.4291873481
 21
-43.671646565
  0
LINE
  5
43C
100
AcDbEntity
  8
ASSI
100
AcDbLine
 62
7
  6
CONTINUOUS
 10
47.6413193824
 20
-43.5655805478
 11
47.7827407387
 21
-43.4948698697
  0
LINE
  5
43D
100
AcDbEntity
  8
ASSI
100
AcDbLine
 62
7
  6
CONTINUOUS
 10
47.994872773
 20
-43.3888038526
 11
48.1362941293
 21
-43.3180931744
  0
LINE
  5
43E
100
AcDbEntity
  8
ASSI
100
AcDbLine
 62
7
  6
CONTINUOUS
 10
48.3484261636
 20
-43.2120271573
 11
48.4898475199
 21
-43.1413164791
  0
LINE
  5
43F
100
AcDbEntity
  8
ASSI
100
AcDbLine
 62
7
  6
CONTINUOUS
 10
48.7019795542
 20
-43.035250462
 11
48.8434009105
 21
-42.9645397838
  0
LINE
  5
440
100
AcDbEntity
  8
ASSI
100
AcDbLine
 62
7
  6
CONTINUOUS
 10
49.0555329448
 20
-42.8584737667
 11
49.1969543011
 21
-42.7877630885
  0
LINE
  5
441
100
AcDbEntity
  8
ASSI
100
AcDbLine
 62
7
  6
CONTINUOUS
 10
49.4090863354
 20
-42.6816970714
 11
49.5505076916
 21
-42.6109863932
  0
LINE
  5
442
100
AcDbEntity
  8
ASSI
100
AcDbLine
 62
7
  6
CONTINUOUS
 10
49.4723854343
 20
-42.595763058
 11
47.0377982315
 21
-43.6918191398
  0
LINE
  5
443
100
AcDbEntity
  8
ASSI
100
AcDbLine
 62
7
  6
CONTINUOUS
 10
47.2543033788
 20
-43.8000717134
 11
47.2877659919
 21
-43.7423572431
  0
LINE
  5
444
100
AcDbEntity
  8
ASSI
100
AcDbLine
 62
7
  6
CONTINUOUS
 10
47.5459682089
 20
-43.7300369954
 11
47.6413193824
 21
-43.5655805478
  0
LINE
  5
445
100
AcDbEntity
  8
ASSI
100
AcDbLine
 62
7
  6
CONTINUOUS
 10
47.8995215995
 20
-43.5532603001
 11
47.994872773
 21
-43.3888038526
  0
LINE
  5
446
100
AcDbEntity
  8
ASSI
100
AcDbLine
 62
7
  6
CONTINUOUS
 10
48.2530749901
 20
-43.3764836048
 11
48.3484261636
 21
-43.2120271573
  0
LINE
  5
447
100
AcDbEntity
  8
ASSI
100
AcDbLine
 62
7
  6
CONTINUOUS
 10
48.6066283807
 20
-43.1997069095
 11
48.7019795542
 21
-43.035250462
  0
LINE
  5
448
100
AcDbEntity
  8
ASSI
100
AcDbLine
 62
7
  6
CONTINUOUS
 10
48.9601817713
 20
-43.0229302142
 11
49.0555329448
 21
-42.8584737667
  0
LINE
  5
449
100
AcDbEntity
  8
ASSI
100
AcDbLine
 62
7
  6
CONTINUOUS
 10
49.3137351619
 20
-42.8461535189
 11
49.4090863354
 21
-42.6816970714
  0
LINE
  5
44A
100
AcDbEntity
  8
ASSI
100
AcDbLine
 62
7
  6
CONTINUOUS
 10
51.8611236058
 20
-45.3727345745
 11
51.8839600696
 21
-45.3333475008
  0
LINE
  5
44B
100
AcDbEntity
  8
ASSI
100
AcDbLine
 62
7
  6
CONTINUOUS
 10
52.131447443
 20
-45.3395076247
 11
52.2375134602
 21
-45.1565708055
  0
LINE
  5
44C
100
AcDbEntity
  8
ASSI
100
AcDbLine
 62
7
  6
CONTINUOUS
 10
52.4850008336
 20
-45.1627309294
 11
52.5910668507
 21
-44.9797941102
  0
LINE
  5
44D
100
AcDbEntity
  8
ASSI
100
AcDbLine
 62
7
  6
CONTINUOUS
 10
52.8385542242
 20
-44.9859542341
 11
52.8723203267
 21
-44.9277163219
  0
LINE
  5
44E
100
AcDbEntity
  8
ASSI
100
AcDbLine
 62
7
  6
CONTINUOUS
 10
52.8723203267
 20
-45.2006861744
 11
52.2301875279
 21
-45.5572665356
  0
LINE
  5
44F
100
AcDbEntity
  8
RACCORDO
100
AcDbLine
 62
7
  6
CONTINUOUS
 10
50.0510304626
 20
-44.5279862429
 11
49.4853450377
 21
-44.8229221791
  0
LINE
  5
450
100
AcDbEntity
  8
RACCORDO
100
AcDbLine
 62
7
  6
CONTINUOUS
 10
50.1869037947
 20
-44.535624669
 11
49.6212183698
 21
-44.8305606052
  0
LINE
  5
451
100
AcDbEntity
  8
ASSI
100
AcDbLine
 62
7
  6
CONTINUOUS
 10
52.8723203267
 20
-45.7586284298
 11
52.7537491503
 21
-45.8190473468
  0
LINE
  5
452
100
AcDbEntity
  8
ASSI
100
AcDbLine
 62
7
  6
CONTINUOUS
 10
51.8839600696
 20
-45.3333475008
 11
52.0253814258
 21
-45.2626368227
  0
LINE
  5
453
100
AcDbEntity
  8
ASSI
100
AcDbLine
 62
7
  6
CONTINUOUS
 10
52.2375134602
 20
-45.1565708055
 11
52.3789348164
 21
-45.0858601274
  0
LINE
  5
454
100
AcDbEntity
  8
ASSI
100
AcDbLine
 62
7
  6
CONTINUOUS
 10
52.5910668507
 20
-44.9797941102
 11
52.732488207
 21
-44.9090834321
  0
LINE
  5
455
100
AcDbEntity
  8
ASSI
100
AcDbLine
 62
7
  6
CONTINUOUS
 10
52.8723203267
 20
-44.9690711828
 11
51.9630585745
 21
-45.4237020589
  0
LINE
  5
456
100
AcDbEntity
  8
ASSI
100
AcDbLine
 62
7
  6
CONTINUOUS
 10
52.8723203267
 20
-45.6636826023
 11
52.6572838504
 21
-45.7708146969
  0
LINE
  5
457
100
AcDbEntity
  8
SMUSSO
100
AcDbLine
 62
7
  6
CONTINUOUS
 10
70.0566043461
 20
-82.7441570784
 11
70.0566043461
 21
7.3224849152
  0
LINE
  5
458
100
AcDbEntity
  8
SMUSSO
100
AcDbLine
 62
7
  6
CONTINUOUS
 10
71.4708179084
 20
-82.7441570784
 11
71.4708179084
 21
7.3224849152
  0
LINE
  5
459
100
AcDbEntity
  8
SMUSSO
100
AcDbLine
 62
7
  6
CONTINUOUS
 10
73.2385848614
 20
8.5599217822
 11
73.2385848614
 21
-81.8602736019
  0
LINE
  5
45A
100
AcDbEntity
  8
DRAFT
100
AcDbLine
 62
7
  6
CONTINUOUS
 10
73.8866508869
 20
-80.995050899
 11
73.8866508869
 21
8.1189631492
  0
LINE
  5
45B
100
AcDbEntity
  8
DRAFT
100
AcDbLine
 62
7
  6
CONTINUOUS
 10
75.6073925784
 20
9.6569203983
 11
75.6073925784
 21
-80.1642004323
  0
LINE
  5
45C
100
AcDbEntity
  8
RACCORDO
100
AcDbLine
 62
7
  6
CONTINUOUS
 10
52.6945508674
 20
-49.5570952446
 11
52.8723203267
 21
-49.3339434996
  0
LINE
  5
45D
100
AcDbEntity
  8
RACCORDO
100
AcDbLine
 62
7
  6
CONTINUOUS
 10
52.8598427418
 20
-49.5321306161
 11
52.8598131358
 21
-49.5321677538
  0
LINE
  5
45E
100
AcDbEntity
  8
RACCORDO
100
AcDbLine
 62
7
  6
CONTINUOUS
 10
55.0278433138
 20
-52.6120670352
 11
55.3197781997
 21
-52.4772418305
  0
LINE
  5
45F
100
AcDbEntity
  8
RACCORDO
100
AcDbLine
 62
7
  6
CONTINUOUS
 10
54.8374943638
 20
-52.9946822385
 11
55.1305525062
 21
-52.8593382767
  0
LINE
  5
460
100
AcDbEntity
  8
SMUSSO
100
AcDbLine
 62
7
  6
CONTINUOUS
 10
71.4708179084
 20
-82.7441570784
 11
73.2385848614
 21
-81.8602736019
  0
LINE
  5
461
100
AcDbEntity
  8
RACCORDO
100
AcDbLine
 62
7
  6
CONTINUOUS
 10
71.2109263398
 20
-83.2850300703
 11
72.9786916757
 21
-82.4011474023
  0
LINE
  5
462
100
AcDbEntity
  8
DRAFT
100
AcDbLine
 62
7
  6
CONTINUOUS
 10
73.8866508869
 20
-80.995050899
 11
75.6073925784
 21
-80.1642004323
  0
LINE
  5
463
100
AcDbEntity
  8
DRAFT
100
AcDbLine
 62
7
  6
CONTINUOUS
 10
73.496802381
 20
-81.7890614974
 11
75.2063831462
 21
-80.9809426639
  0
ARC
  5
464
100
AcDbEntity
  8
DRAFT
100
AcDbCircle
 62
7
  6
CONTINUOUS
 10
73.24518237
 20
-81.1801113958
 40
0.6634369367
100
AcDbArc
 50
269.4440132862
 51
271.6256484308
  0
ARC
  5
465
100
AcDbEntity
  8
IMPORT_IGES
100
AcDbCircle
 62
7
  6
CONTINUOUS
 10
-0.8054897248
 20
-23.5530873045
 40
0.5088565022
100
AcDbArc
 50
244.6720486628
 51
247.0404098965
  0
ARC
  5
466
100
AcDbEntity
  8
RACCORDO
100
AcDbCircle
 62
7
  6
CONTINUOUS
 10
11.7688086301
 20
-25.4155798291
 40
0.502399305
100
AcDbArc
 50
100.2950146088
 51
116.3430329804
  0
ARC
  5
467
100
AcDbEntity
  8
RACCORDO
100
AcDbCircle
 62
7
  6
CONTINUOUS
 10
-35.8964419791
 20
-1.5829369246
 40
0.502319995
100
AcDbArc
 50
98.9698322227
 51
114.7522457396
  0
ARC
  5
468
100
AcDbEntity
  8
RACCORDO
100
AcDbCircle
 62
7
  6
CONTINUOUS
 10
-12.0669434531
 20
-13.4976861876
 40
0.502319995
100
AcDbArc
 50
98.9698322227
 51
114.7522457396
  0
ARC
  5
469
100
AcDbEntity
  8
RACCORDO
100
AcDbCircle
 62
7
  6
CONTINUOUS
 10
35.5920535989
 20
-37.3271847136
 40
0.502319995
100
AcDbArc
 50
98.9698322227
 51
114.7522457396
  0
ARC
  5
46A
100
AcDbEntity
  8
RACCORDO
100
AcDbCircle
 62
7
  6
CONTINUOUS
 10
11.7673400346
 20
-25.4153473756
 40
0.5021625583
100
AcDbArc
 50
63.4601585232
 51
79.3584299017
  0
ARC
  5
46B
100
AcDbEntity
  8
RACCORDO
100
AcDbCircle
 62
7
  6
CONTINUOUS
 10
-35.897748951
 20
-1.5824872529
 40
0.5018810491
100
AcDbArc
 50
63.4559804215
 51
78.4446987655
  0
ARC
  5
46C
100
AcDbEntity
  8
RACCORDO
100
AcDbCircle
 62
7
  6
CONTINUOUS
 10
-12.068250425
 20
-13.4972365159
 40
0.5018810491
100
AcDbArc
 50
63.4559804215
 51
78.4446987655
  0
ARC
  5
46D
100
AcDbEntity
  8
RACCORDO
100
AcDbCircle
 62
7
  6
CONTINUOUS
 10
35.590746627
 20
-37.3267350419
 40
0.5018810491
100
AcDbArc
 50
63.4559804215
 51
78.4446987655
  0
ARC
  5
46E
100
AcDbEntity
  8
RACCORDO
100
AcDbCircle
 62
7
  6
CONTINUOUS
 10
-34.6367926409
 20
-2.2108751874
 40
0.5000125831
100
AcDbArc
 50
359.9981424993
 51
63.436300054
  0
ARC
  5
46F
100
AcDbEntity
  8
RACCORDO
100
AcDbCircle
 62
7
  6
CONTINUOUS
 10
13.0222044111
 20
-26.0403737134
 40
0.5000125831
100
AcDbArc
 50
359.9981424993
 51
63.436300054
  0
ARC
  5
470
100
AcDbEntity
  8
RACCORDO
100
AcDbCircle
 62
7
  6
CONTINUOUS
 10
36.851702937
 20
-37.9551229764
 40
0.5000125831
100
AcDbArc
 50
359.9981424993
 51
63.436300054
  0
ARC
  5
471
100
AcDbEntity
  8
RACCORDO
100
AcDbCircle
 62
7
  6
CONTINUOUS
 10
-55.4964426859
 20
8.2189498351
 40
0.5000125831
100
AcDbArc
 50
359.9981424993
 51
63.436300054
  0
ARC
  5
472
100
AcDbEntity
  8
RACCORDO
100
AcDbCircle
 62
7
  6
CONTINUOUS
 10
-10.8134574896
 20
-14.1225343213
 40
0.5000039303
100
AcDbArc
 50
359.9962855703
 51
63.4406225052
  0
ARC
  5
473
100
AcDbEntity
  8
0
100
AcDbCircle
 62
7
  6
CONTINUOUS
 10
-1.0650749833
 20
-24.6291986128
 40
0.3153413181
100
AcDbArc
 50
42.1972265077
 51
45.3104433895
  0
ARC
  5
474
100
AcDbEntity
  8
RACCORDO
100
AcDbCircle
 62
7
  6
CONTINUOUS
 10
-52.649116267
 20
32.1544108476
 40
0.3000075549
100
AcDbArc
 50
359.9982306104
 51
63.4364765423
  0
ARC
  5
475
100
AcDbEntity
  8
RACCORDO
100
AcDbCircle
 62
7
  6
CONTINUOUS
 10
-52.9757921554
 20
32.3178262934
 40
0.2999366603
100
AcDbArc
 50
63.4376202806
 51
114.7714837856
  0
ARC
  5
476
100
AcDbEntity
  8
RACCORDO
100
AcDbCircle
 62
7
  6
CONTINUOUS
 10
-52.649043054
 20
27.5747481706
 40
0.2999338858
100
AcDbArc
 50
298.3466504164
 51
359.9940045201
  0
ARC
  5
477
100
AcDbEntity
  8
RACCORDO
100
AcDbCircle
 62
7
  6
CONTINUOUS
 10
11.6341708037
 20
-25.1433700548
 40
0.1987129222
100
AcDbArc
 50
114.9254157885
 51
116.3820773599
  0
ARC
  5
478
100
AcDbEntity
  8
RACCORDO
100
AcDbCircle
 62
7
  6
CONTINUOUS
 10
11.2807158066
 20
-25.3154186788
 40
0.1957856016
100
AcDbArc
 50
108.6619892206
 51
116.3597832333
  0
ARC
  5
479
100
AcDbEntity
  8
RACCORDO
100
AcDbCircle
 62
7
  6
CONTINUOUS
 10
-57.3375532198
 20
7.5263870518
 40
0.1813440003
100
AcDbArc
 50
236.4614783931
 51
243.4416127035
  0
ARC
  5
47A
100
AcDbEntity
  8
RACCORDO
100
AcDbCircle
 62
7
  6
CONTINUOUS
 10
-57.498867881
 20
7.7723532886
 40
0.1095361208
100
AcDbArc
 50
179.9736119507
 51
186.2827285926
  0
ARC
  5
47B
100
AcDbEntity
  8
ASSI
100
AcDbCircle
 62
7
  6
CONTINUOUS
 10
-45.9469444648
 20
5.0558966419
 40
0.0874961196
100
AcDbArc
 50
105.0618690741
 51
111.661129725
  0
ARC
  5
47C
100
AcDbEntity
  8
ASSI
100
AcDbCircle
 62
7
  6
CONTINUOUS
 10
49.5124709954
 20
-42.6738110882
 40
0.0874961196
100
AcDbArc
 50
105.0618690741
 51
111.6611297249
  0
SPLINE
  5
47D
100
AcDbEntity
  8
0
100
AcDbSpline
 62
7
  6
CONTINUOUS
 70
0
 71
3
 72
11
 73
7
 74
5
 42
0.0000001
 43
0.0000001
 44
0.0000000001
 12
0.3138156219
 22
-0.2015300707
 32
0.0
 13
0.0047321734
 23
-0.3729238803
 33
0.0
 40
0.0
 40
0.0
 40
0.0
 40
0.0
 40
0.2339806254
 40
0.4918424311
 40
0.7556842856
 40
1.0
 40
1.0
 40
1.0
 40
1.0
 10
-1.0989177668
 20
-23.6066622225
 30
0.0
 10
-1.074442175
 20
-23.6223802665
 30
0.0
 10
-1.0276987526
 20
-23.6628828213
 30
0.0
 10
-0.9715469715
 20
-23.7392549027
 30
0.0
 10
-0.9351550933
 20
-23.8281100811
 30
0.0
 10
-0.9242265847
 20
-23.8911545969
 30
0.0
 10
-0.9238412033
 20
-23.921524985
 30
0.0
 11
-1.0989177668
 21
-23.6066622225
 31
0.0
 11
-1.0322759811
 21
-23.6629993854
 31
0.0
 11
-0.9754068227
 21
-23.7405537326
 31
0.0
 11
-0.9377894149
 21
-23.8314803943
 31
0.0
 11
-0.9238412033
 21
-23.921524985
 31
0.0
  0
SPLINE
  5
47E
100
AcDbEntity
  8
0
100
AcDbSpline
 62
7
  6
CONTINUOUS
 70
0
 71
3
 72
9
 73
5
 74
3
 42
0.0000001
 43
0.0000001
 44
0.0000000001
 12
0.0022474152
 22
-0.1795071022
 32
0.0
 13
-0.1278864783
 23
-0.125987695
 33
0.0
 40
0.0
 40
0.0
 40
0.0
 40
0.0
 40
0.5428700397
 40
1.0
 40
1.0
 40
1.0
 40
1.0
 10
-0.9238412033
 20
-23.921524985
 30
0.0
 10
-0.9234345185
 20
-23.9540079942
 30
0.0
 10
-0.9296158048
 20
-24.0138603628
 30
0.0
 10
-0.955844327
 20
-24.07107047
 30
0.0
 10
-0.9753312406
 20
-24.0902680534
 30
0.0
 11
-0.9238412033
 21
-23.921524985
 31
0.0
 11
-0.9360538672
 21
-24.0182134144
 31
0.0
 11
-0.9753312406
 21
-24.0902680534
 31
0.0
  0
SPLINE
  5
47F
100
AcDbEntity
  8
0
100
AcDbSpline
 62
7
  6
CONTINUOUS
 70
0
 71
3
 72
8
 73
4
 74
2
 42
0.0000001
 43
0.0000001
 44
0.0000000001
 12
-0.0200208059
 22
-0.0197235487
 32
0.0
 13
-0.0251372385
 23
-0.012568623
 33
0.0
 40
0.0
 40
0.0
 40
0.0
 40
0.0
 40
1.0
 40
1.0
 40
1.0
 40
1.0
 10
-0.9753312406
 20
-24.0902680534
 30
0.0
 10
-0.9820048425
 20
-24.0968425696
 30
0.0
 10
-0.9897063492
 20
-24.1025739047
 30
0.0
 10
-0.9980854287
 20
-24.1067634457
 30
0.0
 11
-0.9753312406
 21
-24.0902680534
 31
0.0
 11
-0.9980854287
 21
-24.1067634457
 31
0.0
  0
SPLINE
  5
480
100
AcDbEntity
  8
0
100
AcDbSpline
 62
7
  6
CONTINUOUS
 70
0
 71
3
 72
10
 73
6
 74
4
 42
0.0000001
 43
0.0000001
 44
0.0000000001
 12
0.257046478
 22
-0.0748047261
 32
0.0
 13
0.2252633536
 23
-0.1446549704
 33
0.0
 40
0.0
 40
0.0
 40
0.0
 40
0.0
 40
0.2362920832
 40
0.4814109498
 40
1.0
 40
1.0
 40
1.0
 40
1.0
 10
-1.3417245984
 20
-23.4959636488
 30
0.0
 10
-1.3214785825
 20
-23.5018555703
 30
0.0
 10
-1.2804503469
 20
-23.5147252369
 30
0.0
 10
-1.1977550133
 20
-23.5484853315
 30
0.0
 10
-1.1378574697
 20
-23.581656728
 30
0.0
 10
-1.0989177668
 20
-23.6066622225
 30
0.0
 11
-1.3417245984
 21
-23.4959636488
 31
0.0
 11
-1.2814959965
 21
-23.5153042437
 31
0.0
 11
-1.2207052954
 21
-23.5400140804
 31
0.0
 11
-1.0989177668
 21
-23.6066622225
 31
0.0
  0
SPLINE
  5
481
100
AcDbEntity
  8
0
100
AcDbSpline
 62
7
  6
CONTINUOUS
 70
0
 71
3
 72
10
 73
6
 74
4
 42
0.0000001
 43
0.0000001
 44
0.0000000001
 12
0.2763115484
 22
-0.1381557742
 32
0.0
 13
0.0793323206
 23
-0.2985656924
 33
0.0
 40
0.0
 40
0.0
 40
0.0
 40
0.0
 40
0.2224105364
 40
0.6042534692
 40
1.0
 40
1.0
 40
1.0
 40
1.0
 10
-1.1652673752
 20
-24.3812325273
 30
0.0
 10
-1.1447825086
 20
-24.3914749606
 30
0.0
 10
-1.0931770105
 20
-24.4279351745
 30
0.0
 10
-1.0322011476
 20
-24.5133325487
 30
0.0
 10
-1.0028160396
 20
-24.5885370437
 30
0.0
 10
-0.9923508761
 20
-24.6279224894
 30
0.0
 11
-1.1652673752
 21
-24.3812325273
 31
0.0
 11
-1.1087928875
 21
-24.4203664898
 31
0.0
 11
-1.0373964592
 21
-24.5142673432
 31
0.0
 11
-0.9923508761
 21
-24.6279224894
 31
0.0
  0
SPLINE
  5
482
100
AcDbEntity
  8
0
100
AcDbSpline
 62
7
  6
CONTINUOUS
 70
0
 71
3
 72
9
 73
5
 74
3
 42
0.0000001
 43
0.0000001
 44
0.0000000001
 12
0.1629167104
 22
-0.6125703128
 32
0.0
 13
0.1303220388
 23
-0.6203228263
 33
0.0
 40
0.0
 40
0.0
 40
0.0
 40
0.0
 40
0.5011449125
 40
1.0
 40
1.0
 40
1.0
 40
1.0
 10
-0.9923508761
 20
-24.6279224894
 30
0.0
 10
-0.9651359159
 20
-24.7302513213
 30
0.0
 10
-0.9232052193
 20
-24.9375153898
 30
0.0
 10
-0.8784941378
 20
-25.1439646771
 30
0.0
 10
-0.8568235338
 20
-25.2471150763
 30
0.0
 11
-0.9923508761
 21
-24.6279224894
 31
0.0
 11
-0.9224109222
 21
-24.9377853591
 31
0.0
 11
-0.8568235338
 21
-25.2471150763
 31
0.0
  0
SPLINE
  5
483
100
AcDbEntity
  8
0
100
AcDbSpline
 62
7
  6
CONTINUOUS
 70
0
 71
3
 72
9
 73
5
 74
3
 42
0.0000001
 43
0.0000001
 44
0.0000000001
 12
0.0372671146
 22
-0.0127441757
 32
0.0
 13
0.0356954054
 23
0.0166460169
 33
0.0
 40
0.0
 40
0.0
 40
0.0
 40
0.0
 40
0.5123517753
 40
1.0
 40
1.0
 40
1.0
 40
1.0
 10
-0.8433064295
 20
-24.3942679917
 30
0.0
 10
-0.8369418053
 20
-24.396444492
 30
0.0
 10
-0.8231772726
 20
-24.3974666968
 30
0.0
 10
-0.8107795681
 20
-24.392561865
 30
0.0
 10
-0.8049773011
 20
-24.3898560648
 30
0.0
 11
-0.8433064295
 21
-24.3942679917
 31
0.0
 11
-0.8231960381
 21
-24.3959360761
 31
0.0
 11
-0.8049773011
 21
-24.3898560648
 31
0.0
  0
LINE
  5
484
100
AcDbEntity
  8
0
100
AcDbLine
 62
7
  6
CONTINUOUS
 10
-0.8049773011
 20
-24.3898560648
 11
-0.8002758113
 21
-24.3875756868
  0
SPLINE
  5
485
100
AcDbEntity
  8
RACCORDO
100
AcDbSpline
 62
7
  6
CONTINUOUS
 70
0
 71
3
 72
12
 73
8
 74
6
 42
0.0000001
 43
0.0000001
 44
0.0000000001
 12
0.5224462622
 22
-0.2612221574
 32
0.0
 13
0.0000164681
 23
-0.5841122428
 33
0.0
 40
0.0
 40
0.0
 40
0.0
 40
0.0
 40
0.1109174704
 40
0.2309231332
 40
0.4893221325
 40
0.7537633751
 40
1.0
 40
1.0
 40
1.0
 40
1.0
 10
54.3280892493
 20
-7.8665028141
 30
0.0
 10
54.3474053886
 20
-7.8761608478
 30
0.0
 10
54.3852601077
 20
-7.9009924581
 30
0.0
 10
54.4566096416
 20
-7.9644639698
 30
0.0
 10
54.5317532944
 20
-8.0664946573
 30
0.0
 10
54.5912589853
 20
-8.2050921699
 30
0.0
 10
54.6077007152
 20
-8.3047233488
 30
0.0
 10
54.6077020669
 20
-8.3526666246
 30
0.0
 11
54.3280892493
 21
-7.8665028141
 31
0.0
 11
54.3828052155
 21
-7.9011969158
 31
0.0
 11
54.4353294203
 21
-7.9476163733
 31
0.0
 11
54.5260001372
 21
-8.0682807808
 31
0.0
 11
54.586481263
 21
-8.2104108806
 31
0.0
 11
54.6077020669
 21
-8.3526666246
 31
0.0
  0
SPLINE
  5
486
100
AcDbEntity
  8
0
100
AcDbSpline
 62
7
  6
CONTINUOUS
 70
0
 71
3
 72
9
 73
5
 74
3
 42
0.0000001
 43
0.0000001
 44
0.0000000001
 12
-0.1087199623
 22
0.5446236221
 32
0.0
 13
-0.1090135263
 23
0.5445649374
 33
0.0
 40
0.0
 40
0.0
 40
0.0
 40
0.0
 40
0.4998343578
 40
1.0
 40
1.0
 40
1.0
 40
1.0
 10
-0.5587012374
 20
-25.3961762245
 30
0.0
 10
-0.5768152283
 20
-25.3054356917
 30
0.0
 10
-0.6112165958
 20
-25.1235337476
 30
0.0
 10
-0.6464807986
 20
-24.9417989537
 30
0.0
 10
-0.6646557387
 20
-24.8510080631
 30
0.0
 11
-0.5587012374
 21
-25.3961762245
 31
0.0
 11
-0.6114207651
 21
-25.1236357688
 31
0.0
 11
-0.6646557387
 21
-24.8510080631
 31
0.0
  0
SPLINE
  5
487
100
AcDbEntity
  8
0
100
AcDbSpline
 62
7
  6
CONTINUOUS
 70
0
 71
3
 72
11
 73
7
 74
5
 42
0.0000001
 43
0.0000001
 44
0.0000000001
 12
-0.0921710565
 22
0.4604524488
 32
0.0
 13
-0.3155612603
 23
0.3477542986
 33
0.0
 40
0.0
 40
0.0
 40
0.0
 40
0.0
 40
0.2378309259
 40
0.4940748858
 40
0.7548353113
 40
1.0
 40
1.0
 40
1.0
 40
1.0
 10
-0.6646557387
 20
-24.8510080631
 30
0.0
 10
-0.6719627813
 20
-24.8145047857
 30
0.0
 10
-0.6865883926
 20
-24.7385479989
 30
0.0
 10
-0.7179654704
 20
-24.6244168285
 30
0.0
 10
-0.7624544457
 20
-24.5134505028
 30
0.0
 10
-0.8056702728
 20
-24.4458076899
 30
0.0
 10
-0.8314584322
 20
-24.4173886651
 30
0.0
 11
-0.6646557387
 21
-24.8510080631
 31
0.0
 11
-0.6874132535
 21
-24.7416689817
 31
0.0
 11
-0.7199118096
 21
-24.6258118609
 31
0.0
 11
-0.7670000104
 21
-24.5127780936
 31
0.0
 11
-0.8314584322
 21
-24.4173886651
 31
0.0
  0
SPLINE
  5
488
100
AcDbEntity
  8
0
100
AcDbSpline
 62
7
  6
CONTINUOUS
 70
0
 71
3
 72
11
 73
7
 74
5
 42
0.0000001
 43
0.0000001
 44
0.0000000001
 12
-0.6333494509
 22
0.5969143223
 32
0.0
 13
-0.8289470693
 23
0.2651131674
 33
0.0
 40
0.0
 40
0.0
 40
0.0
 40
0.0
 40
0.2725542141
 40
0.5262218346
 40
0.7671916502
 40
1.0
 40
1.0
 40
1.0
 40
1.0
 10
-0.875262022
 20
-23.459787472
 30
0.0
 10
-0.9328027093
 20
-23.4055569674
 30
0.0
 10
-1.0560411407
 20
-23.3136595024
 30
0.0
 10
-1.25127843
 20
-23.2061190702
 30
0.0
 10
-1.4456455211
 20
-23.1231516803
 30
0.0
 10
-1.5758077882
 20
-23.0787778237
 30
0.0
 10
-1.6401363879
 20
-23.058204304
 30
0.0
 11
-0.875262022
 21
-23.459787472
 31
0.0
 11
-1.0633283389
 21
-23.3152261861
 31
0.0
 11
-1.2561629996
 21
-23.2077372565
 31
0.0
 11
-1.4487504631
 21
-23.1247202712
 31
0.0
 11
-1.6401363879
 21
-23.058204304
 31
0.0
  0
SPLINE
  5
489
100
AcDbEntity
  8
RACCORDO
100
AcDbSpline
 62
7
  6
CONTINUOUS
 70
0
 71
3
 72
15
 73
11
 74
9
 42
0.0000001
 43
0.0000001
 44
0.0000000001
 12
0.0000005433
 22
-0.4373931379
 32
0.0
 13
-0.3912229335
 23
0.1955949217
 33
0.0
 40
0.0
 40
0.0
 40
0.0
 40
0.0
 40
0.1487956607
 40
0.2840505564
 40
0.4066337084
 40
0.5199163178
 40
0.6296853472
 40
0.7427992355
 40
0.8650888082
 40
1.0
 40
1.0
 40
1.0
 40
1.0
 10
54.607702067
 20
-52.6100527524
 30
0.0
 10
54.6077020939
 20
-52.6317468194
 30
0.0
 10
54.6045514709
 20
-52.6732803115
 30
0.0
 10
54.5889191501
 20
-52.7308992284
 30
0.0
 10
54.5628587424
 20
-52.7789978155
 30
0.0
 10
54.5268754534
 20
-52.8153955077
 30
0.0
 10
54.4823403639
 20
-52.837899195
 30
0.0
 10
54.4317462903
 20
-52.8452278658
 30
0.0
 10
54.3777079287
 20
-52.8376055592
 30
0.0
 10
54.3424958835
 20
-52.823806319
 30
0.0
 10
54.3249024327
 20
-52.8150103377
 30
0.0
 11
54.607702067
 21
-52.6100527524
 31
0.0
 11
54.6022693853
 21
-52.6749078128
 31
0.0
 11
54.5861773522
 21
-52.7318367192
 31
0.0
 11
54.5600467651
 21
-52.7786552868
 31
0.0
 11
54.5248773315
 21
-52.8135582653
 31
0.0
 11
54.4820214176
 21
-52.8352041409
 31
0.0
 11
54.4331265931
 21
-52.8427602887
 31
0.0
 11
54.3800742425
 21
-52.835942623
 31
0.0
 11
54.3249024327
 21
-52.8150103377
 31
0.0
  0
SPLINE
  5
48A
100
AcDbEntity
  8
RACCORDO
100
AcDbSpline
 62
7
  6
CONTINUOUS
 70
0
 71
3
 72
11
 73
7
 74
5
 42
0.0000001
 43
0.0000001
 44
0.0000000001
 12
-0.5252088232
 22
0.262603433
 32
0.0
 13
-0.0000165552
 23
0.5872008777
 33
0.0
 40
0.0
 40
0.0
 40
0.0
 40
0.0
 40
0.2296735233
 40
0.4882132692
 40
0.7532075793
 40
1.0
 40
1.0
 40
1.0
 40
1.0
 10
-60.8656401581
 20
4.7802609577
 30
0.0
 10
-60.9058490117
 20
4.8003653096
 30
0.0
 10
-60.982682898
 20
4.8604731207
 30
0.0
 10
-61.0714109548
 20
4.9798074396
 30
0.0
 10
-61.131772204
 20
5.1193667886
 30
0.0
 10
-61.148438431
 20
5.2197126014
 30
0.0
 10
-61.1484397929
 20
5.2680181767
 30
0.0
 11
-60.8656401581
 21
4.7802609577
 31
0.0
 11
-60.9738637786
 21
4.8607350519
 31
0.0
 11
-61.0656147702
 21
4.9816874337
 31
0.0
 11
-61.1269152045
 21
5.1247088972
 31
0.0
 11
-61.1484397929
 21
5.2680181767
 31
0.0
  0
SPLINE
  5
48B
100
AcDbEntity
  8
RACCORDO
100
AcDbSpline
 62
7
  6
CONTINUOUS
 70
0
 71
3
 72
15
 73
11
 74
9
 42
0.0000001
 43
0.0000001
 44
0.0000000001
 12
-0.0000013378
 22
-0.6465687866
 32
0.0
 13
-0.5782744689
 23
0.2892228111
 33
0.0
 40
0.0
 40
0.0
 40
0.0
 40
0.0
 40
0.1488327995
 40
0.2853445702
 40
0.409502329
 40
0.5236322356
 40
0.6329810521
 40
0.7448482043
 40
0.8659132721
 40
1.0
 40
1.0
 40
1.0
 40
1.0
 10
52.9601882923
 20
-49.5535099975
 30
0.0
 10
52.960188226
 20
-49.5855868784
 30
0.0
 10
52.956040778
 20
-49.6472240835
 30
0.0
 10
52.9352425138
 20
-49.7335165884
 30
0.0
 10
52.8998279085
 20
-49.8069752799
 30
0.0
 10
52.8496912569
 20
-49.8641695827
 30
0.0
 10
52.7858588509
 20
-49.9009981371
 30
0.0
 10
52.7119240604
 20
-49.9143131585
 30
0.0
 10
52.6325020685
 20
-49.9041233948
 30
0.0
 10
52.580811831
 20
-49.8839474613
 30
0.0
 10
52.5549655206
 20
-49.8710204811
 30
0.0
 11
52.9601882923
 21
-49.5535099975
 31
0.0
 11
52.9530472885
 21
-49.6494753175
 31
0.0
 11
52.9314908923
 21
-49.7350667867
 31
0.0
 11
52.8956631516
 21
-49.8069047607
 31
0.0
 11
52.8463132024
 21
-49.861767909
 31
0.0
 11
52.784951338
 21
-49.8968881051
 31
0.0
 11
52.7138898368
 21
-49.9103738118
 31
0.0
 11
52.63611329
 21
-49.9015374721
 31
0.0
 11
52.5549655206
 21
-49.8710204811
 31
0.0
  0
SPLINE
  5
48C
100
AcDbEntity
  8
RACCORDO
100
AcDbSpline
 62
7
  6
CONTINUOUS
 70
0
 71
3
 72
9
 73
5
 74
3
 42
0.0000001
 43
0.0000001
 44
0.0000000001
 12
0.1725639098
 22
-0.0862952368
 32
0.0
 13
0.1355517978
 23
-0.1372985105
 33
0.0
 40
0.0
 40
0.0
 40
0.0
 40
0.0
 40
0.2348004321
 40
1.0
 40
1.0
 40
1.0
 40
1.0
 10
52.5549655206
 20
-9.0389623503
 30
0.0
 10
52.5684715474
 20
-9.0457164032
 30
0.0
 10
52.624588388
 20
-9.0772758528
 30
0.0
 10
52.6747613063
 20
-9.1188496296
 30
0.0
 10
52.709336032
 20
-9.1538698833
 30
0.0
 11
52.5549655206
 21
-9.0389623503
 31
0.0
 11
52.5944963684
 21
-9.0610888503
 31
0.0
 11
52.709336032
 21
-9.1538698833
 31
0.0
  0
SPLINE
  5
48D
100
AcDbEntity
  8
RACCORDO
100
AcDbSpline
 62
7
  6
CONTINUOUS
 70
0
 71
3
 72
11
 73
7
 74
5
 42
0.0000001
 43
0.0000001
 44
0.0000000001
 12
0.4722144352
 22
-0.4782993634
 32
0.0
 13
-0.0000048606
 23
-0.6721285248
 33
0.0
 40
0.0
 40
0.0
 40
0.0
 40
0.0
 40
0.2506204289
 40
0.5100378139
 40
0.7636254487
 40
1.0
 40
1.0
 40
1.0
 40
1.0
 10
52.709336032
 20
-9.1538698833
 30
0.0
 10
52.7487848934
 20
-9.1938270805
 30
0.0
 10
52.8198965587
 20
-9.2844973999
 30
0.0
 10
52.8986490129
 20
-9.4373885133
 30
0.0
 10
52.9479765065
 20
-9.5987794776
 30
0.0
 10
52.9601886753
 20
-9.7087375795
 30
0.0
 10
52.9601882923
 20
-9.7616956057
 30
0.0
 11
52.709336032
 21
-9.1538698833
 31
0.0
 11
52.8142004074
 21
-9.2856977076
 31
0.0
 11
52.8943564309
 21
-9.4405429776
 31
0.0
 11
52.9437415298
 21
-9.6036751108
 31
0.0
 11
52.9601882923
 21
-9.7616956057
 31
0.0
  0
SPLINE
  5
48E
100
AcDbEntity
  8
RACCORDO
100
AcDbSpline
 62
7
  6
CONTINUOUS
 70
0
 71
3
 72
15
 73
11
 74
9
 42
0.0000001
 43
0.0000001
 44
0.0000000001
 12
0.0000057919
 22
0.6465728865
 32
0.0
 13
0.5783296664
 23
-0.2891215911
 33
0.0
 40
0.0
 40
0.0
 40
0.0
 40
0.0
 40
0.1488305474
 40
0.2853412356
 40
0.4094979038
 40
0.5236286482
 40
0.6329768542
 40
0.7448422918
 40
0.8659082755
 40
1.0
 40
1.0
 40
1.0
 40
1.0
 10
-59.5009260183
 20
46.4688615496
 30
0.0
 10
-59.500925731
 20
46.5009381485
 30
0.0
 10
-59.4967760663
 20
46.5625748026
 30
0.0
 10
-59.4759781095
 20
46.6488670714
 30
0.0
 10
-59.4405603149
 20
46.7223244506
 30
0.0
 10
-59.3904267008
 20
46.7795204442
 30
0.0
 10
-59.3265988539
 20
46.8163577341
 30
0.0
 10
-59.2526637682
 20
46.8296745792
 30
0.0
 10
-59.1732389259
 20
46.8194839218
 30
0.0
 10
-59.1215529873
 20
46.7992949709
 30
0.0
 10
-59.0957032465
 20
46.7863720333
 30
0.0
 11
-59.5009260183
 21
46.4688615496
 31
0.0
 11
-59.4937831802
 21
46.5648258848
 31
0.0
 11
-59.4722258667
 21
46.6504169784
 31
0.0
 11
-59.436396819
 21
46.7222540813
 31
0.0
 11
-59.3870486956
 21
46.7771202298
 31
0.0
 11
-59.3256903158
 21
46.8122466213
 31
0.0
 11
-59.2546299394
 21
46.8257347686
 31
0.0
 11
-59.1768526343
 21
46.81689546
 31
0.0
 11
-59.0957032465
 21
46.7863720333
 31
0.0
  0
SPLINE
  5
48F
100
AcDbEntity
  8
RACCORDO
100
AcDbSpline
 62
7
  6
CONTINUOUS
 70
0
 71
3
 72
11
 73
7
 74
5
 42
0.0000001
 43
0.0000001
 44
0.0000000001
 12
-0.7724931025
 22
0.3863943157
 32
0.0
 13
-0.0000077351
 23
0.8637396371
 33
0.0
 40
0.0
 40
0.0
 40
0.0
 40
0.0
 40
0.2302539168
 40
0.4899319161
 40
0.7543177587
 40
1.0
 40
1.0
 40
1.0
 40
1.0
 10
-59.0957032465
 20
5.9543139024
 30
0.0
 10
-59.1549931007
 20
5.9839701706
 30
0.0
 10
-59.268122953
 20
6.073415131
 30
0.0
 10
-59.3956045218
 20
6.2517966523
 30
0.0
 10
-59.4792699281
 20
6.4591166567
 30
0.0
 10
-59.5009253848
 20
6.6063119945
 30
0.0
 10
-59.5009260183
 20
6.6770471578
 30
0.0
 11
-59.0957032465
 21
5.9543139024
 31
0.0
 11
-59.2546295481
 21
6.0738775262
 31
0.0
 11
-59.3870486057
 21
6.2549108733
 31
0.0
 11
-59.4722258361
 21
6.4667914338
 31
0.0
 11
-59.5009260183
 21
6.6770471578
 31
0.0
  0
SPLINE
  5
490
100
AcDbEntity
  8
0
100
AcDbSpline
 62
7
  6
CONTINUOUS
 70
0
 71
3
 72
9
 73
5
 74
3
 42
0.0000001
 43
0.0000001
 44
0.0000000001
 12
-0.0818983254
 22
0.0180312812
 32
0.0
 13
-0.0758177286
 23
0.0358348272
 33
0.0
 40
0.0
 40
0.0
 40
0.0
 40
0.0
 40
0.242396937
 40
1.0
 40
1.0
 40
1.0
 40
1.0
 10
-0.9443323983
 20
-24.0412755172
 30
0.0
 10
-0.9509496994
 20
-24.0398186081
 30
0.0
 10
-0.9780039086
 20
-24.0326903802
 30
0.0
 10
-1.0040313766
 20
-24.0220789705
 30
0.0
 10
-1.0231779578
 20
-24.0130294455
 30
0.0
 11
-0.9443323983
 21
-24.0412755172
 31
0.0
 11
-0.9640050868
 21
-24.0361582281
 31
0.0
 11
-1.0231779578
 21
-24.0130294455
 31
0.0
  0
SPLINE
  5
491
100
AcDbEntity
  8
0
100
AcDbSpline
 62
7
  6
CONTINUOUS
 70
0
 71
3
 72
10
 73
6
 74
4
 42
0.0000001
 43
0.0000001
 44
0.0000000001
 12
-0.153865818
 22
-0.0769329323
 32
0.0
 13
-0.1555300209
 23
0.0735103982
 33
0.0
 40
0.0
 40
0.0
 40
0.0
 40
0.0
 40
0.4571693139
 40
0.7225206961
 40
1.0
 40
1.0
 40
1.0
 40
1.0
 10
-0.9980854287
 20
-24.1067634457
 30
0.0
 10
-1.0215330055
 20
-24.1184872377
 30
0.0
 10
-1.0666936964
 20
-24.1183887749
 30
0.0
 10
-1.1213438287
 20
-24.1026490509
 30
0.0
 10
-1.15021386
 20
-24.0905393283
 30
0.0
 10
-1.164599314
 20
-24.0837401236
 30
0.0
 11
-0.9980854287
 21
-24.1067634457
 31
0.0
 11
-1.076411159
 21
-24.1138490207
 31
0.0
 11
-1.1204908917
 21
-24.1019878994
 31
0.0
 11
-1.164599314
 21
-24.0837401236
 31
0.0
  0
SPLINE
  5
492
100
AcDbEntity
  8
0
100
AcDbSpline
 62
7
  6
CONTINUOUS
 70
0
 71
3
 72
18
 73
14
 74
12
 42
0.0000001
 43
0.0000001
 44
0.0000000001
 12
0.9412005622
 22
0.4705990133
 32
0.0
 13
-0.7660299342
 23
0.7214707683
 33
0.0
 40
0.0
 40
0.0
 40
0.0
 40
0.0
 40
0.045794308
 40
0.09105793
 40
0.1389648729
 40
0.1905315939
 40
0.3034454709
 40
0.4295779146
 40
0.5663525134
 40
0.711467691
 40
0.8584344038
 40
0.9305901799
 40
1.0
 40
1.0
 40
1.0
 40
1.0
 10
-0.6588540698
 20
-24.316864816
 30
0.0
 10
-0.6444868603
 20
-24.3096812307
 30
0.0
 10
-0.6163984832
 20
-24.2943046837
 30
0.0
 10
-0.5780695786
 20
-24.2635342399
 30
0.0
 10
-0.547207689
 20
-24.2226635325
 30
0.0
 10
-0.5139495971
 20
-24.1556482497
 30
0.0
 10
-0.4912021873
 20
-24.0548778352
 30
0.0
 10
-0.4901437351
 20
-23.92247827
 30
0.0
 10
-0.5120711155
 20
-23.7803303493
 30
0.0
 10
-0.5615842265
 20
-23.6374596108
 30
0.0
 10
-0.6233552275
 20
-23.5248642087
 30
0.0
 10
-0.6829695397
 20
-23.4429888163
 30
0.0
 10
-0.7161173325
 20
-23.4057691793
 30
0.0
 10
-0.7338406658
 20
-23.3890767939
 30
0.0
 11
-0.6588540698
 21
-24.316864816
 31
0.0
 11
-0.6169867308
 21
-24.2930045691
 31
0.0
 11
-0.5801749951
 21
-24.2627792108
 31
0.0
 11
-0.5492947551
 21
-24.2229320295
 31
0.0
 11
-0.5248221895
 21
-24.1745006053
 31
0.0
 11
-0.4962613843
 21
-24.0591657465
 31
0.0
 11
-0.4935961641
 21
-23.9264641385
 31
0.0
 11
-0.5157184093
 21
-23.7842474037
 31
0.0
 11
-0.5652735391
 21
-23.6398080268
 31
0.0
 11
-0.6396917551
 21
-23.5042380699
 31
0.0
 11
-0.6845497166
 21
-23.4429764488
 31
0.0
 11
-0.7338406658
 21
-23.3890767939
 31
0.0
  0
SPLINE
  5
493
100
AcDbEntity
  8
0
100
AcDbSpline
 62
7
  6
CONTINUOUS
 70
0
 71
3
 72
18
 73
14
 74
12
 42
0.0000001
 43
0.0000001
 44
0.0000000001
 12
0.941201632
 22
0.4705978307
 32
0.0
 13
-0.7660302457
 23
0.7214710618
 33
0.0
 40
0.0
 40
0.0
 40
0.0
 40
0.0
 40
0.0457943295
 40
0.0910579491
 40
0.1389648723
 40
0.1905315757
 40
0.3034454282
 40
0.4295778592
 40
0.5663524582
 40
0.7114676475
 40
0.8584343819
 40
0.9305901692
 40
1.0
 40
1.0
 40
1.0
 40
1.0
 10
-0.8002758113
 20
-24.3875756868
 30
0.0
 10
-0.7859085787
 20
-24.3803921161
 30
0.0
 10
-0.7578201782
 20
-24.3650155727
 30
0.0
 10
-0.7194911976
 20
-24.3342451963
 30
0.0
 10
-0.6886292375
 20
-24.2933745299
 30
0.0
 10
-0.6553710657
 20
-24.2263592761
 30
0.0
 10
-0.6326235726
 20
-24.1255888526
 30
0.0
 10
-0.631565067
 20
-23.9931892457
 30
0.0
 10
-0.653492409
 20
-23.8510412597
 30
0.0
 10
-0.7030055109
 20
-23.7081704395
 30
0.0
 10
-0.7647765293
 20
-23.5955749685
 30
0.0
 10
-0.824390869
 20
-23.5136995263
 30
0.0
 10
-0.8575386788
 20
-23.4764798668
 30
0.0
 10
-0.875262022
 20
-23.459787472
 30
0.0
 11
-0.8002758113
 21
-24.3875756868
 31
0.0
 11
-0.7584084107
 21
-24.3637154626
 31
0.0
 11
-0.721596611
 21
-24.3334901558
 31
0.0
 11
-0.6907163084
 21
-24.2936430234
 31
0.0
 11
-0.6662436843
 21
-24.2452116246
 31
0.0
 11
-0.6376827819
 21
-24.1298767667
 31
0.0
 11
-0.6350175
 21
-23.9971751194
 31
0.0
 11
-0.6571397071
 21
-23.8549583191
 31
0.0
 11
-0.7066948268
 21
-23.7105188601
 31
0.0
 11
-0.7811130648
 21
-23.5749488177
 31
0.0
 11
-0.8259710471
 21
-23.5136871588
 31
0.0
 11
-0.875262022
 21
-23.459787472
 31
0.0
  0
SPLINE
  5
494
100
AcDbEntity
  8
RACCORDO
100
AcDbSpline
 62
7
  6
CONTINUOUS
 70
0
 71
3
 72
11
 73
7
 74
5
 42
0.0000001
 43
0.0000001
 44
0.0000000001
 12
-0.1169025421
 22
-0.1465739986
 32
0.0
 13
-0.1499488772
 23
0.1125409954
 33
0.0
 40
0.0
 40
0.0
 40
0.0
 40
0.0
 40
0.266332925
 40
0.5065046488
 40
0.7425896315
 40
1.0
 40
1.0
 40
1.0
 40
1.0
 10
52.8598101323
 20
-49.5321703282
 30
0.0
 10
52.8494318003
 20
-49.5451828221
 30
0.0
 10
52.8265148348
 20
-49.5678594018
 30
0.0
 10
52.7823006813
 20
-49.5864413343
 30
0.0
 10
52.7349581185
 20
-49.5822227957
 30
0.0
 10
52.7074165161
 20
-49.5667522575
 30
0.0
 10
52.6945503842
 20
-49.5570958511
 30
0.0
 11
52.8598101323
 21
-49.5321703282
 31
0.0
 11
52.8233292014
 21
-49.5662651173
 31
0.0
 11
52.7814532048
 21
-49.5828164746
 31
0.0
 11
52.737319003
 21
-49.5794542288
 31
0.0
 11
52.6945503842
 21
-49.5570958511
 31
0.0
  0
SPLINE
  5
495
100
AcDbEntity
  8
RACCORDO
100
AcDbSpline
 62
7
  6
CONTINUOUS
 70
0
 71
3
 72
11
 73
7
 74
5
 42
0.0000001
 43
0.0000001
 44
0.0000000001
 12
0.4079950368
 22
0.1888863769
 32
0.0
 13
0.0027810966
 23
0.4495890112
 33
0.0
 40
0.0
 40
0.0
 40
0.0
 40
0.0
 40
0.2166761523
 40
0.4494780108
 40
0.7094272567
 40
1.0
 40
1.0
 40
1.0
 40
1.0
 10
54.8377012082
 20
-52.9945842184
 30
0.0
 10
54.8671688064
 20
-52.9809418272
 30
0.0
 10
54.9232770273
 20
-52.9405195767
 30
0.0
 10
54.9837705817
 20
-52.8510166571
 30
0.0
 10
55.0203495241
 20
-52.7382172319
 30
0.0
 10
55.0279622421
 20
-52.6554338102
 30
0.0
 10
55.0282316124
 20
-52.611887706
 30
0.0
 11
54.8377012082
 21
-52.9945842184
 31
0.0
 11
54.9171320965
 21
-52.9381854452
 31
0.0
 11
54.977213033
 21
-52.8524795794
 31
0.0
 11
55.0148850147
 21
-52.7418449683
 31
0.0
 11
55.0282316124
 21
-52.611887706
 31
0.0
  0
SPLINE
  5
496
100
AcDbEntity
  8
RACCORDO
100
AcDbSpline
 62
7
  6
CONTINUOUS
 70
0
 71
3
 72
11
 73
7
 74
5
 42
0.0000001
 43
0.0000001
 44
0.0000000001
 12
-0.0000148491
 22
-0.1443860475
 32
0.0
 13
0.1291428057
 23
-0.0645714076
 33
0.0
 40
0.0
 40
0.0
 40
0.0
 40
0.0
 40
0.206582017
 40
0.4344785876
 40
0.6975252505
 40
1.0
 40
1.0
 40
1.0
 40
1.0
 10
-61.2363076889
 20
5.3740841972
 30
0.0
 10
-61.2363087114
 20
5.3641416769
 30
0.0
 10
-61.2319103782
 20
5.3430718122
 30
0.0
 10
-61.213582254
 20
5.3143175764
 30
0.0
 10
-61.1849994126
 20
5.2885026916
 30
0.0
 10
-61.1614606055
 20
5.2745285835
 30
0.0
 10
-61.1484397929
 20
5.2680181767
 30
0.0
 11
-61.2363076889
 21
5.3740841972
 31
0.0
 11
-61.2305395729
 21
5.3448196754
 31
0.0
 11
-61.2134745074
 21
5.3166855649
 31
0.0
 11
-61.1857348422
 21
5.290743095
 31
0.0
 11
-61.1484397929
 21
5.2680181767
 31
0.0
  0
SPLINE
  5
497
100
AcDbEntity
  8
RACCORDO
100
AcDbSpline
 62
7
  6
CONTINUOUS
 70
0
 71
3
 72
11
 73
7
 74
5
 42
0.0000001
 43
0.0000001
 44
0.0000000001
 12
-0.0000143701
 22
-0.1443860402
 32
0.0
 13
0.1291428036
 23
-0.0645713953
 33
0.0
 40
0.0
 40
0.0
 40
0.0
 40
0.0
 40
0.2065819985
 40
0.434478562
 40
0.6975252468
 40
1.0
 40
1.0
 40
1.0
 40
1.0
 10
-61.2363076931
 20
49.6314703181
 30
0.0
 10
-61.2363086826
 20
49.6215277992
 30
0.0
 10
-61.2319103709
 20
49.6004579449
 30
0.0
 10
-61.2135822639
 20
49.5717036907
 30
0.0
 10
-61.1849994093
 20
49.5458888224
 30
0.0
 10
-61.1614606054
 20
49.5319147109
 30
0.0
 10
-61.1484397929
 20
49.5254043053
 30
0.0
 11
-61.2363076931
 21
49.6314703181
 31
0.0
 11
-61.2305395625
 21
49.6022058034
 31
0.0
 11
-61.2134745131
 21
49.5740716863
 31
0.0
 11
-61.1857348416
 21
49.5481292212
 31
0.0
 11
-61.1484397929
 21
49.5254043053
 31
0.0
  0
SPLINE
  5
498
100
AcDbEntity
  8
RACCORDO
100
AcDbSpline
 62
7
  6
CONTINUOUS
 70
0
 71
3
 72
11
 73
7
 74
5
 42
0.0000001
 43
0.0000001
 44
0.0000000001
 12
-0.1689815347
 22
0.0844616437
 32
0.0
 13
0.0000000046
 23
0.1889140766
 33
0.0
 40
0.0
 40
0.0
 40
0.0
 40
0.0
 40
0.2171654761
 40
0.450392866
 40
0.7103024545
 40
1.0
 40
1.0
 40
1.0
 40
1.0
 10
54.4028722658
 20
-52.9772687157
 30
0.0
 10
54.3906399474
 20
-52.9711546647
 30
0.0
 10
54.367499047
 20
-52.9535445308
 30
0.0
 10
54.3426911684
 20
-52.9155083491
 30
0.0
 10
54.3278512556
 20
-52.8679929386
 30
0.0
 10
54.3249024323
 20
-52.8332529858
 30
0.0
 10
54.3249024327
 20
-52.8150103377
 30
0.0
 11
54.4028722658
 21
-52.9772687157
 31
0.0
 11
54.370047159
 21
-52.9526595005
 31
0.0
 11
54.3453845283
 21
-52.9161487802
 31
0.0
 11
54.3300864626
 21
-52.8694922036
 31
0.0
 11
54.3249024327
 21
-52.8150103377
 31
0.0
  0
SPLINE
  5
499
100
AcDbEntity
  8
RACCORDO
100
AcDbSpline
 62
7
  6
CONTINUOUS
 70
0
 71
3
 72
11
 73
7
 74
5
 42
0.0000001
 43
0.0000001
 44
0.0000000001
 12
-0.1689813847
 22
0.0844619638
 32
0.0
 13
-0.0000000064
 23
0.1889140855
 33
0.0
 40
0.0
 40
0.0
 40
0.0
 40
0.0
 40
0.2171653099
 40
0.4503927527
 40
0.7103023951
 40
1.0
 40
1.0
 40
1.0
 40
1.0
 10
-60.7876703442
 20
4.6180025273
 30
0.0
 10
-60.7999026425
 20
4.6241165968
 30
0.0
 10
-60.8230434815
 20
4.6417267835
 30
0.0
 10
-60.8478514312
 20
4.6797629078
 30
0.0
 10
-60.8626913228
 20
4.7272783488
 30
0.0
 10
-60.8656401581
 20
4.7620183053
 30
0.0
 10
-60.8656401587
 20
4.780260958
 30
0.0
 11
-60.7876703442
 21
4.6180025273
 31
0.0
 11
-60.8204953862
 21
4.64261178
 31
0.0
 11
-60.8451580534
 21
4.6791224902
 31
0.0
 11
-60.8604561227
 21
4.7257790787
 31
0.0
 11
-60.8656401587
 21
4.780260958
 31
0.0
  0
SPLINE
  5
49A
100
AcDbEntity
  8
RACCORDO
100
AcDbSpline
 62
7
  6
CONTINUOUS
 70
0
 71
3
 72
9
 73
5
 74
3
 42
0.0000001
 43
0.0000001
 44
0.0000000001
 12
-0.1260316343
 22
-0.0657101216
 32
0.0
 13
-0.1032641788
 23
-0.0976642324
 33
0.0
 40
0.0
 40
0.0
 40
0.0
 40
0.0
 40
0.2371046482
 40
1.0
 40
1.0
 40
1.0
 40
1.0
 10
-57.303881833
 20
7.4476025389
 30
0.0
 10
-57.3138427284
 20
7.4424091472
 30
0.0
 10
-57.3549574469
 20
7.4187956583
 30
0.0
 10
-57.3923739362
 20
7.3890144787
 30
0.0
 10
-57.4186338568
 20
7.3641786157
 30
0.0
 11
-57.303881833
 21
7.4476025389
 31
0.0
 11
-57.3331318008
 21
7.4308646722
 31
0.0
 11
-57.4186338568
 21
7.3641786157
 31
0.0
  0
SPLINE
  5
49B
100
AcDbEntity
  8
RACCORDO
100
AcDbSpline
 62
7
  6
CONTINUOUS
 70
0
 71
3
 72
9
 73
5
 74
3
 42
0.0000001
 43
0.0000001
 44
0.0000000001
 12
-0.1370525478
 22
-0.0578461103
 32
0.0
 13
-0.1164649463
 23
-0.0925499304
 33
0.0
 40
0.0
 40
0.0
 40
0.0
 40
0.0
 40
0.2394545677
 40
1.0
 40
1.0
 40
1.0
 40
1.0
 10
-57.3106063135
 20
7.4519684477
 30
0.0
 10
-57.3215455997
 20
7.4473512759
 30
0.0
 10
-57.3664747083
 20
7.4262941496
 30
0.0
 10
-57.4082123339
 20
7.3986917098
 30
0.0
 10
-57.4377379615
 20
7.3752289008
 30
0.0
 11
-57.3106063135
 21
7.4519684477
 31
0.0
 11
-57.3428795654
 21
7.4368915273
 31
0.0
 11
-57.4377379615
 21
7.3752289008
 31
0.0
  0
SPLINE
  5
49C
100
AcDbEntity
  8
RACCORDO
100
AcDbSpline
 62
7
  6
CONTINUOUS
 70
0
 71
3
 72
9
 73
5
 74
3
 42
0.0000001
 43
0.0000001
 44
0.0000000001
 12
-0.0583436283
 22
-0.0361513484
 32
0.0
 13
-0.062114807
 23
-0.0292001664
 33
0.0
 40
0.0
 40
0.0
 40
0.0
 40
0.0
 40
0.2435094818
 40
1.0
 40
1.0
 40
1.0
 40
1.0
 10
-57.5473712915
 20
7.7929665594
 30
0.0
 10
-57.5521070337
 20
7.7900321607
 30
0.0
 10
-57.5717425262
 20
7.77828583
 30
0.0
 10
-57.592083335
 20
7.7677296654
 30
0.0
 10
-57.6077464225
 20
7.7603664491
 30
0.0
 11
-57.5473712915
 21
7.7929665594
 31
0.0
 11
-57.5617117139
 21
7.784382048
 31
0.0
 11
-57.6077464225
 21
7.7603664491
 31
0.0
  0
SPLINE
  5
49D
100
AcDbEntity
  8
RACCORDO
100
AcDbSpline
 62
7
  6
CONTINUOUS
 70
0
 71
3
 72
9
 73
5
 74
3
 42
0.0000001
 43
0.0000001
 44
0.0000000001
 12
-0.0589857491
 22
-0.0284808424
 32
0.0
 13
-0.0618223297
 23
-0.0216443185
 33
0.0
 40
0.0
 40
0.0
 40
0.0
 40
0.0
 40
0.2421760494
 40
1.0
 40
1.0
 40
1.0
 40
1.0
 10
-57.5478630231
 20
7.7973567974
 30
0.0
 10
-57.5526246683
 20
7.7950576714
 30
0.0
 10
-57.5724339043
 20
7.7858704598
 30
0.0
 10
-57.5927871761
 20
7.777871264
 30
0.0
 10
-57.6084039901
 20
7.7724037364
 30
0.0
 11
-57.5478630231
 21
7.7973567974
 31
0.0
 11
-57.5622512206
 21
7.7906775024
 31
0.0
 11
-57.6084039901
 21
7.7724037364
 31
0.0
  0
SPLINE
  5
49E
100
AcDbEntity
  8
0
100
AcDbSpline
 62
7
  6
CONTINUOUS
 70
0
 71
3
 72
9
 73
5
 74
3
 42
0.0000001
 43
0.0000001
 44
0.0000000001
 12
-0.1087199623
 22
0.5446236221
 32
0.0
 13
-0.1090135263
 23
0.5445649374
 33
0.0
 40
0.0
 40
0.0
 40
0.0
 40
0.0
 40
0.4998343578
 40
1.0
 40
1.0
 40
1.0
 40
1.0
 10
-0.4172798812
 20
-25.3254655464
 30
0.0
 10
-0.435393872
 20
-25.2347250136
 30
0.0
 10
-0.4697952396
 20
-25.0528230695
 30
0.0
 10
-0.5050594423
 20
-24.8710882755
 30
0.0
 10
-0.5232343825
 20
-24.780297385
 30
0.0
 11
-0.4172798812
 21
-25.3254655464
 31
0.0
 11
-0.4699994088
 21
-25.0529250906
 31
0.0
 11
-0.5232343825
 21
-24.780297385
 31
0.0
  0
SPLINE
  5
49F
100
AcDbEntity
  8
0
100
AcDbSpline
 62
7
  6
CONTINUOUS
 70
0
 71
3
 72
10
 73
6
 74
4
 42
0.0000001
 43
0.0000001
 44
0.0000000001
 12
-0.0793562898
 22
0.3964346221
 32
0.0
 13
-0.2185962821
 23
0.3401080649
 33
0.0
 40
0.0
 40
0.0
 40
0.0
 40
0.0
 40
0.2354570791
 40
0.6163653634
 40
1.0
 40
1.0
 40
1.0
 40
1.0
 10
-0.5232343825
 20
-24.780297385
 30
0.0
 10
-0.5294627159
 20
-24.7491829389
 30
0.0
 10
-0.5451604283
 20
-24.6675879116
 30
0.0
 10
-0.5804443508
 20
-24.5373875322
 30
0.0
 10
-0.6226317247
 20
-24.4421653348
 30
0.0
 10
-0.6505854264
 20
-24.3986729235
 30
0.0
 11
-0.5232343825
 21
-24.780297385
 31
0.0
 11
-0.5423389413
 21
-24.6870390135
 31
0.0
 11
-0.5841239063
 21
-24.5388152079
 31
0.0
 11
-0.6505854264
 21
-24.3986729235
 31
0.0
  0
SPLINE
  5
4A0
100
AcDbEntity
  8
0
100
AcDbSpline
 62
7
  6
CONTINUOUS
 70
0
 71
3
 72
9
 73
5
 74
3
 42
0.0000001
 43
0.0000001
 44
0.0000000001
 12
-0.0425128246
 22
0.0661445582
 32
0.0
 13
-0.0552311846
 23
0.0559639087
 33
0.0
 40
0.0
 40
0.0
 40
0.0
 40
0.0
 40
0.2563966586
 40
1.0
 40
1.0
 40
1.0
 40
1.0
 10
-0.6505854264
 20
-24.3986729235
 30
0.0
 10
-0.6542188085
 20
-24.3930198423
 30
0.0
 10
-0.6688523899
 20
-24.3712802036
 30
0.0
 10
-0.6855216924
 20
-24.350850156
 30
0.0
 10
-0.6992117235
 20
-24.3369785061
 30
0.0
 11
-0.6505854264
 21
-24.3986729235
 31
0.0
 11
-0.661856638
 21
-24.3819579924
 31
0.0
 11
-0.6992117235
 21
-24.3369785061
 31
0.0
  0
SPLINE
  5
4A1
100
AcDbEntity
  8
0
100
AcDbSpline
 62
7
  6
CONTINUOUS
 70
0
 71
3
 72
11
 73
7
 74
5
 42
0.0000001
 43
0.0000001
 44
0.0000000001
 12
-0.6333494509
 22
0.5969143223
 32
0.0
 13
-0.8289470693
 23
0.2651131674
 33
0.0
 40
0.0
 40
0.0
 40
0.0
 40
0.0
 40
0.2725542141
 40
0.5262218346
 40
0.7671916502
 40
1.0
 40
1.0
 40
1.0
 40
1.0
 10
-0.7338406658
 20
-23.3890767939
 30
0.0
 10
-0.791381353
 20
-23.3348462893
 30
0.0
 10
-0.9146197845
 20
-23.2429488243
 30
0.0
 10
-1.1098570738
 20
-23.1354083921
 30
0.0
 10
-1.3042241649
 20
-23.0524410022
 30
0.0
 10
-1.4343864319
 20
-23.0080671456
 30
0.0
 10
-1.4987150317
 20
-22.9874936259
 30
0.0
 11
-0.7338406658
 21
-23.3890767939
 31
0.0
 11
-0.9219069827
 21
-23.244515508
 31
0.0
 11
-1.1147416434
 21
-23.1370265784
 31
0.0
 11
-1.3073291068
 21
-23.0540095931
 31
0.0
 11
-1.4987150317
 21
-22.9874936259
 31
0.0
  0
SPLINE
  5
4A2
100
AcDbEntity
  8
RACCORDO
100
AcDbSpline
 62
7
  6
CONTINUOUS
 70
0
 71
3
 72
11
 73
7
 74
5
 42
0.0000001
 43
0.0000001
 44
0.0000000001
 12
-0.1291421879
 22
0.0645710939
 32
0.0
 13
-0.0000855061
 23
0.1443853301
 33
0.0
 40
0.0
 40
0.0
 40
0.0
 40
0.0
 40
0.3024155031
 40
0.5655309297
 40
0.7934236663
 40
1.0
 40
1.0
 40
1.0
 40
1.0
 10
52.9601882923
 20
-9.7616956057
 30
0.0
 10
52.9471700924
 20
-9.7551865057
 30
0.0
 10
52.9236331642
 20
-9.7412084447
 30
0.0
 10
52.8950473612
 20
-9.7153993872
 30
0.0
 10
52.8767107453
 20
-9.686642344
 30
0.0
 10
52.8723303056
 20
-9.6655717853
 30
0.0
 10
52.8723244178
 20
-9.6556295879
 30
0.0
 11
52.9601882923
 21
-9.7616956057
 31
0.0
 11
52.9229016385
 21
-9.7389737518
 31
0.0
 11
52.895151995
 21
-9.7130276832
 31
0.0
 11
52.8780873524
 21
-9.6848941483
 31
0.0
 11
52.8723244178
 21
-9.6556295879
 31
0.0
  0
SPLINE
  5
4A3
100
AcDbEntity
  8
RACCORDO
100
AcDbSpline
 62
7
  6
CONTINUOUS
 70
0
 71
3
 72
11
 73
7
 74
5
 42
0.0000001
 43
0.0000001
 44
0.0000000001
 12
0.0000001773
 22
-0.1889139979
 32
0.0
 13
0.1689716344
 23
-0.0844812721
 33
0.0
 40
0.0
 40
0.0
 40
0.0
 40
0.0
 40
0.2895956949
 40
0.5496519097
 40
0.7828349621
 40
1.0
 40
1.0
 40
1.0
 40
1.0
 10
52.5549655206
 20
-9.0389623503
 30
0.0
 10
52.5549655377
 20
-9.0571985771
 30
0.0
 10
52.5579233092
 20
-9.0919400678
 30
0.0
 10
52.5727544253
 20
-9.1394576884
 30
0.0
 10
52.5975629579
 20
-9.177501854
 30
0.0
 10
52.6207014624
 20
-9.1951100649
 30
0.0
 10
52.6329330395
 20
-9.2012255244
 30
0.0
 11
52.5549655206
 21
-9.0389623503
 31
0.0
 11
52.5601518896
 21
-9.0934246427
 31
0.0
 11
52.5754540995
 21
-9.1401089894
 31
0.0
 11
52.6001093811
 21
-9.1766145438
 31
0.0
 11
52.6329330395
 21
-9.2012255244
 31
0.0
  0
SPLINE
  5
4A4
100
AcDbEntity
  8
RACCORDO
100
AcDbSpline
 62
7
  6
CONTINUOUS
 70
0
 71
3
 72
11
 73
7
 74
5
 42
0.0000001
 43
0.0000001
 44
0.0000000001
 12
0.0
 22
-0.1889072127
 32
0.0
 13
0.1689603998
 23
-0.0844885691
 33
0.0
 40
0.0
 40
0.0
 40
0.0
 40
0.0
 40
0.2895944377
 40
0.5496508871
 40
0.7828349153
 40
1.0
 40
1.0
 40
1.0
 40
1.0
 10
-59.0957032465
 20
46.7863720333
 30
0.0
 10
-59.0957032465
 20
46.7681365406
 30
0.0
 10
-59.0927457266
 20
46.7333963724
 30
0.0
 10
-59.0779158533
 20
46.6858802949
 30
0.0
 10
-59.0531094028
 20
46.6478367298
 30
0.0
 10
-59.0299726713
 20
46.6302279368
 30
0.0
 10
-59.0177419048
 20
46.6241119478
 30
0.0
 11
-59.0957032465
 21
46.7863720333
 31
0.0
 11
-59.0905173553
 21
46.7319119078
 31
0.0
 11
-59.07521643
 21
46.6852289503
 31
0.0
 11
-59.0505631111
 21
46.6487237572
 31
0.0
 11
-59.0177419048
 21
46.6241119478
 31
0.0
  0
SPLINE
  5
4A5
100
AcDbEntity
  8
RACCORDO
100
AcDbSpline
 62
7
  6
CONTINUOUS
 70
0
 71
3
 72
11
 73
7
 74
5
 42
0.0000001
 43
0.0000001
 44
0.0000000001
 12
0.3513444201
 22
-0.1756719836
 32
0.0
 13
0.3707496947
 23
0.1298006597
 33
0.0
 40
0.0
 40
0.0
 40
0.0
 40
0.0
 40
0.2302219959
 40
0.4886887336
 40
0.7531431025
 40
1.0
 40
1.0
 40
1.0
 40
1.0
 10
-59.5009260183
 20
46.4688615496
 30
0.0
 10
-59.4739636138
 20
46.4553803648
 30
0.0
 10
-59.412538603
 20
46.43511539
 30
0.0
 10
-59.3142794511
 20
46.4225781316
 30
0.0
 10
-59.2131228379
 20
46.4267858271
 30
0.0
 10
-59.1472284262
 20
46.4413740308
 30
0.0
 10
-59.116721053
 20
46.4520547602
 30
0.0
 11
-59.5009260183
 21
46.4688615496
 31
0.0
 11
-59.4155712317
 21
46.438978731
 31
0.0
 11
-59.3149399459
 21
46.425502782
 31
0.0
 11
-59.211157321
 21
46.43003678
 31
0.0
 11
-59.116721053
 21
46.4520547602
 31
0.0
  0
SPLINE
  5
4A6
100
AcDbEntity
  8
RACCORDO
100
AcDbSpline
 62
7
  6
CONTINUOUS
 70
0
 71
3
 72
11
 73
7
 74
5
 42
0.0000001
 43
0.0000001
 44
0.0000000001
 12
0.3513443496
 22
-0.1756721748
 32
0.0
 13
0.3707496516
 23
0.1298008504
 33
0.0
 40
0.0
 40
0.0
 40
0.0
 40
0.0
 40
0.2302220207
 40
0.4886887503
 40
0.7531431026
 40
1.0
 40
1.0
 40
1.0
 40
1.0
 10
-59.5009260183
 20
6.6770471578
 30
0.0
 10
-59.4739636163
 20
6.6635659568
 30
0.0
 10
-59.4125386059
 20
6.6433009571
 30
0.0
 10
-59.3142794484
 20
6.6307636867
 30
0.0
 10
-59.213122832
 20
6.6349713953
 30
0.0
 10
-59.1472284226
 20
6.6495596233
 30
0.0
 10
-59.116721053
 20
6.6602403683
 30
0.0
 11
-59.5009260183
 21
6.6770471578
 31
0.0
 11
-59.4155712288
 21
6.6471643023
 31
0.0
 11
-59.314939942
 21
6.6336883412
 31
0.0
 11
-59.2111573183
 21
6.6382223524
 31
0.0
 11
-59.116721053
 21
6.6602403683
 31
0.0
  0
SPLINE
  5
4A7
100
AcDbEntity
  8
RACCORDO
100
AcDbSpline
 62
7
  6
CONTINUOUS
 70
0
 71
3
 72
9
 73
5
 74
3
 42
0.0000001
 43
0.0000001
 44
0.0000000001
 12
-0.0000003285
 22
0.3499495217
 32
0.0
 13
0.2542497459
 23
0.240461503
 33
0.0
 40
0.0
 40
0.0
 40
0.0
 40
0.0
 40
0.4929880511
 40
1.0
 40
1.0
 40
1.0
 40
1.0
 10
-59.0957032465
 20
5.9543139024
 30
0.0
 10
-59.0957033005
 20
6.01182088
 30
0.0
 10
-59.0659295746
 20
6.1283461845
 30
0.0
 10
-58.9990938607
 20
6.2276035578
 30
0.0
 10
-58.956124641
 20
6.2682425096
 30
0.0
 11
-59.0957032465
 21
5.9543139024
 31
0.0
 11
-59.0573396758
 21
6.1225152955
 31
0.0
 11
-58.956124641
 21
6.2682425096
 31
0.0
  0
SPLINE
  5
4A8
100
AcDbEntity
  8
RACCORDO
100
AcDbSpline
 62
7
  6
CONTINUOUS
 70
0
 71
3
 72
9
 73
5
 74
3
 42
0.0000001
 43
0.0000001
 44
0.0000000001
 12
0.0
 22
0.3499494896
 32
0.0
 13
0.2542494972
 23
0.2404617193
 33
0.0
 40
0.0
 40
0.0
 40
0.0
 40
0.0
 40
0.4929880284
 40
1.0
 40
1.0
 40
1.0
 40
1.0
 10
52.5549655206
 20
-49.8710204811
 30
0.0
 10
52.5549655206
 20
-49.8135135115
 30
0.0
 10
52.5847392977
 20
-49.6969882491
 30
0.0
 10
52.6515749465
 20
-49.5977308641
 30
0.0
 10
52.6945441261
 20
-49.557091874
 30
0.0
 11
52.5549655206
 21
-49.8710204811
 31
0.0
 11
52.5933291653
 21
-49.7028191293
 31
0.0
 11
52.6945441261
 21
-49.557091874
 31
0.0
  0
SPLINE
  5
4A9
100
AcDbEntity
  8
RACCORDO
100
AcDbSpline
 62
7
  6
CONTINUOUS
 70
0
 71
3
 72
11
 73
7
 74
5
 42
0.0000001
 43
0.0000001
 44
0.0000000001
 12
-0.1290908108
 22
0.0645453496
 32
0.0
 13
-0.00019756
 23
0.144327754
 33
0.0
 40
0.0
 40
0.0
 40
0.0
 40
0.0
 40
0.3023961853
 40
0.5655155062
 40
0.7934233996
 40
1.0
 40
1.0
 40
1.0
 40
1.0
 10
52.9601882923
 20
-49.5535099975
 30
0.0
 10
52.9471761027
 20
-49.5470039084
 30
0.0
 10
52.9236488876
 20
-49.5330326148
 30
0.0
 10
52.8950708625
 20
-49.5072385025
 30
0.0
 10
52.8767309942
 20
-49.4784996556
 30
0.0
 10
52.8723380786
 20
-49.4574405376
 30
0.0
 10
52.8723244749
 20
-49.447502292
 30
0.0
 11
52.9601882923
 21
-49.5535099975
 31
0.0
 11
52.9229178565
 21
-49.5308002842
 31
0.0
 11
52.895174299
 21
-49.5048690233
 31
0.0
 11
52.8781043952
 21
-49.476751441
 31
0.0
 11
52.8723244749
 21
-49.447502292
 31
0.0
  0
SPLINE
  5
4AA
100
AcDbEntity
  8
RACCORDO
100
AcDbSpline
 62
7
  6
CONTINUOUS
 70
0
 71
3
 72
13
 73
9
 74
7
 42
0.0000001
 43
0.0000001
 44
0.0000000001
 12
-0.0675117516
 22
0.2266720263
 32
0.0
 13
0.2364132799
 23
-0.0068414324
 33
0.0
 40
0.0
 40
0.0
 40
0.0
 40
0.0
 40
0.2946322964
 40
0.424786959
 40
0.5434979225
 40
0.6533859179
 40
0.7606377002
 40
1.0
 40
1.0
 40
1.0
 40
1.0
 10
-59.1167210087
 20
46.4520545921
 30
0.0
 10
-59.1233513895
 20
46.4743162253
 30
0.0
 10
-59.1303633204
 20
46.5075127779
 30
0.0
 10
-59.1295706822
 20
46.5505390284
 30
0.0
 10
-59.1234482205
 20
46.5784068295
 30
0.0
 10
-59.1109256215
 20
46.6022050108
 30
0.0
 10
-59.0839504221
 20
46.627174172
 30
0.0
 10
-59.0547574307
 20
46.6324845602
 30
0.0
 10
-59.0358946219
 20
46.6319386999
 30
0.0
 11
-59.1167210087
 21
46.4520545921
 31
0.0
 11
-59.1294069997
 21
46.5205742681
 31
0.0
 11
-59.1284915917
 21
46.5513438263
 31
0.0
 11
-59.1220511418
 21
46.578671759
 31
0.0
 11
-59.1096147352
 21
46.6014929871
 31
0.0
 11
-59.0909229208
 21
46.6186414071
 31
0.0
 11
-59.0358946219
 21
46.6319386999
 31
0.0
  0
SPLINE
  5
4AB
100
AcDbEntity
  8
RACCORDO
100
AcDbSpline
 62
7
  6
CONTINUOUS
 70
0
 71
3
 72
12
 73
8
 74
6
 42
0.0000001
 43
0.0000001
 44
0.0000000001
 12
-0.4414968034
 22
0.1386983573
 32
0.0
 13
0.110733468
 23
0.4493270087
 33
0.0
 40
0.0
 40
0.0
 40
0.0
 40
0.0
 40
0.1130788011
 40
0.2327128814
 40
0.4870650354
 40
0.7477061619
 40
1.0
 40
1.0
 40
1.0
 40
1.0
 10
-58.9561152492
 20
6.2682388825
 30
0.0
 10
-58.972756559
 20
6.2734668305
 30
0.0
 10
-59.005742682
 20
6.2887581549
 30
0.0
 10
-59.0643919286
 20
6.3368285013
 30
0.0
 10
-59.1151855152
 20
6.4243340226
 30
0.0
 10
-59.1351234169
 20
6.5427767474
 30
0.0
 10
-59.1260334621
 20
6.6224531062
 30
0.0
 10
-59.1167210049
 20
6.6602405848
 30
0.0
 11
-58.9561152492
 21
6.2682388825
 31
0.0
 11
-59.0036413498
 21
6.2901398285
 31
0.0
 11
-59.0466248407
 21
6.3250324741
 31
0.0
 11
-59.107891997
 21
6.4255372237
 31
0.0
 11
-59.129551788
 21
6.5441935704
 31
0.0
 11
-59.1167210049
 21
6.6602405848
 31
0.0
  0
SPLINE
  5
4AC
100
AcDbEntity
  8
RACCORDO
100
AcDbSpline
 62
7
  6
CONTINUOUS
 70
0
 71
3
 72
11
 73
7
 74
5
 42
0.0000001
 43
0.0000001
 44
0.0000000001
 12
-0.0842364438
 22
-0.4358691232
 32
0.0
 13
0.392815761
 23
-0.206817429
 33
0.0
 40
0.0
 40
0.0
 40
0.0
 40
0.0
 40
0.2513544077
 40
0.4490547015
 40
0.6471862803
 40
1.0
 40
1.0
 40
1.0
 40
1.0
 10
-57.6077461266
 20
7.7603662379
 30
0.0
 10
-57.6148038604
 20
7.7238470295
 30
0.0
 10
-57.6146388362
 20
7.6559555444
 30
0.0
 10
-57.591135647
 20
7.5624902729
 30
0.0
 10
-57.5431100553
 20
7.4624566573
 30
0.0
 10
-57.483942398
 20
7.3995567622
 30
0.0
 10
-57.4377454681
 20
7.3752340868
 30
0.0
 11
-57.6077461266
 21
7.7603662379
 31
0.0
 11
-57.6095614065
 21
7.6487961591
 31
0.0
 11
-57.5884029112
 21
7.5636188212
 31
0.0
 11
-57.5499517457
 21
7.4845112168
 31
0.0
 11
-57.4377454681
 21
7.3752340868
 31
0.0
  0
SPLINE
  5
4AD
100
AcDbEntity
  8
RACCORDO
100
AcDbSpline
 62
7
  6
CONTINUOUS
 70
0
 71
3
 72
12
 73
8
 74
6
 42
0.0000001
 43
0.0000001
 44
0.0000000001
 12
0.1085217983
 22
-0.4044988893
 32
0.0
 13
0.3126372022
 23
-0.2786652328
 33
0.0
 40
0.0
 40
0.0
 40
0.0
 40
0.0
 40
0.1121992588
 40
0.2350803539
 40
0.5040553405
 40
0.7738486873
 40
1.0
 40
1.0
 40
1.0
 40
1.0
 10
-57.5473709284
 20
7.7929663795
 30
0.0
 10
-57.54331224
 20
7.777838221
 30
0.0
 10
-57.5313560248
 20
7.7470970296
 30
0.0
 10
-57.4991250334
 20
7.6845118213
 30
0.0
 10
-57.4484898027
 20
7.6069585824
 30
0.0
 10
-57.3821209599
 20
7.5232057155
 30
0.0
 10
-57.3341740872
 20
7.4729751143
 30
0.0
 10
-57.3106063159
 20
7.4519682782
 30
0.0
 11
-57.5473709284
 21
7.7929663795
 31
0.0
 11
-57.5311986902
 21
7.7488476091
 31
0.0
 11
-57.507981801
 21
7.7029191953
 31
0.0
 11
-57.4471777762
 21
7.6080911175
 31
0.0
 11
-57.3768795535
 21
7.5196321608
 31
0.0
 11
-57.3106063159
 21
7.4519682782
 31
0.0
  0
SPLINE
  5
4AE
100
AcDbEntity
  8
RACCORDO
100
AcDbSpline
 62
7
  6
CONTINUOUS
 70
0
 71
3
 72
8
 73
4
 74
2
 42
0.0000001
 43
0.0000001
 44
0.0000000001
 12
0.0059833559
 22
-0.0053364598
 32
0.0
 13
0.0072501747
 23
-0.0034224724
 33
0.0
 40
0.0
 40
0.0
 40
0.0
 40
0.0
 40
1.0
 40
1.0
 40
1.0
 40
1.0
 10
-57.3106063159
 20
7.4519682782
 30
0.0
 10
-57.308611864
 20
7.4501894583
 30
0.0
 10
-57.3062985579
 20
7.4487433631
 30
0.0
 10
-57.303881833
 20
7.4476025389
 30
0.0
 11
-57.3106063159
 21
7.4519682782
 31
0.0
 11
-57.303881833
 21
7.4476025389
 31
0.0
  0
SPLINE
  5
4AF
100
AcDbEntity
  8
RACCORDO
100
AcDbSpline
 62
7
  6
CONTINUOUS
 70
0
 71
3
 72
8
 73
4
 74
2
 42
0.0000001
 43
0.0000001
 44
0.0000000001
 12
-0.0001031589
 22
-0.0044167052
 32
0.0
 13
0.001129886
 23
-0.0042709816
 33
0.0
 40
0.0
 40
0.0
 40
0.0
 40
0.0
 40
1.0
 40
1.0
 40
1.0
 40
1.0
 10
-57.5478630231
 20
7.7973567974
 30
0.0
 10
-57.5478974094
 20
7.7958845623
 30
0.0
 10
-57.5477475571
 20
7.79439004
 30
0.0
 10
-57.5473709284
 20
7.7929663795
 30
0.0
 11
-57.5478630231
 21
7.7973567974
 31
0.0
 11
-57.5473709284
 21
7.7929663795
 31
0.0
  0
SPLINE
  5
4B0
100
AcDbEntity
  8
RACCORDO
100
AcDbSpline
 62
7
  6
CONTINUOUS
 70
0
 71
3
 72
11
 73
7
 74
5
 42
0.0000001
 43
0.0000001
 44
0.0000000001
 12
-0.0064027649
 22
1.0264962597
 32
0.0
 13
-0.9153126615
 23
0.4646916164
 33
0.0
 40
0.0
 40
0.0
 40
0.0
 40
0.0
 40
0.246670931
 40
0.5119111179
 40
0.7706382137
 40
1.0
 40
1.0
 40
1.0
 40
1.0
 10
55.0282316124
 20
-8.3545015775
 30
0.0
 10
55.0277051537
 20
-8.2700993148
 30
0.0
 10
54.9976932139
 20
-8.0948404965
 30
0.0
 10
54.8917447736
 20
-7.8510101379
 30
0.0
 10
54.7370016102
 20
-7.6421629833
 30
0.0
 10
54.6033115016
 20
-7.5364539446
 30
0.0
 10
54.5333322526
 20
-7.5009264448
 30
0.0
 11
55.0282316124
 21
-8.3545015775
 31
0.0
 11
54.9894091485
 21
-8.1042836959
 31
0.0
 11
54.8817283417
 21
-7.8542084586
 31
0.0
 11
54.721576057
 21
-7.6423405774
 31
0.0
 11
54.5333322526
 21
-7.5009264448
 31
0.0
  0
SPLINE
  5
4B1
100
AcDbEntity
  8
RACCORDO
100
AcDbSpline
 62
7
  6
CONTINUOUS
 70
0
 71
3
 72
11
 73
7
 74
5
 42
0.0000001
 43
0.0000001
 44
0.0000000001
 12
-0.299681524
 22
0.1475650771
 32
0.0
 13
-0.2939897456
 23
-0.1586016938
 33
0.0
 40
0.0
 40
0.0
 40
0.0
 40
0.0
 40
0.2798231701
 40
0.5359571054
 40
0.7731397735
 40
1.0
 40
1.0
 40
1.0
 40
1.0
 10
-60.6572103388
 20
50.0943448509
 30
0.0
 10
-60.6851629502
 20
50.1081088935
 30
0.0
 10
-60.7410232271
 20
50.1302032062
 30
0.0
 10
-60.8265057785
 20
50.1451880549
 30
0.0
 10
-60.9073837927
 20
50.1395958354
 30
0.0
 10
-60.9567309521
 20
50.1216575641
 30
0.0
 10
-60.9789624789
 20
50.1096640921
 30
0.0
 11
-60.6572103388
 21
50.0943448509
 31
0.0
 11
-60.7444185169
 21
50.1279887183
 31
0.0
 11
-60.8288322036
 21
50.1419451889
 31
0.0
 11
-60.9078203628
 21
50.1357707331
 31
0.0
 11
-60.9789624789
 21
50.1096640921
 31
0.0
  0
SPLINE
  5
4B2
100
AcDbEntity
  8
RACCORDO
100
AcDbSpline
 62
7
  6
CONTINUOUS
 70
0
 71
3
 72
11
 73
7
 74
5
 42
0.0000001
 43
0.0000001
 44
0.0000000001
 12
-0.3862036919
 22
-0.2022094734
 32
0.0
 13
0.0000000146
 23
-0.4359380263
 33
0.0
 40
0.0
 40
0.0
 40
0.0
 40
0.0
 40
0.2308407491
 40
0.4894506686
 40
0.7538191199
 40
1.0
 40
1.0
 40
1.0
 40
1.0
 10
54.5329506173
 20
-7.5011258417
 30
0.0
 10
54.5032334341
 20
-7.5166852371
 30
0.0
 10
54.4466652665
 20
-7.5620796849
 30
0.0
 10
54.3813897786
 20
-7.6511962257
 30
0.0
 10
54.337099004
 20
-7.7548193781
 30
0.0
 10
54.3249024315
 20
-7.8291362035
 30
0.0
 10
54.3249024327
 20
-7.8649094059
 30
0.0
 11
54.5329506173
 21
-7.5011258417
 31
0.0
 11
54.4530299851
 21
-7.5622776562
 31
0.0
 11
54.3855982191
 21
-7.6526258192
 31
0.0
 11
54.3406642119
 21
-7.7587535565
 31
0.0
 11
54.3249024327
 21
-7.8649094059
 31
0.0
  0
SPLINE
  5
4B3
100
AcDbEntity
  8
RACCORDO
100
AcDbSpline
 62
7
  6
CONTINUOUS
 70
0
 71
3
 72
11
 73
7
 74
5
 42
0.0000001
 43
0.0000001
 44
0.0000000001
 12
-0.3869302045
 22
-0.2017369093
 32
0.0
 13
-0.0000000106
 23
-0.43636311
 33
0.0
 40
0.0
 40
0.0
 40
0.0
 40
0.0
 40
0.2307390512
 40
0.4893391875
 40
0.7537623063
 40
1.0
 40
1.0
 40
1.0
 40
1.0
 10
-60.6572103386
 20
50.0943448508
 30
0.0
 10
-60.686970308
 20
50.0788286564
 30
0.0
 10
-60.743638322
 20
50.0334608692
 30
0.0
 10
-60.8090324469
 20
49.9443054978
 30
0.0
 10
-60.8534150003
 20
49.8405837766
 30
0.0
 10
-60.8656401578
 20
49.7661782384
 30
0.0
 10
-60.8656401587
 20
49.7303618898
 30
0.0
 11
-60.6572103386
 21
50.0943448508
 31
0.0
 11
-60.737251393
 21
50.0332621019
 31
0.0
 11
-60.8048113924
 21
49.9428778364
 31
0.0
 11
-60.8498424566
 21
49.8366432619
 31
0.0
 11
-60.8656401587
 21
49.7303618898
 31
0.0
  0
SPLINE
  5
4B4
100
AcDbEntity
  8
RACCORDO
100
AcDbSpline
 62
7
  6
CONTINUOUS
 70
0
 71
3
 72
11
 73
7
 74
5
 42
0.0000001
 43
0.0000001
 44
0.0000000001
 12
-0.3888888757
 22
-0.1877728259
 32
0.0
 13
-0.3862571023
 23
0.1931285652
 33
0.0
 40
0.0
 40
0.0
 40
0.0
 40
0.0
 40
0.236631889
 40
0.5012536727
 40
0.7652017156
 40
1.0
 40
1.0
 40
1.0
 40
1.0
 10
55.0282316124
 20
-8.3545015778
 30
0.0
 10
54.9975571093
 20
-8.3693125906
 30
0.0
 10
54.9275981672
 20
-8.3903658571
 30
0.0
 10
54.8172979356
 20
-8.400128183
 30
0.0
 10
54.707350272
 20
-8.3894582462
 30
0.0
 10
54.6379329019
 20
-8.3677820432
 30
0.0
 10
54.6077020669
 20
-8.3526666246
 30
0.0
 11
55.0282316124
 21
-8.3545015778
 31
0.0
 11
54.9309933257
 21
-8.3859234931
 31
0.0
 11
54.8172161366
 21
-8.3965948992
 31
0.0
 11
54.7038287607
 21
-8.3849322737
 31
0.0
 11
54.6077020669
 21
-8.3526666246
 31
0.0
  0
SPLINE
  5
4B5
100
AcDbEntity
  8
RACCORDO
100
AcDbSpline
 62
7
  6
CONTINUOUS
 70
0
 71
3
 72
11
 73
7
 74
5
 42
0.0000001
 43
0.0000001
 44
0.0000000001
 12
-0.388767542
 22
-0.1870394454
 32
0.0
 13
-0.3858745531
 23
0.1929372569
 33
0.0
 40
0.0
 40
0.0
 40
0.0
 40
0.0
 40
0.2367532785
 40
0.5013779545
 40
0.765259998
 40
1.0
 40
1.0
 40
1.0
 40
1.0
 10
55.0278429757
 20
-52.6120750194
 30
0.0
 10
54.9971623124
 20
-52.6268357534
 30
0.0
 10
54.9272414244
 20
-52.647810439
 30
0.0
 10
54.8170378231
 20
-52.6575056297
 30
0.0
 10
54.7072212138
 20
-52.6468107595
 30
0.0
 10
54.6378954648
 20
-52.6251494506
 30
0.0
 10
54.607702067
 20
-52.6100527532
 30
0.0
 11
55.0278429757
 21
-52.6120750194
 31
0.0
 11
54.9306195579
 21
-52.6433839379
 31
0.0
 11
54.8169477282
 21
-52.6539797882
 31
0.0
 11
54.7037050164
 21
-52.6422924426
 31
0.0
 11
54.607702067
 21
-52.6100527532
 31
0.0
  0
SPLINE
  5
4B6
100
AcDbEntity
  8
RACCORDO
100
AcDbSpline
 62
7
  6
CONTINUOUS
 70
0
 71
3
 72
15
 73
11
 74
9
 42
0.0000001
 43
0.0000001
 44
0.0000000001
 12
-0.0000005386
 22
0.4335126965
 32
0.0
 13
0.3877521025
 23
-0.1938596529
 33
0.0
 40
0.0
 40
0.0
 40
0.0
 40
0.0
 40
0.1483180457
 40
0.2831791256
 40
0.4055265112
 40
0.5187913057
 40
0.628751172
 40
0.742181094
 40
0.8648057621
 40
1.0
 40
1.0
 40
1.0
 40
1.0
 10
-61.1484397929
 20
49.5293073453
 30
0.0
 10
-61.1484398195
 20
49.5507399306
 30
0.0
 10
-61.1446329733
 20
49.5917449889
 30
0.0
 10
-61.1287294136
 20
49.6485446497
 30
0.0
 10
-61.1024269135
 20
49.6958642202
 30
0.0
 10
-61.0664171974
 20
49.7315676481
 30
0.0
 10
-61.022038813
 20
49.7535296894
 30
0.0
 10
-60.9717485517
 20
49.7605382384
 30
0.0
 10
-60.9180849315
 20
49.7528267995
 30
0.0
 10
-60.8831141087
 20
49.7390981258
 30
0.0
 10
-60.8656401587
 20
49.7303618898
 30
0.0
 11
-61.1484397929
 21
49.5293073453
 31
0.0
 11
-61.1424498768
 21
49.5933254859
 31
0.0
 11
-61.125991465
 21
49.64942503
 31
0.0
 11
-61.0996724256
 21
49.6954734727
 31
0.0
 11
-61.0644855539
 21
49.7297205689
 31
0.0
 11
-61.021764471
 21
49.7508686767
 31
0.0
 11
-60.9731281298
 21
49.7581158048
 31
0.0
 11
-60.9204213858
 21
49.7511936899
 31
0.0
 11
-60.8656401587
 21
49.7303618898
 31
0.0
  0
SPLINE
  5
4B7
100
AcDbEntity
  8
IMPORT_IGES
100
AcDbSpline
 62
7
  6
CONTINUOUS
 70
0
 71
3
 72
8
 73
4
 74
2
 42
0.0000001
 43
0.0000001
 44
0.0000000001
 12
-0.0588607447
 22
0.0129653963
 32
0.0
 13
-0.059405601
 23
0.0251265302
 33
0.0
 40
0.0
 40
0.0
 40
0.0
 40
0.0
 40
1.0
 40
1.0
 40
1.0
 40
1.0
 10
-0.9443569143
 20
-24.0412701183
 30
0.0
 10
-0.9639771625
 20
-24.0369483195
 30
0.0
 10
-0.9841835245
 20
-24.0300078073
 30
0.0
 10
-1.0039853915
 20
-24.0216322972
 30
0.0
 11
-0.9443569143
 21
-24.0412701183
 31
0.0
 11
-1.0039853915
 21
-24.0216322972
 31
0.0
  0
SPLINE
  5
4B8
100
AcDbEntity
  8
IMPORT_IGES
100
AcDbSpline
 62
7
  6
CONTINUOUS
 70
0
 71
3
 72
9
 73
5
 74
3
 42
0.0000001
 43
0.0000001
 44
0.0000000001
 12
-0.0719484215
 22
0.3594276568
 32
0.0
 13
-0.1990361688
 23
0.332124161
 33
0.0
 40
0.0
 40
0.0
 40
0.0
 40
0.0
 40
0.3064912004
 40
1.0
 40
1.0
 40
1.0
 40
1.0
 10
-0.5232343825
 20
-24.780297385
 30
0.0
 10
-0.5305849018
 20
-24.7435769137
 30
0.0
 10
-0.5528150091
 20
-24.6268096034
 30
0.0
 10
-0.5964039533
 20
-24.4886173981
 30
0.0
 10
-0.6424150648
 20
-24.4118403887
 30
0.0
 11
-0.5232343825
 21
-24.780297385
 31
0.0
 11
-0.5462179483
 21
-24.6699880202
 31
0.0
 11
-0.6424150648
 21
-24.4118403887
 31
0.0
  0
SPLINE
  5
4B9
100
AcDbEntity
  8
IMPORT_IGES
100
AcDbSpline
 62
7
  6
CONTINUOUS
 70
0
 71
3
 72
8
 73
4
 74
2
 42
0.0000001
 43
0.0000001
 44
0.0000000001
 12
-0.0523574717
 22
0.0873669417
 32
0.0
 13
-0.0668832013
 23
0.0661051502
 33
0.0
 40
0.0
 40
0.0
 40
0.0
 40
0.0
 40
1.0
 40
1.0
 40
1.0
 40
1.0
 10
-0.6424150648
 20
-24.4118403887
 30
0.0
 10
-0.6598675553
 20
-24.3827180747
 30
0.0
 10
-0.6795906728
 20
-24.3563381159
 30
0.0
 10
-0.7018850732
 20
-24.3343030658
 30
0.0
 11
-0.6424150648
 21
-24.4118403887
 31
0.0
 11
-0.7018850732
 21
-24.3343030658
 31
0.0
  0
SPLINE
  5
4BA
100
AcDbEntity
  8
IMPORT_IGES
100
AcDbSpline
 62
7
  6
CONTINUOUS
 70
0
 71
3
 72
9
 73
5
 74
3
 42
0.0000001
 43
0.0000001
 44
0.0000000001
 12
-0.1089310306
 22
0.5456809512
 32
0.0
 13
-0.1092475052
 23
0.545733753
 33
0.0
 40
0.0
 40
0.0
 40
0.0
 40
0.0
 40
0.1980141723
 40
1.0
 40
1.0
 40
1.0
 40
1.0
 10
-0.4172798812
 20
-25.3254655464
 30
0.0
 10
-0.4244698438
 20
-25.2894480258
 30
0.0
 10
-0.4596614891
 20
-25.1077456835
 30
0.0
 10
-0.4940293988
 20
-24.9261876302
 30
0.0
 10
-0.5232343825
 20
-24.780297385
 30
0.0
 11
-0.4172798812
 21
-25.3254655464
 31
0.0
 11
-0.4383744345
 21
-25.2174944055
 31
0.0
 11
-0.5232343825
 21
-24.780297385
 31
0.0
  0
SPLINE
  5
4BB
100
AcDbEntity
  8
IMPORT_IGES
100
AcDbSpline
 62
7
  6
CONTINUOUS
 70
0
 71
3
 72
9
 73
5
 74
3
 42
0.0000001
 43
0.0000001
 44
0.0000000001
 12
-0.7242720778
 22
0.6826063808
 32
0.0
 13
-0.7618885033
 23
0.2436665522
 33
0.0
 40
0.0
 40
0.0
 40
0.0
 40
0.0
 40
0.2957417834
 40
1.0
 40
1.0
 40
1.0
 40
1.0
 10
-0.7338406658
 20
-23.3890767939
 30
0.0
 10
-0.8052398378
 20
-23.3217850511
 30
0.0
 10
-1.0618766385
 20
-23.1419695522
 30
0.0
 10
-1.3198596188
 20
-23.0446950164
 30
0.0
 10
-1.4987150317
 20
-22.9874936259
 30
0.0
 11
-0.7338406658
 21
-23.3890767939
 31
0.0
 11
-0.9571540292
 21
-23.2226464354
 31
0.0
 11
-1.4987150317
 21
-22.9874936259
 31
0.0
  0
SPLINE
  5
4BC
100
AcDbEntity
  8
IMPORT_IGES
100
AcDbSpline
 62
7
  6
CONTINUOUS
 70
0
 71
3
 72
9
 73
5
 74
3
 42
0.0000001
 43
0.0000001
 44
0.0000000001
 12
0.0443426486
 22
0.0221713243
 32
0.0
 13
0.0397038801
 23
0.0264877824
 33
0.0
 40
0.0
 40
0.0
 40
0.0
 40
0.0
 40
0.0529699826
 40
1.0
 40
1.0
 40
1.0
 40
1.0
 10
-0.6588537854
 20
-24.3168646738
 30
0.0
 10
-0.6580708422
 20
-24.3164732023
 30
0.0
 10
-0.643333733
 20
-24.3090224387
 30
0.0
 10
-0.6292909983
 20
-24.3012133207
 30
0.0
 10
-0.6167574096
 20
-24.2928517457
 30
0.0
 11
-0.6588537854
 21
-24.3168646738
 31
0.0
 11
-0.6565115417
 21
-24.3156828632
 31
0.0
 11
-0.6167574096
 21
-24.2928517457
 31
0.0
  0
SPLINE
  5
4BD
100
AcDbEntity
  8
IMPORT_IGES
100
AcDbSpline
 62
7
  6
CONTINUOUS
 70
0
 71
3
 72
16
 73
12
 74
10
 42
0.0000001
 43
0.0000001
 44
0.0000000001
 12
0.5918942464
 22
0.3948723892
 32
0.0
 13
-0.7723802419
 23
0.7274516852
 33
0.0
 40
0.0
 40
0.0
 40
0.0
 40
0.0
 40
0.063526156
 40
0.2350520403
 40
0.3378746638
 40
0.4554210254
 40
0.5509332403
 40
0.636789735
 40
0.7863333931
 40
0.909918364
 40
1.0
 40
1.0
 40
1.0
 40
1.0
 10
-0.6167574096
 20
-24.2928517457
 30
0.0
 10
-0.6042238208
 20
-24.2844901707
 30
0.0
 10
-0.5606801869
 20
-24.2499769788
 30
0.0
 10
-0.515954495
 20
-24.1686660401
 30
0.0
 10
-0.4922841241
 20
-24.0520109889
 30
0.0
 10
-0.4900603402
 20
-23.9464786666
 30
0.0
 10
-0.501779929
 20
-23.8410140412
 30
0.0
 10
-0.5301841885
 20
-23.7209740084
 30
0.0
 10
-0.5835332004
 20
-23.5905760501
 30
0.0
 10
-0.6588578541
 20
-23.4717992587
 30
0.0
 10
-0.7106482405
 20
-23.4109201399
 30
0.0
 10
-0.7338406658
 20
-23.3890767939
 30
0.0
 11
-0.6167574096
 21
-24.2928517457
 31
0.0
 11
-0.5815950927
 21
-24.2642239932
 31
0.0
 11
-0.514578467
 21
-24.146018017
 31
0.0
 11
-0.4957334444
 21
-24.0546465245
 31
0.0
 11
-0.4929044054
 21
-23.9379022479
 31
0.0
 11
-0.5045038784
 21
-23.8371077983
 31
0.0
 11
-0.5266832482
 21
-23.7440616166
 31
0.0
 11
-0.5922033473
 21
-23.5841125314
 31
0.0
 11
-0.6683080405
 21
-23.463851941
 31
0.0
 11
-0.7338406658
 21
-23.3890767939
 31
0.0
  0
SPLINE
  5
4BE
100
AcDbEntity
  8
RACCORDO
100
AcDbSpline
 62
7
  6
CONTINUOUS
 70
0
 71
3
 72
8
 73
4
 74
2
 42
0.0000001
 43
0.0000001
 44
0.0000000001
 12
0.1754378928
 22
0.0275703537
 32
0.0
 13
0.1740107906
 23
-0.0354799014
 33
0.0
 40
0.0
 40
0.0
 40
0.0
 40
0.0
 40
1.0
 40
1.0
 40
1.0
 40
1.0
 10
-35.9747608991
 20
-1.0867600165
 30
0.0
 10
-35.9162816015
 20
-1.0775698985
 30
0.0
 10
-35.8552189213
 20
-1.0789517852
 30
0.0
 10
-35.7972153244
 20
-1.090778419
 30
0.0
 11
-35.9747608991
 21
-1.0867600165
 31
0.0
 11
-35.7972153244
 21
-1.090778419
 31
0.0
  0
SPLINE
  5
4BF
100
AcDbEntity
  8
RACCORDO
100
AcDbSpline
 62
7
  6
CONTINUOUS
 70
0
 71
3
 72
8
 73
4
 74
2
 42
0.0000001
 43
0.0000001
 44
0.0000000001
 12
0.1754378928
 22
0.0275703537
 32
0.0
 13
0.1740107906
 23
-0.0354799014
 33
0.0
 40
0.0
 40
0.0
 40
0.0
 40
0.0
 40
1.0
 40
1.0
 40
1.0
 40
1.0
 10
-12.1452623731
 20
-13.0015092795
 30
0.0
 10
-12.0867830755
 20
-12.9923191615
 30
0.0
 10
-12.0257203953
 20
-12.9937010482
 30
0.0
 10
-11.9677167984
 20
-13.005527682
 30
0.0
 11
-12.1452623731
 21
-13.0015092795
 31
0.0
 11
-11.9677167984
 21
-13.005527682
 31
0.0
  0
SPLINE
  5
4C0
100
AcDbEntity
  8
RACCORDO
100
AcDbSpline
 62
7
  6
CONTINUOUS
 70
0
 71
3
 72
8
 73
4
 74
2
 42
0.0000001
 43
0.0000001
 44
0.0000000001
 12
0.1781590767
 22
0.0322301011
 32
0.0
 13
0.1779590726
 23
-0.0333167297
 33
0.0
 40
0.0
 40
0.0
 40
0.0
 40
0.0
 40
1.0
 40
1.0
 40
1.0
 40
1.0
 10
11.6790215319
 20
-24.9212688554
 30
0.0
 10
11.7384078907
 20
-24.9105254884
 30
0.0
 10
11.8007519195
 20
-24.9107156195
 30
0.0
 10
11.8600716104
 20
-24.9218211961
 30
0.0
 11
11.6790215319
 21
-24.9212688554
 31
0.0
 11
11.8600716104
 21
-24.9218211961
 31
0.0
  0
SPLINE
  5
4C1
100
AcDbEntity
  8
RACCORDO
100
AcDbSpline
 62
7
  6
CONTINUOUS
 70
0
 71
3
 72
8
 73
4
 74
2
 42
0.0000001
 43
0.0000001
 44
0.0000000001
 12
0.1754378928
 22
0.0275703537
 32
0.0
 13
0.1740107906
 23
-0.0354799014
 33
0.0
 40
0.0
 40
0.0
 40
0.0
 40
0.0
 40
1.0
 40
1.0
 40
1.0
 40
1.0
 10
35.5137346789
 20
-36.8310078054
 30
0.0
 10
35.5722139765
 20
-36.8218176875
 30
0.0
 10
35.6332766567
 20
-36.8231995742
 30
0.0
 10
35.6912802536
 20
-36.835026208
 30
0.0
 11
35.5137346789
 21
-36.8310078054
 31
0.0
 11
35.6912802536
 21
-36.835026208
 31
0.0
  0
SPLINE
  5
4C2
100
AcDbEntity
  8
ASSI
100
AcDbSpline
 62
7
  6
CONTINUOUS
 70
0
 71
3
 72
8
 73
4
 74
2
 42
0.0000001
 43
0.0000001
 44
0.0000000001
 12
0.0017199938
 22
-0.0008550042
 32
0.0
 13
0.0000082581
 23
-0.0019207661
 33
0.0
 40
0.0
 40
0.0
 40
0.0
 40
0.0
 40
1.0
 40
1.0
 40
1.0
 40
1.0
 10
37.8773149279
 20
-36.8344286327
 30
0.0
 10
37.8778882592
 20
-36.8347136341
 30
0.0
 10
37.8783306914
 20
-36.8354168845
 30
0.0
 10
37.8783334441
 20
-36.8360571399
 30
0.0
 11
37.8773149279
 21
-36.8344286327
 31
0.0
 11
37.8783334441
 21
-36.8360571399
 31
0.0
  0
SPLINE
  5
4C3
100
AcDbEntity
  8
ASSI
100
AcDbSpline
 62
7
  6
CONTINUOUS
 70
0
 71
3
 72
8
 73
4
 74
2
 42
0.0000001
 43
0.0000001
 44
0.0000000001
 12
-0.0322886643
 22
0.0161348252
 32
0.0
 13
-0.0345470447
 23
0.0104590691
 33
0.0
 40
0.0
 40
0.0
 40
0.0
 40
0.0
 40
1.0
 40
1.0
 40
1.0
 40
1.0
 10
33.683950787
 20
-34.7377465623
 30
0.0
 10
33.6731878989
 20
-34.7323682872
 30
0.0
 10
33.6619870611
 20
-34.7277414509
 30
0.0
 10
33.6504713795
 20
-34.7242550946
 30
0.0
 11
33.683950787
 21
-34.7377465623
 31
0.0
 11
33.6504713795
 21
-34.7242550946
 31
0.0
  0
SPLINE
  5
4C4
100
AcDbEntity
  8
ASSI
100
AcDbSpline
 62
7
  6
CONTINUOUS
 70
0
 71
3
 72
9
 73
5
 74
3
 42
0.0000001
 43
0.0000001
 44
0.0000000001
 12
-0.0774879905
 22
0.0234593799
 32
0.0
 13
-0.075213758
 23
-0.0299603369
 33
0.0
 40
0.0
 40
0.0
 40
0.0
 40
0.0
 40
0.2646796662
 40
1.0
 40
1.0
 40
1.0
 40
1.0
 10
33.6504713795
 20
-34.7242550946
 30
0.0
 10
33.643634881
 20
-34.7221853543
 30
0.0
 10
33.6174931973
 20
-34.7158723648
 30
0.0
 10
33.5887075735
 20
-34.716801435
 30
0.0
 10
33.5702721716
 20
-34.7241449166
 30
0.0
 11
33.6504713795
 21
-34.7242550946
 31
0.0
 11
33.6296113147
 21
-34.7193508592
 31
0.0
 11
33.5702721716
 21
-34.7241449166
 31
0.0
  0
SPLINE
  5
4C5
100
AcDbEntity
  8
ASSI
100
AcDbSpline
 62
7
  6
CONTINUOUS
 70
0
 71
3
 72
8
 73
4
 74
2
 42
0.0000001
 43
0.0000001
 44
0.0000000001
 12
0.0017199938
 22
-0.0008550042
 32
0.0
 13
0.0000082581
 23
-0.0019207661
 33
0.0
 40
0.0
 40
0.0
 40
0.0
 40
0.0
 40
1.0
 40
1.0
 40
1.0
 40
1.0
 10
21.9674123512
 20
-28.8794773444
 30
0.0
 10
21.9679856825
 20
-28.8797623458
 30
0.0
 10
21.9684281147
 20
-28.8804655962
 30
0.0
 10
21.9684308674
 20
-28.8811058516
 30
0.0
 11
21.9674123512
 21
-28.8794773444
 31
0.0
 11
21.9684308674
 21
-28.8811058516
 31
0.0
  0
SPLINE
  5
4C6
100
AcDbEntity
  8
ASSI
100
AcDbSpline
 62
7
  6
CONTINUOUS
 70
0
 71
3
 72
8
 73
4
 74
2
 42
0.0000001
 43
0.0000001
 44
0.0000000001
 12
-0.0322886643
 22
0.0161348252
 32
0.0
 13
-0.0345470447
 23
0.0104590691
 33
0.0
 40
0.0
 40
0.0
 40
0.0
 40
0.0
 40
1.0
 40
1.0
 40
1.0
 40
1.0
 10
17.7740482103
 20
-26.7827952739
 30
0.0
 10
17.7632853222
 20
-26.7774169989
 30
0.0
 10
17.7520844844
 20
-26.7727901626
 30
0.0
 10
17.7405688028
 20
-26.7693038062
 30
0.0
 11
17.7740482103
 21
-26.7827952739
 31
0.0
 11
17.7405688028
 21
-26.7693038062
 31
0.0
  0
SPLINE
  5
4C7
100
AcDbEntity
  8
ASSI
100
AcDbSpline
 62
7
  6
CONTINUOUS
 70
0
 71
3
 72
9
 73
5
 74
3
 42
0.0000001
 43
0.0000001
 44
0.0000000001
 12
-0.0774879905
 22
0.0234593799
 32
0.0
 13
-0.075213758
 23
-0.0299603369
 33
0.0
 40
0.0
 40
0.0
 40
0.0
 40
0.0
 40
0.2646796662
 40
1.0
 40
1.0
 40
1.0
 40
1.0
 10
17.7405688028
 20
-26.7693038062
 30
0.0
 10
17.7337323043
 20
-26.7672340659
 30
0.0
 10
17.7075906206
 20
-26.7609210765
 30
0.0
 10
17.6788049968
 20
-26.7618501466
 30
0.0
 10
17.6603695949
 20
-26.7691936283
 30
0.0
 11
17.7405688028
 21
-26.7693038062
 31
0.0
 11
17.719708738
 21
-26.7643995709
 31
0.0
 11
17.6603695949
 21
-26.7691936283
 31
0.0
  0
SPLINE
  5
4C8
100
AcDbEntity
  8
ASSI
100
AcDbSpline
 62
7
  6
CONTINUOUS
 70
0
 71
3
 72
8
 73
4
 74
2
 42
0.0000001
 43
0.0000001
 44
0.0000000001
 12
0.0017199938
 22
-0.0008550042
 32
0.0
 13
0.0000082581
 23
-0.0019207661
 33
0.0
 40
0.0
 40
0.0
 40
0.0
 40
0.0
 40
1.0
 40
1.0
 40
1.0
 40
1.0
 10
6.0575097745
 20
-20.924526056
 30
0.0
 10
6.0580831058
 20
-20.9248110574
 30
0.0
 10
6.058525538
 20
-20.9255143078
 30
0.0
 10
6.0585282907
 20
-20.9261545632
 30
0.0
 11
6.0575097745
 21
-20.924526056
 31
0.0
 11
6.0585282907
 21
-20.9261545632
 31
0.0
  0
SPLINE
  5
4C9
100
AcDbEntity
  8
ASSI
100
AcDbSpline
 62
7
  6
CONTINUOUS
 70
0
 71
3
 72
8
 73
4
 74
2
 42
0.0000001
 43
0.0000001
 44
0.0000000001
 12
-0.0322886643
 22
0.0161348252
 32
0.0
 13
-0.0345470447
 23
0.0104590691
 33
0.0
 40
0.0
 40
0.0
 40
0.0
 40
0.0
 40
1.0
 40
1.0
 40
1.0
 40
1.0
 10
1.8641456336
 20
-18.8278439856
 30
0.0
 10
1.8533827455
 20
-18.8224657105
 30
0.0
 10
1.8421819077
 20
-18.8178388742
 30
0.0
 10
1.8306662261
 20
-18.8143525179
 30
0.0
 11
1.8641456336
 21
-18.8278439856
 31
0.0
 11
1.8306662261
 21
-18.8143525179
 31
0.0
  0
SPLINE
  5
4CA
100
AcDbEntity
  8
ASSI
100
AcDbSpline
 62
7
  6
CONTINUOUS
 70
0
 71
3
 72
9
 73
5
 74
3
 42
0.0000001
 43
0.0000001
 44
0.0000000001
 12
-0.0774879905
 22
0.0234593799
 32
0.0
 13
-0.075213758
 23
-0.0299603369
 33
0.0
 40
0.0
 40
0.0
 40
0.0
 40
0.0
 40
0.2646796662
 40
1.0
 40
1.0
 40
1.0
 40
1.0
 10
1.8306662261
 20
-18.8143525179
 30
0.0
 10
1.8238297276
 20
-18.8122827776
 30
0.0
 10
1.7976880439
 20
-18.8059697881
 30
0.0
 10
1.7689024201
 20
-18.8068988583
 30
0.0
 10
1.7504670182
 20
-18.8142423399
 30
0.0
 11
1.8306662261
 21
-18.8143525179
 31
0.0
 11
1.8098061613
 21
-18.8094482825
 31
0.0
 11
1.7504670182
 21
-18.8142423399
 31
0.0
  0
SPLINE
  5
4CB
100
AcDbEntity
  8
ASSI
100
AcDbSpline
 62
7
  6
CONTINUOUS
 70
0
 71
3
 72
8
 73
4
 74
2
 42
0.0000001
 43
0.0000001
 44
0.0000000001
 12
0.0017199938
 22
-0.0008550042
 32
0.0
 13
0.0000082581
 23
-0.0019207661
 33
0.0
 40
0.0
 40
0.0
 40
0.0
 40
0.0
 40
1.0
 40
1.0
 40
1.0
 40
1.0
 10
-9.8523928022
 20
-12.9695747677
 30
0.0
 10
-9.8518194709
 20
-12.9698597691
 30
0.0
 10
-9.8513770387
 20
-12.9705630195
 30
0.0
 10
-9.851374286
 20
-12.9712032749
 30
0.0
 11
-9.8523928022
 21
-12.9695747677
 31
0.0
 11
-9.851374286
 21
-12.9712032749
 31
0.0
  0
SPLINE
  5
4CC
100
AcDbEntity
  8
ASSI
100
AcDbSpline
 62
7
  6
CONTINUOUS
 70
0
 71
3
 72
8
 73
4
 74
2
 42
0.0000001
 43
0.0000001
 44
0.0000000001
 12
-0.0322886643
 22
0.0161348252
 32
0.0
 13
-0.0345470447
 23
0.0104590691
 33
0.0
 40
0.0
 40
0.0
 40
0.0
 40
0.0
 40
1.0
 40
1.0
 40
1.0
 40
1.0
 10
-14.0457569431
 20
-10.8728926972
 30
0.0
 10
-14.0565198312
 20
-10.8675144222
 30
0.0
 10
-14.067720669
 20
-10.8628875859
 30
0.0
 10
-14.0792363506
 20
-10.8594012295
 30
0.0
 11
-14.0457569431
 21
-10.8728926972
 31
0.0
 11
-14.0792363506
 21
-10.8594012295
 31
0.0
  0
SPLINE
  5
4CD
100
AcDbEntity
  8
ASSI
100
AcDbSpline
 62
7
  6
CONTINUOUS
 70
0
 71
3
 72
9
 73
5
 74
3
 42
0.0000001
 43
0.0000001
 44
0.0000000001
 12
-0.0774879905
 22
0.0234593799
 32
0.0
 13
-0.075213758
 23
-0.0299603369
 33
0.0
 40
0.0
 40
0.0
 40
0.0
 40
0.0
 40
0.2646796662
 40
1.0
 40
1.0
 40
1.0
 40
1.0
 10
-14.0792363506
 20
-10.8594012295
 30
0.0
 10
-14.0860728491
 20
-10.8573314892
 30
0.0
 10
-14.1122145328
 20
-10.8510184998
 30
0.0
 10
-14.1410001566
 20
-10.8519475699
 30
0.0
 10
-14.1594355585
 20
-10.8592910516
 30
0.0
 11
-14.0792363506
 21
-10.8594012295
 31
0.0
 11
-14.1000964154
 21
-10.8544969942
 31
0.0
 11
-14.1594355585
 21
-10.8592910516
 31
0.0
  0
SPLINE
  5
4CE
100
AcDbEntity
  8
ASSI
100
AcDbSpline
 62
7
  6
CONTINUOUS
 70
0
 71
3
 72
8
 73
4
 74
2
 42
0.0000001
 43
0.0000001
 44
0.0000000001
 12
0.0017199938
 22
-0.0008550042
 32
0.0
 13
0.0000082581
 23
-0.0019207661
 33
0.0
 40
0.0
 40
0.0
 40
0.0
 40
0.0
 40
1.0
 40
1.0
 40
1.0
 40
1.0
 10
-25.7622953789
 20
-5.0146234794
 30
0.0
 10
-25.7617220476
 20
-5.0149084807
 30
0.0
 10
-25.7612796154
 20
-5.0156117311
 30
0.0
 10
-25.7612768627
 20
-5.0162519865
 30
0.0
 11
-25.7622953789
 21
-5.0146234794
 31
0.0
 11
-25.7612768627
 21
-5.0162519865
 31
0.0
  0
SPLINE
  5
4CF
100
AcDbEntity
  8
ASSI
100
AcDbSpline
 62
7
  6
CONTINUOUS
 70
0
 71
3
 72
8
 73
4
 74
2
 42
0.0000001
 43
0.0000001
 44
0.0000000001
 12
-0.0322886643
 22
0.0161348252
 32
0.0
 13
-0.0345470447
 23
0.0104590691
 33
0.0
 40
0.0
 40
0.0
 40
0.0
 40
0.0
 40
1.0
 40
1.0
 40
1.0
 40
1.0
 10
-29.9556595198
 20
-2.9179414089
 30
0.0
 10
-29.9664224079
 20
-2.9125631338
 30
0.0
 10
-29.9776232457
 20
-2.9079362975
 30
0.0
 10
-29.9891389273
 20
-2.9044499412
 30
0.0
 11
-29.9556595198
 21
-2.9179414089
 31
0.0
 11
-29.9891389273
 21
-2.9044499412
 31
0.0
  0
SPLINE
  5
4D0
100
AcDbEntity
  8
ASSI
100
AcDbSpline
 62
7
  6
CONTINUOUS
 70
0
 71
3
 72
9
 73
5
 74
3
 42
0.0000001
 43
0.0000001
 44
0.0000000001
 12
-0.0774879905
 22
0.0234593799
 32
0.0
 13
-0.075213758
 23
-0.0299603369
 33
0.0
 40
0.0
 40
0.0
 40
0.0
 40
0.0
 40
0.2646796662
 40
1.0
 40
1.0
 40
1.0
 40
1.0
 10
-29.9891389273
 20
-2.9044499412
 30
0.0
 10
-29.9959754258
 20
-2.9023802009
 30
0.0
 10
-30.0221171095
 20
-2.8960672114
 30
0.0
 10
-30.0509027333
 20
-2.8969962816
 30
0.0
 10
-30.0693381352
 20
-2.9043397632
 30
0.0
 11
-29.9891389273
 21
-2.9044499412
 31
0.0
 11
-30.0099989921
 21
-2.8995457058
 31
0.0
 11
-30.0693381352
 21
-2.9043397632
 31
0.0
  0
SPLINE
  5
4D1
100
AcDbEntity
  8
ASSI
100
AcDbSpline
 62
7
  6
CONTINUOUS
 70
0
 71
3
 72
8
 73
4
 74
2
 42
0.0000001
 43
0.0000001
 44
0.0000000001
 12
0.0017199875
 22
-0.0008550395
 32
0.0
 13
0.0000082235
 23
-0.0019207763
 33
0.0
 40
0.0
 40
0.0
 40
0.0
 40
0.0
 40
1.0
 40
1.0
 40
1.0
 40
1.0
 10
-41.6721979188
 20
3.0269303316
 30
0.0
 10
-41.6716245896
 20
3.0266453184
 30
0.0
 10
-41.671182177
 20
3.0259420505
 30
0.0
 10
-41.6711794359
 20
3.0253017917
 30
0.0
 11
-41.6721979188
 21
3.0269303316
 31
0.0
 11
-41.6711794359
 21
3.0253017917
 31
0.0
  0
SPLINE
  5
4D2
100
AcDbEntity
  8
ASSI
100
AcDbSpline
 62
7
  6
CONTINUOUS
 70
0
 71
3
 72
8
 73
4
 74
2
 42
0.0000001
 43
0.0000001
 44
0.0000000001
 12
-0.032268327
 22
0.0161247358
 32
0.0
 13
-0.0345239903
 23
0.0104568695
 33
0.0
 40
0.0
 40
0.0
 40
0.0
 40
0.0
 40
1.0
 40
1.0
 40
1.0
 40
1.0
 10
-45.865561687
 20
5.1236122157
 30
0.0
 10
-45.876317796
 20
5.1289871276
 30
0.0
 10
-45.8875112566
 20
5.1336115204
 30
0.0
 10
-45.8990192534
 20
5.1370971435
 30
0.0
 11
-45.865561687
 21
5.1236122157
 31
0.0
 11
-45.8990192534
 21
5.1370971435
 31
0.0
  0
SPLINE
  5
4D3
100
AcDbEntity
  8
ASSI
100
AcDbSpline
 62
7
  6
CONTINUOUS
 70
0
 71
3
 72
9
 73
5
 74
3
 42
0.0000001
 43
0.0000001
 44
0.0000000001
 12
-0.0479673986
 22
0.0145287038
 32
0.0
 13
-0.0500426309
 23
-0.0027730218
 33
0.0
 40
0.0
 40
0.0
 40
0.0
 40
0.0
 40
0.257878631
 40
1.0
 40
1.0
 40
1.0
 40
1.0
 10
-45.8990192534
 20
5.1370971435
 30
0.0
 10
-45.9031425091
 20
5.1383460243
 30
0.0
 10
-45.9192862793
 20
5.1426208537
 30
0.0
 10
-45.9361863435
 20
5.1443866054
 30
0.0
 10
-45.9485655787
 20
5.1437006325
 30
0.0
 11
-45.8990192534
 21
5.1370971435
 31
0.0
 11
-45.9115190704
 21
5.1403839414
 31
0.0
 11
-45.9485655787
 21
5.1437006325
 31
0.0
  0
SPLINE
  5
4D4
100
AcDbEntity
  8
ASSI
100
AcDbSpline
 62
7
  6
CONTINUOUS
 70
0
 71
3
 72
8
 73
4
 74
2
 42
0.0000001
 43
0.0000001
 44
0.0000000001
 12
-0.0213414878
 22
-0.0011825999
 32
0.0
 13
-0.0206349063
 23
-0.005572996
 33
0.0
 40
0.0
 40
0.0
 40
0.0
 40
0.0
 40
1.0
 40
1.0
 40
1.0
 40
1.0
 10
-45.9485655787
 20
5.1437006325
 30
0.0
 10
-45.955679408
 20
5.1433064326
 30
0.0
 10
-45.9628030723
 20
5.1422445664
 30
0.0
 10
-45.9696813744
 20
5.1403869011
 30
0.0
 11
-45.9485655787
 21
5.1437006325
 31
0.0
 11
-45.9696813744
 21
5.1403869011
 31
0.0
  0
SPLINE
  5
4D5
100
AcDbEntity
  8
ASSI
100
AcDbSpline
 62
7
  6
CONTINUOUS
 70
0
 71
3
 72
8
 73
4
 74
2
 42
0.0000001
 43
0.0000001
 44
0.0000000001
 12
-0.032268327
 22
0.0161247358
 32
0.0
 13
-0.0345239903
 23
0.0104568695
 33
0.0
 40
0.0
 40
0.0
 40
0.0
 40
0.0
 40
1.0
 40
1.0
 40
1.0
 40
1.0
 10
49.5938537732
 20
-42.6060955144
 30
0.0
 10
49.5830976642
 20
-42.6007206025
 30
0.0
 10
49.5719042036
 20
-42.5960962097
 30
0.0
 10
49.5603962068
 20
-42.5926105866
 30
0.0
 11
49.5938537732
 21
-42.6060955144
 31
0.0
 11
49.5603962068
 21
-42.5926105866
 31
0.0
  0
SPLINE
  5
4D6
100
AcDbEntity
  8
ASSI
100
AcDbSpline
 62
7
  6
CONTINUOUS
 70
0
 71
3
 72
9
 73
5
 74
3
 42
0.0000001
 43
0.0000001
 44
0.0000000001
 12
-0.0479673986
 22
0.0145287038
 32
0.0
 13
-0.0500426309
 23
-0.0027730218
 33
0.0
 40
0.0
 40
0.0
 40
0.0
 40
0.0
 40
0.257878631
 40
1.0
 40
1.0
 40
1.0
 40
1.0
 10
49.5603962068
 20
-42.5926105866
 30
0.0
 10
49.5562729511
 20
-42.5913617058
 30
0.0
 10
49.5401291809
 20
-42.5870868764
 30
0.0
 10
49.5232291167
 20
-42.5853211247
 30
0.0
 10
49.5108498815
 20
-42.5860070976
 30
0.0
 11
49.5603962068
 21
-42.5926105866
 31
0.0
 11
49.5478963898
 21
-42.5893237887
 31
0.0
 11
49.5108498815
 21
-42.5860070976
 31
0.0
  0
SPLINE
  5
4D7
100
AcDbEntity
  8
ASSI
100
AcDbSpline
 62
7
  6
CONTINUOUS
 70
0
 71
3
 72
8
 73
4
 74
2
 42
0.0000001
 43
0.0000001
 44
0.0000000001
 12
-0.0213414878
 22
-0.0011825999
 32
0.0
 13
-0.0206349063
 23
-0.005572996
 33
0.0
 40
0.0
 40
0.0
 40
0.0
 40
0.0
 40
1.0
 40
1.0
 40
1.0
 40
1.0
 10
49.5108498815
 20
-42.5860070976
 30
0.0
 10
49.5037360522
 20
-42.5864012975
 30
0.0
 10
49.4966123879
 20
-42.5874631637
 30
0.0
 10
49.4897340858
 20
-42.589320829
 30
0.0
 11
49.5108498815
 21
-42.5860070976
 31
0.0
 11
49.4897340858
 21
-42.589320829
 31
0.0
  0
SPLINE
  5
4D8
100
AcDbEntity
  8
RACCORDO
100
AcDbSpline
 62
7
  6
CONTINUOUS
 70
0
 71
3
 72
9
 73
5
 74
3
 42
0.0000001
 43
0.0000001
 44
0.0000000001
 12
0.0317711207
 22
0.0230519767
 32
0.0
 13
0.0285175399
 23
0.0269730914
 33
0.0
 40
0.0
 40
0.0
 40
0.0
 40
0.0
 40
0.2582448239
 40
1.0
 40
1.0
 40
1.0
 40
1.0
 10
-56.1037464136
 20
40.7309922047
 30
0.0
 10
-56.1010115044
 20
40.7329765559
 30
0.0
 10
-56.0905350417
 20
40.7408151852
 30
0.0
 10
-56.0805313801
 20
40.7492945057
 30
0.0
 10
-56.0734803692
 20
40.7559636491
 30
0.0
 11
-56.1037464136
 21
40.7309922047
 31
0.0
 11
-56.0956320512
 21
40.7370678548
 31
0.0
 11
-56.0734803692
 21
40.7559636491
 31
0.0
  0
SPLINE
  5
4D9
100
AcDbEntity
  8
RACCORDO
100
AcDbSpline
 62
7
  6
CONTINUOUS
 70
0
 71
3
 72
9
 73
5
 74
3
 42
0.0000001
 43
0.0000001
 44
0.0000000001
 12
0.0968016811
 22
0.0915591105
 32
0.0
 13
0.000000034
 23
0.1332427716
 33
0.0
 40
0.0
 40
0.0
 40
0.0
 40
0.0
 40
0.5349233831
 40
1.0
 40
1.0
 40
1.0
 40
1.0
 10
-56.0734803692
 20
40.7559636491
 30
0.0
 10
-56.0562198749
 20
40.7722893521
 30
0.0
 10
-56.0273863118
 20
40.8074019795
 30
0.0
 10
-56.0155118336
 20
40.8521522448
 30
0.0
 10
-56.0155118283
 20
40.8728082772
 30
0.0
 11
-56.0734803692
 21
40.7559636491
 31
0.0
 11
-56.0302251045
 21
40.8126122259
 31
0.0
 11
-56.0155118283
 21
40.8728082772
 31
0.0
  0
SPLINE
  5
4DA
100
AcDbEntity
  8
RACCORDO
100
AcDbSpline
 62
7
  6
CONTINUOUS
 70
0
 71
3
 72
9
 73
5
 74
3
 42
0.0000001
 43
0.0000001
 44
0.0000000001
 12
0.0317711207
 22
0.0230519767
 32
0.0
 13
0.0285175399
 23
0.0269730914
 33
0.0
 40
0.0
 40
0.0
 40
0.0
 40
0.0
 40
0.2582448239
 40
1.0
 40
1.0
 40
1.0
 40
1.0
 10
-56.1037464136
 20
21.6784333214
 30
0.0
 10
-56.1010115044
 20
21.6804176727
 30
0.0
 10
-56.0905350417
 20
21.688256302
 30
0.0
 10
-56.0805313801
 20
21.6967356224
 30
0.0
 10
-56.0734803692
 20
21.7034047658
 30
0.0
 11
-56.1037464136
 21
21.6784333214
 31
0.0
 11
-56.0956320512
 21
21.6845089715
 31
0.0
 11
-56.0734803692
 21
21.7034047658
 31
0.0
  0
SPLINE
  5
4DB
100
AcDbEntity
  8
RACCORDO
100
AcDbSpline
 62
7
  6
CONTINUOUS
 70
0
 71
3
 72
9
 73
5
 74
3
 42
0.0000001
 43
0.0000001
 44
0.0000000001
 12
0.0968016811
 22
0.0915591105
 32
0.0
 13
0.000000034
 23
0.1332427716
 33
0.0
 40
0.0
 40
0.0
 40
0.0
 40
0.0
 40
0.5349233831
 40
1.0
 40
1.0
 40
1.0
 40
1.0
 10
-56.0734803692
 20
21.7034047658
 30
0.0
 10
-56.0562198749
 20
21.7197304689
 30
0.0
 10
-56.0273863118
 20
21.7548430963
 30
0.0
 10
-56.0155118336
 20
21.7995933615
 30
0.0
 10
-56.0155118283
 20
21.820249394
 30
0.0
 11
-56.0734803692
 21
21.7034047658
 31
0.0
 11
-56.0302251045
 21
21.7600533426
 31
0.0
 11
-56.0155118283
 21
21.820249394
 31
0.0
  0
SPLINE
  5
4DC
100
AcDbEntity
  8
DRAFT
100
AcDbSpline
 62
7
  6
CONTINUOUS
 70
0
 71
3
 72
9
 73
5
 74
3
 42
0.0000001
 43
0.0000001
 44
0.0000000001
 12
-0.0332954727
 22
-0.1355395461
 32
0.0
 13
-0.1246927706
 23
-0.0626998406
 33
0.0
 40
0.0
 40
0.0
 40
0.0
 40
0.0
 40
0.5315779866
 40
1.0
 40
1.0
 40
1.0
 40
1.0
 10
-42.2490202963
 20
1.9402012987
 30
0.0
 10
-42.2549200097
 20
1.9161846857
 30
0.0
 10
-42.2727336099
 20
1.8718491988
 30
0.0
 10
-42.3088607913
 20
1.8391991764
 30
0.0
 10
-42.3283304042
 20
1.8294091812
 30
0.0
 11
-42.2490202963
 21
1.9402012987
 31
0.0
 11
-42.2790336082
 21
1.8723511699
 31
0.0
 11
-42.3283304042
 21
1.8294091812
 31
0.0
  0
SPLINE
  5
4DD
100
AcDbEntity
  8
DRAFT
100
AcDbSpline
 62
7
  6
CONTINUOUS
 70
0
 71
3
 72
9
 73
5
 74
3
 42
0.0000001
 43
0.0000001
 44
0.0000000001
 12
-0.0332954727
 22
-0.1355395461
 32
0.0
 13
-0.1246927706
 23
-0.0626998406
 33
0.0
 40
0.0
 40
0.0
 40
0.0
 40
0.0
 40
0.5315779866
 40
1.0
 40
1.0
 40
1.0
 40
1.0
 10
-26.3391177196
 20
-6.0147499896
 30
0.0
 10
-26.345017433
 20
-6.0387666026
 30
0.0
 10
-26.3628310332
 20
-6.0831020895
 30
0.0
 10
-26.3989582146
 20
-6.115752112
 30
0.0
 10
-26.4184278275
 20
-6.1255421072
 30
0.0
 11
-26.3391177196
 21
-6.0147499896
 31
0.0
 11
-26.3691310315
 21
-6.0826001184
 31
0.0
 11
-26.4184278275
 21
-6.1255421072
 31
0.0
  0
SPLINE
  5
4DE
100
AcDbEntity
  8
DRAFT
100
AcDbSpline
 62
7
  6
CONTINUOUS
 70
0
 71
3
 72
9
 73
5
 74
3
 42
0.0000001
 43
0.0000001
 44
0.0000000001
 12
-0.0332954727
 22
-0.1355395461
 32
0.0
 13
-0.1246927706
 23
-0.0626998406
 33
0.0
 40
0.0
 40
0.0
 40
0.0
 40
0.0
 40
0.5315779866
 40
1.0
 40
1.0
 40
1.0
 40
1.0
 10
5.4806874338
 20
-21.9246525663
 30
0.0
 10
5.4747877203
 20
-21.9486691793
 30
0.0
 10
5.4569741202
 20
-21.9930046662
 30
0.0
 10
5.4208469388
 20
-22.0256546887
 30
0.0
 10
5.4013773259
 20
-22.0354446839
 30
0.0
 11
5.4806874338
 21
-21.9246525663
 31
0.0
 11
5.4506741219
 21
-21.9925026951
 31
0.0
 11
5.4013773259
 21
-22.0354446839
 31
0.0
  0
SPLINE
  5
4DF
100
AcDbEntity
  8
DRAFT
100
AcDbSpline
 62
7
  6
CONTINUOUS
 70
0
 71
3
 72
9
 73
5
 74
3
 42
0.0000001
 43
0.0000001
 44
0.0000000001
 12
-0.0332954727
 22
-0.1355395461
 32
0.0
 13
-0.1246927706
 23
-0.0626998406
 33
0.0
 40
0.0
 40
0.0
 40
0.0
 40
0.0
 40
0.5315779866
 40
1.0
 40
1.0
 40
1.0
 40
1.0
 10
21.3905900105
 20
-29.8796038547
 30
0.0
 10
21.384690297
 20
-29.9036204677
 30
0.0
 10
21.3668766969
 20
-29.9479559546
 30
0.0
 10
21.3307495155
 20
-29.980605977
 30
0.0
 10
21.3112799026
 20
-29.9903959722
 30
0.0
 11
21.3905900105
 21
-29.8796038547
 31
0.0
 11
21.3605766986
 21
-29.9474539835
 31
0.0
 11
21.3112799026
 21
-29.9903959722
 31
0.0
  0
SPLINE
  5
4E0
100
AcDbEntity
  8
RACCORDO
100
AcDbSpline
 62
7
  6
CONTINUOUS
 70
0
 71
3
 72
9
 73
5
 74
3
 42
0.0000001
 43
0.0000001
 44
0.0000000001
 12
-0.0000256854
 22
-0.1493772331
 32
0.0
 13
-0.1143359048
 23
-0.0961293883
 33
0.0
 40
0.0
 40
0.0
 40
0.0
 40
0.0
 40
0.4593390356
 40
1.0
 40
1.0
 40
1.0
 40
1.0
 10
-54.9964320411
 20
8.2189336061
 30
0.0
 10
-54.9964359739
 20
8.196062008
 30
0.0
 10
-55.0113600848
 20
8.145933189
 30
0.0
 10
-55.0460574549
 20
8.108512688
 30
0.0
 10
-55.0666631085
 20
8.0911882188
 30
0.0
 11
-54.9964320411
 21
8.2189336061
 31
0.0
 11
-55.0143184337
 21
8.1526911192
 31
0.0
 11
-55.0666631085
 21
8.0911882188
 31
0.0
  0
SPLINE
  5
4E1
100
AcDbEntity
  8
RACCORDO
100
AcDbSpline
 62
7
  6
CONTINUOUS
 70
0
 71
3
 72
10
 73
6
 74
4
 42
0.0000001
 43
0.0000001
 44
0.0000000001
 12
-0.2007783487
 22
0.1003543499
 32
0.0
 13
-0.2024658842
 23
-0.0969046262
 33
0.0
 40
0.0
 40
0.0
 40
0.0
 40
0.0
 40
0.2285889596
 40
0.4671563765
 40
1.0
 40
1.0
 40
1.0
 40
1.0
 10
-55.2728403224
 20
8.666180881
 30
0.0
 10
-55.2881388937
 20
8.6738275131
 30
0.0
 10
-55.3217573336
 20
8.6851399494
 30
0.0
 10
-55.3971031065
 20
8.6897103569
 30
0.0
 10
-55.4542985645
 20
8.6722021972
 30
0.0
 10
-55.4902594496
 20
8.6549905265
 30
0.0
 11
-55.2728403224
 21
8.666180881
 31
0.0
 11
-55.3214175062
 21
8.6827009477
 31
0.0
 11
-55.3748419679
 21
8.6863536691
 31
0.0
 11
-55.4902594496
 21
8.6549905265
 31
0.0
  0
SPLINE
  5
4E2
100
AcDbEntity
  8
RACCORDO
100
AcDbSpline
 62
7
  6
CONTINUOUS
 70
0
 71
3
 72
11
 73
7
 74
5
 42
0.0000001
 43
0.0000001
 44
0.0000000001
 12
0.5878046047
 22
-0.2840366875
 32
0.0
 13
0.0848509815
 23
-0.6472954534
 33
0.0
 40
0.0
 40
0.0
 40
0.0
 40
0.0
 40
0.2272268744
 40
0.4805317991
 40
0.7443161687
 40
1.0
 40
1.0
 40
1.0
 40
1.0
 10
-55.4902594496
 20
8.6549905265
 30
0.0
 10
-55.4457377819
 20
8.6334769369
 30
0.0
 10
-55.3596707933
 20
8.5709328266
 30
0.0
 10
-55.2557091607
 20
8.445079905
 30
0.0
 10
-55.1783277259
 20
8.2944028791
 30
0.0
 10
-55.149059346
 20
8.1839688993
 30
0.0
 10
-55.1418276713
 20
8.1288012388
 30
0.0
 11
-55.4902594496
 21
8.6549905265
 31
0.0
 11
-55.3685786443
 21
8.5701441802
 31
0.0
 11
-55.2620791264
 21
8.4436383865
 31
0.0
 11
-55.1833824402
 21
8.2904648159
 31
0.0
 11
-55.1418276713
 21
8.1288012388
 31
0.0
  0
SPLINE
  5
4E3
100
AcDbEntity
  8
RACCORDO
100
AcDbSpline
 62
7
  6
CONTINUOUS
 70
0
 71
3
 72
11
 73
7
 74
5
 42
0.0000001
 43
0.0000001
 44
0.0000000001
 12
0.5878046047
 22
-0.2840366875
 32
0.0
 13
0.0848509815
 23
-0.6472954534
 33
0.0
 40
0.0
 40
0.0
 40
0.0
 40
0.0
 40
0.2272268744
 40
0.4805317991
 40
0.7443161687
 40
1.0
 40
1.0
 40
1.0
 40
1.0
 10
13.0283876473
 20
-25.604333022
 30
0.0
 10
13.072909315
 20
-25.6258466116
 30
0.0
 10
13.1589763037
 20
-25.6883907219
 30
0.0
 10
13.2629379362
 20
-25.8142436435
 30
0.0
 10
13.3403193711
 20
-25.9649206694
 30
0.0
 10
13.369587751
 20
-26.0753546492
 30
0.0
 10
13.3768194256
 20
-26.1305223097
 30
0.0
 11
13.0283876473
 21
-25.604333022
 31
0.0
 11
13.1500684527
 21
-25.6891793683
 31
0.0
 11
13.2565679706
 21
-25.815685162
 31
0.0
 11
13.3352646568
 21
-25.9688587326
 31
0.0
 11
13.3768194256
 21
-26.1305223097
 31
0.0
  0
SPLINE
  5
4E4
100
AcDbEntity
  8
RACCORDO
100
AcDbSpline
 62
7
  6
CONTINUOUS
 70
0
 71
3
 72
11
 73
7
 74
5
 42
0.0000001
 43
0.0000001
 44
0.0000000001
 12
0.5878046047
 22
-0.2840366875
 32
0.0
 13
0.0848509815
 23
-0.6472954534
 33
0.0
 40
0.0
 40
0.0
 40
0.0
 40
0.0
 40
0.2272268744
 40
0.4805317991
 40
0.7443161687
 40
1.0
 40
1.0
 40
1.0
 40
1.0
 10
36.8578861733
 20
-37.519082285
 30
0.0
 10
36.902407841
 20
-37.5405958746
 30
0.0
 10
36.9884748297
 20
-37.6031399849
 30
0.0
 10
37.0924364622
 20
-37.7289929065
 30
0.0
 10
37.169817897
 20
-37.8796699323
 30
0.0
 10
37.199086277
 20
-37.9901039122
 30
0.0
 10
37.2063179516
 20
-38.0452715727
 30
0.0
 11
36.8578861733
 21
-37.519082285
 31
0.0
 11
36.9795669787
 21
-37.6039286313
 31
0.0
 11
37.0860664966
 21
-37.730434425
 31
0.0
 11
37.1647631828
 21
-37.8836079956
 31
0.0
 11
37.2063179516
 21
-38.0452715727
 31
0.0
  0
SPLINE
  5
4E5
100
AcDbEntity
  8
RACCORDO
100
AcDbSpline
 62
7
  6
CONTINUOUS
 70
0
 71
3
 72
11
 73
7
 74
5
 42
0.0000001
 43
0.0000001
 44
0.0000000001
 12
0.5878046047
 22
-0.2840366875
 32
0.0
 13
0.0848509815
 23
-0.6472954534
 33
0.0
 40
0.0
 40
0.0
 40
0.0
 40
0.0
 40
0.2272268744
 40
0.4805317991
 40
0.7443161687
 40
1.0
 40
1.0
 40
1.0
 40
1.0
 10
-34.6306094046
 20
-1.774834496
 30
0.0
 10
-34.5860877369
 20
-1.7963480856
 30
0.0
 10
-34.5000207483
 20
-1.8588921959
 30
0.0
 10
-34.3960591157
 20
-1.9847451175
 30
0.0
 10
-34.3186776809
 20
-2.1354221434
 30
0.0
 10
-34.289409301
 20
-2.2458561232
 30
0.0
 10
-34.2821776263
 20
-2.3010237837
 30
0.0
 11
-34.6306094046
 21
-1.774834496
 31
0.0
 11
-34.5089285993
 21
-1.8596808423
 31
0.0
 11
-34.4024290814
 21
-1.986186636
 31
0.0
 11
-34.3237323952
 21
-2.1393602066
 31
0.0
 11
-34.2821776263
 21
-2.3010237837
 31
0.0
  0
SPLINE
  5
4E6
100
AcDbEntity
  8
RACCORDO
100
AcDbSpline
 62
7
  6
CONTINUOUS
 70
0
 71
3
 72
12
 73
8
 74
6
 42
0.0000001
 43
0.0000001
 44
0.0000000001
 12
0.0
 22
0.7332228092
 32
0.0
 13
-0.6558144176
 23
0.3279072088
 33
0.0
 40
0.0
 40
0.0
 40
0.0
 40
0.0
 40
0.2472833297
 40
0.5126686892
 40
0.7709371794
 40
0.8902174734
 40
1.0
 40
1.0
 40
1.0
 40
1.0
 10
-10.8258480362
 20
-14.4684977729
 30
0.0
 10
-10.8258480362
 20
-14.408059847
 30
0.0
 10
-10.8463367729
 20
-14.282524073
 30
0.0
 10
-10.9202031804
 20
-14.1077307328
 30
0.0
 10
-11.0136039699
 20
-13.9789810971
 30
0.0
 10
-11.1020851225
 20
-13.8988409982
 30
0.0
 10
-11.1490705296
 20
-13.8676375069
 30
0.0
 10
-11.1730695175
 20
-13.8556380129
 30
0.0
 11
-10.8258480362
 21
-14.4684977729
 31
0.0
 11
-10.85227476
 21
-14.2891201983
 31
0.0
 11
-10.9275371071
 21
-14.1096779415
 31
0.0
 11
-11.0402066038
 21
-13.9574742763
 31
0.0
 11
-11.1052727934
 21
-13.8990322256
 31
0.0
 11
-11.1730695175
 21
-13.8556380129
 31
0.0
  0
SPLINE
  5
4E7
100
AcDbEntity
  8
RACCORDO
100
AcDbSpline
 62
7
  6
CONTINUOUS
 70
0
 71
3
 72
11
 73
7
 74
5
 42
0.0000001
 43
0.0000001
 44
0.0000000001
 12
0.6512316141
 22
-0.336934202
 32
0.0
 13
-0.0105541963
 23
-0.7331547454
 33
0.0
 40
0.0
 40
0.0
 40
0.0
 40
0.0
 40
0.2280141848
 40
0.4859361893
 40
0.7515579068
 40
1.0
 40
1.0
 40
1.0
 40
1.0
 10
-10.807282176
 20
-13.6864981103
 30
0.0
 10
-10.7577854942
 20
-13.7121067028
 30
0.0
 10
-10.6635745354
 20
-13.7885420272
 30
0.0
 10
-10.5560342141
 20
-13.9394157181
 30
0.0
 10
-10.4839545851
 20
-14.1155006953
 30
0.0
 10
-10.4652493127
 20
-14.2416494912
 30
0.0
 10
-10.4661233483
 20
-14.3023649911
 30
0.0
 11
-10.807282176
 21
-13.6864981103
 31
0.0
 11
-10.6748064541
 21
-13.7884867215
 31
0.0
 11
-10.5634537024
 21
-13.9413446703
 31
0.0
 11
-10.4901712848
 21
-14.1217938985
 31
0.0
 11
-10.4661233483
 21
-14.3023649911
 31
0.0
  0
SPLINE
  5
4E8
100
AcDbEntity
  8
RACCORDO
100
AcDbSpline
 62
7
  6
CONTINUOUS
 70
0
 71
3
 72
9
 73
5
 74
3
 42
0.0000001
 43
0.0000001
 44
0.0000000001
 12
0.1969201258
 22
0.0665595788
 32
0.0
 13
0.1859197966
 23
-0.0929598983
 33
0.0
 40
0.0
 40
0.0
 40
0.0
 40
0.0
 40
0.4667201946
 40
1.0
 40
1.0
 40
1.0
 40
1.0
 10
11.2180674432
 20
-25.1299269421
 30
0.0
 10
11.2487029764
 20
-25.1195720423
 30
0.0
 10
11.3203130332
 20
-25.1144157339
 30
0.0
 10
11.3877232079
 20
-25.1360343756
 30
0.0
 10
11.4207722989
 20
-25.1525589211
 30
0.0
 11
11.2180674432
 21
-25.1299269421
 31
0.0
 11
11.3146318449
 21
-25.1205912626
 31
0.0
 11
11.4207722989
 21
-25.1525589211
 31
0.0
  0
SPLINE
  5
4E9
100
AcDbEntity
  8
RACCORDO
100
AcDbSpline
 62
7
  6
CONTINUOUS
 70
0
 71
3
 72
10
 73
6
 74
4
 42
0.0000001
 43
0.0000001
 44
0.0000000001
 12
0.209289967
 22
0.0972619934
 32
0.0
 13
0.2077974871
 23
-0.1004111049
 33
0.0
 40
0.0
 40
0.0
 40
0.0
 40
0.0
 40
0.2295603236
 40
0.4689688949
 40
1.0
 40
1.0
 40
1.0
 40
1.0
 10
11.5504256019
 20
-24.9631658188
 30
0.0
 10
11.5664404928
 20
-24.9557233206
 30
0.0
 10
11.6013766712
 20
-24.944894122
 30
0.0
 10
11.6788531273
 20
-24.9413176596
 30
0.0
 10
11.7374347358
 20
-24.9594739144
 30
0.0
 10
11.7742170456
 20
-24.9772477211
 30
0.0
 11
11.5504256019
 21
-24.9631658188
 31
0.0
 11
11.6009779629
 21
-24.9473144346
 31
0.0
 11
11.6561521291
 21
-24.9443798933
 31
0.0
 11
11.7742170456
 21
-24.9772477211
 31
0.0
  0
SPLINE
  5
4EA
100
AcDbEntity
  8
RACCORDO
100
AcDbSpline
 62
7
  6
CONTINUOUS
 70
0
 71
3
 72
10
 73
6
 74
4
 42
0.0000001
 43
0.0000001
 44
0.0000000001
 12
0.2027091416
 22
0.093592367
 32
0.0
 13
0.1983031934
 23
-0.1025981029
 33
0.0
 40
0.0
 40
0.0
 40
0.0
 40
0.0
 40
0.2284623571
 40
0.4669561241
 40
1.0
 40
1.0
 40
1.0
 40
1.0
 10
35.3817346378
 20
-36.8710146472
 30
0.0
 10
35.3971717739
 20
-36.8638872029
 30
0.0
 10
35.4309311064
 20
-36.8536805494
 30
0.0
 10
35.505985058
 20
-36.8514853991
 30
0.0
 10
35.5623095066
 20
-36.8706815719
 30
0.0
 10
35.5975442742
 20
-36.8889113354
 30
0.0
 11
35.3817346378
 21
-36.8710146472
 31
0.0
 11
35.4305140806
 21
-36.8560976551
 31
0.0
 11
35.4837266973
 21
-36.8541280445
 31
0.0
 11
35.5975442742
 21
-36.8889113354
 31
0.0
  0
SPLINE
  5
4EB
100
AcDbEntity
  8
RACCORDO
100
AcDbSpline
 62
7
  6
CONTINUOUS
 70
0
 71
3
 72
10
 73
6
 74
4
 42
0.0000001
 43
0.0000001
 44
0.0000000001
 12
0.2027091416
 22
0.093592367
 32
0.0
 13
0.1983031934
 23
-0.1025981029
 33
0.0
 40
0.0
 40
0.0
 40
0.0
 40
0.0
 40
0.2284623571
 40
0.4669561241
 40
1.0
 40
1.0
 40
1.0
 40
1.0
 10
-36.1067609402
 20
-1.1267668582
 30
0.0
 10
-36.0913238041
 20
-1.119639414
 30
0.0
 10
-36.0575644716
 20
-1.1094327604
 30
0.0
 10
-35.9825105199
 20
-1.1072376101
 30
0.0
 10
-35.9261860714
 20
-1.1264337829
 30
0.0
 10
-35.8909513038
 20
-1.1446635464
 30
0.0
 11
-36.1067609402
 21
-1.1267668582
 31
0.0
 11
-36.0579814974
 21
-1.1118498661
 31
0.0
 11
-36.0047688807
 21
-1.1098802556
 31
0.0
 11
-35.8909513038
 21
-1.1446635464
 31
0.0
  0
SPLINE
  5
4EC
100
AcDbEntity
  8
RACCORDO
100
AcDbSpline
 62
7
  6
CONTINUOUS
 70
0
 71
3
 72
10
 73
6
 74
4
 42
0.0000001
 43
0.0000001
 44
0.0000000001
 12
0.2027091416
 22
0.093592367
 32
0.0
 13
0.1983031934
 23
-0.1025981029
 33
0.0
 40
0.0
 40
0.0
 40
0.0
 40
0.0
 40
0.2284623571
 40
0.4669561241
 40
1.0
 40
1.0
 40
1.0
 40
1.0
 10
-12.2772624142
 20
-13.0415161212
 30
0.0
 10
-12.2618252781
 20
-13.0343886769
 30
0.0
 10
-12.2280659456
 20
-13.0241820234
 30
0.0
 10
-12.1530119939
 20
-13.0219868731
 30
0.0
 10
-12.0966875454
 20
-13.0411830459
 30
0.0
 10
-12.0614527778
 20
-13.0594128094
 30
0.0
 11
-12.2772624142
 21
-13.0415161212
 31
0.0
 11
-12.2284829714
 21
-13.0265991291
 31
0.0
 11
-12.1752703547
 21
-13.0246295186
 31
0.0
 11
-12.0614527778
 21
-13.0594128094
 31
0.0
  0
SPLINE
  5
4ED
100
AcDbEntity
  8
ASSI
100
AcDbSpline
 62
7
  6
CONTINUOUS
 70
0
 71
3
 72
11
 73
7
 74
5
 42
0.0000001
 43
0.0000001
 44
0.0000000001
 12
0.0483159092
 22
0.0240461291
 32
0.0
 13
0.048326814
 23
-0.0240242057
 33
0.0
 40
0.0
 40
0.0
 40
0.0
 40
0.0
 40
0.4141056993
 40
0.7151930062
 40
0.9055096016
 40
1.0
 40
1.0
 40
1.0
 40
1.0
 10
-41.7225526505
 20
3.0088700348
 30
0.0
 10
-41.7158833527
 20
3.0121892478
 30
0.0
 10
-41.7042576374
 20
3.0175851935
 30
0.0
 10
-41.6890299911
 20
3.0238571951
 30
0.0
 10
-41.6792333802
 20
3.0268523262
 30
0.0
 10
-41.6737200587
 20
3.0276870172
 30
0.0
 10
-41.6721979188
 20
3.0269303316
 30
0.0
 11
-41.7225526505
 21
3.0088700348
 31
0.0
 11
-41.7022858979
 21
3.0182896481
 31
0.0
 11
-41.6871848851
 21
3.024289725
 31
0.0
 11
-41.67729569
 21
3.0270647834
 31
0.0
 11
-41.6721979188
 21
3.0269303316
 31
0.0
  0
SPLINE
  5
4EE
100
AcDbEntity
  8
RACCORDO
100
AcDbSpline
 62
7
  6
CONTINUOUS
 70
0
 71
3
 72
11
 73
7
 74
5
 42
0.0000001
 43
0.0000001
 44
0.0000000001
 12
0.3974925321
 22
-0.1920748174
 32
0.0
 13
-0.0061350161
 23
-0.4414242972
 33
0.0
 40
0.0
 40
0.0
 40
0.0
 40
0.0
 40
0.2304286388
 40
0.4885150198
 40
0.752907934
 40
1.0
 40
1.0
 40
1.0
 40
1.0
 10
-52.6454071454
 20
32.4160357235
 30
0.0
 10
-52.6148759243
 20
32.401282544
 30
0.0
 10
-52.5565067898
 20
32.3567070616
 30
0.0
 10
-52.4894560912
 20
32.2672102551
 30
0.0
 10
-52.4444827269
 20
32.162163953
 30
0.0
 10
-52.4328021152
 20
32.0865752901
 30
0.0
 10
-52.4333074198
 20
32.0502178095
 30
0.0
 11
-52.6454071454
 21
32.4160357235
 31
0.0
 11
-52.5631185811
 21
32.3562285494
 31
0.0
 11
-52.4939208405
 21
32.2657121314
 31
0.0
 11
-52.4483374407
 21
32.1582603658
 31
0.0
 11
-52.4333074198
 21
32.0502178095
 31
0.0
  0
SPLINE
  5
4EF
100
AcDbEntity
  8
RACCORDO
100
AcDbSpline
 62
7
  6
CONTINUOUS
 70
0
 71
3
 72
11
 73
7
 74
5
 42
0.0000001
 43
0.0000001
 44
0.0000000001
 12
0.0025985231
 22
-0.1842770766
 32
0.0
 13
-0.1621869435
 23
-0.0875225037
 33
0.0
 40
0.0
 40
0.0
 40
0.0
 40
0.0
 40
0.2885747165
 40
0.5479727227
 40
0.7816955354
 40
1.0
 40
1.0
 40
1.0
 40
1.0
 10
-52.4333074198
 20
27.4705055709
 30
0.0
 10
-52.4330574637
 20
27.4527796691
 30
0.0
 10
-52.435435951
 20
27.4189533634
 30
0.0
 10
-52.4491707317
 20
27.3724566885
 30
0.0
 10
-52.4726856957
 20
27.3348542202
 30
0.0
 10
-52.4948602497
 20
27.3170490657
 30
0.0
 10
-52.5066622943
 20
27.3106802146
 30
0.0
 11
-52.4333074198
 21
27.4705055709
 31
0.0
 11
-52.4375731517
 21
27.4174939291
 31
0.0
 11
-52.451734519
 21
27.3718337081
 31
0.0
 11
-52.4751291815
 21
27.3356665607
 31
0.0
 11
-52.5066622943
 21
27.3106802146
 31
0.0
  0
SPLINE
  5
4F0
100
AcDbEntity
  8
ASSI
100
AcDbSpline
 62
7
  6
CONTINUOUS
 70
0
 71
3
 72
11
 73
7
 74
5
 42
0.0000001
 43
0.0000001
 44
0.0000000001
 12
0.048315538
 22
0.0240467905
 32
0.0
 13
0.0483272103
 23
-0.0240233238
 33
0.0
 40
0.0
 40
0.0
 40
0.0
 40
0.0
 40
0.4141046671
 40
0.7151915315
 40
0.9055086154
 40
1.0
 40
1.0
 40
1.0
 40
1.0
 10
-25.8126500738
 20
-5.0326837939
 30
0.0
 10
-25.8059808439
 20
-5.0293644979
 30
0.0
 10
-25.7943550904
 20
-5.023968701
 30
0.0
 10
-25.7791275042
 20
-5.0176966684
 30
0.0
 10
-25.7693308698
 20
-5.0147015085
 30
0.0
 10
-25.7638175472
 20
-5.0138668136
 30
0.0
 10
-25.7622953789
 20
-5.0146234794
 30
0.0
 11
-25.8126500738
 21
-5.0326837939
 31
0.0
 11
-25.7923833834
 21
-5.023264216
 31
0.0
 11
-25.7772824083
 21
-5.0172641395
 31
0.0
 11
-25.7673932005
 21
-5.0144890553
 31
0.0
 11
-25.7622953789
 21
-5.0146234794
 31
0.0
  0
SPLINE
  5
4F1
100
AcDbEntity
  8
ASSI
100
AcDbSpline
 62
7
  6
CONTINUOUS
 70
0
 71
3
 72
11
 73
7
 74
5
 42
0.0000001
 43
0.0000001
 44
0.0000000001
 12
0.048315538
 22
0.0240467905
 32
0.0
 13
0.0483272103
 23
-0.0240233238
 33
0.0
 40
0.0
 40
0.0
 40
0.0
 40
0.0
 40
0.4141046671
 40
0.7151915315
 40
0.9055086154
 40
1.0
 40
1.0
 40
1.0
 40
1.0
 10
-9.9027474971
 20
-12.9876350823
 30
0.0
 10
-9.8960782672
 20
-12.9843157862
 30
0.0
 10
-9.8844525137
 20
-12.9789199893
 30
0.0
 10
-9.8692249275
 20
-12.9726479567
 30
0.0
 10
-9.8594282931
 20
-12.9696527969
 30
0.0
 10
-9.8539149705
 20
-12.968818102
 30
0.0
 10
-9.8523928022
 20
-12.9695747677
 30
0.0
 11
-9.9027474971
 21
-12.9876350823
 31
0.0
 11
-9.8824808067
 21
-12.9782155043
 31
0.0
 11
-9.8673798316
 21
-12.9722154279
 31
0.0
 11
-9.8574906238
 21
-12.9694403437
 31
0.0
 11
-9.8523928022
 21
-12.9695747677
 31
0.0
  0
SPLINE
  5
4F2
100
AcDbEntity
  8
ASSI
100
AcDbSpline
 62
7
  6
CONTINUOUS
 70
0
 71
3
 72
11
 73
7
 74
5
 42
0.0000001
 43
0.0000001
 44
0.0000000001
 12
0.048315538
 22
0.0240467905
 32
0.0
 13
0.0483272103
 23
-0.0240233238
 33
0.0
 40
0.0
 40
0.0
 40
0.0
 40
0.0
 40
0.4141046671
 40
0.7151915315
 40
0.9055086154
 40
1.0
 40
1.0
 40
1.0
 40
1.0
 10
6.0071550796
 20
-20.9425863706
 30
0.0
 10
6.0138243095
 20
-20.9392670746
 30
0.0
 10
6.025450063
 20
-20.9338712777
 30
0.0
 10
6.0406776492
 20
-20.9275992451
 30
0.0
 10
6.0504742836
 20
-20.9246040852
 30
0.0
 10
6.0559876062
 20
-20.9237693903
 30
0.0
 10
6.0575097745
 20
-20.924526056
 30
0.0
 11
6.0071550796
 21
-20.9425863706
 31
0.0
 11
6.02742177
 21
-20.9331667926
 31
0.0
 11
6.0425227451
 21
-20.9271667162
 31
0.0
 11
6.0524119529
 21
-20.924391632
 31
0.0
 11
6.0575097745
 21
-20.924526056
 31
0.0
  0
SPLINE
  5
4F3
100
AcDbEntity
  8
ASSI
100
AcDbSpline
 62
7
  6
CONTINUOUS
 70
0
 71
3
 72
11
 73
7
 74
5
 42
0.0000001
 43
0.0000001
 44
0.0000000001
 12
0.048315538
 22
0.0240467905
 32
0.0
 13
0.0483272103
 23
-0.0240233238
 33
0.0
 40
0.0
 40
0.0
 40
0.0
 40
0.0
 40
0.4141046671
 40
0.7151915315
 40
0.9055086154
 40
1.0
 40
1.0
 40
1.0
 40
1.0
 10
21.9170576563
 20
-28.897537659
 30
0.0
 10
21.9237268862
 20
-28.8942183629
 30
0.0
 10
21.9353526397
 20
-28.888822566
 30
0.0
 10
21.9505802259
 20
-28.8825505334
 30
0.0
 10
21.9603768603
 20
-28.8795553736
 30
0.0
 10
21.9658901829
 20
-28.8787206787
 30
0.0
 10
21.9674123512
 20
-28.8794773444
 30
0.0
 11
21.9170576563
 21
-28.897537659
 31
0.0
 11
21.9373243467
 21
-28.888118081
 31
0.0
 11
21.9524253218
 21
-28.8821180046
 31
0.0
 11
21.9623145296
 21
-28.8793429204
 31
0.0
 11
21.9674123512
 21
-28.8794773444
 31
0.0
  0
SPLINE
  5
4F4
100
AcDbEntity
  8
ASSI
100
AcDbSpline
 62
7
  6
CONTINUOUS
 70
0
 71
3
 72
11
 73
7
 74
5
 42
0.0000001
 43
0.0000001
 44
0.0000000001
 12
0.048315538
 22
0.0240467905
 32
0.0
 13
0.0483272103
 23
-0.0240233238
 33
0.0
 40
0.0
 40
0.0
 40
0.0
 40
0.0
 40
0.4141046671
 40
0.7151915315
 40
0.9055086154
 40
1.0
 40
1.0
 40
1.0
 40
1.0
 10
37.826960233
 20
-36.8524889473
 30
0.0
 10
37.8336294629
 20
-36.8491696513
 30
0.0
 10
37.8452552164
 20
-36.8437738544
 30
0.0
 10
37.8604828026
 20
-36.8375018218
 30
0.0
 10
37.870279437
 20
-36.8345066619
 30
0.0
 10
37.8757927596
 20
-36.833671967
 30
0.0
 10
37.8773149279
 20
-36.8344286327
 30
0.0
 11
37.826960233
 21
-36.8524889473
 31
0.0
 11
37.8472269233
 21
-36.8430693693
 31
0.0
 11
37.8623278985
 21
-36.8370692929
 31
0.0
 11
37.8722171063
 21
-36.8342942087
 31
0.0
 11
37.8773149279
 21
-36.8344286327
 31
0.0
  0
SPLINE
  5
4F5
100
AcDbEntity
  8
RACCORDO
100
AcDbSpline
 62
7
  6
CONTINUOUS
 70
0
 71
3
 72
11
 73
7
 74
5
 42
0.0000001
 43
0.0000001
 44
0.0000000001
 12
-0.0000124808
 22
-0.1402926118
 32
0.0
 13
-0.1245837348
 23
-0.064505117
 33
0.0
 40
0.0
 40
0.0
 40
0.0
 40
0.0
 40
0.2077729763
 40
0.4361383275
 40
0.6987155742
 40
1.0
 40
1.0
 40
1.0
 40
1.0
 10
-52.3491094056
 20
27.5747039706
 30
0.0
 10
-52.34911027
 20
27.5649876328
 30
0.0
 10
-52.353290072
 20
27.5444398997
 30
0.0
 10
-52.3707996663
 20
27.5162608123
 30
0.0
 10
-52.398184709
 20
27.4908416156
 30
0.0
 10
-52.4207957068
 20
27.4769836999
 30
0.0
 10
-52.4333074198
 20
27.4705055709
 30
0.0
 11
-52.3491094056
 21
27.5747039706
 31
0.0
 11
-52.3546245614
 21
27.5460814611
 31
0.0
 11
-52.3709522656
 21
27.5185163072
 31
0.0
 11
-52.3975232764
 21
27.4930017293
 31
0.0
 11
-52.4333074198
 21
27.4705055709
 31
0.0
  0
SPLINE
  5
4F6
100
AcDbEntity
  8
RACCORDO
100
AcDbSpline
 62
7
  6
CONTINUOUS
 70
0
 71
3
 72
11
 73
7
 74
5
 42
0.0000001
 43
0.0000001
 44
0.0000000001
 12
-0.0000400072
 22
-0.140278172
 32
0.0
 13
-0.1245709164
 23
-0.0644984801
 33
0.0
 40
0.0
 40
0.0
 40
0.0
 40
0.0
 40
0.207772967
 40
0.4361420497
 40
0.6987203143
 40
1.0
 40
1.0
 40
1.0
 40
1.0
 10
-52.3491094084
 20
32.1544015716
 30
0.0
 10
-52.3491121792
 20
32.1446862343
 30
0.0
 10
-52.3532950349
 20
32.1241413527
 30
0.0
 10
-52.3708054548
 20
32.0959668008
 30
0.0
 10
-52.3981885929
 20
32.0705513662
 30
0.0
 10
-52.4207971909
 20
32.0566951701
 30
0.0
 10
-52.4333074198
 20
32.0502178095
 30
0.0
 11
-52.3491094084
 21
32.1544015716
 31
0.0
 11
-52.3546287479
 21
32.1257829243
 31
0.0
 11
-52.3709577478
 21
32.0982217609
 31
0.0
 11
-52.3975272681
 21
32.0727108969
 31
0.0
 11
-52.4333074198
 21
32.0502178095
 31
0.0
  0
SPLINE
  5
4F7
100
AcDbEntity
  8
RACCORDO
100
AcDbSpline
 62
7
  6
CONTINUOUS
 70
0
 71
3
 72
9
 73
5
 74
3
 42
0.0000001
 43
0.0000001
 44
0.0000000001
 12
-0.1199996392
 22
0.0599629832
 32
0.0
 13
-0.1210017713
 23
-0.0579141097
 33
0.0
 40
0.0
 40
0.0
 40
0.0
 40
0.0
 40
0.4650363047
 40
1.0
 40
1.0
 40
1.0
 40
1.0
 10
-52.5149575025
 20
32.4227462334
 30
0.0
 10
-52.5335588988
 20
32.4320412214
 30
0.0
 10
-52.5799331324
 20
32.4401626512
 30
0.0
 10
-52.6238299605
 20
32.4263630389
 30
0.0
 10
-52.6454071454
 20
32.4160357235
 30
0.0
 11
-52.5149575025
 21
32.4227462334
 31
0.0
 11
-52.5761545426
 21
32.4348541233
 31
0.0
 11
-52.6454071454
 21
32.4160357235
 31
0.0
  0
SPLINE
  5
4F8
100
AcDbEntity
  8
RACCORDO
100
AcDbSpline
 62
7
  6
CONTINUOUS
 70
0
 71
3
 72
10
 73
6
 74
4
 42
0.0000001
 43
0.0000001
 44
0.0000000001
 12
-0.2007849185
 22
0.1003834788
 32
0.0
 13
-0.2024829331
 23
-0.0969127862
 33
0.0
 40
0.0
 40
0.0
 40
0.0
 40
0.0
 40
0.228589462
 40
0.467155801
 40
1.0
 40
1.0
 40
1.0
 40
1.0
 10
-35.6735149748
 20
-1.1334817909
 30
0.0
 10
-35.6888140803
 20
-1.1258329224
 30
0.0
 10
-35.7224344041
 20
-1.1145164995
 30
0.0
 10
-35.7977864394
 20
-1.1099413632
 30
0.0
 10
-35.8549873517
 20
-1.1274504078
 30
0.0
 10
-35.8909513038
 20
-1.1446635464
 30
0.0
 11
-35.6735149748
 21
-1.1334817909
 31
0.0
 11
-35.722094891
 21
-1.1169559897
 31
0.0
 11
-35.7755233972
 21
-1.1132998679
 31
0.0
 11
-35.8909513038
 21
-1.1446635464
 31
0.0
  0
SPLINE
  5
4F9
100
AcDbEntity
  8
RACCORDO
100
AcDbSpline
 62
7
  6
CONTINUOUS
 70
0
 71
3
 72
9
 73
5
 74
3
 42
0.0000001
 43
0.0000001
 44
0.0000000001
 12
-0.1200027248
 22
0.0599767827
 32
0.0
 13
-0.1210098253
 23
-0.0579179644
 33
0.0
 40
0.0
 40
0.0
 40
0.0
 40
0.0
 40
0.465035448
 40
1.0
 40
1.0
 40
1.0
 40
1.0
 10
-52.8416421968
 20
32.5860885826
 30
0.0
 10
-52.8602440371
 20
32.5953856926
 30
0.0
 10
-52.9066213114
 20
32.6035104756
 30
0.0
 10
-52.9505214324
 20
32.5897102142
 30
0.0
 10
-52.972100088
 20
32.5793821949
 30
0.0
 11
-52.8416421968
 21
32.5860885826
 31
0.0
 11
-52.902842486
 21
32.5982008512
 31
0.0
 11
-52.972100088
 21
32.5793821949
 31
0.0
  0
SPLINE
  5
4FA
100
AcDbEntity
  8
RACCORDO
100
AcDbSpline
 62
7
  6
CONTINUOUS
 70
0
 71
3
 72
9
 73
5
 74
3
 42
0.0000001
 43
0.0000001
 44
0.0000000001
 12
-0.0000256854
 22
-0.1493772331
 32
0.0
 13
-0.1143359048
 23
-0.0961293883
 33
0.0
 40
0.0
 40
0.0
 40
0.0
 40
0.0
 40
0.4593390356
 40
1.0
 40
1.0
 40
1.0
 40
1.0
 10
-34.1367819961
 20
-2.2108914164
 30
0.0
 10
-34.1367859289
 20
-2.2337630145
 30
0.0
 10
-34.1517100398
 20
-2.2838918335
 30
0.0
 10
-34.1864074099
 20
-2.3213123345
 30
0.0
 10
-34.2070130634
 20
-2.3386368037
 30
0.0
 11
-34.1367819961
 21
-2.2108914164
 31
0.0
 11
-34.1546683887
 21
-2.2771339033
 31
0.0
 11
-34.2070130634
 21
-2.3386368037
 31
0.0
  0
SPLINE
  5
4FB
100
AcDbEntity
  8
RACCORDO
100
AcDbSpline
 62
7
  6
CONTINUOUS
 70
0
 71
3
 72
10
 73
6
 74
4
 42
0.0000001
 43
0.0000001
 44
0.0000000001
 12
-0.2007783487
 22
0.1003543499
 32
0.0
 13
-0.2024658842
 23
-0.0969046262
 33
0.0
 40
0.0
 40
0.0
 40
0.0
 40
0.0
 40
0.2285889596
 40
0.4671563765
 40
1.0
 40
1.0
 40
1.0
 40
1.0
 10
-34.4131902774
 20
-1.7636441415
 30
0.0
 10
-34.4284888487
 20
-1.7559975094
 30
0.0
 10
-34.4621072886
 20
-1.7446850731
 30
0.0
 10
-34.5374530615
 20
-1.7401146656
 30
0.0
 10
-34.5946485195
 20
-1.7576228253
 30
0.0
 10
-34.6306094046
 20
-1.774834496
 30
0.0
 11
-34.4131902774
 21
-1.7636441415
 31
0.0
 11
-34.4617674612
 21
-1.7471240748
 31
0.0
 11
-34.5151919229
 21
-1.7434713534
 31
0.0
 11
-34.6306094046
 21
-1.774834496
 31
0.0
  0
SPLINE
  5
4FC
100
AcDbEntity
  8
RACCORDO
100
AcDbSpline
 62
7
  6
CONTINUOUS
 70
0
 71
3
 72
10
 73
6
 74
4
 42
0.0000001
 43
0.0000001
 44
0.0000000001
 12
-0.2007849185
 22
0.1003834788
 32
0.0
 13
-0.2024829331
 23
-0.0969127862
 33
0.0
 40
0.0
 40
0.0
 40
0.0
 40
0.0
 40
0.228589462
 40
0.467155801
 40
1.0
 40
1.0
 40
1.0
 40
1.0
 10
-11.8440164489
 20
-13.0482310539
 30
0.0
 10
-11.8593155544
 20
-13.0405821854
 30
0.0
 10
-11.8929358782
 20
-13.0292657625
 30
0.0
 10
-11.9682879134
 20
-13.0246906262
 30
0.0
 10
-12.0254888257
 20
-13.0421996708
 30
0.0
 10
-12.0614527778
 20
-13.0594128094
 30
0.0
 11
-11.8440164489
 21
-13.0482310539
 31
0.0
 11
-11.892596365
 21
-13.0317052527
 31
0.0
 11
-11.9460248713
 21
-13.0280491309
 31
0.0
 11
-12.0614527778
 21
-13.0594128094
 31
0.0
  0
SPLINE
  5
4FD
100
AcDbEntity
  8
RACCORDO
100
AcDbSpline
 62
7
  6
CONTINUOUS
 70
0
 71
3
 72
11
 73
7
 74
5
 42
0.0000001
 43
0.0000001
 44
0.0000000001
 12
-0.0000812425
 22
-0.2475015482
 32
0.0
 13
-0.2228804517
 23
-0.1076165751
 33
0.0
 40
0.0
 40
0.0
 40
0.0
 40
0.0
 40
0.2053978708
 40
0.43288631
 40
0.6963220094
 40
1.0
 40
1.0
 40
1.0
 40
1.0
 10
-10.313454977
 20
-14.1225667519
 30
0.0
 10
-10.3134605393
 20
-14.1395121823
 30
0.0
 10
-10.3211596404
 20
-14.1755011671
 30
0.0
 10
-10.353112827
 20
-14.224353185
 30
0.0
 10
-10.4027653192
 20
-14.2680175307
 30
0.0
 10
-10.4435620524
 20
-14.291471396
 30
0.0
 10
-10.4661233483
 20
-14.3023649911
 30
0.0
 11
-10.313454977
 21
-14.1225667519
 31
0.0
 11
-10.3235056156
 21
-14.1723996068
 31
0.0
 11
-10.3532130218
 21
-14.2202282761
 31
0.0
 11
-10.4014071276
 21
-14.2641425741
 31
0.0
 11
-10.4661233483
 21
-14.3023649911
 31
0.0
  0
SPLINE
  5
4FE
100
AcDbEntity
  8
RACCORDO
100
AcDbSpline
 62
7
  6
CONTINUOUS
 70
0
 71
3
 72
10
 73
6
 74
4
 42
0.0000001
 43
0.0000001
 44
0.0000000001
 12
-0.2007672143
 22
0.1003049638
 32
0.0
 13
-0.2024369874
 23
-0.0968907955
 33
0.0
 40
0.0
 40
0.0
 40
0.0
 40
0.0
 40
0.2285881083
 40
0.4671573455
 40
1.0
 40
1.0
 40
1.0
 40
1.0
 10
-10.5898922058
 20
-13.6752931857
 30
0.0
 10
-10.6051898717
 20
-13.6676503451
 30
0.0
 10
-10.6388051172
 20
-13.6563446671
 30
0.0
 10
-10.7141402747
 20
-13.6517822646
 30
0.0
 10
-10.7713264888
 20
-13.6692889274
 30
0.0
 10
-10.807282176
 20
-13.6864981103
 30
0.0
 11
-10.5898922058
 21
-13.6752931857
 31
0.0
 11
-10.6384647579
 21
-13.6587828393
 31
0.0
 11
-10.6918823619
 21
-13.6551358769
 31
0.0
 11
-10.807282176
 21
-13.6864981103
 31
0.0
  0
SPLINE
  5
4FF
100
AcDbEntity
  8
RACCORDO
100
AcDbSpline
 62
7
  6
CONTINUOUS
 70
0
 71
3
 72
10
 73
6
 74
4
 42
0.0000001
 43
0.0000001
 44
0.0000000001
 12
-0.2007849323
 22
0.1003834738
 32
0.0
 13
-0.2024829422
 23
-0.0969127905
 33
0.0
 40
0.0
 40
0.0
 40
0.0
 40
0.0
 40
0.2285894578
 40
0.4671557942
 40
1.0
 40
1.0
 40
1.0
 40
1.0
 10
11.9916533836
 20
-24.9660659703
 30
0.0
 10
11.9763542773
 20
-24.9584171023
 30
0.0
 10
11.9427339543
 20
-24.9471006747
 30
0.0
 10
11.8673819151
 20
-24.9425255367
 30
0.0
 10
11.8101809997
 20
-24.9600345815
 30
0.0
 10
11.7742170456
 20
-24.9772477211
 30
0.0
 11
11.9916533836
 21
-24.9660659703
 31
0.0
 11
11.943073467
 21
-24.9495401659
 31
0.0
 11
11.8896449591
 21
-24.9458840421
 31
0.0
 11
11.7742170456
 21
-24.9772477211
 31
0.0
  0
SPLINE
  5
500
100
AcDbEntity
  8
RACCORDO
100
AcDbSpline
 62
7
  6
CONTINUOUS
 70
0
 71
3
 72
9
 73
5
 74
3
 42
0.0000001
 43
0.0000001
 44
0.0000000001
 12
-0.0000256854
 22
-0.1493772331
 32
0.0
 13
-0.1143359048
 23
-0.0961293883
 33
0.0
 40
0.0
 40
0.0
 40
0.0
 40
0.0
 40
0.4593390356
 40
1.0
 40
1.0
 40
1.0
 40
1.0
 10
13.5222150559
 20
-26.0403899424
 30
0.0
 10
13.5222111231
 20
-26.0632615404
 30
0.0
 10
13.5072870122
 20
-26.1133903595
 30
0.0
 10
13.472589642
 20
-26.1508108604
 30
0.0
 10
13.4519839885
 20
-26.1681353297
 30
0.0
 11
13.5222150559
 21
-26.0403899424
 31
0.0
 11
13.5043286633
 21
-26.1066324293
 31
0.0
 11
13.4519839885
 21
-26.1681353297
 31
0.0
  0
SPLINE
  5
501
100
AcDbEntity
  8
RACCORDO
100
AcDbSpline
 62
7
  6
CONTINUOUS
 70
0
 71
3
 72
10
 73
6
 74
4
 42
0.0000001
 43
0.0000001
 44
0.0000000001
 12
-0.2007783487
 22
0.1003543499
 32
0.0
 13
-0.2024658842
 23
-0.0969046262
 33
0.0
 40
0.0
 40
0.0
 40
0.0
 40
0.0
 40
0.2285889596
 40
0.4671563765
 40
1.0
 40
1.0
 40
1.0
 40
1.0
 10
13.2458067746
 20
-25.5931426675
 30
0.0
 10
13.2305082033
 20
-25.5854960354
 30
0.0
 10
13.1968897634
 20
-25.5741835991
 30
0.0
 10
13.1215439905
 20
-25.5696131915
 30
0.0
 10
13.0643485325
 20
-25.5871213513
 30
0.0
 10
13.0283876473
 20
-25.604333022
 30
0.0
 11
13.2458067746
 21
-25.5931426675
 31
0.0
 11
13.1972295907
 21
-25.5766226008
 31
0.0
 11
13.1438051291
 21
-25.5729698794
 31
0.0
 11
13.0283876473
 21
-25.604333022
 31
0.0
  0
SPLINE
  5
502
100
AcDbEntity
  8
RACCORDO
100
AcDbSpline
 62
7
  6
CONTINUOUS
 70
0
 71
3
 72
10
 73
6
 74
4
 42
0.0000001
 43
0.0000001
 44
0.0000000001
 12
-0.2007849185
 22
0.1003834788
 32
0.0
 13
-0.2024829331
 23
-0.0969127862
 33
0.0
 40
0.0
 40
0.0
 40
0.0
 40
0.0
 40
0.228589462
 40
0.467155801
 40
1.0
 40
1.0
 40
1.0
 40
1.0
 10
35.8149806031
 20
-36.8777295799
 30
0.0
 10
35.7996814976
 20
-36.8700807114
 30
0.0
 10
35.7660611738
 20
-36.8587642884
 30
0.0
 10
35.6907091386
 20
-36.8541891522
 30
0.0
 10
35.6335082263
 20
-36.8716981968
 30
0.0
 10
35.5975442742
 20
-36.8889113354
 30
0.0
 11
35.8149806031
 21
-36.8777295799
 31
0.0
 11
35.7664006869
 21
-36.8612037786
 31
0.0
 11
35.7129721807
 21
-36.8575476569
 31
0.0
 11
35.5975442742
 21
-36.8889113354
 31
0.0
  0
SPLINE
  5
503
100
AcDbEntity
  8
RACCORDO
100
AcDbSpline
 62
7
  6
CONTINUOUS
 70
0
 71
3
 72
9
 73
5
 74
3
 42
0.0000001
 43
0.0000001
 44
0.0000000001
 12
-0.0000256854
 22
-0.1493772331
 32
0.0
 13
-0.1143359048
 23
-0.0961293883
 33
0.0
 40
0.0
 40
0.0
 40
0.0
 40
0.0
 40
0.4593390356
 40
1.0
 40
1.0
 40
1.0
 40
1.0
 10
37.3517135819
 20
-37.9551392054
 30
0.0
 10
37.3517096491
 20
-37.9780108034
 30
0.0
 10
37.3367855382
 20
-38.0281396225
 30
0.0
 10
37.302088168
 20
-38.0655601234
 30
0.0
 10
37.2814825145
 20
-38.0828845927
 30
0.0
 11
37.3517135819
 21
-37.9551392054
 31
0.0
 11
37.3338271892
 21
-38.0213816923
 31
0.0
 11
37.2814825145
 21
-38.0828845927
 31
0.0
  0
SPLINE
  5
504
100
AcDbEntity
  8
RACCORDO
100
AcDbSpline
 62
7
  6
CONTINUOUS
 70
0
 71
3
 72
10
 73
6
 74
4
 42
0.0000001
 43
0.0000001
 44
0.0000000001
 12
-0.2007783487
 22
0.1003543499
 32
0.0
 13
-0.2024658842
 23
-0.0969046262
 33
0.0
 40
0.0
 40
0.0
 40
0.0
 40
0.0
 40
0.2285889596
 40
0.4671563765
 40
1.0
 40
1.0
 40
1.0
 40
1.0
 10
37.0753053006
 20
-37.5078919305
 30
0.0
 10
37.0600067293
 20
-37.5002452984
 30
0.0
 10
37.0263882894
 20
-37.4889328621
 30
0.0
 10
36.9510425165
 20
-37.4843624545
 30
0.0
 10
36.8938470585
 20
-37.5018706143
 30
0.0
 10
36.8578861733
 20
-37.519082285
 30
0.0
 11
37.0753053006
 21
-37.5078919305
 31
0.0
 11
37.0267281167
 21
-37.4913718638
 31
0.0
 11
36.9733036551
 21
-37.4877191424
 31
0.0
 11
36.8578861733
 21
-37.519082285
 31
0.0
  0
SPLINE
  5
505
100
AcDbEntity
  8
RACCORDO
100
AcDbSpline
 62
7
  6
CONTINUOUS
 70
0
 71
3
 72
9
 73
5
 74
3
 42
0.0000001
 43
0.0000001
 44
0.0000000001
 12
0.1211472951
 22
0.0559346344
 32
0.0
 13
0.1185141191
 23
-0.061316833
 33
0.0
 40
0.0
 40
0.0
 40
0.0
 40
0.0
 40
0.4648521119
 40
1.0
 40
1.0
 40
1.0
 40
1.0
 10
-53.1015858678
 20
32.5901202087
 30
0.0
 10
-53.0828140092
 20
32.5987873197
 30
0.0
 10
-53.036449381
 20
32.6054090811
 30
0.0
 10
-52.9932409482
 20
32.5903200528
 30
0.0
 10
-52.972100088
 20
32.5793821949
 30
0.0
 11
-53.1015858678
 21
32.5901202087
 31
0.0
 11
-53.0403906328
 21
32.6002521693
 31
0.0
 11
-52.972100088
 21
32.5793821949
 31
0.0
  0
SPLINE
  5
506
100
AcDbEntity
  8
SMUSSO
100
AcDbSpline
 62
7
  6
CONTINUOUS
 70
0
 71
3
 72
11
 73
7
 74
5
 42
0.0000001
 43
0.0000001
 44
0.0000000001
 12
0.5212902236
 22
-0.3908910505
 32
0.0
 13
0.0000000005
 23
-0.6515668121
 33
0.0
 40
0.0
 40
0.0
 40
0.0
 40
0.0
 40
0.2409201141
 40
0.4999921995
 40
0.7590683138
 40
1.0
 40
1.0
 40
1.0
 40
1.0
 10
75.3245206771
 20
10.222625337
 30
0.0
 10
75.3663837772
 20
10.1912341649
 30
0.0
 10
75.4439561956
 20
10.113369962
 30
0.0
 10
75.5328168633
 20
9.9732102455
 30
0.0
 10
75.5916380505
 20
9.8180266872
 30
0.0
 10
75.6073925783
 20
9.7092480952
 30
0.0
 10
75.6073925784
 20
9.6569203983
 30
0.0
 11
75.3245206771
 21
10.222625337
 31
0.0
 11
75.4367191704
 21
10.1128399937
 31
0.0
 11
75.5276900002
 21
9.9706475739
 31
0.0
 11
75.5868715575
 21
9.8125564432
 31
0.0
 11
75.6073925784
 21
9.6569203983
 31
0.0
  0
SPLINE
  5
507
100
AcDbEntity
  8
DRAFT
100
AcDbSpline
 62
7
  6
CONTINUOUS
 70
0
 71
3
 72
11
 73
7
 74
5
 42
0.0000001
 43
0.0000001
 44
0.0000000001
 12
0.6261200182
 22
0.330537926
 32
0.0
 13
0.6332655671
 23
-0.3166327829
 33
0.0
 40
0.0
 40
0.0
 40
0.0
 40
0.0
 40
0.2272052889
 40
0.4644991273
 40
0.7204661003
 40
1.0
 40
1.0
 40
1.0
 40
1.0
 10
-71.0213147505
 20
83.2591972695
 30
0.0
 10
-70.9738954907
 20
83.2842305912
 30
0.0
 10
-70.8689178048
 20
83.321445385
 30
0.0
 10
-70.6973618436
 20
83.3321417049
 30
0.0
 10
-70.5164623326
 20
83.2992871516
 30
0.0
 10
-70.3984534573
 20
83.2517747406
 30
0.0
 10
-70.3394470595
 20
83.2222715417
 30
0.0
 11
-71.0213147505
 21
83.2591972695
 31
0.0
 11
-70.8698513079
 21
83.3133831176
 31
0.0
 11
-70.7022686648
 21
83.3253164865
 31
0.0
 11
-70.5236568898
 21
83.2946350821
 31
0.0
 11
-70.3394470595
 21
83.2222715417
 31
0.0
  0
SPLINE
  5
508
100
AcDbEntity
  8
DRAFT
100
AcDbSpline
 62
7
  6
CONTINUOUS
 70
0
 71
3
 72
9
 73
5
 74
3
 42
0.0000001
 43
0.0000001
 44
0.0000000001
 12
-0.2861906178
 22
-0.1510842179
 32
0.0
 13
-0.1691987988
 23
-0.2758682241
 33
0.0
 40
0.0
 40
0.0
 40
0.0
 40
0.0
 40
0.4874623108
 40
1.0
 40
1.0
 40
1.0
 40
1.0
 10
-72.6935582686
 20
82.3764039615
 30
0.0
 10
-72.7400606486
 20
82.3518546742
 30
0.0
 10
-72.828452576
 20
82.2871607814
 30
0.0
 10
-72.8957023471
 20
82.2011511912
 30
0.0
 10
-72.9246092675
 20
82.1540202371
 30
0.0
 11
-72.6935582686
 21
82.3764039615
 31
0.0
 11
-72.8212123263
 21
82.2837179798
 31
0.0
 11
-72.9246092675
 21
82.1540202371
 31
0.0
  0
SPLINE
  5
509
100
AcDbEntity
  8
DRAFT
100
AcDbSpline
 62
7
  6
CONTINUOUS
 70
0
 71
3
 72
11
 73
7
 74
5
 42
0.0000001
 43
0.0000001
 44
0.0000000001
 12
0.0
 22
-0.9568012632
 32
0.0
 13
-0.8650231053
 23
-0.4089054714
 33
0.0
 40
0.0
 40
0.0
 40
0.0
 40
0.0
 40
0.2901625027
 40
0.5498879963
 40
0.78281024
 40
1.0
 40
1.0
 40
1.0
 40
1.0
 10
75.6073925784
 20
-80.1642004323
 30
0.0
 10
75.6073925784
 20
-80.2567430487
 30
0.0
 10
75.5922644062
 20
-80.4328133226
 30
0.0
 10
75.5157931473
 20
-80.6731430041
 30
0.0
 10
75.3880068676
 20
-80.8644031433
 30
0.0
 10
75.269042609
 20
-80.9513218995
 30
0.0
 10
75.2064178888
 20
-80.9809252599
 30
0.0
 11
75.6073925784
 21
-80.1642004323
 31
0.0
 11
75.5806821623
 21
-80.4405403974
 31
0.0
 11
75.5019009806
 21
-80.6762278993
 31
0.0
 11
75.375016582
 21
-80.8594410576
 31
0.0
 11
75.2064178888
 21
-80.9809252599
 31
0.0
  0
SPLINE
  5
50A
100
AcDbEntity
  8
DRAFT
100
AcDbSpline
 62
7
  6
CONTINUOUS
 70
0
 71
3
 72
9
 73
5
 74
3
 42
0.0000001
 43
0.0000001
 44
0.0000000001
 12
0.2402651583
 22
0.0068428664
 32
0.0
 13
0.2173065564
 23
0.1027230823
 33
0.0
 40
0.0
 40
0.0
 40
0.0
 40
0.0
 40
0.507549906
 40
1.0
 40
1.0
 40
1.0
 40
1.0
 10
73.2640034861
 20
-81.8432813096
 30
0.0
 10
73.3046523389
 20
-81.8421236109
 30
0.0
 10
73.3847770563
 20
-81.8323086669
 30
0.0
 10
73.4611652781
 20
-81.8059065752
 30
0.0
 10
73.4968361562
 20
-81.789044578
 30
0.0
 11
73.2640034861
 21
-81.8432813096
 31
0.0
 11
73.3850243774
 21
-81.8278874993
 31
0.0
 11
73.4968361562
 21
-81.789044578
 31
0.0
  0
SPLINE
  5
50B
100
AcDbEntity
  8
DRAFT
100
AcDbSpline
 62
7
  6
CONTINUOUS
 70
0
 71
3
 72
9
 73
5
 74
3
 42
0.0000001
 43
0.0000001
 44
0.0000000001
 12
0.2237767483
 22
-0.1118883742
 32
0.0
 13
0.200153488
 23
-0.1501120336
 33
0.0
 40
0.0
 40
0.0
 40
0.0
 40
0.0
 40
0.2413233768
 40
1.0
 40
1.0
 40
1.0
 40
1.0
 10
74.5467324066
 20
10.7791818087
 30
0.0
 10
74.5647332601
 20
10.7701813819
 30
0.0
 10
74.6383858317
 20
10.7310173604
 30
0.0
 10
74.7082350309
 20
10.684842059
 30
0.0
 10
74.7588522884
 20
10.6468798954
 30
0.0
 11
74.5467324066
 21
10.7791818087
 31
0.0
 11
74.6000599378
 21
10.7508706783
 31
0.0
 11
74.7588522884
 21
10.6468798954
 31
0.0
  0
SPLINE
  5
50C
100
AcDbEntity
  8
DRAFT
100
AcDbSpline
 62
7
  6
CONTINUOUS
 70
0
 71
3
 72
11
 73
7
 74
5
 42
0.0000001
 43
0.0000001
 44
0.0000000001
 12
1.5637021623
 22
-1.1727525407
 32
0.0
 13
0.0000000014
 23
-1.9546132544
 33
0.0
 40
0.0
 40
0.0
 40
0.0
 40
0.0
 40
0.2409247476
 40
0.4999964389
 40
0.7590688621
 40
1.0
 40
1.0
 40
1.0
 40
1.0
 10
74.7588522884
 20
10.6468798954
 30
0.0
 10
74.8844304713
 20
10.5526981921
 30
0.0
 10
75.1171281713
 20
10.3191051029
 30
0.0
 10
75.3836879545
 20
9.8986377239
 30
0.0
 10
75.5601339792
 20
9.4331077894
 30
0.0
 10
75.6073925783
 20
9.1067893501
 30
0.0
 10
75.6073925784
 20
8.9498136183
 30
0.0
 11
74.7588522884
 21
10.6468798954
 31
0.0
 11
75.0954213903
 21
10.3175139911
 31
0.0
 11
75.3683094645
 21
9.8909488396
 31
0.0
 11
75.545835427
 21
9.4167002648
 31
0.0
 11
75.6073925784
 21
8.9498136183
 31
0.0
  0
SPLINE
  5
50D
100
AcDbEntity
  8
DRAFT
100
AcDbSpline
 62
7
  6
CONTINUOUS
 70
0
 71
3
 72
11
 73
7
 74
5
 42
0.0000001
 43
0.0000001
 44
0.0000000001
 12
0.8409477157
 22
0.3975247819
 32
0.0
 13
-0.0000000007
 23
0.9301714964
 33
0.0
 40
0.0
 40
0.0
 40
0.0
 40
0.0
 40
0.21718976
 40
0.4501120036
 40
0.7098374972
 40
1.0
 40
1.0
 40
1.0
 40
1.0
 10
73.4968361562
 20
-81.789044578
 30
0.0
 10
73.5577179003
 20
-81.7602651407
 30
0.0
 10
73.6733711365
 20
-81.6757655142
 30
0.0
 10
73.7976008586
 20
-81.4898285419
 30
0.0
 10
73.8719437634
 20
-81.2561877347
 30
0.0
 10
73.886650887
 20
-81.0850178622
 30
0.0
 10
73.8866508869
 20
-80.995050899
 30
0.0
 11
73.4968361562
 21
-81.789044578
 31
0.0
 11
73.6607423975
 21
-81.6709415335
 31
0.0
 11
73.7840953397
 21
-81.4928275781
 31
0.0
 11
73.8606838773
 21
-81.2636997489
 31
0.0
 11
73.8866508869
 21
-80.995050899
 31
0.0
  0
SPLINE
  5
50E
100
AcDbEntity
  8
DRAFT
100
AcDbSpline
 62
7
  6
CONTINUOUS
 70
0
 71
3
 72
11
 73
7
 74
5
 42
0.0000001
 43
0.0000001
 44
0.0000000001
 12
-0.6156404704
 22
0.3078202352
 32
0.0
 13
-0.6086937972
 23
-0.3213383688
 33
0.0
 40
0.0
 40
0.0
 40
0.0
 40
0.0
 40
0.2795338998
 40
0.5355008729
 40
0.7727947112
 40
1.0
 40
1.0
 40
1.0
 40
1.0
 10
-72.0306683722
 20
82.3405059531
 30
0.0
 10
-72.0880324993
 20
82.3691880167
 30
0.0
 10
-72.2027569425
 20
82.4153780587
 30
0.0
 10
-72.3786216442
 20
82.4473182017
 30
0.0
 10
-72.5454028466
 20
82.4369195826
 30
0.0
 10
-72.6474587853
 20
82.4007405538
 30
0.0
 10
-72.6935582686
 20
82.3764039615
 30
0.0
 11
-72.0306683722
 21
82.3405059531
 31
0.0
 11
-72.2097512601
 21
82.4108554659
 31
0.0
 11
-72.3833918984
 21
82.4406829432
 31
0.0
 11
-72.5463103683
 21
82.4290817049
 31
0.0
 11
-72.6935582686
 21
82.3764039615
 31
0.0
  0
SPLINE
  5
50F
100
AcDbEntity
  8
DRAFT
100
AcDbSpline
 62
7
  6
CONTINUOUS
 70
0
 71
3
 72
12
 73
8
 74
6
 42
0.0000001
 43
0.0000001
 44
0.0000000001
 12
0.0
 22
2.1421545657
 32
0.0
 13
-1.9160012917
 23
0.9580006437
 33
0.0
 40
0.0
 40
0.0
 40
0.0
 40
0.0
 40
0.2466626608
 40
0.5115167918
 40
0.6433273503
 40
0.7704456963
 40
1.0
 40
1.0
 40
1.0
 40
1.0
 10
73.8866508869
 20
8.1189631492
 30
0.0
 10
73.8866508869
 20
8.2950929976
 30
0.0
 10
73.8258440805
 20
8.6609033751
 30
0.0
 10
73.6420192094
 20
9.0863433543
 30
0.0
 10
73.4349880511
 20
9.3990670553
 30
0.0
 10
73.2073117622
 20
9.6636068894
 30
0.0
 10
73.0021198728
 20
9.8241118308
 30
0.0
 10
72.855511092
 20
9.897416221
 30
0.0
 11
73.8866508869
 21
8.1189631492
 31
0.0
 11
73.8081587718
 21
8.6414901812
 31
0.0
 11
73.5846352075
 21
9.1629620096
 31
0.0
 11
73.4283809404
 21
9.3981448687
 31
0.0
 11
73.2501083553
 21
9.6039847743
 31
0.0
 11
72.855511092
 21
9.897416221
 31
0.0
  0
SPLINE
  5
510
100
AcDbEntity
  8
SMUSSO
100
AcDbSpline
 62
7
  6
CONTINUOUS
 70
0
 71
3
 72
11
 73
7
 74
5
 42
0.0000001
 43
0.0000001
 44
0.0000000001
 12
0.5211626239
 22
-0.3908665135
 32
0.0
 13
0.0
 23
-0.6514500072
 33
0.0
 40
0.0
 40
0.0
 40
0.0
 40
0.0
 40
0.2409429555
 40
0.5000138527
 40
0.7590645363
 40
1.0
 40
1.0
 40
1.0
 40
1.0
 10
72.9558071866
 20
9.1255567297
 30
0.0
 10
72.9976640076
 20
9.094164552
 30
0.0
 10
73.0752021158
 20
9.0162866022
 30
0.0
 10
73.1640397971
 20
8.8761514048
 30
0.0
 10
73.222835772
 20
8.7209948246
 30
0.0
 10
73.2385848614
 20
8.6122409188
 30
0.0
 10
73.2385848614
 20
8.5599217822
 30
0.0
 11
72.9558071866
 21
9.1255567297
 31
0.0
 11
73.0679748363
 21
9.0157588295
 31
0.0
 11
73.1589154017
 21
8.8735838912
 31
0.0
 11
73.218070269
 21
8.7155327713
 31
0.0
 11
73.2385848614
 21
8.5599217822
 31
0.0
  0
SPLINE
  5
511
100
AcDbEntity
  8
SMUSSO
100
AcDbSpline
 62
7
  6
CONTINUOUS
 70
0
 71
3
 72
9
 73
5
 74
3
 42
0.0000001
 43
0.0000001
 44
0.0000000001
 12
0.13343754
 22
-0.1000729337
 32
0.0
 13
0.149184903
 23
-0.0745924517
 33
0.0
 40
0.0
 40
0.0
 40
0.0
 40
0.0
 40
0.2586974863
 40
1.0
 40
1.0
 40
1.0
 40
1.0
 10
-75.0417003123
 20
-10.3364197643
 30
0.0
 10
-75.0301936603
 20
-10.3450493031
 30
0.0
 10
-74.9850440952
 20
-10.3774931162
 30
0.0
 10
-74.9371495117
 20
-10.4061987721
 30
0.0
 10
-74.9002857972
 20
-10.4246306294
 30
0.0
 11
-75.0417003123
 21
-10.3364197643
 31
0.0
 11
-75.0066497936
 21
-10.361585395
 31
0.0
 11
-74.9002857972
 21
-10.4246306294
 31
0.0
  0
SPLINE
  5
512
100
AcDbEntity
  8
SMUSSO
100
AcDbSpline
 62
7
  6
CONTINUOUS
 70
0
 71
3
 72
11
 73
7
 74
5
 42
0.0000001
 43
0.0000001
 44
0.0000000001
 12
0.4148400139
 22
0.2074023936
 32
0.0
 13
0.4148329688
 23
-0.2074164844
 33
0.0
 40
0.0
 40
0.0
 40
0.0
 40
0.0
 40
0.2271114176
 40
0.4646734053
 40
0.7207749347
 40
1.0
 40
1.0
 40
1.0
 40
1.0
 10
-73.5797323868
 20
82.2863473298
 30
0.0
 10
-73.5483274189
 20
82.3020484803
 30
0.0
 10
-73.4791224704
 20
82.3250789655
 30
0.0
 10
-73.3666797771
 20
82.3307033288
 30
0.0
 10
-73.2483421841
 20
82.3084687798
 30
0.0
 10
-73.1711294318
 20
82.277250942
 30
0.0
 10
-73.1325188442
 20
82.2579456482
 30
0.0
 11
-73.5797323868
 21
82.2863473298
 31
0.0
 11
-73.4798941107
 21
82.3199256239
 31
0.0
 11
-73.3699025713
 21
82.3263778196
 31
0.0
 11
-73.2529701254
 21
82.3055138672
 31
0.0
 11
-73.1325188442
 21
82.2579456482
 31
0.0
  0
SPLINE
  5
513
100
AcDbEntity
  8
SMUSSO
100
AcDbSpline
 62
7
  6
CONTINUOUS
 70
0
 71
3
 72
11
 73
7
 74
5
 42
0.0000001
 43
0.0000001
 44
0.0000000001
 12
-0.5632499163
 22
-0.2816010432
 32
0.0
 13
-0.0000000007
 23
-0.6297218559
 33
0.0
 40
0.0
 40
0.0
 40
0.0
 40
0.0
 40
0.2171530584
 40
0.45041938
 40
0.7102402741
 40
1.0
 40
1.0
 40
1.0
 40
1.0
 10
-75.3474976621
 20
81.4024646921
 30
0.0
 10
-75.3882681427
 20
81.3820811829
 30
0.0
 10
-75.4654178131
 20
81.3233862877
 30
0.0
 10
-75.5480795387
 20
81.1965896685
 30
0.0
 10
-75.5975692094
 20
81.0382116839
 30
0.0
 10
-75.6073925783
 20
80.922412836
 30
0.0
 10
-75.6073925784
 20
80.8615901586
 30
0.0
 11
-75.3474976621
 21
81.4024646921
 31
0.0
 11
-75.4569104158
 21
81.3204383231
 31
0.0
 11
-75.53912177
 21
81.1987057572
 31
0.0
 11
-75.5901068799
 21
81.0432375848
 31
0.0
 11
-75.6073925784
 21
80.8615901586
 31
0.0
  0
SPLINE
  5
514
100
AcDbEntity
  8
SMUSSO
100
AcDbSpline
 62
7
  6
CONTINUOUS
 70
0
 71
3
 72
11
 73
7
 74
5
 42
0.0000001
 43
0.0000001
 44
0.0000000001
 12
-0.0000000006
 22
-0.6297215485
 32
0.0
 13
-0.5632496412
 23
-0.2816009061
 33
0.0
 40
0.0
 40
0.0
 40
0.0
 40
0.0
 40
0.2897538844
 40
0.5495823905
 40
0.7828465249
 40
1.0
 40
1.0
 40
1.0
 40
1.0
 10
73.2385848614
 20
-81.8602736019
 30
0.0
 10
73.2385848613
 20
-81.9210950235
 30
0.0
 10
73.2287718735
 20
-82.0368956731
 30
0.0
 10
73.1792707691
 20
-82.1952703596
 30
0.0
 10
73.096612364
 20
-82.3220695149
 30
0.0
 10
73.0194621618
 20
-82.3807637582
 30
0.0
 10
72.9786916228
 20
-82.4011472966
 30
0.0
 11
73.2385848614
 21
-81.8602736019
 31
0.0
 11
73.2213055223
 21
-82.0419178487
 31
0.0
 11
73.170314421
 21
-82.1973890167
 31
0.0
 11
73.0881045544
 21
-82.3191208387
 31
0.0
 11
72.9786916228
 21
-82.4011472966
 31
0.0
  0
SPLINE
  5
515
100
AcDbEntity
  8
SMUSSO
100
AcDbSpline
 62
7
  6
CONTINUOUS
 70
0
 71
3
 72
11
 73
7
 74
5
 42
0.0000001
 43
0.0000001
 44
0.0000000001
 12
0.4148336549
 22
-0.2074168264
 32
0.0
 13
0.4148406999
 23
0.2074027359
 33
0.0
 40
0.0
 40
0.0
 40
0.0
 40
0.0
 40
0.279233857
 40
0.5353251293
 40
0.7728891819
 40
1.0
 40
1.0
 40
1.0
 40
1.0
 10
70.7637111272
 20
-83.2566290916
 30
0.0
 10
70.8023229944
 20
-83.2759350251
 30
0.0
 10
70.879538376
 20
-83.3071451558
 30
0.0
 10
70.9978742464
 20
-83.3293883216
 30
0.0
 10
71.1103162128
 20
-83.3237609761
 30
0.0
 10
71.1795214107
 20
-83.3007310692
 30
0.0
 10
71.2109263476
 20
-83.2850299342
 30
0.0
 11
70.7637111272
 21
-83.2566290916
 31
0.0
 11
70.8841681577
 21
-83.3041944361
 31
0.0
 11
71.0010955168
 21
-83.3250609321
 31
0.0
 11
71.1110881654
 21
-83.3186081815
 31
0.0
 11
71.2109263476
 21
-83.2850299342
 31
0.0
  0
SPLINE
  5
516
100
AcDbEntity
  8
SMUSSO
100
AcDbSpline
 62
7
  6
CONTINUOUS
 70
0
 71
3
 72
9
 73
5
 74
3
 42
0.0000001
 43
0.0000001
 44
0.0000000001
 12
0.1491936387
 22
-0.0745968195
 32
0.0
 13
0.1334429872
 23
-0.1000819488
 33
0.0
 40
0.0
 40
0.0
 40
0.0
 40
0.0
 40
0.2413231767
 40
1.0
 40
1.0
 40
1.0
 40
1.0
 10
72.5314780802
 20
9.425947186
 30
0.0
 10
72.5434793745
 20
9.4199465389
 30
0.0
 10
72.5925840416
 20
9.3938354818
 30
0.0
 10
72.6391528371
 20
9.3630497422
 30
0.0
 10
72.6728995376
 20
9.3377397906
 30
0.0
 11
72.5314780802
 21
9.425947186
 31
0.0
 11
72.5670318818
 21
9.4070718935
 31
0.0
 11
72.6728995376
 21
9.3377397906
 31
0.0
  0
SPLINE
  5
517
100
AcDbEntity
  8
SMUSSO
100
AcDbSpline
 62
7
  6
CONTINUOUS
 70
0
 71
3
 72
11
 73
7
 74
5
 42
0.0000001
 43
0.0000001
 44
0.0000000001
 12
0.563249367
 22
0.281600768
 32
0.0
 13
-0.0000000007
 23
0.6297212414
 33
0.0
 40
0.0
 40
0.0
 40
0.0
 40
0.0
 40
0.2171538919
 40
0.4504158393
 40
0.7102519575
 40
1.0
 40
1.0
 40
1.0
 40
1.0
 10
71.2109263476
 20
-83.2850299342
 30
0.0
 10
71.251696945
 20
-83.2646463666
 30
0.0
 10
71.3288476791
 20
-83.205952775
 30
0.0
 10
71.4115027638
 20
-83.0791510836
 30
0.0
 10
71.4610153016
 20
-82.920779695
 30
0.0
 10
71.4708179085
 20
-82.8049772441
 30
0.0
 10
71.4708179084
 20
-82.7441570784
 30
0.0
 11
71.2109263476
 21
-83.2850299342
 31
0.0
 11
71.3203394572
 21
-83.2030033873
 31
0.0
 11
71.4025478362
 21
-83.081272309
 31
0.0
 11
71.4535449288
 21
-82.9257981452
 31
0.0
 11
71.4708179084
 21
-82.7441570784
 31
0.0
  0
SPLINE
  5
518
100
AcDbEntity
  8
SMUSSO
100
AcDbSpline
 62
7
  6
CONTINUOUS
 70
0
 71
3
 72
11
 73
7
 74
5
 42
0.0000001
 43
0.0000001
 44
0.0000000001
 12
1.042453391
 22
-0.7818377649
 32
0.0
 13
0.0000000001
 23
-1.3030653717
 33
0.0
 40
0.0
 40
0.0
 40
0.0
 40
0.0
 40
0.2409256215
 40
0.499997499
 40
0.7590695332
 40
1.0
 40
1.0
 40
1.0
 40
1.0
 10
72.6728995376
 20
9.3377397906
 30
0.0
 10
72.756617448
 20
9.2749515408
 30
0.0
 10
72.9117471181
 20
9.1192225173
 30
0.0
 10
73.0894511297
 20
8.8389121185
 30
0.0
 10
73.2070797626
 20
8.5285612418
 30
0.0
 10
73.2385848614
 20
8.3110177744
 30
0.0
 10
73.2385848614
 20
8.2063683916
 30
0.0
 11
72.6728995376
 21
9.3377397906
 31
0.0
 11
72.8972763509
 21
9.1181617381
 31
0.0
 11
73.0791990474
 21
8.8337860798
 31
0.0
 11
73.1975475897
 21
8.5176229211
 31
0.0
 11
73.2385848614
 21
8.2063683916
 31
0.0
  0
SPLINE
  5
519
100
AcDbEntity
  8
SMUSSO
100
AcDbSpline
 62
7
  6
CONTINUOUS
 70
0
 71
3
 72
11
 73
7
 74
5
 42
0.0000001
 43
0.0000001
 44
0.0000000001
 12
-0.414832283
 22
0.2074161426
 32
0.0
 13
-0.4148393286
 23
-0.2074020507
 33
0.0
 40
0.0
 40
0.0
 40
0.0
 40
0.0
 40
0.2792162746
 40
0.535328063
 40
0.772887984
 40
1.0
 40
1.0
 40
1.0
 40
1.0
 10
-74.9002857972
 20
81.3740621718
 30
0.0
 10
-74.9388951054
 20
81.393366826
 30
0.0
 10
-75.0161052287
 20
81.4245923708
 30
0.0
 10
-75.1344445444
 20
81.4468183031
 30
0.0
 10
-75.2468879646
 20
81.4411969216
 30
0.0
 10
-75.3160926633
 20
81.4181658581
 30
0.0
 10
-75.3474976621
 20
81.4024646921
 30
0.0
 11
-74.9002857972
 21
81.3740621718
 31
0.0
 11
-75.0207313295
 21
81.4216332653
 31
0.0
 11
-75.1376688631
 21
81.442494674
 31
0.0
 11
-75.2476592925
 21
81.4360430331
 31
0.0
 11
-75.3474976621
 21
81.4024646921
 31
0.0
  0
SPLINE
  5
51A
100
AcDbEntity
  8
SMUSSO
100
AcDbSpline
 62
7
  6
CONTINUOUS
 70
0
 71
3
 72
11
 73
7
 74
5
 42
0.0000001
 43
0.0000001
 44
0.0000000001
 12
0.0000000032
 22
1.4682180175
 32
0.0
 13
-1.3132141179
 23
0.6566070572
 33
0.0
 40
0.0
 40
0.0
 40
0.0
 40
0.0
 40
0.2467918667
 40
0.5117851097
 40
0.7703255554
 40
1.0
 40
1.0
 40
1.0
 40
1.0
 10
71.4708179084
 20
7.3224849152
 30
0.0
 10
71.4708179087
 20
7.4432663369
 30
0.0
 10
71.4291345176
 20
7.6941670196
 30
0.0
 10
71.2781994645
 20
8.0431093823
 30
0.0
 10
71.0563585124
 20
8.3414966632
 30
0.0
 10
70.8642483683
 20
8.4917950892
 30
0.0
 10
70.7637111272
 20
8.5420637095
 30
0.0
 11
71.4708179084
 21
7.3224849152
 31
0.0
 11
71.4169918483
 21
7.6808089609
 31
0.0
 11
71.2637110918
 21
8.0384104216
 31
0.0
 11
71.0343067604
 21
8.3408423324
 31
0.0
 11
70.7637111272
 21
8.5420637095
 31
0.0
  0
ELLIPSE
  5
51B
100
AcDbEntity
  8
RACCORDO
100
AcDbEllipse
 62
7
  6
CONTINUOUS
 10
-60.3755162866
 20
49.6398583829
 30
0.0
 11
-0.313181275
 21
0.626269159
 31
0.0
 40
0.6121897086
 41
-0.6846338794
 42
0.0188552051
  0
ELLIPSE
  5
51C
100
AcDbEntity
  8
RACCORDO
100
AcDbEllipse
 62
7
  6
CONTINUOUS
 10
-57.0042806221
 20
7.8583406231
 30
0.0
 11
-0.1341484654
 21
0.2683369961
 31
0.0
 40
0.6125552124
 41
0.8862964655
 42
2.4567882058
  0
ELLIPSE
  5
51D
100
AcDbEntity
  8
RACCORDO
100
AcDbEllipse
 62
7
  6
CONTINUOUS
 10
-56.2581658448
 20
8.2163270654
 30
0.0
 11
-0.1340229113
 21
0.2684080287
 31
0.0
 40
0.6140178746
 41
0.8880524522
 42
2.4561097232
  0
ELLIPSE
  5
51E
100
AcDbEntity
  8
RACCORDO
100
AcDbEllipse
 62
7
  6
CONTINUOUS
 10
54.8247280543
 20
-7.9602637875
 30
0.0
 11
-0.3130130858
 21
0.6261196575
 31
0.0
 40
0.6125552124
 41
-2.255296188
 42
-0.6848044477
  0
ELLIPSE
  5
51F
100
AcDbEntity
  8
RACCORDO
100
AcDbEllipse
 62
7
  6
CONTINUOUS
 10
54.8247280543
 20
-52.229532084
 30
0.0
 11
-0.313181275
 21
0.626269159
 31
0.0
 40
0.6121897086
 41
-3.1605525579
 42
-2.2557347926
  0
ELLIPSE
  5
520
100
AcDbEntity
  8
RACCORDO
100
AcDbEllipse
 62
7
  6
CONTINUOUS
 10
50.1869037947
 20
-44.7954718661
 30
0.0
 11
-0.1341371037
 21
0.2683722998
 31
0.0
 40
0.6123537661
 41
-0.6845550499
 42
0.0106817792
  0
ELLIPSE
  5
521
100
AcDbEntity
  8
RACCORDO
100
AcDbEllipse
 62
7
  6
CONTINUOUS
 10
-29.3626090888
 20
-5.0207154244
 30
0.0
 11
-0.1341371037
 21
0.2683722998
 31
0.0
 40
0.6123537661
 41
-0.6845550499
 42
0.0106817792
  0
ELLIPSE
  5
522
100
AcDbEntity
  8
RACCORDO
100
AcDbEllipse
 62
7
  6
CONTINUOUS
 10
-45.2725116655
 20
2.934235864
 30
0.0
 11
-0.1341371037
 21
0.2683722998
 31
0.0
 40
0.6123537661
 41
-0.6845550499
 42
0.0106817792
  0
ELLIPSE
  5
523
100
AcDbEntity
  8
RACCORDO
100
AcDbEllipse
 62
7
  6
CONTINUOUS
 10
-13.4527065121
 20
-12.9756667127
 30
0.0
 11
-0.1341371037
 21
0.2683722998
 31
0.0
 40
0.6123537661
 41
-0.6845550499
 42
0.0106817792
  0
ELLIPSE
  5
524
100
AcDbEntity
  8
RACCORDO
100
AcDbEllipse
 62
7
  6
CONTINUOUS
 10
34.277001218
 20
-36.8405205778
 30
0.0
 11
-0.1341371037
 21
0.2683722998
 31
0.0
 40
0.6123537661
 41
-0.6845550499
 42
0.0106817792
  0
ELLIPSE
  5
525
100
AcDbEntity
  8
RACCORDO
100
AcDbEllipse
 62
7
  6
CONTINUOUS
 10
27.1891242729
 20
-33.2965821052
 30
0.0
 11
-0.1342205464
 21
0.2684010681
 31
0.0
 40
0.6121897086
 41
-0.6846338794
 42
0.0192587573
  0
ELLIPSE
  5
526
100
AcDbEntity
  8
RACCORDO
100
AcDbEllipse
 62
7
  6
CONTINUOUS
 10
18.3670986413
 20
-28.8855692894
 30
0.0
 11
-0.1341371037
 21
0.2683722998
 31
0.0
 40
0.6123537661
 41
-0.6845550499
 42
0.0106817792
  0
ELLIPSE
  5
527
100
AcDbEntity
  8
RACCORDO
100
AcDbEllipse
 62
7
  6
CONTINUOUS
 10
2.4571960646
 20
-20.9306180011
 30
0.0
 11
-0.1341371037
 21
0.2683722998
 31
0.0
 40
0.6123537661
 41
-0.6845550499
 42
0.0106817792
  0
ELLIPSE
  5
528
100
AcDbEntity
  8
RACCORDO
100
AcDbEllipse
 62
7
  6
CONTINUOUS
 10
-4.6306808805
 20
-17.3866795285
 30
0.0
 11
-0.1342205464
 21
0.2684010681
 31
0.0
 40
0.6121897086
 41
-0.6846338794
 42
0.0192587573
  0
ELLIPSE
  5
529
100
AcDbEntity
  8
RACCORDO
100
AcDbEllipse
 62
7
  6
CONTINUOUS
 10
-20.5405834572
 20
-9.4317282402
 30
0.0
 11
-0.1342205464
 21
0.2684010681
 31
0.0
 40
0.6121897086
 41
-0.6846338794
 42
0.0192587573
  0
ELLIPSE
  5
52A
100
AcDbEntity
  8
RACCORDO
100
AcDbEllipse
 62
7
  6
CONTINUOUS
 10
21.6749256391
 20
-30.6117051194
 30
0.0
 11
-0.1342205464
 21
0.2684010681
 31
0.0
 40
0.6121897086
 41
-0.6846338794
 42
0.0192587602
  0
ELLIPSE
  5
52B
100
AcDbEntity
  8
RACCORDO
100
AcDbEllipse
 62
7
  6
CONTINUOUS
 10
-26.054782091
 20
-6.7468512544
 30
0.0
 11
-0.1342205464
 21
0.2684010681
 31
0.0
 40
0.6121897086
 41
-0.6846338794
 42
0.0192587602
  0
ELLIPSE
  5
52C
100
AcDbEntity
  8
RACCORDO
100
AcDbEllipse
 62
7
  6
CONTINUOUS
 10
-10.1448795143
 20
-14.7018025427
 30
0.0
 11
-0.1342205464
 21
0.2684010681
 31
0.0
 40
0.6121897086
 41
-0.6846338794
 42
0.0192587602
  0
ELLIPSE
  5
52D
100
AcDbEntity
  8
RACCORDO
100
AcDbEllipse
 62
7
  6
CONTINUOUS
 10
5.7650230624
 20
-22.6567538311
 30
0.0
 11
-0.1342205464
 21
0.2684010681
 31
0.0
 40
0.6121897086
 41
-0.6846338794
 42
0.0192587602
  0
ELLIPSE
  5
52E
100
AcDbEntity
  8
RACCORDO
100
AcDbEllipse
 62
7
  6
CONTINUOUS
 10
-2.2097086912
 20
-18.5971656232
 30
0.0
 11
-0.1341371037
 21
0.2683722998
 31
0.0
 40
0.6123537661
 41
-2.2553513767
 42
-0.6845550499
  0
ELLIPSE
  5
52F
100
AcDbEntity
  8
RACCORDO
100
AcDbEllipse
 62
7
  6
CONTINUOUS
 10
4.8781682539
 20
-22.1411040957
 30
0.0
 11
-0.1341484654
 21
0.2683369961
 31
0.0
 40
0.6125552124
 41
-2.255296188
 42
-0.6848044477
  0
ELLIPSE
  5
530
100
AcDbEntity
  8
RACCORDO
100
AcDbEllipse
 62
7
  6
CONTINUOUS
 10
13.7001938855
 20
-26.5521169115
 30
0.0
 11
-0.1341371037
 21
0.2683722998
 31
0.0
 40
0.6123537661
 41
-2.2553513767
 42
-0.6845550499
  0
ELLIPSE
  5
531
100
AcDbEntity
  8
RACCORDO
100
AcDbEllipse
 62
7
  6
CONTINUOUS
 10
20.7880708306
 20
-30.0960553841
 30
0.0
 11
-0.1341484654
 21
0.2683369961
 31
0.0
 40
0.6125552124
 41
-2.255296188
 42
-0.6848044477
  0
ELLIPSE
  5
532
100
AcDbEntity
  8
RACCORDO
100
AcDbEllipse
 62
7
  6
CONTINUOUS
 10
29.6100964622
 20
-34.5070681999
 30
0.0
 11
-0.1341371037
 21
0.2683722998
 31
0.0
 40
0.6123537661
 41
-2.2553513767
 42
-0.6845550499
  0
ELLIPSE
  5
533
100
AcDbEntity
  8
RACCORDO
100
AcDbEllipse
 62
7
  6
CONTINUOUS
 10
45.5199990389
 20
-42.4620194882
 30
0.0
 11
-0.1341371037
 21
0.2683722998
 31
0.0
 40
0.6123537661
 41
-2.2553513767
 42
-0.6845550499
  0
ELLIPSE
  5
534
100
AcDbEntity
  8
RACCORDO
100
AcDbEllipse
 62
7
  6
CONTINUOUS
 10
-55.9144687223
 20
41.8797540057
 30
0.0
 11
-0.1341371037
 21
0.2683722998
 31
0.0
 40
0.6123537661
 41
-3.1519578821
 42
-2.2553513767
  0
ELLIPSE
  5
535
100
AcDbEntity
  8
RACCORDO
100
AcDbEllipse
 62
7
  6
CONTINUOUS
 10
-55.914501036
 20
33.5204975453
 30
0.0
 11
-0.1341484654
 21
0.2683369961
 31
0.0
 40
0.6125552124
 41
-2.255296188
 42
-0.6848044477
  0
ELLIPSE
  5
536
100
AcDbEntity
  8
RACCORDO
100
AcDbEllipse
 62
7
  6
CONTINUOUS
 10
-55.914501036
 20
22.8272112793
 30
0.0
 11
-0.1342205464
 21
0.2684010681
 31
0.0
 40
0.6121897086
 41
-3.1605454984
 42
-2.2557347926
  0
ELLIPSE
  5
537
100
AcDbEntity
  8
RACCORDO
100
AcDbEllipse
 62
7
  6
CONTINUOUS
 10
-55.9144687223
 20
14.4679225052
 30
0.0
 11
-0.1341371037
 21
0.2683722998
 31
0.0
 40
0.6123537661
 41
-2.2553513767
 42
-0.6845550499
  0
ELLIPSE
  5
538
100
AcDbEntity
  8
RACCORDO
100
AcDbEllipse
 62
7
  6
CONTINUOUS
 10
-49.9394164213
 20
5.2676882419
 30
0.0
 11
-0.1341371037
 21
0.2683722998
 31
0.0
 40
0.6123537661
 41
-2.2553513767
 42
-0.6845550499
  0
ELLIPSE
  5
539
100
AcDbEntity
  8
RACCORDO
100
AcDbEllipse
 62
7
  6
CONTINUOUS
 10
-34.0295138446
 20
-2.6872630465
 30
0.0
 11
-0.1341371037
 21
0.2683722998
 31
0.0
 40
0.6123537661
 41
-2.2553513767
 42
-0.6845550499
  0
ELLIPSE
  5
53A
100
AcDbEntity
  8
RACCORDO
100
AcDbEllipse
 62
7
  6
CONTINUOUS
 10
-26.9416368995
 20
-6.231201519
 30
0.0
 11
-0.1341484654
 21
0.2683369961
 31
0.0
 40
0.6125552124
 41
-2.255296188
 42
-0.6848044477
  0
ELLIPSE
  5
53B
100
AcDbEntity
  8
RACCORDO
100
AcDbEllipse
 62
7
  6
CONTINUOUS
 10
-18.1196112679
 20
-10.6422143348
 30
0.0
 11
-0.1341371037
 21
0.2683722998
 31
0.0
 40
0.6123537661
 41
-2.2553513767
 42
-0.6845550499
  0
ELLIPSE
  5
53C
100
AcDbEntity
  8
ASSI
100
AcDbEllipse
 62
7
  6
CONTINUOUS
 10
49.4723854343
 20
-42.7689681387
 30
0.0
 11
0.0974129977
 21
0.1748074534
 31
0.0
 40
0.6437101552
 41
0.6611775963
 42
0.7135374739
  0
ELLIPSE
  5
53D
100
AcDbEntity
  8
ASSI
100
AcDbEllipse
 62
7
  6
CONTINUOUS
 10
-45.9870300259
 20
4.9607395914
 30
0.0
 11
0.0974129977
 21
0.1748074534
 31
0.0
 40
0.6437101552
 41
0.6611775963
 42
0.7135374739
  0
ELLIPSE
  5
53E
100
AcDbEntity
  8
ASSI
100
AcDbEllipse
 62
7
  6
CONTINUOUS
 10
-30.0771274492
 20
-3.0808142374
 30
0.0
 11
0.0974129977
 21
0.1748074534
 31
0.0
 40
0.6437101552
 41
0.6611775963
 42
0.7135374739
  0
ELLIPSE
  5
53F
100
AcDbEntity
  8
ASSI
100
AcDbEllipse
 62
7
  6
CONTINUOUS
 10
-14.1672248725
 20
-11.0357655257
 30
0.0
 11
0.0974129977
 21
0.1748074534
 31
0.0
 40
0.6437101552
 41
0.6611775963
 42
0.7135374739
  0
ELLIPSE
  5
540
100
AcDbEntity
  8
ASSI
100
AcDbEllipse
 62
7
  6
CONTINUOUS
 10
1.7426777042
 20
-18.9907168141
 30
0.0
 11
0.0974129977
 21
0.1748074534
 31
0.0
 40
0.6437101552
 41
0.6611775963
 42
0.7135374739
  0
ELLIPSE
  5
541
100
AcDbEntity
  8
ASSI
100
AcDbEllipse
 62
7
  6
CONTINUOUS
 10
17.6525802809
 20
-26.9456681024
 30
0.0
 11
0.0974129977
 21
0.1748074534
 31
0.0
 40
0.6437101552
 41
0.6611775963
 42
0.7135374739
  0
ELLIPSE
  5
542
100
AcDbEntity
  8
ASSI
100
AcDbEllipse
 62
7
  6
CONTINUOUS
 10
33.5624828576
 20
-34.9006193908
 30
0.0
 11
0.0974129977
 21
0.1748074534
 31
0.0
 40
0.6437101552
 41
0.6611775963
 42
0.7135374739
  0
ELLIPSE
  5
543
100
AcDbEntity
  8
RACCORDO
100
AcDbEllipse
 62
7
  6
CONTINUOUS
 10
10.2509455314
 20
-24.8997150656
 30
0.0
 11
-0.1341484654
 21
0.2683369961
 31
0.0
 40
0.6125552124
 41
-2.255296188
 42
-0.6848044477
  0
ELLIPSE
  5
544
100
AcDbEntity
  8
RACCORDO
100
AcDbEllipse
 62
7
  6
CONTINUOUS
 10
-5.6589570453
 20
-16.9447637772
 30
0.0
 11
-0.1341484654
 21
0.2683369961
 31
0.0
 40
0.6125552124
 41
-2.255296188
 42
-0.6848044477
  0
ELLIPSE
  5
545
100
AcDbEntity
  8
RACCORDO
100
AcDbEllipse
 62
7
  6
CONTINUOUS
 10
26.1608481081
 20
-32.8546663539
 30
0.0
 11
-0.1341484654
 21
0.2683369961
 31
0.0
 40
0.6125552124
 41
-2.255296188
 42
-0.6848044477
  0
ELLIPSE
  5
546
100
AcDbEntity
  8
RACCORDO
100
AcDbEllipse
 62
7
  6
CONTINUOUS
 10
-55.9864459736
 20
15.8657814926
 30
0.0
 11
-0.1342205464
 21
0.2684010681
 31
0.0
 40
0.6121897086
 41
-3.1605454984
 42
-2.2557347926
  0
ELLIPSE
  5
547
100
AcDbEntity
  8
RACCORDO
100
AcDbEllipse
 62
7
  6
CONTINUOUS
 10
-55.9864459736
 20
21.35989203
 30
0.0
 11
-0.1341484654
 21
0.2683369961
 31
0.0
 40
0.6125552124
 41
-2.255296188
 42
-0.6848044477
  0
ELLIPSE
  5
548
100
AcDbEntity
  8
RACCORDO
100
AcDbEllipse
 62
7
  6
CONTINUOUS
 10
-55.9864459736
 20
34.9183403759
 30
0.0
 11
-0.1342205464
 21
0.2684010681
 31
0.0
 40
0.6121897086
 41
-3.1605454984
 42
-2.2557347926
  0
ELLIPSE
  5
549
100
AcDbEntity
  8
RACCORDO
100
AcDbEllipse
 62
7
  6
CONTINUOUS
 10
-55.9864459736
 20
40.4124509132
 30
0.0
 11
-0.1341484654
 21
0.2683369961
 31
0.0
 40
0.6125552124
 41
-2.255296188
 42
-0.6848044477
  0
ELLIPSE
  5
54A
100
AcDbEntity
  8
RACCORDO
100
AcDbEllipse
 62
7
  6
CONTINUOUS
 10
-56.4900605368
 20
22.5613988284
 30
0.0
 11
-0.1342205464
 21
0.2684010681
 31
0.0
 40
0.6121897086
 41
2.5485846547
 42
4.0274505145
  0
ELLIPSE
  5
54B
100
AcDbEntity
  8
RACCORDO
100
AcDbEllipse
 62
7
  6
CONTINUOUS
 10
-56.4801541473
 20
41.6090045169
 30
0.0
 11
-0.1341371037
 21
0.2683722998
 31
0.0
 40
0.6123537661
 41
2.5021907388
 42
4.0278339304
  0
ELLIPSE
  5
54C
100
AcDbEntity
  8
RACCORDO
100
AcDbEllipse
 62
7
  6
CONTINUOUS
 10
25.2255639194
 20
-33.3259145636
 30
0.0
 11
-0.1341484654
 21
0.2683369961
 31
0.0
 40
0.6125552124
 41
4.404657259
 42
5.5983808594
  0
ELLIPSE
  5
54D
100
AcDbEntity
  8
RACCORDO
100
AcDbEllipse
 62
7
  6
CONTINUOUS
 10
20.7717321968
 20
-31.0989987023
 30
0.0
 11
-0.1342205464
 21
0.2684010681
 31
0.0
 40
0.6121897086
 41
-0.6846338794
 42
0.8444045998
  0
ELLIPSE
  5
54E
100
AcDbEntity
  8
RACCORDO
100
AcDbEllipse
 62
7
  6
CONTINUOUS
 10
4.8618296201
 20
-23.144047414
 30
0.0
 11
-0.1342205464
 21
0.2684010681
 31
0.0
 40
0.6121897086
 41
-0.6846338794
 42
0.8444045998
  0
ELLIPSE
  5
54F
100
AcDbEntity
  8
RACCORDO
100
AcDbEllipse
 62
7
  6
CONTINUOUS
 10
9.3156613427
 20
-25.3709632753
 30
0.0
 11
-0.1341484654
 21
0.2683369961
 31
0.0
 40
0.6125552124
 41
4.404657259
 42
5.5983808594
  0
ELLIPSE
  5
550
100
AcDbEntity
  8
RACCORDO
100
AcDbEllipse
 62
7
  6
CONTINUOUS
 10
-11.0480729566
 20
-15.1890961256
 30
0.0
 11
-0.1342205464
 21
0.2684010681
 31
0.0
 40
0.6121897086
 41
-0.6846338794
 42
0.8444045998
  0
ELLIPSE
  5
551
100
AcDbEntity
  8
RACCORDO
100
AcDbEllipse
 62
7
  6
CONTINUOUS
 10
-6.594241234
 20
-17.4160119869
 30
0.0
 11
-0.1341484654
 21
0.2683369961
 31
0.0
 40
0.6125552124
 41
4.404657259
 42
5.5983808594
  0
ELLIPSE
  5
552
100
AcDbEntity
  8
RACCORDO
100
AcDbEllipse
 62
7
  6
CONTINUOUS
 10
-26.9579755333
 20
-7.2341448373
 30
0.0
 11
-0.1342205464
 21
0.2684010681
 31
0.0
 40
0.6121897086
 41
-0.6846338794
 42
0.8444045998
  0
ELLIPSE
  5
553
100
AcDbEntity
  8
ASSI
100
AcDbEllipse
 62
7
  6
CONTINUOUS
 10
-41.7295661803
 20
2.8320076686
 30
0.0
 11
0.0823576675
 21
0.1823694112
 31
0.0
 40
0.5796795686
 41
0.6094740628
 42
0.6618339404
  0
ELLIPSE
  5
554
100
AcDbEntity
  8
RACCORDO
100
AcDbEllipse
 62
7
  6
CONTINUOUS
 10
-56.9217301623
 20
34.4863951433
 30
0.0
 11
-0.1342205464
 21
0.2684010681
 31
0.0
 40
0.6121897086
 41
2.4569587742
 42
4.0274505145
  0
ELLIPSE
  5
555
100
AcDbEntity
  8
RACCORDO
100
AcDbEllipse
 62
7
  6
CONTINUOUS
 10
-56.9217301623
 20
15.43383626
 30
0.0
 11
-0.1342205464
 21
0.2684010681
 31
0.0
 40
0.6121897086
 41
2.4569587742
 42
4.0274505145
  0
ELLIPSE
  5
556
100
AcDbEntity
  8
ASSI
100
AcDbEllipse
 62
7
  6
CONTINUOUS
 10
-25.8196636036
 20
-5.2095461601
 30
0.0
 11
0.0823576675
 21
0.1823694112
 31
0.0
 40
0.5796795686
 41
0.6094740628
 42
0.6618339404
  0
ELLIPSE
  5
557
100
AcDbEntity
  8
ASSI
100
AcDbEllipse
 62
7
  6
CONTINUOUS
 10
-9.9097610269
 20
-13.1644974485
 30
0.0
 11
0.0823576675
 21
0.1823694112
 31
0.0
 40
0.5796795686
 41
0.6094740628
 42
0.6618339404
  0
ELLIPSE
  5
558
100
AcDbEntity
  8
ASSI
100
AcDbEllipse
 62
7
  6
CONTINUOUS
 10
6.0001415498
 20
-21.1194487368
 30
0.0
 11
0.0823576675
 21
0.1823694112
 31
0.0
 40
0.5796795686
 41
0.6094740628
 42
0.6618339404
  0
ELLIPSE
  5
559
100
AcDbEntity
  8
ASSI
100
AcDbEllipse
 62
7
  6
CONTINUOUS
 10
21.9100441265
 20
-29.0744000252
 30
0.0
 11
0.0823576675
 21
0.1823694112
 31
0.0
 40
0.5796795686
 41
0.6094740628
 42
0.6618339404
  0
ELLIPSE
  5
55A
100
AcDbEntity
  8
ASSI
100
AcDbEllipse
 62
7
  6
CONTINUOUS
 10
37.8199467032
 20
-37.0293513135
 30
0.0
 11
0.0823576675
 21
0.1823694112
 31
0.0
 40
0.5796795686
 41
0.6094740628
 42
0.6618339404
  0
ELLIPSE
  5
55B
100
AcDbEntity
  8
ASSI
100
AcDbEllipse
 62
7
  6
CONTINUOUS
 10
37.6783312679
 20
-37.3841417729
 30
0.0
 11
0.1997674032
 21
0.1243735635
 31
0.0
 40
0.0775313764
 41
5.4495541764
 42
6.9679906257
  0
ELLIPSE
  5
55C
100
AcDbEntity
  8
RACCORDO
100
AcDbEllipse
 62
7
  6
CONTINUOUS
 10
-5.1864922296
 20
-17.6865525026
 30
0.0
 11
-0.1342205464
 21
0.2684010681
 31
0.0
 40
0.6121897086
 41
-0.6846338794
 42
0.4620153947
  0
ELLIPSE
  5
55D
100
AcDbEntity
  8
RACCORDO
100
AcDbEllipse
 62
7
  6
CONTINUOUS
 10
-2.7753941162
 20
-18.8921015594
 30
0.0
 11
-0.1341371037
 21
0.2683722998
 31
0.0
 40
0.6123537661
 41
-1.8312068973
 42
-0.6845550499
  0
ELLIPSE
  5
55E
100
AcDbEntity
  8
ASSI
100
AcDbEllipse
 62
7
  6
CONTINUOUS
 10
21.7684286912
 20
-29.4291904845
 30
0.0
 11
0.1997674032
 21
0.1243735635
 31
0.0
 40
0.0775313764
 41
5.4495541764
 42
6.9679906257
  0
ELLIPSE
  5
55F
100
AcDbEntity
  8
RACCORDO
100
AcDbEllipse
 62
7
  6
CONTINUOUS
 10
1.8915106397
 20
-21.2255539373
 30
0.0
 11
-0.1341371037
 21
0.2683722998
 31
0.0
 40
0.6123537661
 41
-0.6845550499
 42
0.4620967974
  0
ELLIPSE
  5
560
100
AcDbEntity
  8
RACCORDO
100
AcDbEllipse
 62
7
  6
CONTINUOUS
 10
4.3026087531
 20
-22.431102994
 30
0.0
 11
-0.1341484654
 21
0.2683369961
 31
0.0
 40
0.6125552124
 41
-1.8314537231
 42
-0.6848044477
  0
ELLIPSE
  5
561
100
AcDbEntity
  8
RACCORDO
100
AcDbEllipse
 62
7
  6
CONTINUOUS
 10
13.1345084605
 20
-26.8470528477
 30
0.0
 11
-0.1341371037
 21
0.2683722998
 31
0.0
 40
0.6123537661
 41
-1.8312068973
 42
-0.6845550499
  0
ELLIPSE
  5
562
100
AcDbEntity
  8
RACCORDO
100
AcDbEllipse
 62
7
  6
CONTINUOUS
 10
17.8014132164
 20
-29.1805052256
 30
0.0
 11
-0.1341371037
 21
0.2683722998
 31
0.0
 40
0.6123537661
 41
-0.6845550499
 42
0.4620967974
  0
ELLIPSE
  5
563
100
AcDbEntity
  8
RACCORDO
100
AcDbEllipse
 62
7
  6
CONTINUOUS
 10
20.2125113298
 20
-30.3860542823
 30
0.0
 11
-0.1341484654
 21
0.2683369961
 31
0.0
 40
0.6125552124
 41
-1.8314537231
 42
-0.6848044477
  0
ELLIPSE
  5
564
100
AcDbEntity
  8
RACCORDO
100
AcDbEllipse
 62
7
  6
CONTINUOUS
 10
10.8648532458
 20
-25.8854567051
 30
0.0
 11
-0.2237009107
 21
0.4473351135
 31
0.0
 40
0.6121897086
 41
-0.6846338794
 42
0.1822092509
  0
ELLIPSE
  5
565
100
AcDbEntity
  8
RACCORDO
100
AcDbEllipse
 62
7
  6
CONTINUOUS
 10
29.0444110372
 20
-34.8020041361
 30
0.0
 11
-0.1341371037
 21
0.2683722998
 31
0.0
 40
0.6123537661
 41
-1.8312068973
 42
-0.6845550499
  0
ELLIPSE
  5
566
100
AcDbEntity
  8
RACCORDO
100
AcDbEllipse
 62
7
  6
CONTINUOUS
 10
33.7113157931
 20
-37.135456514
 30
0.0
 11
-0.1341371037
 21
0.2683722998
 31
0.0
 40
0.6123537661
 41
-0.6845550499
 42
0.4620967974
  0
ELLIPSE
  5
567
100
AcDbEntity
  8
RACCORDO
100
AcDbEllipse
 62
7
  6
CONTINUOUS
 10
44.9543136139
 20
-42.7569554244
 30
0.0
 11
-0.1341371037
 21
0.2683722998
 31
0.0
 40
0.6123537661
 41
-1.8312068973
 42
-0.6845550499
  0
ELLIPSE
  5
568
100
AcDbEntity
  8
RACCORDO
100
AcDbEllipse
 62
7
  6
CONTINUOUS
 10
49.6212183698
 20
-45.0904078023
 30
0.0
 11
-0.1341371037
 21
0.2683722998
 31
0.0
 40
0.6123537661
 41
-0.6845550499
 42
0.4620967974
  0
ELLIPSE
  5
569
100
AcDbEntity
  8
RACCORDO
100
AcDbEllipse
 62
7
  6
CONTINUOUS
 10
26.6333129238
 20
-33.5964550793
 30
0.0
 11
-0.1342205464
 21
0.2684010681
 31
0.0
 40
0.6121897086
 41
-0.6846338794
 42
0.4620153947
  0
ELLIPSE
  5
56A
100
AcDbEntity
  8
RACCORDO
100
AcDbEllipse
 62
7
  6
CONTINUOUS
 10
-14.018391937
 20
-13.2706026489
 30
0.0
 11
-0.1341371037
 21
0.2683722998
 31
0.0
 40
0.6123537661
 41
-0.6845550499
 42
0.4620967974
  0
ELLIPSE
  5
56B
100
AcDbEntity
  8
RACCORDO
100
AcDbEllipse
 62
7
  6
CONTINUOUS
 10
-11.7487367223
 20
-14.5786617211
 30
0.0
 11
-0.2235807756
 21
0.4472283268
 31
0.0
 40
0.6125552124
 41
-1.5516475793
 42
-0.6848044477
  0
ELLIPSE
  5
56C
100
AcDbEntity
  8
RACCORDO
100
AcDbEllipse
 62
7
  6
CONTINUOUS
 10
-21.0963948063
 20
-9.7316012143
 30
0.0
 11
-0.1342205464
 21
0.2684010681
 31
0.0
 40
0.6121897086
 41
-0.6846338794
 42
0.4620153947
  0
ELLIPSE
  5
56D
100
AcDbEntity
  8
RACCORDO
100
AcDbEllipse
 62
7
  6
CONTINUOUS
 10
-18.6852966929
 20
-10.937150271
 30
0.0
 11
-0.1341371037
 21
0.2683722998
 31
0.0
 40
0.6123537661
 41
-1.8312068973
 42
-0.6845550499
  0
ELLIPSE
  5
56E
100
AcDbEntity
  8
ASSI
100
AcDbEllipse
 62
7
  6
CONTINUOUS
 10
5.8585261145
 20
-21.4742391962
 30
0.0
 11
0.1997674032
 21
0.1243735635
 31
0.0
 40
0.0775313764
 41
5.4495541764
 42
6.9679906257
  0
ELLIPSE
  5
56F
100
AcDbEntity
  8
ASSI
100
AcDbEllipse
 62
7
  6
CONTINUOUS
 10
-10.0513764622
 20
-13.5192879078
 30
0.0
 11
0.1997674032
 21
0.1243735635
 31
0.0
 40
0.0775313764
 41
5.4495541764
 42
6.9679906257
  0
ELLIPSE
  5
570
100
AcDbEntity
  8
ASSI
100
AcDbEllipse
 62
7
  6
CONTINUOUS
 10
-25.9612790389
 20
-5.5643366195
 30
0.0
 11
0.1997674032
 21
0.1243735635
 31
0.0
 40
0.0775313764
 41
5.4495541764
 42
6.9679906257
  0
ELLIPSE
  5
571
100
AcDbEntity
  8
RACCORDO
100
AcDbEllipse
 62
7
  6
CONTINUOUS
 10
-56.4900605368
 20
33.230498647
 30
0.0
 11
-0.1341484654
 21
0.2683369961
 31
0.0
 40
0.6125552124
 41
-2.255296188
 42
-0.7764303281
  0
ELLIPSE
  5
572
100
AcDbEntity
  8
RACCORDO
100
AcDbEllipse
 62
7
  6
CONTINUOUS
 10
-56.4801541473
 20
14.172986569
 30
0.0
 11
-0.1341371037
 21
0.2683722998
 31
0.0
 40
0.6123537661
 41
-2.2553513767
 42
-0.7297081851
  0
ELLIPSE
  5
573
100
AcDbEntity
  8
RACCORDO
100
AcDbEllipse
 62
7
  6
CONTINUOUS
 10
-50.5051018462
 20
4.9727523057
 30
0.0
 11
-0.1341371037
 21
0.2683722998
 31
0.0
 40
0.6123537661
 41
-1.8312068973
 42
-0.6845550499
  0
ELLIPSE
  5
574
100
AcDbEntity
  8
RACCORDO
100
AcDbEllipse
 62
7
  6
CONTINUOUS
 10
-45.8381970904
 20
2.6392999278
 30
0.0
 11
-0.1341371037
 21
0.2683722998
 31
0.0
 40
0.6123537661
 41
-0.6845550499
 42
0.4620967974
  0
ELLIPSE
  5
575
100
AcDbEntity
  8
RACCORDO
100
AcDbEllipse
 62
7
  6
CONTINUOUS
 10
-34.5951992696
 20
-2.9821989827
 30
0.0
 11
-0.1341371037
 21
0.2683722998
 31
0.0
 40
0.6123537661
 41
-1.8312068973
 42
-0.6845550499
  0
ELLIPSE
  5
576
100
AcDbEntity
  8
RACCORDO
100
AcDbEllipse
 62
7
  6
CONTINUOUS
 10
-29.9282945137
 20
-5.3156513606
 30
0.0
 11
-0.1341371037
 21
0.2683722998
 31
0.0
 40
0.6123537661
 41
-0.6845550499
 42
0.4620967974
  0
ELLIPSE
  5
577
100
AcDbEntity
  8
RACCORDO
100
AcDbEllipse
 62
7
  6
CONTINUOUS
 10
-27.5171964003
 20
-6.5212004173
 30
0.0
 11
-0.1341484654
 21
0.2683369961
 31
0.0
 40
0.6125552124
 41
-1.8314537231
 42
-0.6848044477
  0
ELLIPSE
  5
578
100
AcDbEntity
  8
ASSI
100
AcDbEllipse
 62
7
  6
CONTINUOUS
 10
-41.8711816156
 20
2.3906146688
 30
0.0
 11
0.1997674032
 21
0.1243735635
 31
0.0
 40
0.0775313764
 41
5.4495541764
 42
6.9679906257
  0
ELLIPSE
  5
579
100
AcDbEntity
  8
RACCORDO
100
AcDbEllipse
 62
7
  6
CONTINUOUS
 10
-56.9217301623
 20
20.8886438203
 30
0.0
 11
-0.1341484654
 21
0.2683369961
 31
0.0
 40
0.6125552124
 41
-2.255296188
 42
-0.6848044477
  0
ELLIPSE
  5
57A
100
AcDbEntity
  8
RACCORDO
100
AcDbEllipse
 62
7
  6
CONTINUOUS
 10
-56.9217301623
 20
39.9412027035
 30
0.0
 11
-0.1341484654
 21
0.2683369961
 31
0.0
 40
0.6125552124
 41
-2.255296188
 42
-0.6848044477
  0
ENDSEC
  0
SECTION
  2
OBJECTS
  0
DICTIONARY
  5
C
100
AcDbDictionary
280
0
281
1
  3
ACAD_GROUP
350
D
  3
ACAD_MLINESTYLE
350
17
  3
ACAD_LAYOUT
350
1A
  3
ACAD_PLOTSETTINGS
350
19
  3
ACAD_PLOTSTYLENAME
350
E
  0
DICTIONARY
  5
D
102
{ACAD_REACTORS
330
C
102
}
100
AcDbDictionary
280
0
281
1
  0
ACDBDICTIONARYWDFLT
  5
E
102
{ACAD_REACTORS
330
C
102
}
100
AcDbDictionary
281
1
  3
Normal
350
F
100
AcDbDictionaryWithDefault
340
F
  0
DICTIONARY
  5
17
102
{ACAD_REACTORS
330
C
102
}
100
AcDbDictionary
280
0
281
1
  3
Standard
350
18
  0
DICTIONARY
  5
19
102
{ACAD_REACTORS
330
C
102
}
100
AcDbDictionary
281
1
  0
DICTIONARY
  5
1A
102
{ACAD_REACTORS
330
C
102
}
100
AcDbDictionary
281
1
  3
Model
350
57B
  3
Layout1
350
57C
  0
ACDBPLACEHOLDER
  5
F
102
{ACAD_REACTORS
330
E
102
}
  0
MLINESTYLE
  5
18
102
{ACAD_REACTORS
330
17
102
}
100
AcDbMlineStyle
  2
STANDARD
 70
0
  3

 62
256
 51
90.0
 52
90.0
 71
2
 49
0.5
 62
256
  6
BYLAYER
 49
-0.5
 62
256
  6
BYLAYER
  0
LAYOUT
  5
57B
102
{ACAD_REACTORS
330
1A
102
}
100
AcDbPlotSettings
  1

  2
none_device
  4
ISO_A4_(297.00_x_210.00_MM)
  6

 40
0.0
 41
0.0
 42
0.0
 43
0.0
 44
297.0
 45
210.0
 46
0.0
 47
0.0
 48
0.0
 49
0.0
140
0.0
141
0.0
142
1.0
143
1.0
 70
1024
 72
1
 73
0
 74
0
  7

 75
0
147
1.0
148
0.0
149
0.0
100
AcDbLayout
  1
Model
 70
0
 71
0
 10
0.0
 20
0.0
 11
297.0
 21
210.0
 12
0.0
 22
0.0
 32
0.0
 14
0.0
 24
0.0
 34
0.0
 15
0.0
 25
0.0
 35
0.0
146
0.0
 13
0.0
 23
0.0
 33
0.0
 16
1.0
 26
0.0
 36
0.0
 17
0.0
 27
1.0
 37
0.0
 76
0
330
212
345
0
346
0
  0
LAYOUT
  5
57C
102
{ACAD_REACTORS
330
1A
102
}
100
AcDbPlotSettings
  1

  2
none_device
  4
ISO_A4_(297.00_x_210.00_MM)
  6

 40
0.0
 41
0.0
 42
0.0
 43
0.0
 44
297.0
 45
210.0
 46
0.0
 47
0.0
 48
0.0
 49
0.0
140
0.0
141
0.0
142
1.0
143
1.0
 70
0
 72
1
 73
0
 74
0
  7

 75
0
147
1.0
148
0.0
149
0.0
100
AcDbLayout
  1
Layout1
 70
0
 71
1
 10
0.0
 20
0.0
 11
297.0
 21
210.0
 12
0.0
 22
0.0
 32
0.0
 14
0.0
 24
0.0
 34
0.0
 15
0.0
 25
0.0
 35
0.0
146
0.0
 13
0.0
 23
0.0
 33
0.0
 16
1.0
 26
0.0
 36
0.0
 17
0.0
 27
1.0
 37
0.0
 76
0
330
213
345
0
346
0
  0
ENDSEC
  0
EOF
