  0
SECTION
  2
HEADER
  9
$ACADVER
  1
AC1015
  9
$DWGCODEPAGE
  3
ANSI_1252
  9
$EXTMAX
 10
297.0
 20
210.0
 30
0.0
  9
$EXTMIN
 10
0.0
 20
0.0
 30
0.0
  9
$LIMMIN
 10
0.0
 20
0.0
  9
$LIMMAX
 10
297.0
 20
210.0
  9
$VIEWCTR
 10
148.5
 20
105.0
  9
$VIEWSIZE
 40
210.0
  9
$CLAYER
  8
0
  9
$LTSCALE
 40
16.335
  9
$CELTYPE
  6
BYLAYER
  9
$DIMSCALE
 40
1.0
  9
$DIMASZ
 40
3.0
  9
$DIMEXO
 40
1.85625
  9
$DIMDLI
 40
11.286
  9
$DIMEXE
 40
5.346
  9
$DIMCEN
 40
2.673
  9
$DIMLFAC
 40
1.0
  9
$DIMBLK
  1
_FILLED
  9
$DIMTXT
 40
3.0
  9
$DIMTOL
 70
1
  9
$DIMLIM
 70
0
  9
$DIMTFAC
 40
1.0
  9
$DIMTP
 40
0.01
  9
$DIMTM
 40
0.01
  9
$PDMODE
 70
3
  9
$PDSIZE
 40
3.0
  9
$HANDSEED
  5
57D
  9
$TILEMODE
 70
1
  9
$MEASUREMENT
 70
1
  9
$INSUNITS
 70
4
  0
ENDSEC
  0
SECTION
  2
CLASSES
  0
CLASS
  1
ACDBDICTIONARYWDFLT
  2
AcDbDictionaryWithDefault
  3
AutoCAD 2000
 90
0
280
0
281
0
  0
CLASS
  1
ACDBPLACEHOLDER
  2
AcDbPlaceHolder
  3
AutoCAD 2000
 90
0
280
0
281
0
  0
CLASS
  1
LAYOUT
  2
AcDbLayout
  3
AutoCAD 2000
 90
0
280
0
281
0
  0
ENDSEC
  0
SECTION
  2
TABLES
  0
TABLE
  2
VPORT
  5
8
100
AcDbSymbolTable
 70
2
  0
VPORT
  5
1F4
100
AcDbSymbolTableRecord
100
AcDbViewportTableRecord
  2
*ACTIVE
 70
0
 10
0.0
 20
0.0
 11
1.0
 21
1.0
 12
148.5
 22
105.0
 13
0.0
 23
0.0
 14
1.0
 24
1.0
 15
0.0
 25
0.0
 16
0.0
 26
0.0
 36
1.0
 17
0.0
 27
0.0
 37
0.0
 40
210.0
 41
1.4142857143
 42
50.0
 43
0.0
 44
0.0
 50
0.0
 51
0.0
 71
0
 72
100
 73
1
 74
1
 75
0
 76
0
 77
0
 78
0
  0
ENDTAB
  0
TABLE
  2
LTYPE
  5
5
100
AcDbSymbolTable
 70
6
  0
LTYPE
  5
14
100
AcDbSymbolTableRecord
100
AcDbLinetypeTableRecord
  2
BYBLOCK
 70
0
  3

 72
65
 73
0
 40
0.0
  0
LTYPE
  5
15
100
AcDbSymbolTableRecord
100
AcDbLinetypeTableRecord
  2
BYLAYER
 70
0
  3

 72
65
 73
0
 40
0.0
  0
LTYPE
  5
16
100
AcDbSymbolTableRecord
100
AcDbLinetypeTableRecord
  2
CONTINUOUS
 70
64
  3
Solid line
 72
65
 73
0
 40
0.0
  0
LTYPE
  5
1F5
100
AcDbSymbolTableRecord
100
AcDbLinetypeTableRecord
  2
CENTER
 70
64
  3
____ _ ____ _ ____ _ ____ _ ____ _ ____ _ ____
 72
65
 73
4
 40
0.6
 49
0.375
 74
0
 49
-0.075
 74
0
 49
0.075
 74
0
 49
-0.075
 74
0
  0
LTYPE
  5
1F6
100
AcDbSymbolTableRecord
100
AcDbLinetypeTableRecord
  2
HIDDEN
 70
64
  3
- - - - - - - - - - - - - - - - - - - -
 72
65
 73
2
 40
0.2
 49
0.1
 74
0
 49
-0.1
 74
0
  0
LTYPE
  5
1F7
100
AcDbSymbolTableRecord
100
AcDbLinetypeTableRecord
  2
PHANTOM
 70
64
  3
_____ _ _ _____ _ _ _____ _ _ _____
 72
65
 73
6
 40
0.8
 49
0.45
 74
0
 49
-0.05
 74
0
 49
0.1
 74
0
 49
-0.05
 74
0
 49
0.1
 74
0
 49
-0.05
 74
0
  0
LTYPE
  5
1F8
100
AcDbSymbolTableRecord
100
AcDbLinetypeTableRecord
  2
DOT
 70
64
  3
. . . . . . . . . . . . . . . . . . . .
 72
65
 73
2
 40
0.2
 49
0.1
 74
0
 49
-0.1
 74
0
  0
LTYPE
  5
1F9
100
AcDbSymbolTableRecord
100
AcDbLinetypeTableRecord
  2
DASHED
 70
64
  3
- - - - - - - - - - - - - - - - - - - -
 72
65
 73
2
 40
0.2
 49
0.1
 74
0
 49
-0.1
 74
0
  0
ENDTAB
  0
TABLE
  2
LAYER
  5
2
100
AcDbSymbolTable
 70
36
  0
LAYER
  5
10
100
AcDbSymbolTableRecord
100
AcDbLayerTableRecord
  2
0
 70
0
 62
7
  6
CONTINUOUS
370
-3
390
F
  0
LAYER
  5
1FA
100
AcDbSymbolTableRecord
100
AcDbLayerTableRecord
  2
DEFAULT_1
 70
0
 62
7
  6
CENTER
370
-3
390
F
  0
LAYER
  5
1FB
100
AcDbSymbolTableRecord
100
AcDbLayerTableRecord
  2
DEFAULT_2
 70
0
 62
7
  6
HIDDEN
370
-3
390
F
  0
LAYER
  5
1FC
100
AcDbSymbolTableRecord
100
AcDbLayerTableRecord
  2
DEFAULT_3
 70
0
 62
7
  6
PHANTOM
370
-3
390
F
  0
LAYER
  5
1FD
100
AcDbSymbolTableRecord
100
AcDbLayerTableRecord
  2
ASSI
 70
0
 62
7
  6
CONTINUOUS
370
-3
390
F
  0
LAYER
  5
1FE
100
AcDbSymbolTableRecord
100
AcDbLayerTableRecord
  2
COORDINATE
 70
0
 62
7
  6
CONTINUOUS
370
-3
390
F
  0
LAYER
  5
1FF
100
AcDbSymbolTableRecord
100
AcDbLayerTableRecord
  2
COORD_ORIGINE
 70
0
 62
7
  6
CONTINUOUS
370
-3
390
F
  0
LAYER
  5
200
100
AcDbSymbolTableRecord
100
AcDbLayerTableRecord
  2
COPY_PUBLISH
 70
0
 62
7
  6
CONTINUOUS
370
-3
390
F
  0
LAYER
  5
201
100
AcDbSymbolTableRecord
100
AcDbLayerTableRecord
  2
COSMETIC
 70
0
 62
7
  6
CONTINUOUS
370
-3
390
F
  0
LAYER
  5
202
100
AcDbSymbolTableRecord
100
AcDbLayerTableRecord
  2
CURVE
 70
0
 62
7
  6
CONTINUOUS
370
-3
390
F
  0
LAYER
  5
203
100
AcDbSymbolTableRecord
100
AcDbLayerTableRecord
  2
DRAFT
 70
0
 62
7
  6
CONTINUOUS
370
-3
390
F
  0
LAYER
  5
204
100
AcDbSymbolTableRecord
100
AcDbLayerTableRecord
  2
IMPORT_IGES
 70
0
 62
7
  6
CONTINUOUS
370
-3
390
F
  0
LAYER
  5
205
100
AcDbSymbolTableRecord
100
AcDbLayerTableRecord
  2
INTFCLR_2
 70
0
 62
7
  6
CONTINUOUS
370
-3
390
F
  0
LAYER
  5
206
100
AcDbSymbolTableRecord
100
AcDbLayerTableRecord
  2
PIANI
 70
0
 62
7
  6
CONTINUOUS
370
-3
390
F
  0
LAYER
  5
207
100
AcDbSymbolTableRecord
100
AcDbLayerTableRecord
  2
PIANI_ORIGINE
 70
0
 62
7
  6
CONTINUOUS
370
-3
390
F
  0
LAYER
  5
208
100
AcDbSymbolTableRecord
100
AcDbLayerTableRecord
  2
PIANI_RIFERIMENTO
 70
0
 62
7
  6
CONTINUOUS
370
-3
390
F
  0
LAYER
  5
209
100
AcDbSymbolTableRecord
100
AcDbLayerTableRecord
  2
PUNTI
 70
0
 62
7
  6
CONTINUOUS
370
-3
390
F
  0
LAYER
  5
20A
100
AcDbSymbolTableRecord
100
AcDbLayerTableRecord
  2
RACCORDO
 70
0
 62
7
  6
CONTINUOUS
370
-3
390
F
  0
LAYER
  5
20B
100
AcDbSymbolTableRecord
100
AcDbLayerTableRecord
  2
SMUSSO
 70
0
 62
7
  6
CONTINUOUS
370
-3
390
F
  0
LAYER
  5
20C
100
AcDbSymbolTableRecord
100
AcDbLayerTableRecord
  2
SNAPLINE
 70
0
 62
7
  6
CONTINUOUS
370
-3
390
F
  0
LAYER
  5
20D
100
AcDbSymbolTableRecord
100
AcDbLayerTableRecord
  2
SUPERFICI
 70
0
 62
7
  6
CONTINUOUS
370
-3
390
F
  0
LAYER
  5
20E
100
AcDbSymbolTableRecord
100
AcDbLayerTableRecord
  2
TRASH
 70
0
 62
7
  6
CONTINUOUS
370
-3
390
F
  0
LAYER
  5
20F
100
AcDbSymbolTableRecord
100
AcDbLayerTableRecord
  2
XSEC_DATUMS
 70
0
 62
7
  6
CONTINUOUS
370
-3
390
F
  0
ENDTAB
  0
TABLE
  2
STYLE
  5
3
100
AcDbSymbolTable
 70
1
  0
STYLE
  5
11
100
AcDbSymbolTableRecord
100
AcDbTextStyleTableRecord
  2
STANDARD
 70
0
 40
0.0
 41
0.8
 50
0.0
 71
0
 42
0.2
  3
txt
  4

  0
STYLE
  5
210
100
AcDbSymbolTableRecord
100
AcDbTextStyleTableRecord
  2
TEXTSTYLE_1
 70
0
 40
0.0
 41
0.8
 50
0.0
 71
0
 42
0.2
  3
gdt
  4

  0
ENDTAB
  0
TABLE
  2
VIEW
  5
6
100
AcDbSymbolTable
 70
0
  0
ENDTAB
  0
TABLE
  2
UCS
  5
7
100
AcDbSymbolTable
 70
0
  0
ENDTAB
  0
TABLE
  2
APPID
  5
9
100
AcDbSymbolTable
 70
1
  0
APPID
  5
211
100
AcDbSymbolTableRecord
100
AcDbRegAppTableRecord
  2
ACAD
 70
0
  0
ENDTAB
  0
TABLE
  2
BLOCK_RECORD
  5
1
100
AcDbSymbolTable
 70
0
  0
BLOCK_RECORD
  5
212
100
AcDbSymbolTableRecord
100
AcDbBlockTableRecord
  2
*Model_Space
  0
BLOCK_RECORD
  5
213
100
AcDbSymbolTableRecord
100
AcDbBlockTableRecord
  2
*Paper_Space
  0
ENDTAB
  0
TABLE
  2
DIMSTYLE
  5
A
100
AcDbSymbolTable
 70
1
100
AcDbDimStyleTable
 71
0
  0
DIMSTYLE
105
214
100
AcDbSymbolTableRecord
100
AcDbDimStyleTableRecord
  2
STANDARD
 70
0
  3

  4

 40
1.0
 41
3.0
 42
0.0625
 43
0.38
 44
0.18
 45
0.0
 46
0.0
 47
0.01
 48
0.01
140
3.0
141
0.09
142
0.0
143
25.4
144
1.0
145
0.0
146
1.0
147
0.09
 71
1.0
 72
0.0
 73
0
 74
0
 75
0
 76
0
 77
1
 78
8
170
0
171
2
172
0
173
0
174
0
175
0
176
0
177
0
178
0
270
2
271
2
272
2
273
2
274
2
275
0
280
0
281
0
282
0
283
1
284
8
285
0
286
0
287
3
288
0
340
11
  0
ENDTAB
  0
ENDSEC
  0
SECTION
  2
BLOCKS
  0
BLOCK
  5
20
100
AcDbEntity
  8
0
100
AcDbBlockBegin
  2
*Model_Space
 70
0
 10
0.0
 20
0.0
 30
0.0
  3
*Model_Space
  1

  0
ENDBLK
  5
21
100
AcDbEntity
  8
0
100
AcDbBlockEnd
  0
BLOCK
  5
1C
100
AcDbEntity
  8
0
100
AcDbBlockBegin
  2
*Paper_Space
 70
0
 10
0.0
 20
0.0
 30
0.0
  3
*Paper_Space
  1

  0
ENDBLK
  5
1D
100
AcDbEntity
  8
0
100
AcDbBlockEnd
  0
ENDSEC
  0
SECTION
  2
ENTITIES
  0
LINE
  5
215
100
AcDbEntity
  8
DRAFT
100
AcDbLine
 62
7
  6
CONTINUOUS
 10
-72.6689670156
 20
81.6777860404
 11
-72.3842217628
 21
82.1688989549
  0
LINE
  5
216
100
AcDbEntity
  8
DRAFT
100
AcDbLine
 62
7
  6
CONTINUOUS
 10
-73.0471113853
 20
82.2047971075
 11
-71.3748678593
 21
83.0875904195
  0
LINE
  5
217
100
AcDbEntity
  8
DRAFT
100
AcDbLine
 62
7
  6
CONTINUOUS
 10
-72.3842217628
 20
82.1688989549
 11
-70.6930004501
 21
83.0506645435
  0
LINE
  5
218
100
AcDbEntity
  8
RACCORDO
100
AcDbLine
 62
7
  6
CONTINUOUS
 10
-75.0476005342
 20
81.5575830853
 11
-73.9332858303
 21
82.1147404372
  0
LINE
  5
219
100
AcDbEntity
  8
SMUSSO
100
AcDbLine
 62
7
  6
CONTINUOUS
 10
-74.5467324066
 20
81.5560085641
 11
-73.4860722348
 21
82.08633865
  0
LINE
  5
21A
100
AcDbEntity
  8
SMUSSO
100
AcDbLine
 62
7
  6
CONTINUOUS
 10
-75.2538391878
 20
81.0435365509
 11
-75.2538391878
 21
-9.0231054426
  0
LWPOLYLINE
  5
21B
100
AcDbEntity
  8
RACCORDO
100
AcDbPolyline
 62
7
  6
CONTINUOUS
 90
15
 70
0
 10
-61.3325750731
 20
49.9380233592
 10
-61.358902786
 20
49.9226433663
 10
-61.3903306339
 20
49.9009204183
 10
-61.4200290456
 20
49.8764482802
 10
-61.4477797099
 20
49.8493727527
 10
-61.4735226199
 20
49.8196918599
 10
-61.497068421
 20
49.7875201739
 10
-61.5182275207
 20
49.7530137539
 10
-61.5369357596
 20
49.7161588781
 10
-61.5530470727
 20
49.6770506235
 10
-61.5664000666
 20
49.6358327526
 10
-61.576898896
 20
49.5924685345
 10
-61.5844083169
 20
49.546975356
 10
-61.5887558273
 20
49.4994813835
 10
-61.5898549433
 20
49.4598865783
  0
LINE
  5
21C
100
AcDbEntity
  8
DRAFT
100
AcDbLine
 62
7
  6
CONTINUOUS
 10
72.8850314708
 20
-81.1666578984
 11
73.5330974963
 21
-81.1666578972
  0
LINE
  5
21D
100
AcDbEntity
  8
SMUSSO
100
AcDbLine
 62
7
  6
CONTINUOUS
 10
-72.425412063
 20
73.8849824073
 11
-72.425412063
 21
-7.5214055485
  0
LINE
  5
21E
100
AcDbEntity
  8
RACCORDO
100
AcDbLine
 62
7
  6
CONTINUOUS
 10
-61.33255979
 20
49.9380360695
 11
-61.0495201623
 21
50.0907424471
  0
LINE
  5
21F
100
AcDbEntity
  8
RACCORDO
100
AcDbLine
 62
7
  6
CONTINUOUS
 10
-61.0107637294
 20
49.9227378527
 11
-60.7292204628
 21
50.0746369041
  0
LWPOLYLINE
  5
220
100
AcDbEntity
  8
RACCORDO
100
AcDbPolyline
 62
7
  6
CONTINUOUS
 90
14
 70
0
 10
-61.5892634108
 20
5.1730004529
 10
-61.5855200208
 20
5.1220280291
 10
-61.5784475489
 20
5.0711067597
 10
-61.5681790525
 20
5.0203739216
 10
-61.5548368204
 20
4.9700554406
 10
-61.538519927
 20
4.9202877265
 10
-61.5193080162
 20
4.8712291909
 10
-61.4973308846
 20
4.8231971603
 10
-61.4726333378
 20
4.7762890404
 10
-61.4452957715
 20
4.730750269
 10
-61.4155880817
 20
4.6870749906
 10
-61.383551015
 20
4.6453754351
 10
-61.3492713206
 20
4.6058711221
 10
-61.313158739
 20
4.5690823903
  0
LINE
  5
221
100
AcDbEntity
  8
RACCORDO
100
AcDbLine
 62
7
  6
CONTINUOUS
 10
-61.5898550761
 20
5.2025829756
 11
-61.5892634108
 21
5.1730004529
  0
LINE
  5
222
100
AcDbEntity
  8
RACCORDO
100
AcDbLine
 62
7
  6
CONTINUOUS
 10
-61.5898611491
 20
49.4598633199
 11
-61.5898611491
 21
5.202477199
  0
LINE
  5
223
100
AcDbEntity
  8
RACCORDO
100
AcDbLine
 62
7
  6
CONTINUOUS
 10
-61.5019931835
 20
49.3577003471
 11
-61.5019931835
 21
5.0964111785
  0
LINE
  5
224
100
AcDbEntity
  8
RACCORDO
100
AcDbLine
 62
7
  6
CONTINUOUS
 10
-59.8544794089
 20
6.5054401596
 11
-59.8544794089
 21
46.2972545514
  0
LINE
  5
225
100
AcDbEntity
  8
RACCORDO
100
AcDbLine
 62
7
  6
CONTINUOUS
 10
-59.4702744436
 20
6.4886335514
 11
-59.4702744436
 21
46.2804475952
  0
LINE
  5
226
100
AcDbEntity
  8
DRAFT
100
AcDbLine
 62
7
  6
CONTINUOUS
 10
-56.8241423883
 20
40.3117039805
 11
-57.3601814964
 21
40.0140381096
  0
LINE
  5
227
100
AcDbEntity
  8
RACCORDO
100
AcDbLine
 62
7
  6
CONTINUOUS
 10
-56.3399347418
 20
40.500658801
 11
-57.2752189305
 21
40.0294105912
  0
LINE
  5
228
100
AcDbEntity
  8
RACCORDO
100
AcDbLine
 62
7
  6
CONTINUOUS
 10
-56.1278350162
 20
40.134840887
 11
-57.0631192049
 21
39.6635926773
  0
LINE
  5
229
100
AcDbEntity
  8
RACCORDO
100
AcDbLine
 62
7
  6
CONTINUOUS
 10
-56.6215755035
 20
41.3313315015
 11
-56.0558900786
 21
41.6020809903
  0
LINE
  5
22A
100
AcDbEntity
  8
RACCORDO
100
AcDbLine
 62
7
  6
CONTINUOUS
 10
-56.7013233404
 20
41.1681679993
 11
-56.1356379154
 21
41.4389174881
  0
LINE
  5
22B
100
AcDbEntity
  8
RACCORDO
100
AcDbLine
 62
7
  6
CONTINUOUS
 10
-57.9619573807
 20
45.7478372446
 11
-57.9619573807
 21
7.6007967382
  0
LINE
  5
22C
100
AcDbEntity
  8
RACCORDO
100
AcDbLine
 62
7
  6
CONTINUOUS
 10
-57.9014164137
 20
45.7175667611
 11
-57.9014164137
 21
7.6257497991
  0
LINE
  5
22D
100
AcDbEntity
  8
RACCORDO
100
AcDbLine
 62
7
  6
CONTINUOUS
 10
-57.5699983607
 20
7.792736653
 11
-57.5699983607
 21
45.5518577346
  0
LINE
  5
22E
100
AcDbEntity
  8
DRAFT
100
AcDbLine
 62
7
  6
CONTINUOUS
 10
-57.3601814964
 20
14.4662886979
 11
-57.3601814964
 21
20.9614792263
  0
LINE
  5
22F
100
AcDbEntity
  8
DRAFT
100
AcDbLine
 62
7
  6
CONTINUOUS
 10
-57.3601814964
 20
33.5188475812
 11
-57.3601814964
 21
40.0140381096
  0
LINE
  5
230
100
AcDbEntity
  8
RACCORDO
100
AcDbLine
 62
7
  6
CONTINUOUS
 10
-57.0631192049
 20
39.6635926773
 11
-57.0631192049
 21
34.2086268251
  0
LINE
  5
231
100
AcDbEntity
  8
RACCORDO
100
AcDbLine
 62
7
  6
CONTINUOUS
 10
-57.0631192049
 20
20.611033794
 11
-57.0631192049
 21
15.1560679418
  0
LINE
  5
232
100
AcDbEntity
  8
RACCORDO
100
AcDbLine
 62
7
  6
CONTINUOUS
 10
-56.8241423883
 20
45.1789297484
 11
-56.8241423883
 21
40.3117039805
  0
LINE
  5
233
100
AcDbEntity
  8
DRAFT
100
AcDbLine
 62
7
  6
CONTINUOUS
 10
-56.8241423883
 20
33.8165134521
 11
-56.8241423883
 21
21.2591450972
  0
LINE
  5
234
100
AcDbEntity
  8
RACCORDO
100
AcDbLine
 62
7
  6
CONTINUOUS
 10
-56.8241423883
 20
14.7639545689
 11
-56.8241423883
 21
8.1502190404
  0
LINE
  5
235
100
AcDbEntity
  8
RACCORDO
100
AcDbLine
 62
7
  6
CONTINUOUS
 10
-56.6314495793
 20
22.2836305102
 11
-56.6314495793
 21
32.9528886207
  0
LINE
  5
236
100
AcDbEntity
  8
RACCORDO
100
AcDbLine
 62
7
  6
CONTINUOUS
 10
-56.6215755035
 20
7.9424526379
 11
-56.6215755035
 21
13.8953135536
  0
LINE
  5
237
100
AcDbEntity
  8
RACCORDO
100
AcDbLine
 62
7
  6
CONTINUOUS
 10
-56.6215755035
 20
41.3313315015
 11
-56.6215755035
 21
45.077646306
  0
LINE
  5
238
100
AcDbEntity
  8
RACCORDO
100
AcDbLine
 62
7
  6
CONTINUOUS
 10
-56.5155094863
 20
41.2571025975
 11
-56.5155094863
 21
40.5884461732
  0
LINE
  5
239
100
AcDbEntity
  8
RACCORDO
100
AcDbLine
 62
7
  6
CONTINUOUS
 10
-56.5155094863
 20
34.3352286759
 11
-56.5155094863
 21
33.732465274
  0
LINE
  5
23A
100
AcDbEntity
  8
RACCORDO
100
AcDbLine
 62
7
  6
CONTINUOUS
 10
-56.5155094863
 20
22.2108730229
 11
-56.5155094863
 21
21.53588729
  0
LINE
  5
23B
100
AcDbEntity
  8
RACCORDO
100
AcDbLine
 62
7
  6
CONTINUOUS
 10
-56.5155094863
 20
15.2826697927
 11
-56.5155094863
 21
14.6799063908
  0
LINE
  5
23C
100
AcDbEntity
  8
RACCORDO
100
AcDbLine
 62
7
  6
CONTINUOUS
 10
-56.3690628769
 20
41.3271951664
 11
-56.3690628769
 21
40.7012013715
  0
LINE
  5
23D
100
AcDbEntity
  8
RACCORDO
100
AcDbLine
 62
7
  6
CONTINUOUS
 10
-56.3690628769
 20
34.4028625732
 11
-56.3690628769
 21
33.6592419693
  0
LINE
  5
23E
100
AcDbEntity
  8
RACCORDO
100
AcDbLine
 62
7
  6
CONTINUOUS
 10
-56.3690628769
 20
22.2785069202
 11
-56.3690628769
 21
21.6486424882
  0
LINE
  5
23F
100
AcDbEntity
  8
RACCORDO
100
AcDbLine
 62
7
  6
CONTINUOUS
 10
-56.3690628769
 20
15.35030369
 11
-56.3690628769
 21
14.6066830861
  0
LINE
  5
240
100
AcDbEntity
  8
RACCORDO
100
AcDbLine
 62
7
  6
CONTINUOUS
 10
-56.1278350162
 20
40.134840887
 11
-56.1278350162
 21
34.6405720577
  0
LINE
  5
241
100
AcDbEntity
  8
RACCORDO
100
AcDbLine
 62
7
  6
CONTINUOUS
 10
-56.1278350162
 20
21.0822820037
 11
-56.1278350162
 21
15.5880131745
  0
LINE
  5
242
100
AcDbEntity
  8
RACCORDO
100
AcDbLine
 62
7
  6
CONTINUOUS
 10
-56.0558900786
 20
8.2373885741
 11
-56.0558900786
 21
14.1902494898
  0
LINE
  5
243
100
AcDbEntity
  8
RACCORDO
100
AcDbLine
 62
7
  6
CONTINUOUS
 10
-56.0558900786
 20
22.5494429611
 11
-56.0558900786
 21
33.242887519
  0
LINE
  5
244
100
AcDbEntity
  8
RACCORDO
100
AcDbLine
 62
7
  6
CONTINUOUS
 10
-56.0558900786
 20
41.6020809903
 11
-56.0558900786
 21
44.7948035935
  0
LINE
  5
245
100
AcDbEntity
  8
RACCORDO
100
AcDbLine
 62
7
  6
CONTINUOUS
 10
-55.3499831977
 20
8.0473515976
 11
-55.3499831977
 21
7.8844351337
  0
LINE
  5
246
100
AcDbEntity
  8
RACCORDO
100
AcDbLine
 62
7
  6
CONTINUOUS
 10
-52.7868608103
 20
31.8786108113
 11
-52.7868608103
 21
27.2988985726
  0
LINE
  5
247
100
AcDbEntity
  8
RACCORDO
100
AcDbLine
 62
7
  6
CONTINUOUS
 10
-52.7026627505
 20
31.9828095669
 11
-52.7026627505
 21
27.4030973282
  0
LINE
  5
248
100
AcDbEntity
  8
DRAFT
100
AcDbLine
 62
7
  6
CONTINUOUS
 10
-56.8241423883
 20
33.8165134521
 11
-57.3601814964
 21
33.5188475812
  0
LINE
  5
249
100
AcDbEntity
  8
RACCORDO
100
AcDbLine
 62
7
  6
CONTINUOUS
 10
-56.8241423883
 20
33.328484819
 11
-56.2679898042
 21
33.608705433
  0
LINE
  5
24A
100
AcDbEntity
  8
RACCORDO
100
AcDbLine
 62
7
  6
CONTINUOUS
 10
-56.6314495793
 20
32.9528886207
 11
-56.0558900786
 21
33.242887519
  0
LINE
  5
24B
100
AcDbEntity
  8
RACCORDO
100
AcDbLine
 62
7
  6
CONTINUOUS
 10
-56.0558900786
 20
30.7281691362
 11
-52.998960536
 21
32.2444287253
  0
LINE
  5
24C
100
AcDbEntity
  8
RACCORDO
100
AcDbLine
 62
7
  6
CONTINUOUS
 10
-56.0558900786
 20
30.2571481947
 11
-52.7868608103
 21
31.8786108113
  0
LINE
  5
24D
100
AcDbEntity
  8
RACCORDO
100
AcDbLine
 62
7
  6
CONTINUOUS
 10
-57.0631192049
 20
34.2086268251
 11
-56.1278350162
 21
34.6405720577
  0
LINE
  5
24E
100
AcDbEntity
  8
RACCORDO
100
AcDbLine
 62
7
  6
CONTINUOUS
 10
-57.1442565604
 20
34.0448524412
 11
-56.2089723716
 21
34.4767976738
  0
LINE
  5
24F
100
AcDbEntity
  8
RACCORDO
100
AcDbLine
 62
7
  6
CONTINUOUS
 10
-53.4551393061
 20
32.4185133085
 11
-55.7049963595
 21
31.3794547636
  0
LINE
  5
250
100
AcDbEntity
  8
RACCORDO
100
AcDbLine
 62
7
  6
CONTINUOUS
 10
-53.3256534786
 20
32.4077751966
 11
-55.6316583186
 21
31.3427857432
  0
LINE
  5
251
100
AcDbEntity
  8
RACCORDO
100
AcDbLine
 62
7
  6
CONTINUOUS
 10
-50.0808377775
 20
4.9900152265
 11
-50.0808377775
 21
4.5191151712
  0
LINE
  5
252
100
AcDbEntity
  8
ASSI
100
AcDbLine
 62
7
  6
CONTINUOUS
 10
-48.558665472
 20
3.7580290184
 11
-48.5252028589
 21
3.8157434887
  0
LINE
  5
253
100
AcDbEntity
  8
DRAFT
100
AcDbLine
 62
7
  6
CONTINUOUS
 10
-56.8241423883
 20
21.2591450972
 11
-57.3601814964
 21
20.9614792263
  0
LINE
  5
254
100
AcDbEntity
  8
RACCORDO
100
AcDbLine
 62
7
  6
CONTINUOUS
 10
-52.7868608103
 20
27.2988985726
 11
-56.0558900786
 21
25.5351822854
  0
LINE
  5
255
100
AcDbEntity
  8
RACCORDO
100
AcDbLine
 62
7
  6
CONTINUOUS
 10
-52.8602156043
 20
27.1390730669
 11
-56.0558900786
 21
25.4149333739
  0
LINE
  5
256
100
AcDbEntity
  8
RACCORDO
100
AcDbLine
 62
7
  6
CONTINUOUS
 10
-56.3399347418
 20
21.4480999177
 11
-57.2752189305
 21
20.976851708
  0
LINE
  5
257
100
AcDbEntity
  8
RACCORDO
100
AcDbLine
 62
7
  6
CONTINUOUS
 10
-56.1278350162
 20
21.0822820037
 11
-57.0631192049
 21
20.611033794
  0
LINE
  5
258
100
AcDbEntity
  8
RACCORDO
100
AcDbLine
 62
7
  6
CONTINUOUS
 10
-56.6314495793
 20
22.2836305102
 11
-56.0558900786
 21
22.5494429611
  0
LINE
  5
259
100
AcDbEntity
  8
RACCORDO
100
AcDbLine
 62
7
  6
CONTINUOUS
 10
-56.7125869348
 20
22.1198561263
 11
-56.137027434
 21
22.3856685772
  0
LINE
  5
25A
100
AcDbEntity
  8
ASSI
100
AcDbLine
 62
7
  6
CONTINUOUS
 10
-42.0761060411
 20
2.8372630366
 11
-42.0761060411
 21
2.3251369017
  0
LINE
  5
25B
100
AcDbEntity
  8
ASSI
100
AcDbLine
 62
7
  6
CONTINUOUS
 10
-42.0247350062
 20
2.8530214685
 11
-42.0247350062
 21
2.342470684
  0
LINE
  5
25C
100
AcDbEntity
  8
DRAFT
100
AcDbLine
 62
7
  6
CONTINUOUS
 10
-42.6025736869
 20
1.7685943005
 11
-42.545530035
 21
2.000808174
  0
LINE
  5
25D
100
AcDbEntity
  8
ASSI
100
AcDbLine
 62
7
  6
CONTINUOUS
 10
-48.2670006419
 20
3.8280637365
 11
-48.1716494683
 21
3.992520184
  0
LINE
  5
25E
100
AcDbEntity
  8
ASSI
100
AcDbLine
 62
7
  6
CONTINUOUS
 10
-47.9134472513
 20
4.0048404317
 11
-47.8180960777
 21
4.1692968793
  0
LINE
  5
25F
100
AcDbEntity
  8
ASSI
100
AcDbLine
 62
7
  6
CONTINUOUS
 10
-47.5598938607
 20
4.181617127
 11
-47.4645426871
 21
4.3460735746
  0
LINE
  5
260
100
AcDbEntity
  8
ASSI
100
AcDbLine
 62
7
  6
CONTINUOUS
 10
-47.2063404701
 20
4.3583938223
 11
-47.1109892966
 21
4.5228502699
  0
LINE
  5
261
100
AcDbEntity
  8
ASSI
100
AcDbLine
 62
7
  6
CONTINUOUS
 10
-46.8527870795
 20
4.5351705176
 11
-46.757435906
 21
4.6996269652
  0
LINE
  5
262
100
AcDbEntity
  8
ASSI
100
AcDbLine
 62
7
  6
CONTINUOUS
 10
-46.4992336889
 20
4.7119472129
 11
-46.4038825154
 21
4.8764036605
  0
LINE
  5
263
100
AcDbEntity
  8
ASSI
100
AcDbLine
 62
7
  6
CONTINUOUS
 10
-43.951845245
 20
2.1853661573
 11
-43.9290087812
 21
2.2247532311
  0
LINE
  5
264
100
AcDbEntity
  8
ASSI
100
AcDbLine
 62
7
  6
CONTINUOUS
 10
-43.6815214078
 20
2.2185931072
 11
-43.5754553906
 21
2.4015299264
  0
LINE
  5
265
100
AcDbEntity
  8
ASSI
100
AcDbLine
 62
7
  6
CONTINUOUS
 10
-43.3279680172
 20
2.3953698025
 11
-43.221902
 21
2.5783066217
  0
LINE
  5
266
100
AcDbEntity
  8
ASSI
100
AcDbLine
 62
7
  6
CONTINUOUS
 10
-42.9744146266
 20
2.5721464978
 11
-42.8683486094
 21
2.755083317
  0
LINE
  5
267
100
AcDbEntity
  8
ASSI
100
AcDbLine
 62
7
  6
CONTINUOUS
 10
-42.620861236
 20
2.7489231931
 11
-42.5147952188
 21
2.9318600122
  0
LINE
  5
268
100
AcDbEntity
  8
SMUSSO
100
AcDbLine
 62
7
  6
CONTINUOUS
 10
-72.425412063
 20
-7.5214055485
 11
-75.1157680003
 21
-9.7735490658
  0
LINE
  5
269
100
AcDbEntity
  8
RACCORDO
100
AcDbLine
 62
7
  6
CONTINUOUS
 10
-59.4702744436
 20
6.4886335514
 11
-57.9612995172
 21
7.5887592397
  0
LINE
  5
26A
100
AcDbEntity
  8
RACCORDO
100
AcDbLine
 62
7
  6
CONTINUOUS
 10
-59.3096695093
 20
6.0966312502
 11
-57.7912987183
 21
7.2036271907
  0
LINE
  5
26B
100
AcDbEntity
  8
DRAFT
100
AcDbLine
 62
7
  6
CONTINUOUS
 10
-56.8241423883
 20
14.7639545689
 11
-57.3601814964
 21
14.4662886979
  0
LINE
  5
26C
100
AcDbEntity
  8
RACCORDO
100
AcDbLine
 62
7
  6
CONTINUOUS
 10
-56.8241423883
 20
14.2662138264
 11
-56.2680221129
 21
14.5561627041
  0
LINE
  5
26D
100
AcDbEntity
  8
RACCORDO
100
AcDbLine
 62
7
  6
CONTINUOUS
 10
-56.6215755035
 20
13.8953135536
 11
-56.0558900786
 21
14.1902494898
  0
LINE
  5
26E
100
AcDbEntity
  8
RACCORDO
100
AcDbLine
 62
7
  6
CONTINUOUS
 10
-57.0631192049
 20
15.1560679418
 11
-56.1278350162
 21
15.5880131745
  0
LINE
  5
26F
100
AcDbEntity
  8
RACCORDO
100
AcDbLine
 62
7
  6
CONTINUOUS
 10
-57.1442565604
 20
14.9922935579
 11
-56.2089723716
 21
15.4242387905
  0
LINE
  5
270
100
AcDbEntity
  8
SMUSSO
100
AcDbLine
 62
7
  6
CONTINUOUS
 10
-74.5467324066
 20
-10.242684237
 11
71.1172645178
 21
-83.0746826992
  0
LINE
  5
271
100
AcDbEntity
  8
SMUSSO
100
AcDbLine
 62
7
  6
CONTINUOUS
 10
-72.425412063
 20
-7.5214055485
 11
66.1675170495
 21
-76.8178701047
  0
LINE
  5
272
100
AcDbEntity
  8
RACCORDO
100
AcDbLine
 62
7
  6
CONTINUOUS
 10
-61.313158739
 20
4.5690823903
 11
-61.2752962978
 21
4.5351403466
  0
LINE
  5
273
100
AcDbEntity
  8
SMUSSO
100
AcDbLine
 62
7
  6
CONTINUOUS
 10
-75.1157680003
 20
81.5178377992
 11
-72.425412063
 21
73.8849824073
  0
LINE
  5
274
100
AcDbEntity
  8
RACCORDO
100
AcDbLine
 62
7
  6
CONTINUOUS
 10
-34.4903331527
 20
-2.3824734249
 11
-34.4903331527
 21
-2.5453898888
  0
LINE
  5
275
100
AcDbEntity
  8
RACCORDO
100
AcDbLine
 62
7
  6
CONTINUOUS
 10
-34.1709352008
 20
-2.9649360619
 11
-34.1709352008
 21
-3.4358361172
  0
LINE
  5
276
100
AcDbEntity
  8
RACCORDO
100
AcDbLine
 62
7
  6
CONTINUOUS
 10
-56.6215755035
 20
7.9424526379
 11
-56.0558900786
 21
8.2373885741
  0
LINE
  5
277
100
AcDbEntity
  8
RACCORDO
100
AcDbLine
 62
7
  6
CONTINUOUS
 10
-57.9014164137
 20
7.6257497991
 11
-57.5699983607
 21
7.792736653
  0
LINE
  5
278
100
AcDbEntity
  8
RACCORDO
100
AcDbLine
 62
7
  6
CONTINUOUS
 10
-57.6574352236
 20
7.2759955407
 11
-57.3578986351
 21
7.426918739
  0
LINE
  5
279
100
AcDbEntity
  8
RACCORDO
100
AcDbLine
 62
7
  6
CONTINUOUS
 10
-55.8438128402
 20
8.4833835283
 11
-56.0558900786
 21
8.3781916546
  0
LINE
  5
27A
100
AcDbEntity
  8
RACCORDO
100
AcDbLine
 62
7
  6
CONTINUOUS
 10
-57.5675659709
 20
7.7877478539
 11
-56.8241423883
 21
8.1502190404
  0
LINE
  5
27B
100
AcDbEntity
  8
RACCORDO
100
AcDbLine
 62
7
  6
CONTINUOUS
 10
-57.3522250398
 20
7.4240819413
 11
-56.6123010736
 21
7.7848468192
  0
LWPOLYLINE
  5
27C
100
AcDbEntity
  8
RACCORDO
100
AcDbPolyline
 62
7
  6
CONTINUOUS
 90
5
 70
0
 10
-61.2752962978
 20
4.5351403466
 10
-61.2357331557
 20
4.5041635447
 10
-61.1948615423
 20
4.4765214444
 10
-61.1528782306
 20
4.4523786338
 10
-61.1411954012
 20
4.4463845358
  0
LINE
  5
27D
100
AcDbEntity
  8
DRAFT
100
AcDbLine
 62
7
  6
CONTINUOUS
 10
-27.4887761186
 20
-7.1746803412
 11
-27.4887761186
 21
-6.7769156583
  0
LINE
  5
27E
100
AcDbEntity
  8
RACCORDO
100
AcDbLine
 62
7
  6
CONTINUOUS
 10
-27.0830259421
 20
-6.94159147
 11
-27.0830259421
 21
-6.5088115453
  0
LINE
  5
27F
100
AcDbEntity
  8
ASSI
100
AcDbLine
 62
7
  6
CONTINUOUS
 10
-26.1662034644
 20
-5.2042907921
 11
-26.1662034644
 21
-5.6298143867
  0
LINE
  5
280
100
AcDbEntity
  8
ASSI
100
AcDbLine
 62
7
  6
CONTINUOUS
 10
-26.1148324295
 20
-5.1885319644
 11
-26.1148324295
 21
-5.6124805939
  0
LINE
  5
281
100
AcDbEntity
  8
DRAFT
100
AcDbLine
 62
7
  6
CONTINUOUS
 10
-22.6455328533
 20
-9.4789026737
 11
-22.6455328533
 21
-9.6290655547
  0
LINE
  5
282
100
AcDbEntity
  8
DRAFT
100
AcDbLine
 62
7
  6
CONTINUOUS
 10
-21.7102486645
 20
-9.6661793853
 11
-21.7102486645
 21
-9.007654464
  0
LINE
  5
283
100
AcDbEntity
  8
DRAFT
100
AcDbLine
 62
7
  6
CONTINUOUS
 10
-26.6926711102
 20
-6.1863569878
 11
-26.6356274583
 21
-5.9541431144
  0
LINE
  5
284
100
AcDbEntity
  8
ASSI
100
AcDbLine
 62
7
  6
CONTINUOUS
 10
-42.3380185235
 20
2.1065473693
 11
-42.0833136499
 21
2.2911434202
  0
LINE
  5
285
100
AcDbEntity
  8
ASSI
100
AcDbLine
 62
7
  6
CONTINUOUS
 10
-42.0831195709
 20
2.8336057511
 11
-43.5827813228
 21
2.0008341963
  0
LINE
  5
286
100
AcDbEntity
  8
RACCORDO
100
AcDbLine
 62
7
  6
CONTINUOUS
 10
-50.8586552368
 20
5.0609925046
 11
-50.2929698119
 21
5.3559284408
  0
LINE
  5
287
100
AcDbEntity
  8
RACCORDO
100
AcDbLine
 62
7
  6
CONTINUOUS
 10
-50.5418816366
 20
4.7496371007
 11
-50.0808377775
 21
4.9900152265
  0
LINE
  5
288
100
AcDbEntity
  8
RACCORDO
100
AcDbLine
 62
7
  6
CONTINUOUS
 10
-45.7619383881
 20
3.0301144889
 11
-46.3276238131
 21
2.7351785528
  0
LINE
  5
289
100
AcDbEntity
  8
RACCORDO
100
AcDbLine
 62
7
  6
CONTINUOUS
 10
-45.6260650561
 20
3.0224760629
 11
-46.191750481
 21
2.7275401267
  0
LINE
  5
28A
100
AcDbEntity
  8
ASSI
100
AcDbLine
 62
7
  6
CONTINUOUS
 10
-48.5252028589
 20
3.8157434887
 11
-48.3837815027
 21
3.8864541668
  0
LINE
  5
28B
100
AcDbEntity
  8
ASSI
100
AcDbLine
 62
7
  6
CONTINUOUS
 10
-48.1716494683
 20
3.992520184
 11
-48.0302281121
 21
4.0632308621
  0
LINE
  5
28C
100
AcDbEntity
  8
ASSI
100
AcDbLine
 62
7
  6
CONTINUOUS
 10
-47.8180960777
 20
4.1692968793
 11
-47.6766747215
 21
4.2400075574
  0
LINE
  5
28D
100
AcDbEntity
  8
ASSI
100
AcDbLine
 62
7
  6
CONTINUOUS
 10
-47.4645426871
 20
4.3460735746
 11
-47.3231213309
 21
4.4167842527
  0
LINE
  5
28E
100
AcDbEntity
  8
ASSI
100
AcDbLine
 62
7
  6
CONTINUOUS
 10
-47.1109892966
 20
4.5228502699
 11
-46.9695679403
 21
4.593560948
  0
LINE
  5
28F
100
AcDbEntity
  8
ASSI
100
AcDbLine
 62
7
  6
CONTINUOUS
 10
-46.757435906
 20
4.6996269652
 11
-46.6160145497
 21
4.7703376433
  0
LINE
  5
290
100
AcDbEntity
  8
ASSI
100
AcDbLine
 62
7
  6
CONTINUOUS
 10
-46.4038825154
 20
4.8764036605
 11
-46.2624611591
 21
4.9471143386
  0
LINE
  5
291
100
AcDbEntity
  8
ASSI
100
AcDbLine
 62
7
  6
CONTINUOUS
 10
-43.9290087812
 20
2.2247532311
 11
-43.787587425
 21
2.2954639092
  0
LINE
  5
292
100
AcDbEntity
  8
ASSI
100
AcDbLine
 62
7
  6
CONTINUOUS
 10
-43.5754553906
 20
2.4015299264
 11
-43.4340340344
 21
2.4722406045
  0
LINE
  5
293
100
AcDbEntity
  8
ASSI
100
AcDbLine
 62
7
  6
CONTINUOUS
 10
-43.221902
 20
2.5783066217
 11
-43.0804806438
 21
2.6490172998
  0
LINE
  5
294
100
AcDbEntity
  8
ASSI
100
AcDbLine
 62
7
  6
CONTINUOUS
 10
-42.8683486094
 20
2.755083317
 11
-42.7269272532
 21
2.8257939951
  0
LINE
  5
295
100
AcDbEntity
  8
ASSI
100
AcDbLine
 62
7
  6
CONTINUOUS
 10
-42.5147952188
 20
2.9318600122
 11
-42.3733738626
 21
3.0025706904
  0
LINE
  5
296
100
AcDbEntity
  8
ASSI
100
AcDbLine
 62
7
  6
CONTINUOUS
 10
-42.2673078454
 20
2.9256998884
 11
-43.8499102763
 21
2.134398673
  0
LINE
  5
297
100
AcDbEntity
  8
ASSI
100
AcDbLine
 62
7
  6
CONTINUOUS
 10
-46.3405834165
 20
4.9623376739
 11
-48.7751706193
 21
3.8662815921
  0
LWPOLYLINE
  5
298
100
AcDbEntity
  8
RACCORDO
100
AcDbPolyline
 62
7
  6
CONTINUOUS
 90
13
 70
0
 10
54.0493641278
 20
-53.1488954848
 10
54.0639308517
 20
-53.1559408321
 10
54.1038035965
 20
-53.1728605341
 10
54.1441267206
 20
-53.186541929
 10
54.1847422285
 20
-53.1969330988
 10
54.2253910177
 20
-53.2039859684
 10
54.2658833854
 20
-53.207689526
 10
54.3060194626
 20
-53.2080496743
 10
54.3454442814
 20
-53.2051182615
 10
54.3838985249
 20
-53.1989933216
 10
54.4211810922
 20
-53.1897900333
 10
54.4570000848
 20
-53.1776824441
 10
54.4841357786
 20
-53.1661945562
  0
LINE
  5
299
100
AcDbEntity
  8
RACCORDO
100
AcDbLine
 62
7
  6
CONTINUOUS
 10
-61.1412255901
 20
4.446391818
 11
54.0493169952
 21
-53.1488794747
  0
LINE
  5
29A
100
AcDbEntity
  8
0
100
AcDbLine
 62
7
  6
CONTINUOUS
 10
-6.2025476444
 20
-22.9226363701
 11
-5.9294163365
 21
-23.0592020241
  0
LINE
  5
29B
100
AcDbEntity
  8
0
100
AcDbLine
 62
7
  6
CONTINUOUS
 10
-5.3371246047
 20
-23.35534789
 11
-5.0271883888
 21
-23.5103159979
  0
LINE
  5
29C
100
AcDbEntity
  8
0
100
AcDbLine
 62
7
  6
CONTINUOUS
 10
-4.8603401798
 20
-23.5937401024
 11
-4.5638326288
 21
-23.7419938779
  0
LINE
  5
29D
100
AcDbEntity
  8
0
100
AcDbLine
 62
7
  6
CONTINUOUS
 10
-4.1333559199
 20
-23.9572322324
 11
-4.0898879447
 21
-23.9789662199
  0
LINE
  5
29E
100
AcDbEntity
  8
0
100
AcDbLine
 62
7
  6
CONTINUOUS
 10
-3.6576965019
 20
-24.1950619414
 11
-3.3544968923
 21
-24.3466617462
  0
LINE
  5
29F
100
AcDbEntity
  8
0
100
AcDbLine
 62
7
  6
CONTINUOUS
 10
-3.3058288539
 20
-24.3709957654
 11
-2.9992556378
 21
-24.5242823734
  0
LINE
  5
2A0
100
AcDbEntity
  8
0
100
AcDbLine
 62
7
  6
CONTINUOUS
 10
-2.4113614031
 20
-24.8182294908
 11
-2.0847021118
 21
-24.9815591364
  0
LINE
  5
2A1
100
AcDbEntity
  8
0
100
AcDbLine
 62
7
  6
CONTINUOUS
 10
-1.9936897785
 20
-25.0270656475
 11
-1.6850009814
 21
-25.181410046
  0
LINE
  5
2A2
100
AcDbEntity
  8
0
100
AcDbLine
 62
7
  6
CONTINUOUS
 10
-1.2103769244
 20
-25.4187220746
 11
-0.912254628
 21
-25.5677832227
  0
LINE
  5
2A3
100
AcDbEntity
  8
RACCORDO
100
AcDbLine
 62
7
  6
CONTINUOUS
 10
-61.2191935487
 20
4.6086539595
 11
-6.2084926444
 21
-22.8966964926
  0
LINE
  5
2A4
100
AcDbEntity
  8
RACCORDO
100
AcDbLine
 62
7
  6
CONTINUOUS
 10
-5.906448959
 20
-23.0477183353
 11
-5.3371246047
 21
-23.3323805125
  0
LINE
  5
2A5
100
AcDbEntity
  8
RACCORDO
100
AcDbLine
 62
7
  6
CONTINUOUS
 10
-5.0042210113
 20
-23.4988323092
 11
-4.8586469106
 21
-23.5716193595
  0
LINE
  5
2A6
100
AcDbEntity
  8
RACCORDO
100
AcDbLine
 62
7
  6
CONTINUOUS
 10
-4.5408652513
 20
-23.7305101892
 11
-4.1403884554
 21
-23.9307485872
  0
LINE
  5
2A7
100
AcDbEntity
  8
RACCORDO
100
AcDbLine
 62
7
  6
CONTINUOUS
 10
-4.0669205673
 20
-23.9674825312
 11
-3.6589332887
 21
-24.1714761705
  0
LINE
  5
2A8
100
AcDbEntity
  8
RACCORDO
100
AcDbLine
 62
7
  6
CONTINUOUS
 10
-3.3315295148
 20
-24.3351780574
 11
-3.2966419029
 21
-24.3526218634
  0
LINE
  5
2A9
100
AcDbEntity
  8
RACCORDO
100
AcDbLine
 62
7
  6
CONTINUOUS
 10
-2.9762882603
 20
-24.5127986847
 11
-2.4164409059
 21
-24.7927223619
  0
LINE
  5
2AA
100
AcDbEntity
  8
RACCORDO
100
AcDbLine
 62
7
  6
CONTINUOUS
 10
-2.0617347343
 20
-24.9700754477
 11
-1.9906623471
 21
-25.0056116413
  0
LINE
  5
2AB
100
AcDbEntity
  8
RACCORDO
100
AcDbLine
 62
7
  6
CONTINUOUS
 10
-1.6620332595
 20
-25.1699261851
 11
-1.2158884006
 21
-25.3929986146
  0
LINE
  5
2AC
100
AcDbEntity
  8
RACCORDO
100
AcDbLine
 62
7
  6
CONTINUOUS
 10
-0.8892869061
 20
-25.5562993618
 11
53.9713490421
 21
-52.9866173359
  0
LINE
  5
2AD
100
AcDbEntity
  8
0
100
AcDbLine
 62
7
  6
CONTINUOUS
 10
-2.9137324868
 20
-24.2040069656
 11
-2.4916512568
 21
-24.4150475807
  0
LINE
  5
2AE
100
AcDbEntity
  8
0
100
AcDbLine
 62
7
  6
CONTINUOUS
 10
-2.5535916895
 20
-24.103160374
 11
-2.8503332928
 21
-23.9547895723
  0
LINE
  5
2AF
100
AcDbEntity
  8
0
100
AcDbLine
 62
7
  6
CONTINUOUS
 10
-1.6850009814
 20
-24.4697494177
 11
-1.5188207658
 21
-24.5528395255
  0
LINE
  5
2B0
100
AcDbEntity
  8
IMPORT_IGES
100
AcDbLine
 62
7
  6
CONTINUOUS
 10
-2.7089119366
 20
-23.8840788942
 11
-2.5834363192
 21
-23.9468167028
  0
LINE
  5
2B1
100
AcDbEntity
  8
0
100
AcDbLine
 62
7
  6
CONTINUOUS
 10
-2.5834363192
 20
-23.9468167028
 11
-2.7089119366
 21
-23.8840788942
  0
LINE
  5
2B2
100
AcDbEntity
  8
0
100
AcDbLine
 62
7
  6
CONTINUOUS
 10
-1.5181527046
 20
-24.2553471218
 11
-1.695277989
 21
-24.1667844796
  0
LINE
  5
2B3
100
AcDbEntity
  8
0
100
AcDbLine
 62
7
  6
CONTINUOUS
 10
-1.3767313484
 20
-24.1846364437
 11
-1.5538566328
 21
-24.0960738015
  0
LINE
  5
2B4
100
AcDbEntity
  8
IMPORT_IGES
100
AcDbLine
 62
7
  6
CONTINUOUS
 10
-1.3767313484
 20
-24.1846364437
 11
-1.5538566328
 21
-24.0960738015
  0
LINE
  5
2B5
100
AcDbEntity
  8
0
100
AcDbLine
 62
7
  6
CONTINUOUS
 10
-2.5402754546
 20
-22.9352724036
 11
-2.8401007506
 21
-22.7853597555
  0
LINE
  5
2B6
100
AcDbEntity
  8
0
100
AcDbLine
 62
7
  6
CONTINUOUS
 10
-3.4933422585
 20
-22.4587390016
 11
-3.7999932563
 21
-22.3054135027
  0
LINE
  5
2B7
100
AcDbEntity
  8
0
100
AcDbLine
 62
7
  6
CONTINUOUS
 10
-4.4165917837
 20
-21.997114239
 11
-4.7262713199
 21
-21.8422744709
  0
LINE
  5
2B8
100
AcDbEntity
  8
0
100
AcDbLine
 62
7
  6
CONTINUOUS
 10
-5.4521418866
 20
-21.4793391875
 11
-5.7618666776
 21
-21.3244767921
  0
LINE
  5
2B9
100
AcDbEntity
  8
0
100
AcDbLine
 62
7
  6
CONTINUOUS
 10
-6.3365719566
 20
-21.0371241525
 11
-6.6732580221
 21
-20.8687811198
  0
LINE
  5
2BA
100
AcDbEntity
  8
0
100
AcDbLine
 62
7
  6
CONTINUOUS
 10
-5.0271883888
 20
-21.6917068173
 11
-5.3371246047
 21
-21.5367387093
  0
LINE
  5
2BB
100
AcDbEntity
  8
IMPORT_IGES
100
AcDbLine
 62
7
  6
CONTINUOUS
 10
-6.5318366658
 20
-20.7980704417
 11
-6.1951506004
 21
-20.9664134744
  0
LINE
  5
2BC
100
AcDbEntity
  8
IMPORT_IGES
100
AcDbLine
 62
7
  6
CONTINUOUS
 10
-5.6204453213
 20
-21.2537661139
 11
-5.3107205304
 21
-21.4086285094
  0
LINE
  5
2BD
100
AcDbEntity
  8
IMPORT_IGES
100
AcDbLine
 62
7
  6
CONTINUOUS
 10
-4.5848499636
 20
-21.7715637928
 11
-4.2751704275
 21
-21.9264035609
  0
LINE
  5
2BE
100
AcDbEntity
  8
IMPORT_IGES
100
AcDbLine
 62
7
  6
CONTINUOUS
 10
-3.6585719001
 20
-22.2347028246
 11
-3.3519209023
 21
-22.3880283235
  0
LINE
  5
2BF
100
AcDbEntity
  8
IMPORT_IGES
100
AcDbLine
 62
7
  6
CONTINUOUS
 10
-2.6986793944
 20
-22.7146490774
 11
-2.3988540983
 21
-22.8645617254
  0
LINE
  5
2C0
100
AcDbEntity
  8
0
100
AcDbLine
 62
7
  6
CONTINUOUS
 10
-2.3988540983
 20
-22.8645617254
 11
-2.6986793944
 21
-22.7146490774
  0
LINE
  5
2C1
100
AcDbEntity
  8
0
100
AcDbLine
 62
7
  6
CONTINUOUS
 10
-3.3519209023
 20
-22.3880283235
 11
-3.6585719001
 21
-22.2347028246
  0
LINE
  5
2C2
100
AcDbEntity
  8
0
100
AcDbLine
 62
7
  6
CONTINUOUS
 10
-4.2751704275
 20
-21.9264035609
 11
-4.5848499636
 21
-21.7715637928
  0
LINE
  5
2C3
100
AcDbEntity
  8
0
100
AcDbLine
 62
7
  6
CONTINUOUS
 10
-5.3107205304
 20
-21.4086285094
 11
-5.6204453213
 21
-21.2537661139
  0
LINE
  5
2C4
100
AcDbEntity
  8
0
100
AcDbLine
 62
7
  6
CONTINUOUS
 10
-6.1951506004
 20
-20.9664134744
 11
-6.5318366658
 21
-20.7980704417
  0
LINE
  5
2C5
100
AcDbEntity
  8
0
100
AcDbLine
 62
7
  6
CONTINUOUS
 10
-4.8857670325
 20
-21.6209961391
 11
-5.1957032484
 21
-21.4660280312
  0
LINE
  5
2C6
100
AcDbEntity
  8
IMPORT_IGES
100
AcDbLine
 62
7
  6
CONTINUOUS
 10
-4.8857670325
 20
-21.6209961391
 11
-5.1957032484
 21
-21.4660280312
  0
LINE
  5
2C7
100
AcDbEntity
  8
ASSI
100
AcDbLine
 62
7
  6
CONTINUOUS
 10
-43.787587425
 20
2.2954639092
 11
-43.6815214078
 21
2.2185931072
  0
LINE
  5
2C8
100
AcDbEntity
  8
ASSI
100
AcDbLine
 62
7
  6
CONTINUOUS
 10
-43.4340340344
 20
2.4722406045
 11
-43.3279680172
 21
2.3953698025
  0
LINE
  5
2C9
100
AcDbEntity
  8
ASSI
100
AcDbLine
 62
7
  6
CONTINUOUS
 10
-43.0804806438
 20
2.6490172998
 11
-42.9744146266
 21
2.5721464978
  0
LINE
  5
2CA
100
AcDbEntity
  8
ASSI
100
AcDbLine
 62
7
  6
CONTINUOUS
 10
-42.7269272532
 20
2.8257939951
 11
-42.620861236
 21
2.7489231931
  0
LINE
  5
2CB
100
AcDbEntity
  8
ASSI
100
AcDbLine
 62
7
  6
CONTINUOUS
 10
-42.3733738626
 20
3.0025706904
 11
-42.2673078454
 21
2.9256998884
  0
LINE
  5
2CC
100
AcDbEntity
  8
RACCORDO
100
AcDbLine
 62
7
  6
CONTINUOUS
 10
-18.2610326241
 20
-10.9198873502
 11
-18.2610326241
 21
-11.3907874055
  0
LINE
  5
2CD
100
AcDbEntity
  8
ASSI
100
AcDbLine
 62
7
  6
CONTINUOUS
 10
-42.3380185235
 20
2.1065473693
 11
-43.0592197005
 21
1.7390533851
  0
LINE
  5
2CE
100
AcDbEntity
  8
DRAFT
100
AcDbLine
 62
7
  6
CONTINUOUS
 10
-42.789000877
 20
1.6039439733
 11
-42.6818726582
 21
1.6578040418
  0
LINE
  5
2CF
100
AcDbEntity
  8
DRAFT
100
AcDbLine
 62
7
  6
CONTINUOUS
 10
-42.8598605432
 20
1.6393738064
 11
-42.6025736869
 21
1.7685943005
  0
LINE
  5
2D0
100
AcDbEntity
  8
ASSI
100
AcDbLine
 62
7
  6
CONTINUOUS
 10
-42.0761060411
 20
2.3251369017
 11
-43.1556850004
 21
1.787286035
  0
LINE
  5
2D1
100
AcDbEntity
  8
RACCORDO
100
AcDbLine
 62
7
  6
CONTINUOUS
 10
-36.4603144069
 20
-1.2983736915
 11
-36.732737512
 21
-1.4241877092
  0
LINE
  5
2D2
100
AcDbEntity
  8
RACCORDO
100
AcDbLine
 62
7
  6
CONTINUOUS
 10
-36.2445046944
 20
-1.3162705446
 11
-36.6105074438
 21
-1.4853027432
  0
LINE
  5
2D3
100
AcDbEntity
  8
RACCORDO
100
AcDbLine
 62
7
  6
CONTINUOUS
 10
-10.9433992426
 20
-13.8469233856
 11
-10.9434456095
 21
-13.8469002102
  0
LINE
  5
2D4
100
AcDbEntity
  8
RACCORDO
100
AcDbLine
 62
7
  6
CONTINUOUS
 10
52.20141213
 20
-50.0426274794
 11
-59.4492566371
 21
5.7827069042
  0
LINE
  5
2D5
100
AcDbEntity
  8
RACCORDO
100
AcDbLine
 62
7
  6
CONTINUOUS
 10
52.3409974768
 20
-49.7287022428
 11
-59.3096695093
 21
6.0966312502
  0
LINE
  5
2D6
100
AcDbEntity
  8
RACCORDO
100
AcDbLine
 62
7
  6
CONTINUOUS
 10
-57.7721872474
 20
7.1925716175
 11
52.5187669361
 21
-47.9529054743
  0
LINE
  5
2D7
100
AcDbEntity
  8
RACCORDO
100
AcDbLine
 62
7
  6
CONTINUOUS
 10
-57.6574352236
 20
7.2759955407
 11
52.5187669361
 21
-47.8121055391
  0
LINE
  5
2D8
100
AcDbEntity
  8
RACCORDO
100
AcDbLine
 62
7
  6
CONTINUOUS
 10
52.5187669361
 20
-47.5114140466
 11
-57.3578986351
 21
7.426918739
  0
LINE
  5
2D9
100
AcDbEntity
  8
DRAFT
100
AcDbLine
 62
7
  6
CONTINUOUS
 10
24.9785470454
 20
-33.5399534907
 11
19.6752461865
 21
-30.8883030612
  0
LINE
  5
2DA
100
AcDbEntity
  8
DRAFT
100
AcDbLine
 62
7
  6
CONTINUOUS
 10
9.0686444687
 20
-25.5850022023
 11
3.7653436098
 21
-22.9333517729
  0
LINE
  5
2DB
100
AcDbEntity
  8
DRAFT
100
AcDbLine
 62
7
  6
CONTINUOUS
 10
-6.841258108
 20
-17.630050914
 11
-12.1445589669
 21
-14.9784004845
  0
LINE
  5
2DC
100
AcDbEntity
  8
DRAFT
100
AcDbLine
 62
7
  6
CONTINUOUS
 10
-22.7511606847
 20
-9.6750996256
 11
-28.0544615436
 21
-7.0234491962
  0
LINE
  5
2DD
100
AcDbEntity
  8
RACCORDO
100
AcDbLine
 62
7
  6
CONTINUOUS
 10
-27.3115935463
 20
-7.1458723272
 11
-22.6455328533
 21
-9.4789026737
  0
LINE
  5
2DE
100
AcDbEntity
  8
RACCORDO
100
AcDbLine
 62
7
  6
CONTINUOUS
 10
-11.4016909696
 20
-15.1008236155
 11
-6.9477300022
 21
-17.3278040992
  0
LINE
  5
2DF
100
AcDbEntity
  8
RACCORDO
100
AcDbLine
 62
7
  6
CONTINUOUS
 10
4.5082116071
 20
-23.0557749039
 11
8.9621725745
 21
-25.2827553876
  0
LINE
  5
2E0
100
AcDbEntity
  8
RACCORDO
100
AcDbLine
 62
7
  6
CONTINUOUS
 10
20.4181141838
 20
-31.0107261922
 11
24.8720751512
 21
-33.2377066759
  0
LINE
  5
2E1
100
AcDbEntity
  8
RACCORDO
100
AcDbLine
 62
7
  6
CONTINUOUS
 10
-56.6123010736
 20
7.7848468192
 11
-27.4887761186
 21
-6.7769156583
  0
LINE
  5
2E2
100
AcDbEntity
  8
DRAFT
100
AcDbLine
 62
7
  6
CONTINUOUS
 10
-22.1854752597
 20
-9.4285660877
 11
-11.5788735419
 21
-14.7318669466
  0
LINE
  5
2E3
100
AcDbEntity
  8
DRAFT
100
AcDbLine
 62
7
  6
CONTINUOUS
 10
-6.275572683
 20
-17.3835173761
 11
4.3310290348
 21
-22.686818235
  0
LINE
  5
2E4
100
AcDbEntity
  8
DRAFT
100
AcDbLine
 62
7
  6
CONTINUOUS
 10
9.6343298937
 20
-25.3384686644
 11
20.2409316115
 21
-30.6417695233
  0
LINE
  5
2E5
100
AcDbEntity
  8
RACCORDO
100
AcDbLine
 62
7
  6
CONTINUOUS
 10
25.5442324704
 20
-33.2934199528
 11
52.5187669361
 21
-46.7806871856
  0
LINE
  5
2E6
100
AcDbEntity
  8
ASSI
100
AcDbLine
 62
7
  6
CONTINUOUS
 10
49.115861803
 20
-45.0047888423
 11
46.9342126013
 21
-43.9139642414
  0
LINE
  5
2E7
100
AcDbEntity
  8
ASSI
100
AcDbLine
 62
7
  6
CONTINUOUS
 10
-46.3435536571
 20
2.7249188878
 11
-48.5252028589
 21
3.8157434887
  0
LINE
  5
2E8
100
AcDbEntity
  8
RACCORDO
100
AcDbLine
 62
7
  6
CONTINUOUS
 10
52.5187669361
 20
-46.6277185819
 11
49.2676649792
 21
-45.0021676034
  0
LINE
  5
2E9
100
AcDbEntity
  8
RACCORDO
100
AcDbLine
 62
7
  6
CONTINUOUS
 10
44.6007602233
 20
-42.6687152255
 11
33.3577624025
 21
-37.0472163151
  0
LINE
  5
2EA
100
AcDbEntity
  8
RACCORDO
100
AcDbLine
 62
7
  6
CONTINUOUS
 10
28.6908576466
 20
-34.7137639371
 11
26.2796949108
 21
-33.5081825692
  0
LINE
  5
2EB
100
AcDbEntity
  8
RACCORDO
100
AcDbLine
 62
7
  6
CONTINUOUS
 10
19.8590225616
 20
-30.2978463946
 11
17.4478598258
 21
-29.0922650267
  0
LINE
  5
2EC
100
AcDbEntity
  8
RACCORDO
100
AcDbLine
 62
7
  6
CONTINUOUS
 10
12.7809550699
 20
-26.7588126488
 11
10.5111921512
 21
-25.6239311894
  0
LINE
  5
2ED
100
AcDbEntity
  8
RACCORDO
100
AcDbLine
 62
7
  6
CONTINUOUS
 10
3.9491199849
 20
-22.3428951063
 11
1.5379572491
 21
-21.1373137384
  0
LINE
  5
2EE
100
AcDbEntity
  8
RACCORDO
100
AcDbLine
 62
7
  6
CONTINUOUS
 10
-3.1289475068
 20
-18.8038613604
 11
-5.5401102426
 21
-17.5982799925
  0
LINE
  5
2EF
100
AcDbEntity
  8
RACCORDO
100
AcDbLine
 62
7
  6
CONTINUOUS
 10
-12.1021824089
 20
-14.3172439094
 11
-14.3719453276
 21
-13.18236245
  0
LINE
  5
2F0
100
AcDbEntity
  8
RACCORDO
100
AcDbLine
 62
7
  6
CONTINUOUS
 10
-19.0388500834
 20
-10.8489100721
 11
-21.4500128193
 21
-9.6433287042
  0
LINE
  5
2F1
100
AcDbEntity
  8
RACCORDO
100
AcDbLine
 62
7
  6
CONTINUOUS
 10
-27.8706851685
 20
-6.4329925296
 11
-30.2818479043
 21
-5.2274111617
  0
LINE
  5
2F2
100
AcDbEntity
  8
RACCORDO
100
AcDbLine
 62
7
  6
CONTINUOUS
 10
-34.9487526601
 20
-2.8939587838
 11
-46.191750481
 21
2.7275401267
  0
LINE
  5
2F3
100
AcDbEntity
  8
RACCORDO
100
AcDbLine
 62
7
  6
CONTINUOUS
 10
-50.8586552368
 20
5.0609925046
 11
-56.6215755035
 21
7.9424526379
  0
LINE
  5
2F4
100
AcDbEntity
  8
ASSI
100
AcDbLine
 62
7
  6
CONTINUOUS
 10
49.2524098405
 20
-44.9316415047
 11
47.0756339575
 21
-43.8432535632
  0
LINE
  5
2F5
100
AcDbEntity
  8
ASSI
100
AcDbLine
 62
7
  6
CONTINUOUS
 10
-46.2070056197
 20
2.7980662253
 11
-48.3837815027
 21
3.8864541668
  0
LINE
  5
2F6
100
AcDbEntity
  8
ASSI
100
AcDbLine
 62
7
  6
CONTINUOUS
 10
49.4601018351
 20
-44.8233554677
 11
47.2877659919
 21
-43.7371875461
  0
LINE
  5
2F7
100
AcDbEntity
  8
ASSI
100
AcDbLine
 62
7
  6
CONTINUOUS
 10
-45.999313625
 20
2.9063522624
 11
-48.1716494683
 21
3.992520184
  0
LINE
  5
2F8
100
AcDbEntity
  8
ASSI
100
AcDbLine
 62
7
  6
CONTINUOUS
 10
49.5985631649
 20
-44.7511647764
 11
47.4291873481
 21
-43.6664768679
  0
LINE
  5
2F9
100
AcDbEntity
  8
ASSI
100
AcDbLine
 62
7
  6
CONTINUOUS
 10
-45.8608522953
 20
2.9785429537
 11
-48.0302281121
 21
4.0632308621
  0
LINE
  5
2FA
100
AcDbEntity
  8
RACCORDO
100
AcDbLine
 62
7
  6
CONTINUOUS
 10
-26.4084001039
 20
-6.6585787443
 11
-21.7102486645
 21
-9.007654464
  0
LINE
  5
2FB
100
AcDbEntity
  8
RACCORDO
100
AcDbLine
 62
7
  6
CONTINUOUS
 10
-10.4984975272
 20
-14.6135300326
 11
-6.0124458135
 21
-16.8565558895
  0
LINE
  5
2FC
100
AcDbEntity
  8
RACCORDO
100
AcDbLine
 62
7
  6
CONTINUOUS
 10
5.4114050495
 20
-22.568481321
 11
9.8974567632
 21
-24.8115071779
  0
LINE
  5
2FD
100
AcDbEntity
  8
RACCORDO
100
AcDbLine
 62
7
  6
CONTINUOUS
 10
21.3213076262
 20
-30.5234326093
 11
25.8073593399
 21
-32.7664584662
  0
LINE
  5
2FE
100
AcDbEntity
  8
RACCORDO
100
AcDbLine
 62
7
  6
CONTINUOUS
 10
52.5187669361
 20
-46.0499399332
 11
49.8333504041
 21
-44.7072316672
  0
LINE
  5
2FF
100
AcDbEntity
  8
RACCORDO
100
AcDbLine
 62
7
  6
CONTINUOUS
 10
45.1664456483
 20
-42.3737792893
 11
33.9234478274
 21
-36.7522803789
  0
LINE
  5
300
100
AcDbEntity
  8
RACCORDO
100
AcDbLine
 62
7
  6
CONTINUOUS
 10
29.2565430716
 20
-34.4188280009
 11
26.8355062599
 21
-33.2083095951
  0
LINE
  5
301
100
AcDbEntity
  8
RACCORDO
100
AcDbLine
 62
7
  6
CONTINUOUS
 10
20.4345820624
 20
-30.0078474963
 11
18.0135452507
 21
-28.7973290905
  0
LINE
  5
302
100
AcDbEntity
  8
RACCORDO
100
AcDbLine
 62
7
  6
CONTINUOUS
 10
13.3466404949
 20
-26.4638767126
 11
11.0670035003
 21
-25.3240582153
  0
LINE
  5
303
100
AcDbEntity
  8
RACCORDO
100
AcDbLine
 62
7
  6
CONTINUOUS
 10
4.5246794857
 20
-22.052896208
 11
2.103642674
 21
-20.8423778022
  0
LINE
  5
304
100
AcDbEntity
  8
RACCORDO
100
AcDbLine
 62
7
  6
CONTINUOUS
 10
-2.5632620818
 20
-18.5089254243
 11
-4.9842988935
 21
-17.2984070184
  0
LINE
  5
305
100
AcDbEntity
  8
RACCORDO
100
AcDbLine
 62
7
  6
CONTINUOUS
 10
-11.5266229081
 20
-14.0272450111
 11
-13.8062599027
 21
-12.8874265138
  0
LINE
  5
306
100
AcDbEntity
  8
RACCORDO
100
AcDbLine
 62
7
  6
CONTINUOUS
 10
-18.4731646585
 20
-10.5539741359
 11
-20.8942014702
 21
-9.3434557301
  0
LINE
  5
307
100
AcDbEntity
  8
RACCORDO
100
AcDbLine
 62
7
  6
CONTINUOUS
 10
-27.2951256677
 20
-6.1429936313
 11
-29.7161624794
 21
-4.9324752255
  0
LINE
  5
308
100
AcDbEntity
  8
RACCORDO
100
AcDbLine
 62
7
  6
CONTINUOUS
 10
-34.3830672352
 20
-2.5990228476
 11
-45.6260650561
 21
3.0224760629
  0
LINE
  5
309
100
AcDbEntity
  8
RACCORDO
100
AcDbLine
 62
7
  6
CONTINUOUS
 10
-50.2929698119
 20
5.3559284408
 11
-56.0558900786
 21
8.2373885741
  0
LINE
  5
30A
100
AcDbEntity
  8
ASSI
100
AcDbLine
 62
7
  6
CONTINUOUS
 10
51.530406679
 20
-45.504954499
 11
47.6413193824
 21
-43.5604108508
  0
LINE
  5
30B
100
AcDbEntity
  8
ASSI
100
AcDbLine
 62
7
  6
CONTINUOUS
 10
-43.9290087812
 20
2.2247532311
 11
-47.8180960777
 21
4.1692968793
  0
LINE
  5
30C
100
AcDbEntity
  8
ASSI
100
AcDbLine
 62
7
  6
CONTINUOUS
 10
51.6718280352
 20
-45.4342438209
 11
47.7827407387
 21
-43.4897001726
  0
LINE
  5
30D
100
AcDbEntity
  8
ASSI
100
AcDbLine
 62
7
  6
CONTINUOUS
 10
-43.787587425
 20
2.2954639092
 11
-47.6766747215
 21
4.2400075574
  0
LINE
  5
30E
100
AcDbEntity
  8
RACCORDO
100
AcDbLine
 62
7
  6
CONTINUOUS
 10
-56.0558900786
 20
8.5894221475
 11
-55.8438128402
 21
8.4833835283
  0
LINE
  5
30F
100
AcDbEntity
  8
RACCORDO
100
AcDbLine
 62
7
  6
CONTINUOUS
 10
-36.2445046944
 20
-1.3162705446
 11
-34.9841627952
 21
-1.9464414942
  0
LINE
  5
310
100
AcDbEntity
  8
RACCORDO
100
AcDbLine
 62
7
  6
CONTINUOUS
 10
-12.4150061684
 20
-13.2310198076
 11
-11.1608355666
 21
-13.8581051085
  0
LINE
  5
311
100
AcDbEntity
  8
RACCORDO
100
AcDbLine
 62
7
  6
CONTINUOUS
 10
11.420663655
 20
-25.1488547193
 11
12.6748342568
 21
-25.7759400202
  0
LINE
  5
312
100
AcDbEntity
  8
RACCORDO
100
AcDbLine
 62
7
  6
CONTINUOUS
 10
35.2439908836
 20
-37.0605183336
 11
36.5043327827
 21
-37.6906892832
  0
LINE
  5
313
100
AcDbEntity
  8
ASSI
100
AcDbLine
 62
7
  6
CONTINUOUS
 10
51.8839600696
 20
-45.3281778037
 11
47.994872773
 21
-43.3836341555
  0
LINE
  5
314
100
AcDbEntity
  8
ASSI
100
AcDbLine
 62
7
  6
CONTINUOUS
 10
-43.5754553906
 20
2.4015299264
 11
-47.4645426871
 21
4.3460735746
  0
LINE
  5
315
100
AcDbEntity
  8
RACCORDO
100
AcDbLine
 62
7
  6
CONTINUOUS
 10
-56.0558900786
 20
8.7093220324
 11
-55.6263763999
 21
8.4945651931
  0
LINE
  5
316
100
AcDbEntity
  8
RACCORDO
100
AcDbLine
 62
7
  6
CONTINUOUS
 10
-36.0270682541
 20
-1.3050888798
 11
-34.7667263549
 21
-1.9352598294
  0
LINE
  5
317
100
AcDbEntity
  8
RACCORDO
100
AcDbLine
 62
7
  6
CONTINUOUS
 10
-12.1975697281
 20
-13.2198381428
 11
-10.9433991263
 21
-13.8469234437
  0
LINE
  5
318
100
AcDbEntity
  8
RACCORDO
100
AcDbLine
 62
7
  6
CONTINUOUS
 10
11.6381000953
 20
-25.1376730545
 11
12.892270697
 21
-25.7647583554
  0
LINE
  5
319
100
AcDbEntity
  8
RACCORDO
100
AcDbLine
 62
7
  6
CONTINUOUS
 10
35.4614273239
 20
-37.0493366688
 11
36.721769223
 21
-37.6795076184
  0
LINE
  5
31A
100
AcDbEntity
  8
ASSI
100
AcDbLine
 62
7
  6
CONTINUOUS
 10
52.0253814258
 20
-45.2574671256
 11
48.1362941293
 21
-43.3129234774
  0
LINE
  5
31B
100
AcDbEntity
  8
ASSI
100
AcDbLine
 62
7
  6
CONTINUOUS
 10
-43.4340340344
 20
2.4722406045
 11
-47.3231213309
 21
4.4167842527
  0
LINE
  5
31C
100
AcDbEntity
  8
ASSI
100
AcDbLine
 62
7
  6
CONTINUOUS
 10
52.2375134602
 20
-45.1514011084
 11
48.3484261636
 21
-43.2068574602
  0
LINE
  5
31D
100
AcDbEntity
  8
ASSI
100
AcDbLine
 62
7
  6
CONTINUOUS
 10
-43.221902
 20
2.5783066217
 11
-47.1109892966
 21
4.5228502699
  0
LINE
  5
31E
100
AcDbEntity
  8
ASSI
100
AcDbLine
 62
7
  6
CONTINUOUS
 10
52.3789348164
 20
-45.0806904303
 11
48.4898475199
 21
-43.1361467821
  0
LINE
  5
31F
100
AcDbEntity
  8
ASSI
100
AcDbLine
 62
7
  6
CONTINUOUS
 10
-43.0804806438
 20
2.6490172998
 11
-46.9695679403
 21
4.593560948
  0
LINE
  5
320
100
AcDbEntity
  8
ASSI
100
AcDbLine
 62
7
  6
CONTINUOUS
 10
52.5187669361
 20
-44.9384744558
 11
48.7019795542
 21
-43.0300807649
  0
LINE
  5
321
100
AcDbEntity
  8
ASSI
100
AcDbLine
 62
7
  6
CONTINUOUS
 10
-42.8683486094
 20
2.755083317
 11
-46.757435906
 21
4.6996269652
  0
LINE
  5
322
100
AcDbEntity
  8
ASSI
100
AcDbLine
 62
7
  6
CONTINUOUS
 10
52.5187669361
 20
-44.7970530996
 11
48.8434009105
 21
-42.9593700868
  0
LINE
  5
323
100
AcDbEntity
  8
ASSI
100
AcDbLine
 62
7
  6
CONTINUOUS
 10
-42.7269272532
 20
2.8257939951
 11
-46.6160145497
 21
4.7703376433
  0
LINE
  5
324
100
AcDbEntity
  8
ASSI
100
AcDbLine
 62
7
  6
CONTINUOUS
 10
52.5187669361
 20
-44.5849210652
 11
49.0555329448
 21
-42.8533040696
  0
LINE
  5
325
100
AcDbEntity
  8
ASSI
100
AcDbLine
 62
7
  6
CONTINUOUS
 10
-42.5147952188
 20
2.9318600122
 11
-46.4038825154
 21
4.8764036605
  0
LINE
  5
326
100
AcDbEntity
  8
ASSI
100
AcDbLine
 62
7
  6
CONTINUOUS
 10
-30.4306808398
 20
-3.0792161548
 11
-26.1732169942
 21
-5.2079480776
  0
LINE
  5
327
100
AcDbEntity
  8
ASSI
100
AcDbLine
 62
7
  6
CONTINUOUS
 10
-14.5207782631
 20
-11.0341674432
 11
-10.2633144175
 21
-13.1628993659
  0
LINE
  5
328
100
AcDbEntity
  8
ASSI
100
AcDbLine
 62
7
  6
CONTINUOUS
 10
1.3891243136
 20
-18.9891187315
 11
5.6465881592
 21
-21.1178506543
  0
LINE
  5
329
100
AcDbEntity
  8
ASSI
100
AcDbLine
 62
7
  6
CONTINUOUS
 10
17.2990268903
 20
-26.9440700199
 11
21.5564907359
 21
-29.0728019426
  0
LINE
  5
32A
100
AcDbEntity
  8
ASSI
100
AcDbLine
 62
7
  6
CONTINUOUS
 10
33.208929467
 20
-34.8990213082
 11
37.4663933126
 21
-37.027753231
  0
LINE
  5
32B
100
AcDbEntity
  8
ASSI
100
AcDbLine
 62
7
  6
CONTINUOUS
 10
-30.3088772712
 20
-3.0897162221
 11
-26.1161351246
 21
-5.1860872954
  0
LINE
  5
32C
100
AcDbEntity
  8
ASSI
100
AcDbLine
 62
7
  6
CONTINUOUS
 10
-14.3989746945
 20
-11.0446675105
 11
-10.2062325479
 21
-13.1410385838
  0
LINE
  5
32D
100
AcDbEntity
  8
ASSI
100
AcDbLine
 62
7
  6
CONTINUOUS
 10
1.5109278822
 20
-18.9996187988
 11
5.7036700288
 21
-21.0959898721
  0
LINE
  5
32E
100
AcDbEntity
  8
ASSI
100
AcDbLine
 62
7
  6
CONTINUOUS
 10
17.4208304589
 20
-26.9545700872
 11
21.6135726055
 21
-29.0509411605
  0
LINE
  5
32F
100
AcDbEntity
  8
ASSI
100
AcDbLine
 62
7
  6
CONTINUOUS
 10
33.3307330356
 20
-34.9095213755
 11
37.5234751822
 21
-37.0058924488
  0
LINE
  5
330
100
AcDbEntity
  8
ASSI
100
AcDbLine
 62
7
  6
CONTINUOUS
 10
-46.3405834165
 20
4.9623376739
 11
-46.2862989525
 21
4.9351954419
  0
LINE
  5
331
100
AcDbEntity
  8
ASSI
100
AcDbLine
 62
7
  6
CONTINUOUS
 10
-42.2673078454
 20
2.9256998884
 11
-42.0831195709
 21
2.8336057511
  0
LINE
  5
332
100
AcDbEntity
  8
ASSI
100
AcDbLine
 62
7
  6
CONTINUOUS
 10
49.1188320437
 20
-42.7673700562
 11
49.1731165077
 21
-42.7945122882
  0
LINE
  5
333
100
AcDbEntity
  8
ASSI
100
AcDbLine
 62
7
  6
CONTINUOUS
 10
52.5187669361
 20
-44.443499709
 11
49.1969543011
 21
-42.7825933915
  0
LINE
  5
334
100
AcDbEntity
  8
ASSI
100
AcDbLine
 62
7
  6
CONTINUOUS
 10
-42.3733738626
 20
3.0025706904
 11
-46.2624611591
 21
4.9471143386
  0
LINE
  5
335
100
AcDbEntity
  8
ASSI
100
AcDbLine
 62
7
  6
CONTINUOUS
 10
-46.2187808942
 20
4.9518381298
 11
-42.026036655
 21
2.8554660102
  0
LINE
  5
336
100
AcDbEntity
  8
ASSI
100
AcDbLine
 62
7
  6
CONTINUOUS
 10
49.240634566
 20
-42.7778696003
 11
52.5187669361
 21
-44.4169357854
  0
LINE
  5
337
100
AcDbEntity
  8
DRAFT
100
AcDbLine
 62
7
  6
CONTINUOUS
 10
-11.5788735419
 20
-15.1296316295
 11
-11.5788735419
 21
-14.7318669466
  0
LINE
  5
338
100
AcDbEntity
  8
RACCORDO
100
AcDbLine
 62
7
  6
CONTINUOUS
 10
-10.8196767389
 20
-14.4739719893
 11
-10.8196767389
 21
-14.7058501946
  0
LINE
  5
339
100
AcDbEntity
  8
RACCORDO
100
AcDbLine
 62
7
  6
CONTINUOUS
 10
-10.6670059241
 20
-14.2941370392
 11
-10.6670059241
 21
-14.6234807875
  0
LINE
  5
33A
100
AcDbEntity
  8
ASSI
100
AcDbLine
 62
7
  6
CONTINUOUS
 10
-10.2563008877
 20
-13.1592420805
 11
-10.2563008877
 21
-13.584765675
  0
LINE
  5
33B
100
AcDbEntity
  8
ASSI
100
AcDbLine
 62
7
  6
CONTINUOUS
 10
-10.2049298528
 20
-13.1434832528
 11
-10.2049298528
 21
-13.5674318822
  0
LINE
  5
33C
100
AcDbEntity
  8
RACCORDO
100
AcDbLine
 62
7
  6
CONTINUOUS
 10
-10.6670059241
 20
-14.2941384147
 11
-10.6670059295
 21
-14.2941737504
  0
LINE
  5
33D
100
AcDbEntity
  8
DRAFT
100
AcDbLine
 62
7
  6
CONTINUOUS
 10
-10.751971095
 20
-14.0159377529
 11
-10.7257248816
 21
-13.9090944027
  0
LINE
  5
33E
100
AcDbEntity
  8
ASSI
100
AcDbLine
 62
7
  6
CONTINUOUS
 10
-26.4281159468
 20
-5.848403919
 11
-26.1734110732
 21
-5.6638078682
  0
LINE
  5
33F
100
AcDbEntity
  8
ASSI
100
AcDbLine
 62
7
  6
CONTINUOUS
 10
-26.1732169942
 20
-5.2079480776
 11
-27.5908148526
 21
-5.9951490389
  0
LINE
  5
340
100
AcDbEntity
  8
RACCORDO
100
AcDbLine
 62
7
  6
CONTINUOUS
 10
-26.5456936969
 20
-6.6516883964
 11
-27.4488871392
 21
-7.1389819793
  0
LINE
  5
341
100
AcDbEntity
  8
RACCORDO
100
AcDbLine
 62
7
  6
CONTINUOUS
 10
-26.4084001039
 20
-6.6585787443
 11
-27.3115935463
 21
-7.1458723272
  0
LINE
  5
342
100
AcDbEntity
  8
RACCORDO
100
AcDbLine
 62
7
  6
CONTINUOUS
 10
-34.9487526601
 20
-2.8939587838
 11
-34.3830672352
 21
-2.5990228476
  0
LINE
  5
343
100
AcDbEntity
  8
RACCORDO
100
AcDbLine
 62
7
  6
CONTINUOUS
 10
-34.6319790599
 20
-3.2053141876
 11
-34.1709352008
 21
-2.9649360619
  0
LINE
  5
344
100
AcDbEntity
  8
RACCORDO
100
AcDbLine
 62
7
  6
CONTINUOUS
 10
-29.8520358114
 20
-4.9248367994
 11
-30.4177212364
 21
-5.2197727356
  0
LINE
  5
345
100
AcDbEntity
  8
RACCORDO
100
AcDbLine
 62
7
  6
CONTINUOUS
 10
-29.7161624794
 20
-4.9324752255
 11
-30.2818479043
 21
-5.2274111617
  0
LINE
  5
346
100
AcDbEntity
  8
ASSI
100
AcDbLine
 62
7
  6
CONTINUOUS
 10
-26.4281159468
 20
-5.848403919
 11
-27.1860932159
 21
-6.2346374631
  0
LINE
  5
347
100
AcDbEntity
  8
RACCORDO
100
AcDbLine
 62
7
  6
CONTINUOUS
 10
-27.8706851685
 20
-6.4329925296
 11
-27.2951256677
 21
-6.1429936313
  0
LINE
  5
348
100
AcDbEntity
  8
ASSI
100
AcDbLine
 62
7
  6
CONTINUOUS
 10
-26.1662034644
 20
-5.6298143867
 11
-27.2515675442
 21
-6.1705474252
  0
LINE
  5
349
100
AcDbEntity
  8
RACCORDO
100
AcDbLine
 62
7
  6
CONTINUOUS
 10
-34.9841627952
 20
-1.9464414942
 11
-35.3376075419
 21
-2.1217526942
  0
LINE
  5
34A
100
AcDbEntity
  8
ASSI
100
AcDbLine
 62
7
  6
CONTINUOUS
 10
-30.4306808398
 20
-3.0792161548
 11
-32.7741268554
 21
-4.1342402899
  0
LINE
  5
34B
100
AcDbEntity
  8
DRAFT
100
AcDbLine
 62
7
  6
CONTINUOUS
 10
-57.3601814964
 20
15.0319741229
 11
-56.8241423883
 21
14.7639545689
  0
LINE
  5
34C
100
AcDbEntity
  8
RACCORDO
100
AcDbLine
 62
7
  6
CONTINUOUS
 10
-57.2752189305
 20
15.0023497535
 11
-57.3601814964
 21
15.0448310364
  0
LINE
  5
34D
100
AcDbEntity
  8
RACCORDO
100
AcDbLine
 62
7
  6
CONTINUOUS
 10
-56.2680221129
 20
14.5561627041
 11
-57.1434620124
 21
14.9938826538
  0
LINE
  5
34E
100
AcDbEntity
  8
RACCORDO
100
AcDbLine
 62
7
  6
CONTINUOUS
 10
-57.2752189305
 20
20.976851708
 11
-57.3053597191
 21
20.9919221023
  0
LINE
  5
34F
100
AcDbEntity
  8
0
100
AcDbLine
 62
7
  6
CONTINUOUS
 10
-4.4969481054
 20
-22.5879897373
 11
-4.1333559199
 21
-23.9572322324
  0
LINE
  5
350
100
AcDbEntity
  8
0
100
AcDbLine
 62
7
  6
CONTINUOUS
 10
-4.1099294722
 20
-23.1600820592
 11
-4.4165917837
 21
-21.997114239
  0
LINE
  5
351
100
AcDbEntity
  8
0
100
AcDbLine
 62
7
  6
CONTINUOUS
 10
-4.0172519805
 20
-22.9045180626
 11
-4.2751704275
 21
-21.9264035609
  0
LINE
  5
352
100
AcDbEntity
  8
IMPORT_IGES
100
AcDbLine
 62
7
  6
CONTINUOUS
 10
-4.2751704275
 20
-21.9264035609
 11
-4.0172519805
 21
-22.9045180626
  0
LINE
  5
353
100
AcDbEntity
  8
0
100
AcDbLine
 62
7
  6
CONTINUOUS
 10
-6.6732580221
 20
-20.8687811198
 11
-6.2025476444
 21
-22.9226363701
  0
LINE
  5
354
100
AcDbEntity
  8
0
100
AcDbLine
 62
7
  6
CONTINUOUS
 10
-2.0847021118
 20
-24.9815591364
 11
-2.5402754546
 21
-22.9352724036
  0
LINE
  5
355
100
AcDbEntity
  8
0
100
AcDbLine
 62
7
  6
CONTINUOUS
 10
-1.9936897785
 20
-24.6844275832
 11
-2.3988540983
 21
-22.8645617254
  0
LINE
  5
356
100
AcDbEntity
  8
IMPORT_IGES
100
AcDbLine
 62
7
  6
CONTINUOUS
 10
-2.3988540983
 20
-22.8645617254
 11
-1.9936897785
 21
-24.6844275832
  0
LINE
  5
357
100
AcDbEntity
  8
0
100
AcDbLine
 62
7
  6
CONTINUOUS
 10
-6.0535418608
 20
-22.4303689364
 11
-6.3365719566
 21
-21.0371241525
  0
LINE
  5
358
100
AcDbEntity
  8
IMPORT_IGES
100
AcDbLine
 62
7
  6
CONTINUOUS
 10
-6.1951506004
 20
-20.9664134744
 11
-5.9655385228
 21
-22.0967025644
  0
LINE
  5
359
100
AcDbEntity
  8
0
100
AcDbLine
 62
7
  6
CONTINUOUS
 10
-5.9655385228
 20
-22.0967025644
 11
-6.1951506004
 21
-20.9664134744
  0
LINE
  5
35A
100
AcDbEntity
  8
0
100
AcDbLine
 62
7
  6
CONTINUOUS
 10
-2.4916512568
 20
-24.4150475807
 11
-2.4113614031
 21
-24.8182294908
  0
LINE
  5
35B
100
AcDbEntity
  8
0
100
AcDbLine
 62
7
  6
CONTINUOUS
 10
-2.6960114805
 20
-23.357081996
 11
-2.5535916895
 21
-24.103160374
  0
LINE
  5
35C
100
AcDbEntity
  8
0
100
AcDbLine
 62
7
  6
CONTINUOUS
 10
-3.3544968923
 20
-24.3466617462
 11
-3.4933422585
 21
-22.4587390016
  0
LINE
  5
35D
100
AcDbEntity
  8
0
100
AcDbLine
 62
7
  6
CONTINUOUS
 10
-3.2260591608
 20
-24.0994087666
 11
-3.3519209023
 21
-22.3880283235
  0
LINE
  5
35E
100
AcDbEntity
  8
IMPORT_IGES
100
AcDbLine
 62
7
  6
CONTINUOUS
 10
-3.3519209023
 20
-22.3880283235
 11
-3.2260591608
 21
-24.0994087666
  0
LINE
  5
35F
100
AcDbEntity
  8
0
100
AcDbLine
 62
7
  6
CONTINUOUS
 10
-3.7213735888
 20
-22.9807271968
 11
-3.6576965019
 21
-24.1950619414
  0
LINE
  5
360
100
AcDbEntity
  8
RACCORDO
100
AcDbLine
 62
7
  6
CONTINUOUS
 10
-5.8003460878
 20
-17.6211306737
 11
-5.8003460878
 21
-17.2223738035
  0
LINE
  5
361
100
AcDbEntity
  8
0
100
AcDbLine
 62
7
  6
CONTINUOUS
 10
-5.3371246047
 20
-21.5367387093
 11
-5.3371246047
 21
-23.35534789
  0
LINE
  5
362
100
AcDbEntity
  8
0
100
AcDbLine
 62
7
  6
CONTINUOUS
 10
-5.0271883888
 20
-23.5103159979
 11
-5.0271883888
 21
-21.6917068173
  0
LINE
  5
363
100
AcDbEntity
  8
0
100
AcDbLine
 62
7
  6
CONTINUOUS
 10
-4.8857670325
 20
-23.4396053198
 11
-4.8857670325
 21
-21.6209961391
  0
LINE
  5
364
100
AcDbEntity
  8
IMPORT_IGES
100
AcDbLine
 62
7
  6
CONTINUOUS
 10
-4.8857670325
 20
-23.4396053198
 11
-4.8857670325
 21
-21.6209961391
  0
LINE
  5
365
100
AcDbEntity
  8
RACCORDO
100
AcDbLine
 62
7
  6
CONTINUOUS
 10
-2.3511300474
 20
-18.8748386386
 11
-2.3511300474
 21
-19.3457386939
  0
LINE
  5
366
100
AcDbEntity
  8
0
100
AcDbLine
 62
7
  6
CONTINUOUS
 10
-1.9936897785
 20
-23.2298113022
 11
-1.9936897785
 21
-25.0270656475
  0
LINE
  5
367
100
AcDbEntity
  8
0
100
AcDbLine
 62
7
  6
CONTINUOUS
 10
-1.695277989
 20
-24.1667844796
 11
-1.695277989
 21
-23.667570647
  0
LINE
  5
368
100
AcDbEntity
  8
0
100
AcDbLine
 62
7
  6
CONTINUOUS
 10
-1.6850009814
 20
-25.181410046
 11
-1.6850009814
 21
-24.4697494177
  0
LINE
  5
369
100
AcDbEntity
  8
0
100
AcDbLine
 62
7
  6
CONTINUOUS
 10
-1.5538566328
 20
-24.0960738015
 11
-1.5538566328
 21
-23.7212920854
  0
LINE
  5
36A
100
AcDbEntity
  8
IMPORT_IGES
100
AcDbLine
 62
7
  6
CONTINUOUS
 10
-1.5538566328
 20
-24.0960738015
 11
-1.5538566328
 21
-23.7212920854
  0
LINE
  5
36B
100
AcDbEntity
  8
0
100
AcDbLine
 62
7
  6
CONTINUOUS
 10
-1.5435796251
 20
-25.1106993679
 11
-1.5435796251
 21
-24.5404600958
  0
LINE
  5
36C
100
AcDbEntity
  8
IMPORT_IGES
100
AcDbLine
 62
7
  6
CONTINUOUS
 10
-1.5435796251
 20
-25.1106993679
 11
-1.5435796251
 21
-24.5404600958
  0
LINE
  5
36D
100
AcDbEntity
  8
0
100
AcDbLine
 62
7
  6
CONTINUOUS
 10
-1.19685982
 20
-24.5766207422
 11
-1.19685982
 21
-24.5658749899
  0
LINE
  5
36E
100
AcDbEntity
  8
0
100
AcDbLine
 62
7
  6
CONTINUOUS
 10
-4.5638326288
 20
-23.7419938779
 11
-4.4969481054
 21
-22.5879897373
  0
LINE
  5
36F
100
AcDbEntity
  8
0
100
AcDbLine
 62
7
  6
CONTINUOUS
 10
-4.4224112725
 20
-23.6712831998
 11
-4.3842279166
 21
-23.0124798081
  0
LINE
  5
370
100
AcDbEntity
  8
IMPORT_IGES
100
AcDbLine
 62
7
  6
CONTINUOUS
 10
-4.3842279166
 20
-23.0124798081
 11
-4.4224112725
 21
-23.6712831998
  0
LINE
  5
371
100
AcDbEntity
  8
0
100
AcDbLine
 62
7
  6
CONTINUOUS
 10
-4.7262713199
 20
-21.8422744709
 11
-4.8603401798
 21
-23.5937401024
  0
LINE
  5
372
100
AcDbEntity
  8
0
100
AcDbLine
 62
7
  6
CONTINUOUS
 10
-5.7618666776
 20
-21.3244767921
 11
-6.0535418608
 21
-22.4303689364
  0
LINE
  5
373
100
AcDbEntity
  8
0
100
AcDbLine
 62
7
  6
CONTINUOUS
 10
-5.9294163365
 20
-23.0592020241
 11
-5.4521418866
 21
-21.4793391875
  0
LINE
  5
374
100
AcDbEntity
  8
RACCORDO
100
AcDbLine
 62
7
  6
CONTINUOUS
 10
-21.5873064122
 20
-9.6364383563
 11
-21.0314950631
 21
-9.3365653822
  0
LINE
  5
375
100
AcDbEntity
  8
RACCORDO
100
AcDbLine
 62
7
  6
CONTINUOUS
 10
-21.4500128193
 20
-9.6433287042
 11
-20.8942014702
 21
-9.3434557301
  0
LINE
  5
376
100
AcDbEntity
  8
RACCORDO
100
AcDbLine
 62
7
  6
CONTINUOUS
 10
-19.0388500834
 20
-10.8489100721
 11
-18.4731646585
 21
-10.5539741359
  0
LINE
  5
377
100
AcDbEntity
  8
RACCORDO
100
AcDbLine
 62
7
  6
CONTINUOUS
 10
-27.5521961936
 20
-6.7452056208
 11
-27.0830259421
 21
-6.5088115453
  0
LINE
  5
378
100
AcDbEntity
  8
DRAFT
100
AcDbLine
 62
7
  6
CONTINUOUS
 10
-22.6455328533
 20
-9.4789026737
 11
-21.7102486645
 21
-9.007654464
  0
LINE
  5
379
100
AcDbEntity
  8
DRAFT
100
AcDbLine
 62
7
  6
CONTINUOUS
 10
-27.0873126739
 20
-6.4556897279
 11
-26.7719700815
 21
-6.2971472465
  0
LINE
  5
37A
100
AcDbEntity
  8
DRAFT
100
AcDbLine
 62
7
  6
CONTINUOUS
 10
-27.102078805
 20
-6.3919790913
 11
-26.6926711102
 21
-6.1863569878
  0
LINE
  5
37B
100
AcDbEntity
  8
DRAFT
100
AcDbLine
 62
7
  6
CONTINUOUS
 10
-27.4887761186
 20
-6.7769156583
 11
-28.0544615436
 21
-7.0234491962
  0
LINE
  5
37C
100
AcDbEntity
  8
DRAFT
100
AcDbLine
 62
7
  6
CONTINUOUS
 10
-22.1854752597
 20
-9.4285660877
 11
-22.7511606847
 21
-9.6750996256
  0
LINE
  5
37D
100
AcDbEntity
  8
RACCORDO
100
AcDbLine
 62
7
  6
CONTINUOUS
 10
-56.3399347418
 20
21.4480999177
 11
-56.8241423883
 21
21.690203741
  0
LINE
  5
37E
100
AcDbEntity
  8
ASSI
100
AcDbLine
 62
7
  6
CONTINUOUS
 10
51.6718280352
 20
-45.4342438209
 11
51.7778940524
 21
-45.5111146229
  0
LINE
  5
37F
100
AcDbEntity
  8
ASSI
100
AcDbLine
 62
7
  6
CONTINUOUS
 10
52.0253814258
 20
-45.2574671256
 11
52.131447443
 21
-45.3343379276
  0
LINE
  5
380
100
AcDbEntity
  8
ASSI
100
AcDbLine
 62
7
  6
CONTINUOUS
 10
52.3789348164
 20
-45.0806904303
 11
52.4850008336
 21
-45.1575612323
  0
LINE
  5
381
100
AcDbEntity
  8
SMUSSO
100
AcDbLine
 62
7
  6
CONTINUOUS
 10
71.5482289241
 20
-83.105547528
 11
66.1675170495
 21
-76.8178701047
  0
LINE
  5
382
100
AcDbEntity
  8
DRAFT
100
AcDbLine
 62
7
  6
CONTINUOUS
 10
4.3310290348
 20
-23.0845829178
 11
4.3310290348
 21
-22.686818235
  0
LINE
  5
383
100
AcDbEntity
  8
RACCORDO
100
AcDbLine
 62
7
  6
CONTINUOUS
 10
4.7367792113
 20
-22.8514940467
 11
4.7367792113
 21
-22.418714122
  0
LINE
  5
384
100
AcDbEntity
  8
ASSI
100
AcDbLine
 62
7
  6
CONTINUOUS
 10
5.653601689
 20
-21.1141933688
 11
5.653601689
 21
-21.5397169634
  0
LINE
  5
385
100
AcDbEntity
  8
ASSI
100
AcDbLine
 62
7
  6
CONTINUOUS
 10
5.7049727239
 20
-21.0984345411
 11
5.7049727239
 21
-21.5223831706
  0
LINE
  5
386
100
AcDbEntity
  8
0
100
AcDbLine
 62
7
  6
CONTINUOUS
 10
-2.8503332928
 20
-23.9547895723
 11
-2.6960114805
 21
-23.357081996
  0
LINE
  5
387
100
AcDbEntity
  8
0
100
AcDbLine
 62
7
  6
CONTINUOUS
 10
-2.7089119366
 20
-23.8840788942
 11
-2.6436577745
 21
-23.6313414071
  0
LINE
  5
388
100
AcDbEntity
  8
IMPORT_IGES
100
AcDbLine
 62
7
  6
CONTINUOUS
 10
-2.6436577745
 20
-23.6313414071
 11
-2.7089119366
 21
-23.8840788942
  0
LINE
  5
389
100
AcDbEntity
  8
0
100
AcDbLine
 62
7
  6
CONTINUOUS
 10
-2.9992556378
 20
-24.5242823734
 11
-2.9137324868
 21
-24.2040069656
  0
LINE
  5
38A
100
AcDbEntity
  8
0
100
AcDbLine
 62
7
  6
CONTINUOUS
 10
-2.8578342816
 20
-24.4535716953
 11
-2.8056267446
 21
-24.2580598368
  0
LINE
  5
38B
100
AcDbEntity
  8
IMPORT_IGES
100
AcDbLine
 62
7
  6
CONTINUOUS
 10
-2.8056267446
 20
-24.2580598368
 11
-2.8578342816
 21
-24.4535716953
  0
LINE
  5
38C
100
AcDbEntity
  8
0
100
AcDbLine
 62
7
  6
CONTINUOUS
 10
-2.8401007506
 20
-22.7853597555
 11
-3.3058288539
 21
-24.3709957654
  0
LINE
  5
38D
100
AcDbEntity
  8
0
100
AcDbLine
 62
7
  6
CONTINUOUS
 10
-5.7879949802
 20
-22.9884913459
 11
-5.3107205304
 21
-21.4086285094
  0
LINE
  5
38E
100
AcDbEntity
  8
IMPORT_IGES
100
AcDbLine
 62
7
  6
CONTINUOUS
 10
-5.3107205304
 20
-21.4086285094
 11
-5.7879949802
 21
-22.9884913459
  0
LINE
  5
38F
100
AcDbEntity
  8
0
100
AcDbLine
 62
7
  6
CONTINUOUS
 10
-3.7999932563
 20
-22.3054135027
 11
-4.1099294722
 21
-23.1600820592
  0
LINE
  5
390
100
AcDbEntity
  8
0
100
AcDbLine
 62
7
  6
CONTINUOUS
 10
-4.0898879447
 20
-23.9789662199
 11
-3.7213735888
 21
-22.9807271968
  0
LINE
  5
391
100
AcDbEntity
  8
0
100
AcDbLine
 62
7
  6
CONTINUOUS
 10
-3.9484665885
 20
-23.9082555418
 11
-3.7070306883
 21
-23.2542491693
  0
LINE
  5
392
100
AcDbEntity
  8
IMPORT_IGES
100
AcDbLine
 62
7
  6
CONTINUOUS
 10
-3.7070306883
 20
-23.2542491693
 11
-3.9484665885
 21
-23.9082555418
  0
LINE
  5
393
100
AcDbEntity
  8
ASSI
100
AcDbLine
 62
7
  6
CONTINUOUS
 10
-10.5182133701
 20
-13.8033552074
 11
-10.2635084965
 21
-13.6187591565
  0
LINE
  5
394
100
AcDbEntity
  8
ASSI
100
AcDbLine
 62
7
  6
CONTINUOUS
 10
-10.2633144175
 20
-13.1628993659
 11
-11.2337118021
 21
-13.7017671058
  0
LINE
  5
395
100
AcDbEntity
  8
RACCORDO
100
AcDbLine
 62
7
  6
CONTINUOUS
 10
-10.6357911202
 20
-14.6066396847
 11
-11.5389845625
 21
-15.0939332676
  0
LINE
  5
396
100
AcDbEntity
  8
RACCORDO
100
AcDbLine
 62
7
  6
CONTINUOUS
 10
-10.4984975272
 20
-14.6135300326
 11
-11.4016909696
 21
-15.1008236155
  0
LINE
  5
397
100
AcDbEntity
  8
RACCORDO
100
AcDbLine
 62
7
  6
CONTINUOUS
 10
-18.7220764832
 20
-11.160265476
 11
-18.2610326241
 21
-10.9198873502
  0
LINE
  5
398
100
AcDbEntity
  8
RACCORDO
100
AcDbLine
 62
7
  6
CONTINUOUS
 10
-13.9421332347
 20
-12.8797880877
 11
-14.5078186597
 21
-13.1747240239
  0
LINE
  5
399
100
AcDbEntity
  8
RACCORDO
100
AcDbLine
 62
7
  6
CONTINUOUS
 10
-13.8062599027
 20
-12.8874265138
 11
-14.3719453276
 21
-13.18236245
  0
LINE
  5
39A
100
AcDbEntity
  8
ASSI
100
AcDbLine
 62
7
  6
CONTINUOUS
 10
-10.5182133701
 20
-13.8033552074
 11
-10.8050701122
 21
-13.9495254168
  0
LINE
  5
39B
100
AcDbEntity
  8
RACCORDO
100
AcDbLine
 62
7
  6
CONTINUOUS
 10
-11.5266229081
 20
-14.0272450111
 11
-12.1021824089
 21
-14.3172439094
  0
LINE
  5
39C
100
AcDbEntity
  8
RACCORDO
100
AcDbLine
 62
7
  6
CONTINUOUS
 10
-11.1794014268
 20
-14.6401047711
 11
-11.5788735419
 21
-14.8413810477
  0
LINE
  5
39D
100
AcDbEntity
  8
ASSI
100
AcDbLine
 62
7
  6
CONTINUOUS
 10
-10.2563008877
 20
-13.584765675
 11
-10.8713082098
 21
-13.89116496
  0
LINE
  5
39E
100
AcDbEntity
  8
RACCORDO
100
AcDbLine
 62
7
  6
CONTINUOUS
 10
-12.6308158809
 20
-13.2131229545
 11
-12.903238986
 21
-13.3389369722
  0
LINE
  5
39F
100
AcDbEntity
  8
RACCORDO
100
AcDbLine
 62
7
  6
CONTINUOUS
 10
-12.4150061684
 20
-13.2310198076
 11
-12.7810089178
 21
-13.4000520062
  0
LINE
  5
3A0
100
AcDbEntity
  8
RACCORDO
100
AcDbLine
 62
7
  6
CONTINUOUS
 10
-11.1608355666
 20
-13.8581051085
 11
-11.5268383161
 21
-14.0271373071
  0
LINE
  5
3A1
100
AcDbEntity
  8
ASSI
100
AcDbLine
 62
7
  6
CONTINUOUS
 10
-14.5207782631
 20
-11.0341674432
 11
-16.8642242787
 21
-12.0891915782
  0
LINE
  5
3A2
100
AcDbEntity
  8
DRAFT
100
AcDbLine
 62
7
  6
CONTINUOUS
 10
72.8850314708
 20
7.947356151
 11
73.5330974963
 21
7.947356151
  0
LINE
  5
3A3
100
AcDbEntity
  8
RACCORDO
100
AcDbLine
 62
7
  6
CONTINUOUS
 10
-55.6316583186
 20
31.3427857432
 11
-56.0558900786
 21
31.5549016232
  0
LINE
  5
3A4
100
AcDbEntity
  8
DRAFT
100
AcDbLine
 62
7
  6
CONTINUOUS
 10
-57.3601814964
 20
34.0845330061
 11
-56.8241423883
 21
33.8165134521
  0
LINE
  5
3A5
100
AcDbEntity
  8
RACCORDO
100
AcDbLine
 62
7
  6
CONTINUOUS
 10
-57.2752189305
 20
34.0549086367
 11
-57.3601814964
 21
34.0973899197
  0
LINE
  5
3A6
100
AcDbEntity
  8
RACCORDO
100
AcDbLine
 62
7
  6
CONTINUOUS
 10
-56.2679898042
 20
33.608705433
 11
-57.1434620124
 21
34.0464415371
  0
LINE
  5
3A7
100
AcDbEntity
  8
RACCORDO
100
AcDbLine
 62
7
  6
CONTINUOUS
 10
-53.3256534786
 20
32.4077751966
 11
-52.998960536
 21
32.2444287253
  0
LINE
  5
3A8
100
AcDbEntity
  8
RACCORDO
100
AcDbLine
 62
7
  6
CONTINUOUS
 10
-53.1951916145
 20
32.4144841955
 11
-52.8684986718
 21
32.2511377242
  0
LINE
  5
3A9
100
AcDbEntity
  8
RACCORDO
100
AcDbLine
 62
7
  6
CONTINUOUS
 10
10.1095564889
 20
-25.576081962
 11
10.1095564889
 21
-25.1773250918
  0
LINE
  5
3AA
100
AcDbEntity
  8
RACCORDO
100
AcDbLine
 62
7
  6
CONTINUOUS
 10
13.1686638993
 20
-26.2119719509
 11
13.1686638993
 21
-26.3748884148
  0
LINE
  5
3AB
100
AcDbEntity
  8
RACCORDO
100
AcDbLine
 62
7
  6
CONTINUOUS
 10
13.5587725293
 20
-26.8297899269
 11
13.5587725293
 21
-27.3006899822
  0
LINE
  5
3AC
100
AcDbEntity
  8
DRAFT
100
AcDbLine
 62
7
  6
CONTINUOUS
 10
5.1271340432
 20
-22.0962595645
 11
5.1841776951
 21
-21.8640456911
  0
LINE
  5
3AD
100
AcDbEntity
  8
RACCORDO
100
AcDbLine
 62
7
  6
CONTINUOUS
 10
-5.6774038355
 20
-17.5913896446
 11
-5.1215924864
 21
-17.2915166705
  0
LINE
  5
3AE
100
AcDbEntity
  8
RACCORDO
100
AcDbLine
 62
7
  6
CONTINUOUS
 10
-5.5401102426
 20
-17.5982799925
 11
-4.9842988935
 21
-17.2984070184
  0
LINE
  5
3AF
100
AcDbEntity
  8
RACCORDO
100
AcDbLine
 62
7
  6
CONTINUOUS
 10
-3.1289475068
 20
-18.8038613604
 11
-2.5632620818
 21
-18.5089254243
  0
LINE
  5
3B0
100
AcDbEntity
  8
RACCORDO
100
AcDbLine
 62
7
  6
CONTINUOUS
 10
-2.8121739065
 20
-19.1152167643
 11
-2.3511300474
 21
-18.8748386386
  0
LINE
  5
3B1
100
AcDbEntity
  8
RACCORDO
100
AcDbLine
 62
7
  6
CONTINUOUS
 10
-6.9477300022
 20
-17.3278040992
 11
-6.0124458135
 21
-16.8565558895
  0
LINE
  5
3B2
100
AcDbEntity
  8
RACCORDO
100
AcDbLine
 62
7
  6
CONTINUOUS
 10
-6.1975714018
 20
-17.4225180167
 11
-5.8003460878
 21
-17.2223738035
  0
LINE
  5
3B3
100
AcDbEntity
  8
0
100
AcDbLine
 62
7
  6
CONTINUOUS
 10
-6.5318366658
 20
-20.7980704417
 11
-6.6732580221
 21
-20.8687811198
  0
LINE
  5
3B4
100
AcDbEntity
  8
RACCORDO
100
AcDbLine
 62
7
  6
CONTINUOUS
 10
-10.8196767389
 20
-14.4739719893
 11
-11.1794014268
 21
-14.6401047711
  0
LINE
  5
3B5
100
AcDbEntity
  8
DRAFT
100
AcDbLine
 62
7
  6
CONTINUOUS
 10
-11.5788735419
 20
-14.7318669466
 11
-12.1445589669
 21
-14.9784004845
  0
LINE
  5
3B6
100
AcDbEntity
  8
DRAFT
100
AcDbLine
 62
7
  6
CONTINUOUS
 10
-6.275572683
 20
-17.3835173761
 11
-6.841258108
 21
-17.630050914
  0
LINE
  5
3B7
100
AcDbEntity
  8
RACCORDO
100
AcDbLine
 62
7
  6
CONTINUOUS
 10
-57.2752189305
 20
40.0294105912
 11
-57.3053597191
 21
40.0444809855
  0
LINE
  5
3B8
100
AcDbEntity
  8
RACCORDO
100
AcDbLine
 62
7
  6
CONTINUOUS
 10
-56.3399347418
 20
40.500658801
 11
-56.8241423883
 21
40.7427626242
  0
LINE
  5
3B9
100
AcDbEntity
  8
RACCORDO
100
AcDbLine
 62
7
  6
CONTINUOUS
 10
-59.3712886814
 20
46.4525028949
 11
52.2793801439
 21
-9.3728315177
  0
LINE
  5
3BA
100
AcDbEntity
  8
RACCORDO
100
AcDbLine
 62
7
  6
CONTINUOUS
 10
-59.4492566371
 20
46.6147650351
 11
52.20141213
 21
-9.2105693485
  0
LINE
  5
3BB
100
AcDbEntity
  8
DRAFT
100
AcDbLine
 62
7
  6
CONTINUOUS
 10
20.2409316115
 20
-31.0395342062
 11
20.2409316115
 21
-30.6417695233
  0
LINE
  5
3BC
100
AcDbEntity
  8
RACCORDO
100
AcDbLine
 62
7
  6
CONTINUOUS
 10
20.646681788
 20
-30.806445335
 11
20.646681788
 21
-30.3736654103
  0
LINE
  5
3BD
100
AcDbEntity
  8
ASSI
100
AcDbLine
 62
7
  6
CONTINUOUS
 10
21.5635042657
 20
-29.0691446572
 11
21.5635042657
 21
-29.4946682517
  0
LINE
  5
3BE
100
AcDbEntity
  8
ASSI
100
AcDbLine
 62
7
  6
CONTINUOUS
 10
21.6148753006
 20
-29.0533858295
 11
21.6148753006
 21
-29.4773344589
  0
LINE
  5
3BF
100
AcDbEntity
  8
ASSI
100
AcDbLine
 62
7
  6
CONTINUOUS
 10
5.3916892065
 20
-21.7583064957
 11
5.6463940802
 21
-21.5737104448
  0
LINE
  5
3C0
100
AcDbEntity
  8
ASSI
100
AcDbLine
 62
7
  6
CONTINUOUS
 10
5.6465881592
 20
-21.1178506543
 11
4.2289903008
 21
-21.9050516156
  0
LINE
  5
3C1
100
AcDbEntity
  8
RACCORDO
100
AcDbLine
 62
7
  6
CONTINUOUS
 10
5.2741114565
 20
-22.5615909731
 11
4.3709180142
 21
-23.048884556
  0
LINE
  5
3C2
100
AcDbEntity
  8
RACCORDO
100
AcDbLine
 62
7
  6
CONTINUOUS
 10
5.4114050495
 20
-22.568481321
 11
4.5082116071
 21
-23.0557749039
  0
LINE
  5
3C3
100
AcDbEntity
  8
RACCORDO
100
AcDbLine
 62
7
  6
CONTINUOUS
 10
1.967769342
 20
-20.8347393761
 11
1.402083917
 21
-21.1296753123
  0
LINE
  5
3C4
100
AcDbEntity
  8
RACCORDO
100
AcDbLine
 62
7
  6
CONTINUOUS
 10
2.103642674
 20
-20.8423778022
 11
1.5379572491
 21
-21.1373137384
  0
LINE
  5
3C5
100
AcDbEntity
  8
ASSI
100
AcDbLine
 62
7
  6
CONTINUOUS
 10
5.3916892065
 20
-21.7583064957
 11
4.6337119375
 21
-22.1445400398
  0
LINE
  5
3C6
100
AcDbEntity
  8
RACCORDO
100
AcDbLine
 62
7
  6
CONTINUOUS
 10
3.9491199849
 20
-22.3428951063
 11
4.5246794857
 21
-22.052896208
  0
LINE
  5
3C7
100
AcDbEntity
  8
RACCORDO
100
AcDbLine
 62
7
  6
CONTINUOUS
 10
4.2676089598
 20
-22.6551081975
 11
4.7367792113
 21
-22.418714122
  0
LINE
  5
3C8
100
AcDbEntity
  8
DRAFT
100
AcDbLine
 62
7
  6
CONTINUOUS
 10
4.7324924795
 20
-22.3655923046
 11
5.0478350719
 21
-22.2070498232
  0
LINE
  5
3C9
100
AcDbEntity
  8
DRAFT
100
AcDbLine
 62
7
  6
CONTINUOUS
 10
4.7177263484
 20
-22.301881668
 11
5.1271340432
 21
-22.0962595645
  0
LINE
  5
3CA
100
AcDbEntity
  8
0
100
AcDbLine
 62
7
  6
CONTINUOUS
 10
-6.1951506004
 20
-20.9664134744
 11
-6.3365719566
 21
-21.0371241525
  0
LINE
  5
3CB
100
AcDbEntity
  8
0
100
AcDbLine
 62
7
  6
CONTINUOUS
 10
-5.6204453213
 20
-21.2537661139
 11
-5.7618666776
 21
-21.3244767921
  0
LINE
  5
3CC
100
AcDbEntity
  8
0
100
AcDbLine
 62
7
  6
CONTINUOUS
 10
-5.3107205304
 20
-21.4086285094
 11
-5.4521418866
 21
-21.4793391875
  0
LINE
  5
3CD
100
AcDbEntity
  8
0
100
AcDbLine
 62
7
  6
CONTINUOUS
 10
-5.1957032484
 20
-21.4660280312
 11
-5.3371246047
 21
-21.5367387093
  0
LINE
  5
3CE
100
AcDbEntity
  8
0
100
AcDbLine
 62
7
  6
CONTINUOUS
 10
-4.8857670325
 20
-21.6209961391
 11
-5.0271883888
 21
-21.6917068173
  0
LINE
  5
3CF
100
AcDbEntity
  8
0
100
AcDbLine
 62
7
  6
CONTINUOUS
 10
-4.5848499636
 20
-21.7715637928
 11
-4.7262713199
 21
-21.8422744709
  0
LINE
  5
3D0
100
AcDbEntity
  8
0
100
AcDbLine
 62
7
  6
CONTINUOUS
 10
-4.2751704275
 20
-21.9264035609
 11
-4.4165917837
 21
-21.997114239
  0
LINE
  5
3D1
100
AcDbEntity
  8
0
100
AcDbLine
 62
7
  6
CONTINUOUS
 10
-5.7879949802
 20
-22.9884913459
 11
-5.9294163365
 21
-23.0592020241
  0
LINE
  5
3D2
100
AcDbEntity
  8
0
100
AcDbLine
 62
7
  6
CONTINUOUS
 10
-3.6585719001
 20
-22.2347028246
 11
-3.7999932563
 21
-22.3054135027
  0
LINE
  5
3D3
100
AcDbEntity
  8
0
100
AcDbLine
 62
7
  6
CONTINUOUS
 10
-3.3519209023
 20
-22.3880283235
 11
-3.4933422585
 21
-22.4587390016
  0
LINE
  5
3D4
100
AcDbEntity
  8
0
100
AcDbLine
 62
7
  6
CONTINUOUS
 10
-4.8857670325
 20
-23.4396053198
 11
-5.0271883888
 21
-23.5103159979
  0
LINE
  5
3D5
100
AcDbEntity
  8
0
100
AcDbLine
 62
7
  6
CONTINUOUS
 10
-2.6986793944
 20
-22.7146490774
 11
-2.8401007506
 21
-22.7853597555
  0
LINE
  5
3D6
100
AcDbEntity
  8
0
100
AcDbLine
 62
7
  6
CONTINUOUS
 10
-4.4224112725
 20
-23.6712831998
 11
-4.5638326288
 21
-23.7419938779
  0
LINE
  5
3D7
100
AcDbEntity
  8
0
100
AcDbLine
 62
7
  6
CONTINUOUS
 10
-2.3988540983
 20
-22.8645617254
 11
-2.5402754546
 21
-22.9352724036
  0
LINE
  5
3D8
100
AcDbEntity
  8
0
100
AcDbLine
 62
7
  6
CONTINUOUS
 10
-3.9484665885
 20
-23.9082555418
 11
-4.0898879447
 21
-23.9789662199
  0
LINE
  5
3D9
100
AcDbEntity
  8
0
100
AcDbLine
 62
7
  6
CONTINUOUS
 10
-1.8522684223
 20
-23.1591006241
 11
-1.9936897785
 21
-23.2298113022
  0
LINE
  5
3DA
100
AcDbEntity
  8
0
100
AcDbLine
 62
7
  6
CONTINUOUS
 10
-2.7089119366
 20
-23.8840788942
 11
-2.8503332928
 21
-23.9547895723
  0
LINE
  5
3DB
100
AcDbEntity
  8
0
100
AcDbLine
 62
7
  6
CONTINUOUS
 10
-3.2890735736
 20
-24.3139500868
 11
-3.3544968923
 21
-24.3466617462
  0
LINE
  5
3DC
100
AcDbEntity
  8
0
100
AcDbLine
 62
7
  6
CONTINUOUS
 10
-1.0873940564
 20
-23.5606837921
 11
-1.2288154126
 21
-23.6313944703
  0
LINE
  5
3DD
100
AcDbEntity
  8
0
100
AcDbLine
 62
7
  6
CONTINUOUS
 10
-2.8578342816
 20
-24.4535716953
 11
-2.9992556378
 21
-24.5242823734
  0
LINE
  5
3DE
100
AcDbEntity
  8
0
100
AcDbLine
 62
7
  6
CONTINUOUS
 10
-1.5538566328
 20
-24.0960738015
 11
-1.695277989
 21
-24.1667844796
  0
LINE
  5
3DF
100
AcDbEntity
  8
0
100
AcDbLine
 62
7
  6
CONTINUOUS
 10
-1.3767313484
 20
-24.1846364437
 11
-1.5181527046
 21
-24.2553471218
  0
LINE
  5
3E0
100
AcDbEntity
  8
0
100
AcDbLine
 62
7
  6
CONTINUOUS
 10
-1.9936897785
 20
-24.9360529698
 11
-2.0847021118
 21
-24.9815591364
  0
LINE
  5
3E1
100
AcDbEntity
  8
0
100
AcDbLine
 62
7
  6
CONTINUOUS
 10
-1.1925615191
 20
-24.5744715917
 11
-1.19685982
 21
-24.5766207422
  0
LINE
  5
3E2
100
AcDbEntity
  8
0
100
AcDbLine
 62
7
  6
CONTINUOUS
 10
-1.1538285322
 20
-24.5591823502
 11
-1.0124071759
 21
-24.4884716721
  0
LINE
  5
3E3
100
AcDbEntity
  8
0
100
AcDbLine
 62
7
  6
CONTINUOUS
 10
-1.5435796251
 20
-25.1106993679
 11
-1.6850009814
 21
-25.181410046
  0
LINE
  5
3E4
100
AcDbEntity
  8
0
100
AcDbLine
 62
7
  6
CONTINUOUS
 10
-0.8767877731
 20
-24.9519043832
 11
-1.0182091293
 21
-25.0226150613
  0
LINE
  5
3E5
100
AcDbEntity
  8
0
100
AcDbLine
 62
7
  6
CONTINUOUS
 10
-0.7708332718
 20
-25.4970725446
 11
-0.912254628
 21
-25.5677832227
  0
LINE
  5
3E6
100
AcDbEntity
  8
ASSI
100
AcDbLine
 62
7
  6
CONTINUOUS
 10
5.653601689
 20
-21.5397169634
 11
4.5682376092
 21
-22.0804500019
  0
LINE
  5
3E7
100
AcDbEntity
  8
ASSI
100
AcDbLine
 62
7
  6
CONTINUOUS
 10
1.3891243136
 20
-18.9891187315
 11
-0.954321702
 21
-20.0441428666
  0
LINE
  5
3E8
100
AcDbEntity
  8
DRAFT
100
AcDbLine
 62
7
  6
CONTINUOUS
 10
4.3310290348
 20
-22.686818235
 11
3.7653436098
 21
-22.9333517729
  0
LINE
  5
3E9
100
AcDbEntity
  8
RACCORDO
100
AcDbLine
 62
7
  6
CONTINUOUS
 10
53.9745358587
 20
-8.0381098123
 11
-61.2191935493
 21
49.5587548916
  0
LINE
  5
3EA
100
AcDbEntity
  8
RACCORDO
100
AcDbLine
 62
7
  6
CONTINUOUS
 10
54.1793905598
 20
-7.6727290913
 11
-61.0107637294
 21
49.9227378527
  0
LINE
  5
3EB
100
AcDbEntity
  8
RACCORDO
100
AcDbLine
 62
7
  6
CONTINUOUS
 10
-60.7292204628
 20
50.0746369041
 11
54.4713254493
 21
-7.5256360519
  0
LWPOLYLINE
  5
3EC
100
AcDbEntity
  8
RACCORDO
100
AcDbPolyline
 62
7
  6
CONTINUOUS
 90
26
 70
0
 10
52.2793821338
 20
-9.372832644
 10
52.2900081431
 20
-9.3785965676
 10
52.3010635945
 20
-9.3854825253
 10
52.31297864
 20
-9.3938461923
 10
52.3255733263
 20
-9.4037048028
 10
52.3386804118
 20
-9.4150560624
 10
52.3521160229
 20
-9.4278559847
 10
52.3657012091
 20
-9.4420312643
 10
52.3793058736
 20
-9.4575308182
 10
52.3928664887
 20
-9.4743712282
 10
52.4062430673
 20
-9.492468738
 10
52.4193030564
 20
-9.5117240214
 10
52.4320049076
 20
-9.5321657917
 10
52.444240517
 20
-9.5537240031
 10
52.4558568955
 20
-9.5762215868
 10
52.4667463974
 20
-9.5995310135
 10
52.4768102799
 20
-9.6235181278
 10
52.4859392991
 20
-9.6479841816
 10
52.4940317411
 20
-9.6726844185
 10
52.501029892
 20
-9.6974395829
 10
52.5068880146
 20
-9.7220589134
 10
52.5115615954
 20
-9.7462596579
 10
52.5150549209
 20
-9.7698754973
 10
52.5173819829
 20
-9.7927140252
 10
52.5185700045
 20
-9.8144402277
 10
52.5187664195
 20
-9.8271998065
  0
LINE
  5
3ED
100
AcDbEntity
  8
RACCORDO
100
AcDbLine
 62
7
  6
CONTINUOUS
 10
26.0194590656
 20
-33.5310332504
 11
26.0194590656
 21
-33.1322763802
  0
LINE
  5
3EE
100
AcDbEntity
  8
RACCORDO
100
AcDbLine
 62
7
  6
CONTINUOUS
 10
29.4686751059
 20
-34.7847412152
 11
29.4686751059
 21
-35.2556412706
  0
LINE
  5
3EF
100
AcDbEntity
  8
DRAFT
100
AcDbLine
 62
7
  6
CONTINUOUS
 10
21.0370366199
 20
-30.0512108529
 11
21.0940802718
 21
-29.8189969794
  0
LINE
  5
3F0
100
AcDbEntity
  8
RACCORDO
100
AcDbLine
 62
7
  6
CONTINUOUS
 10
10.8343062931
 20
-25.314664712
 11
10.2824066517
 21
-25.6124272301
  0
LINE
  5
3F1
100
AcDbEntity
  8
RACCORDO
100
AcDbLine
 62
7
  6
CONTINUOUS
 10
11.0670035003
 20
-25.3240582153
 11
10.5111921512
 21
-25.6239311894
  0
LINE
  5
3F2
100
AcDbEntity
  8
DRAFT
100
AcDbLine
 62
7
  6
CONTINUOUS
 10
72.5019577014
 20
9.7258092228
 11
74.193179016
 21
10.6075748105
  0
LINE
  5
3F3
100
AcDbEntity
  8
RACCORDO
100
AcDbLine
 62
7
  6
CONTINUOUS
 10
12.7809550699
 20
-26.7588126488
 11
13.3466404949
 21
-26.4638767126
  0
LINE
  5
3F4
100
AcDbEntity
  8
RACCORDO
100
AcDbLine
 62
7
  6
CONTINUOUS
 10
13.0977286701
 20
-27.0701680526
 11
13.5587725293
 21
-26.8297899269
  0
LINE
  5
3F5
100
AcDbEntity
  8
RACCORDO
100
AcDbLine
 62
7
  6
CONTINUOUS
 10
10.8343188278
 20
-25.3146579243
 11
10.8402331562
 21
-25.3115968418
  0
LINE
  5
3F6
100
AcDbEntity
  8
RACCORDO
100
AcDbLine
 62
7
  6
CONTINUOUS
 10
8.9621725745
 20
-25.2827553876
 11
9.8974567632
 21
-24.8115071779
  0
LINE
  5
3F7
100
AcDbEntity
  8
RACCORDO
100
AcDbLine
 62
7
  6
CONTINUOUS
 10
9.7123311749
 20
-25.377469305
 11
10.1095564889
 21
-25.1773250918
  0
LINE
  5
3F8
100
AcDbEntity
  8
SMUSSO
100
AcDbLine
 62
7
  6
CONTINUOUS
 10
71.1172645178
 20
8.7240101019
 11
72.1779246896
 21
9.2543401878
  0
LINE
  5
3F9
100
AcDbEntity
  8
SMUSSO
100
AcDbLine
 62
7
  6
CONTINUOUS
 10
71.824371299
 20
7.5044313075
 11
72.8850314708
 21
8.0347613934
  0
LINE
  5
3FA
100
AcDbEntity
  8
RACCORDO
100
AcDbLine
 62
7
  6
CONTINUOUS
 10
11.1923183677
 20
-25.1369599813
 11
10.8402378453
 21
-25.3115945159
  0
LINE
  5
3FB
100
AcDbEntity
  8
RACCORDO
100
AcDbLine
 62
7
  6
CONTINUOUS
 10
11.420663655
 20
-25.1488547193
 11
11.0672189083
 21
-25.3241659193
  0
LINE
  5
3FC
100
AcDbEntity
  8
RACCORDO
100
AcDbLine
 62
7
  6
CONTINUOUS
 10
12.6748342568
 20
-25.7759400202
 11
12.3213895101
 21
-25.9512512202
  0
LINE
  5
3FD
100
AcDbEntity
  8
DRAFT
100
AcDbLine
 62
7
  6
CONTINUOUS
 10
73.5330974963
 20
7.947356151
 11
75.2538391878
 21
8.7782066201
  0
LINE
  5
3FE
100
AcDbEntity
  8
DRAFT
100
AcDbLine
 62
7
  6
CONTINUOUS
 10
9.6343298937
 20
-25.3384686644
 11
9.0686444687
 21
-25.5850022023
  0
LINE
  5
3FF
100
AcDbEntity
  8
RACCORDO
100
AcDbLine
 62
7
  6
CONTINUOUS
 10
36.9981624253
 20
-38.1267212139
 11
36.9981624253
 21
-38.2896376778
  0
LINE
  5
400
100
AcDbEntity
  8
ASSI
100
AcDbLine
 62
7
  6
CONTINUOUS
 10
37.4734068424
 20
-37.0240959455
 11
37.4734068424
 21
-37.4496195401
  0
LINE
  5
401
100
AcDbEntity
  8
ASSI
100
AcDbLine
 62
7
  6
CONTINUOUS
 10
37.5247778773
 20
-37.0083371178
 11
37.5247778773
 21
-37.4322857473
  0
LINE
  5
402
100
AcDbEntity
  8
ASSI
100
AcDbLine
 62
7
  6
CONTINUOUS
 10
21.3015917832
 20
-29.7132577841
 11
21.5562966569
 21
-29.5286617332
  0
LINE
  5
403
100
AcDbEntity
  8
SMUSSO
100
AcDbLine
 62
7
  6
CONTINUOUS
 10
71.5482289241
 20
8.185839337
 11
66.1675170495
 21
4.588517851
  0
LINE
  5
404
100
AcDbEntity
  8
ASSI
100
AcDbLine
 62
7
  6
CONTINUOUS
 10
21.5564907359
 20
-29.0728019426
 11
20.1388928775
 21
-29.8600029039
  0
LINE
  5
405
100
AcDbEntity
  8
RACCORDO
100
AcDbLine
 62
7
  6
CONTINUOUS
 10
21.1840140332
 20
-30.5165422614
 11
20.2808205909
 21
-31.0038358443
  0
LINE
  5
406
100
AcDbEntity
  8
RACCORDO
100
AcDbLine
 62
7
  6
CONTINUOUS
 10
21.3213076262
 20
-30.5234326093
 11
20.4181141838
 21
-31.0107261922
  0
LINE
  5
407
100
AcDbEntity
  8
RACCORDO
100
AcDbLine
 62
7
  6
CONTINUOUS
 10
17.8776719187
 20
-28.7896906644
 11
17.3119864937
 21
-29.0846266006
  0
LINE
  5
408
100
AcDbEntity
  8
RACCORDO
100
AcDbLine
 62
7
  6
CONTINUOUS
 10
18.0135452507
 20
-28.7973290905
 11
17.4478598258
 21
-29.0922650267
  0
LINE
  5
409
100
AcDbEntity
  8
ASSI
100
AcDbLine
 62
7
  6
CONTINUOUS
 10
21.3015917832
 20
-29.7132577841
 11
20.5436145142
 21
-30.0994913282
  0
LINE
  5
40A
100
AcDbEntity
  8
RACCORDO
100
AcDbLine
 62
7
  6
CONTINUOUS
 10
54.1793905598
 20
-7.6727290913
 11
54.4713254493
 21
-7.5256360519
  0
LINE
  5
40B
100
AcDbEntity
  8
RACCORDO
100
AcDbLine
 62
7
  6
CONTINUOUS
 10
54.6746782218
 20
-8.5261085757
 11
54.9662248091
 21
-8.3792111845
  0
LINE
  5
40C
100
AcDbEntity
  8
RACCORDO
100
AcDbLine
 62
7
  6
CONTINUOUS
 10
19.8590225616
 20
-30.2978463946
 11
20.4345820624
 21
-30.0078474963
  0
LINE
  5
40D
100
AcDbEntity
  8
RACCORDO
100
AcDbLine
 62
7
  6
CONTINUOUS
 10
20.1775115365
 20
-30.6100594858
 11
20.646681788
 21
-30.3736654103
  0
LINE
  5
40E
100
AcDbEntity
  8
DRAFT
100
AcDbLine
 62
7
  6
CONTINUOUS
 10
20.6423950561
 20
-30.320543593
 11
20.9577376486
 21
-30.1620011116
  0
LINE
  5
40F
100
AcDbEntity
  8
DRAFT
100
AcDbLine
 62
7
  6
CONTINUOUS
 10
20.6276289251
 20
-30.2568329564
 11
21.0370366199
 21
-30.0512108529
  0
LINE
  5
410
100
AcDbEntity
  8
ASSI
100
AcDbLine
 62
7
  6
CONTINUOUS
 10
21.5635042657
 20
-29.4946682517
 11
20.4781401859
 21
-30.0354012902
  0
LINE
  5
411
100
AcDbEntity
  8
ASSI
100
AcDbLine
 62
7
  6
CONTINUOUS
 10
17.2990268903
 20
-26.9440700199
 11
14.9555808747
 21
-27.9990941549
  0
LINE
  5
412
100
AcDbEntity
  8
DRAFT
100
AcDbLine
 62
7
  6
CONTINUOUS
 10
20.2409316115
 20
-30.6417695233
 11
19.6752461865
 21
-30.8883030612
  0
LWPOLYLINE
  5
413
100
AcDbEntity
  8
RACCORDO
100
AcDbPolyline
 62
7
  6
CONTINUOUS
 90
6
 70
0
 10
-59.3919339898
 20
46.460502309
 10
-59.3918985644
 20
46.4604947678
 10
-59.3902804563
 20
46.4601236357
 10
-59.3862256294
 20
46.4588928167
 10
-59.3799968346
 20
46.45651596
 10
-59.3712948306
 20
46.4525058756
  0
LINE
  5
414
100
AcDbEntity
  8
SMUSSO
100
AcDbLine
 62
7
  6
CONTINUOUS
 10
66.1675170495
 20
4.588517851
 11
-72.425412063
 21
73.8849824073
  0
LINE
  5
415
100
AcDbEntity
  8
RACCORDO
100
AcDbLine
 62
7
  6
CONTINUOUS
 10
45.3785776826
 20
-42.7396925036
 11
45.3785776826
 21
-43.2105925589
  0
LINE
  5
416
100
AcDbEntity
  8
DRAFT
100
AcDbLine
 62
7
  6
CONTINUOUS
 10
36.9625934277
 20
-37.9424367395
 11
37.0039828485
 21
-37.7739482678
  0
LINE
  5
417
100
AcDbEntity
  8
RACCORDO
100
AcDbLine
 62
7
  6
CONTINUOUS
 10
26.1424013179
 20
-33.5012922213
 11
26.698212667
 21
-33.2014192472
  0
LINE
  5
418
100
AcDbEntity
  8
RACCORDO
100
AcDbLine
 62
7
  6
CONTINUOUS
 10
26.2796949108
 20
-33.5081825692
 11
26.8355062599
 21
-33.2083095951
  0
LINE
  5
419
100
AcDbEntity
  8
RACCORDO
100
AcDbLine
 62
7
  6
CONTINUOUS
 10
28.6908576466
 20
-34.7137639371
 11
29.2565430716
 21
-34.4188280009
  0
LINE
  5
41A
100
AcDbEntity
  8
RACCORDO
100
AcDbLine
 62
7
  6
CONTINUOUS
 10
29.0076312468
 20
-35.025119341
 11
29.4686751059
 21
-34.7847412152
  0
LINE
  5
41B
100
AcDbEntity
  8
RACCORDO
100
AcDbLine
 62
7
  6
CONTINUOUS
 10
24.8720751512
 20
-33.2377066759
 11
25.8073593399
 21
-32.7664584662
  0
LINE
  5
41C
100
AcDbEntity
  8
RACCORDO
100
AcDbLine
 62
7
  6
CONTINUOUS
 10
25.6222337516
 20
-33.3324205934
 11
26.0194590656
 21
-33.1322763802
  0
LINE
  5
41D
100
AcDbEntity
  8
ASSI
100
AcDbLine
 62
7
  6
CONTINUOUS
 10
33.208929467
 20
-34.8990213082
 11
30.8654834514
 21
-35.9540454433
  0
LINE
  5
41E
100
AcDbEntity
  8
DRAFT
100
AcDbLine
 62
7
  6
CONTINUOUS
 10
25.5442324704
 20
-33.2934199528
 11
24.9785470454
 21
-33.5399534907
  0
LINE
  5
41F
100
AcDbEntity
  8
RACCORDO
100
AcDbLine
 62
7
  6
CONTINUOUS
 10
-59.000048436
 20
46.2668827722
 11
-59.4702744436
 21
46.2804475952
  0
LINE
  5
420
100
AcDbEntity
  8
RACCORDO
100
AcDbLine
 62
7
  6
CONTINUOUS
 10
-59.3894491804
 20
46.4603320293
 11
-59.3893811741
 21
46.4603300555
  0
LINE
  5
421
100
AcDbEntity
  8
SMUSSO
100
AcDbLine
 62
7
  6
CONTINUOUS
 10
71.1172645178
 20
8.7240101019
 11
-74.5467324066
 21
81.5560085641
  0
LINE
  5
422
100
AcDbEntity
  8
SMUSSO
100
AcDbLine
 62
7
  6
CONTINUOUS
 10
-73.4860722348
 20
82.08633865
 11
72.1779246896
 21
9.2543401878
  0
LINE
  5
423
100
AcDbEntity
  8
DRAFT
100
AcDbLine
 62
7
  6
CONTINUOUS
 10
72.5019577014
 20
9.7258092228
 11
-72.3842217628
 21
82.1688989549
  0
LINE
  5
424
100
AcDbEntity
  8
DRAFT
100
AcDbLine
 62
7
  6
CONTINUOUS
 10
-70.6930004501
 20
83.0506645435
 11
74.193179016
 21
10.6075748105
  0
LINE
  5
425
100
AcDbEntity
  8
RACCORDO
100
AcDbLine
 62
7
  6
CONTINUOUS
 10
52.5187669361
 20
-9.8272365867
 11
52.5187669361
 21
-49.61905101
  0
LINE
  5
426
100
AcDbEntity
  8
RACCORDO
100
AcDbLine
 62
7
  6
CONTINUOUS
 10
52.6066349017
 20
-9.9333026039
 11
52.6066349017
 21
-49.7251169957
  0
LWPOLYLINE
  5
427
100
AcDbEntity
  8
RACCORDO
100
AcDbPolyline
 62
7
  6
CONTINUOUS
 90
10
 70
0
 10
52.5187669519
 20
-49.619109292
 10
52.5187357243
 20
-49.6240550421
 10
52.5182473632
 20
-49.6390693157
 10
52.5172048312
 20
-49.6530105065
 10
52.5156780984
 20
-49.6656956221
 10
52.513791182
 20
-49.6768161621
 10
52.511677844
 20
-49.6862857486
 10
52.5094961723
 20
-49.694024308
 10
52.5074945147
 20
-49.6997957886
 10
52.5059158529
 20
-49.7035701762
  0
LINE
  5
428
100
AcDbEntity
  8
ASSI
100
AcDbLine
 62
7
  6
CONTINUOUS
 10
37.2114943599
 20
-37.6682090724
 11
37.4661992335
 21
-37.4836130215
  0
LINE
  5
429
100
AcDbEntity
  8
ASSI
100
AcDbLine
 62
7
  6
CONTINUOUS
 10
37.4663933126
 20
-37.027753231
 11
36.495995928
 21
-37.5666209709
  0
LINE
  5
42A
100
AcDbEntity
  8
RACCORDO
100
AcDbLine
 62
7
  6
CONTINUOUS
 10
33.7875744954
 20
-36.7446419528
 11
33.2218890704
 21
-37.039577889
  0
LINE
  5
42B
100
AcDbEntity
  8
RACCORDO
100
AcDbLine
 62
7
  6
CONTINUOUS
 10
33.9234478274
 20
-36.7522803789
 11
33.3577624025
 21
-37.0472163151
  0
LINE
  5
42C
100
AcDbEntity
  8
ASSI
100
AcDbLine
 62
7
  6
CONTINUOUS
 10
37.2114943599
 20
-37.6682090724
 11
36.8986847016
 21
-37.8276038035
  0
LINE
  5
42D
100
AcDbEntity
  8
ASSI
100
AcDbLine
 62
7
  6
CONTINUOUS
 10
37.4734068424
 20
-37.4496195401
 11
36.8421202928
 21
-37.764129206
  0
LINE
  5
42E
100
AcDbEntity
  8
RACCORDO
100
AcDbLine
 62
7
  6
CONTINUOUS
 10
36.5043327827
 20
-37.6906892832
 11
36.1508880361
 21
-37.8660004832
  0
LINE
  5
42F
100
AcDbEntity
  8
RACCORDO
100
AcDbLine
 62
7
  6
CONTINUOUS
 10
35.028181171
 20
-37.0426214805
 11
34.755758066
 21
-37.1684354982
  0
LINE
  5
430
100
AcDbEntity
  8
RACCORDO
100
AcDbLine
 62
7
  6
CONTINUOUS
 10
35.2439908836
 20
-37.0605183336
 11
34.8779881341
 21
-37.2295505322
  0
LINE
  5
431
100
AcDbEntity
  8
SMUSSO
100
AcDbLine
 62
7
  6
CONTINUOUS
 10
72.6021887583
 20
8.954000209
 11
72.3193460459
 21
9.1661322433
  0
LINE
  5
432
100
AcDbEntity
  8
SMUSSO
100
AcDbLine
 62
7
  6
CONTINUOUS
 10
74.9709971269
 20
10.0509983363
 11
74.4053110504
 21
10.4752628937
  0
LINE
  5
433
100
AcDbEntity
  8
RACCORDO
100
AcDbLine
 62
7
  6
CONTINUOUS
 10
54.2541486764
 20
-52.7816597506
 11
54.2541486763
 21
-8.5242736228
  0
LINE
  5
434
100
AcDbEntity
  8
RACCORDO
100
AcDbLine
 62
7
  6
CONTINUOUS
 10
54.6742899232
 20
-52.7836740334
 11
54.6746782218
 21
-8.5261085757
  0
LINE
  5
435
100
AcDbEntity
  8
RACCORDO
100
AcDbLine
 62
7
  6
CONTINUOUS
 10
54.9662248091
 20
-8.3792111845
 11
54.9662248091
 21
-52.6488488287
  0
LINE
  5
436
100
AcDbEntity
  8
DRAFT
100
AcDbLine
 62
7
  6
CONTINUOUS
 10
72.2158520908
 20
9.2323500363
 11
72.5019577014
 21
9.7258092228
  0
LINE
  5
437
100
AcDbEntity
  8
RACCORDO
100
AcDbLine
 62
7
  6
CONTINUOUS
 10
44.6007602233
 20
-42.6687152255
 11
45.1664456483
 21
-42.3737792893
  0
LINE
  5
438
100
AcDbEntity
  8
RACCORDO
100
AcDbLine
 62
7
  6
CONTINUOUS
 10
44.9175338235
 20
-42.9800706293
 11
45.3785776826
 21
-42.7396925036
  0
LINE
  5
439
100
AcDbEntity
  8
ASSI
100
AcDbLine
 62
7
  6
CONTINUOUS
 10
46.9342126013
 20
-43.9139642414
 11
47.0756339575
 21
-43.8432535632
  0
LINE
  5
43A
100
AcDbEntity
  8
ASSI
100
AcDbLine
 62
7
  6
CONTINUOUS
 10
47.2877659919
 20
-43.7371875461
 11
47.4291873481
 21
-43.6664768679
  0
LINE
  5
43B
100
AcDbEntity
  8
ASSI
100
AcDbLine
 62
7
  6
CONTINUOUS
 10
47.6413193824
 20
-43.5604108508
 11
47.7827407387
 21
-43.4897001726
  0
LINE
  5
43C
100
AcDbEntity
  8
ASSI
100
AcDbLine
 62
7
  6
CONTINUOUS
 10
47.994872773
 20
-43.3836341555
 11
48.1362941293
 21
-43.3129234774
  0
LINE
  5
43D
100
AcDbEntity
  8
ASSI
100
AcDbLine
 62
7
  6
CONTINUOUS
 10
48.3484261636
 20
-43.2068574602
 11
48.4898475199
 21
-43.1361467821
  0
LINE
  5
43E
100
AcDbEntity
  8
ASSI
100
AcDbLine
 62
7
  6
CONTINUOUS
 10
48.7019795542
 20
-43.0300807649
 11
48.8434009105
 21
-42.9593700868
  0
LINE
  5
43F
100
AcDbEntity
  8
ASSI
100
AcDbLine
 62
7
  6
CONTINUOUS
 10
49.0555329448
 20
-42.8533040696
 11
49.1969543011
 21
-42.7825933915
  0
LINE
  5
440
100
AcDbEntity
  8
ASSI
100
AcDbLine
 62
7
  6
CONTINUOUS
 10
49.1188320437
 20
-42.7673700562
 11
46.6842448409
 21
-43.863426138
  0
LINE
  5
441
100
AcDbEntity
  8
SMUSSO
100
AcDbLine
 62
7
  6
CONTINUOUS
 10
66.1675170495
 20
-76.8178701047
 11
66.1675170495
 21
4.588517851
  0
LINE
  5
442
100
AcDbEntity
  8
ASSI
100
AcDbLine
 62
7
  6
CONTINUOUS
 10
46.9007499882
 20
-43.9716787117
 11
46.9342126013
 21
-43.9139642414
  0
LINE
  5
443
100
AcDbEntity
  8
ASSI
100
AcDbLine
 62
7
  6
CONTINUOUS
 10
47.1924148183
 20
-43.9016439936
 11
47.2877659919
 21
-43.7371875461
  0
LINE
  5
444
100
AcDbEntity
  8
ASSI
100
AcDbLine
 62
7
  6
CONTINUOUS
 10
47.5459682089
 20
-43.7248672983
 11
47.6413193824
 21
-43.5604108508
  0
LINE
  5
445
100
AcDbEntity
  8
ASSI
100
AcDbLine
 62
7
  6
CONTINUOUS
 10
47.8995215995
 20
-43.548090603
 11
47.994872773
 21
-43.3836341555
  0
LINE
  5
446
100
AcDbEntity
  8
ASSI
100
AcDbLine
 62
7
  6
CONTINUOUS
 10
48.2530749901
 20
-43.3713139078
 11
48.3484261636
 21
-43.2068574602
  0
LINE
  5
447
100
AcDbEntity
  8
ASSI
100
AcDbLine
 62
7
  6
CONTINUOUS
 10
48.6066283807
 20
-43.1945372125
 11
48.7019795542
 21
-43.0300807649
  0
LINE
  5
448
100
AcDbEntity
  8
ASSI
100
AcDbLine
 62
7
  6
CONTINUOUS
 10
48.9601817713
 20
-43.0177605172
 11
49.0555329448
 21
-42.8533040696
  0
LINE
  5
449
100
AcDbEntity
  8
ASSI
100
AcDbLine
 62
7
  6
CONTINUOUS
 10
51.5075702152
 20
-45.5443415728
 11
51.530406679
 21
-45.504954499
  0
LINE
  5
44A
100
AcDbEntity
  8
ASSI
100
AcDbLine
 62
7
  6
CONTINUOUS
 10
51.7778940524
 20
-45.5111146229
 11
51.8839600696
 21
-45.3281778037
  0
LINE
  5
44B
100
AcDbEntity
  8
ASSI
100
AcDbLine
 62
7
  6
CONTINUOUS
 10
52.131447443
 20
-45.3343379276
 11
52.2375134602
 21
-45.1514011084
  0
LINE
  5
44C
100
AcDbEntity
  8
ASSI
100
AcDbLine
 62
7
  6
CONTINUOUS
 10
52.4850008336
 20
-45.1575612323
 11
52.5187669361
 21
-45.0993233202
  0
LINE
  5
44D
100
AcDbEntity
  8
ASSI
100
AcDbLine
 62
7
  6
CONTINUOUS
 10
52.5187669361
 20
-45.3722931726
 11
51.8766341373
 21
-45.7288735338
  0
LINE
  5
44E
100
AcDbEntity
  8
RACCORDO
100
AcDbLine
 62
7
  6
CONTINUOUS
 10
49.6974770721
 20
-44.6995932411
 11
49.1317916471
 21
-44.9945291773
  0
LINE
  5
44F
100
AcDbEntity
  8
RACCORDO
100
AcDbLine
 62
7
  6
CONTINUOUS
 10
49.8333504041
 20
-44.7072316672
 11
49.2676649792
 21
-45.0021676034
  0
LINE
  5
450
100
AcDbEntity
  8
ASSI
100
AcDbLine
 62
7
  6
CONTINUOUS
 10
52.5187669361
 20
-45.9302354281
 11
52.4001957597
 21
-45.990654345
  0
LINE
  5
451
100
AcDbEntity
  8
ASSI
100
AcDbLine
 62
7
  6
CONTINUOUS
 10
51.530406679
 20
-45.504954499
 11
51.6718280352
 21
-45.4342438209
  0
LINE
  5
452
100
AcDbEntity
  8
ASSI
100
AcDbLine
 62
7
  6
CONTINUOUS
 10
51.8839600696
 20
-45.3281778037
 11
52.0253814258
 21
-45.2574671256
  0
LINE
  5
453
100
AcDbEntity
  8
ASSI
100
AcDbLine
 62
7
  6
CONTINUOUS
 10
52.2375134602
 20
-45.1514011084
 11
52.3789348164
 21
-45.0806904303
  0
LINE
  5
454
100
AcDbEntity
  8
ASSI
100
AcDbLine
 62
7
  6
CONTINUOUS
 10
52.5187669361
 20
-45.140678181
 11
51.6095051839
 21
-45.5953090571
  0
LINE
  5
455
100
AcDbEntity
  8
ASSI
100
AcDbLine
 62
7
  6
CONTINUOUS
 10
52.5187669361
 20
-45.8352896005
 11
52.3037304598
 21
-45.9424216951
  0
LINE
  5
456
100
AcDbEntity
  8
SMUSSO
100
AcDbLine
 62
7
  6
CONTINUOUS
 10
71.824371299
 20
-82.562210686
 11
71.824371299
 21
7.5044313075
  0
LINE
  5
457
100
AcDbEntity
  8
SMUSSO
100
AcDbLine
 62
7
  6
CONTINUOUS
 10
72.8850314708
 20
8.388314784
 11
72.8850314708
 21
-82.0318806002
  0
LINE
  5
458
100
AcDbEntity
  8
DRAFT
100
AcDbLine
 62
7
  6
CONTINUOUS
 10
73.5330974963
 20
-81.1666578972
 11
73.5330974963
 21
7.947356151
  0
LINE
  5
459
100
AcDbEntity
  8
DRAFT
100
AcDbLine
 62
7
  6
CONTINUOUS
 10
75.2538391878
 20
9.4853134001
 11
75.2538391878
 21
-80.3358074305
  0
LINE
  5
45A
100
AcDbEntity
  8
RACCORDO
100
AcDbLine
 62
7
  6
CONTINUOUS
 10
52.3409974768
 20
-49.7287022428
 11
52.5187669361
 21
-49.5055504978
  0
LINE
  5
45B
100
AcDbEntity
  8
RACCORDO
100
AcDbLine
 62
7
  6
CONTINUOUS
 10
52.5062893512
 20
-49.7037376143
 11
52.5062597453
 21
-49.703774752
  0
LINE
  5
45C
100
AcDbEntity
  8
RACCORDO
100
AcDbLine
 62
7
  6
CONTINUOUS
 10
54.6742899232
 20
-52.7836740334
 11
54.9662248091
 21
-52.6488488287
  0
LINE
  5
45D
100
AcDbEntity
  8
RACCORDO
100
AcDbLine
 62
7
  6
CONTINUOUS
 10
54.4839409732
 20
-53.1662892367
 11
54.7769991156
 21
-53.030945275
  0
LINE
  5
45E
100
AcDbEntity
  8
SMUSSO
100
AcDbLine
 62
7
  6
CONTINUOUS
 10
71.824371299
 20
-82.562210686
 11
72.8850314708
 21
-82.0318806002
  0
LINE
  5
45F
100
AcDbEntity
  8
RACCORDO
100
AcDbLine
 62
7
  6
CONTINUOUS
 10
71.5504935453
 20
-83.1100767705
 11
72.6251382851
 21
-82.5727544006
  0
LINE
  5
460
100
AcDbEntity
  8
DRAFT
100
AcDbLine
 62
7
  6
CONTINUOUS
 10
73.5330974963
 20
-81.1666578972
 11
75.2538391878
 21
-80.3358074305
  0
LINE
  5
461
100
AcDbEntity
  8
DRAFT
100
AcDbLine
 62
7
  6
CONTINUOUS
 10
73.1432489904
 20
-81.9606684956
 11
74.8528297556
 21
-81.1525496621
  0
ARC
  5
462
100
AcDbEntity
  8
DRAFT
100
AcDbCircle
 62
7
  6
CONTINUOUS
 10
72.8916289794
 20
-81.351718394
 40
0.6634369367
100
AcDbArc
 50
269.4440132862
 51
271.6256484307
  0
ARC
  5
463
100
AcDbEntity
  8
IMPORT_IGES
100
AcDbCircle
 62
7
  6
CONTINUOUS
 10
-1.1590431154
 20
-23.7246943027
 40
0.5088565022
100
AcDbArc
 50
244.6720486628
 51
247.0404098965
  0
ARC
  5
464
100
AcDbEntity
  8
RACCORDO
100
AcDbCircle
 62
7
  6
CONTINUOUS
 10
11.4152552395
 20
-25.5871868273
 40
0.502399305
100
AcDbArc
 50
100.2950146088
 51
116.3430329804
  0
ARC
  5
465
100
AcDbEntity
  8
RACCORDO
100
AcDbCircle
 62
7
  6
CONTINUOUS
 10
-36.2499953696
 20
-1.7545439228
 40
0.502319995
100
AcDbArc
 50
98.9698322227
 51
114.7522457396
  0
ARC
  5
466
100
AcDbEntity
  8
RACCORDO
100
AcDbCircle
 62
7
  6
CONTINUOUS
 10
-12.4204968437
 20
-13.6692931858
 40
0.502319995
100
AcDbArc
 50
98.9698322227
 51
114.7522457396
  0
ARC
  5
467
100
AcDbEntity
  8
RACCORDO
100
AcDbCircle
 62
7
  6
CONTINUOUS
 10
35.2385002083
 20
-37.4987917118
 40
0.502319995
100
AcDbArc
 50
98.9698322227
 51
114.7522457396
  0
ARC
  5
468
100
AcDbEntity
  8
RACCORDO
100
AcDbCircle
 62
7
  6
CONTINUOUS
 10
11.413786644
 20
-25.5869543738
 40
0.5021625583
100
AcDbArc
 50
63.4601585232
 51
79.3584299017
  0
ARC
  5
469
100
AcDbEntity
  8
RACCORDO
100
AcDbCircle
 62
7
  6
CONTINUOUS
 10
-36.2513023416
 20
-1.7540942511
 40
0.5018810491
100
AcDbArc
 50
63.4559804215
 51
78.4446987655
  0
ARC
  5
46A
100
AcDbEntity
  8
RACCORDO
100
AcDbCircle
 62
7
  6
CONTINUOUS
 10
-12.4218038156
 20
-13.6688435141
 40
0.5018810491
100
AcDbArc
 50
63.4559804215
 51
78.4446987655
  0
ARC
  5
46B
100
AcDbEntity
  8
RACCORDO
100
AcDbCircle
 62
7
  6
CONTINUOUS
 10
35.2371932364
 20
-37.4983420401
 40
0.5018810491
100
AcDbArc
 50
63.4559804215
 51
78.4446987655
  0
ARC
  5
46C
100
AcDbEntity
  8
RACCORDO
100
AcDbCircle
 62
7
  6
CONTINUOUS
 10
-34.9903460315
 20
-2.3824821857
 40
0.5000125831
100
AcDbArc
 50
359.9981424993
 51
63.436300054
  0
ARC
  5
46D
100
AcDbEntity
  8
RACCORDO
100
AcDbCircle
 62
7
  6
CONTINUOUS
 10
12.6686510205
 20
-26.2119807116
 40
0.5000125831
100
AcDbArc
 50
359.9981424993
 51
63.436300054
  0
ARC
  5
46E
100
AcDbEntity
  8
RACCORDO
100
AcDbCircle
 62
7
  6
CONTINUOUS
 10
36.4981495465
 20
-38.1267299746
 40
0.5000125831
100
AcDbArc
 50
359.9981424993
 51
63.436300054
  0
ARC
  5
46F
100
AcDbEntity
  8
RACCORDO
100
AcDbCircle
 62
7
  6
CONTINUOUS
 10
-55.8499960765
 20
8.0473428368
 40
0.5000125831
100
AcDbArc
 50
359.9981424993
 51
63.436300054
  0
ARC
  5
470
100
AcDbEntity
  8
RACCORDO
100
AcDbCircle
 62
7
  6
CONTINUOUS
 10
-11.1670108802
 20
-14.2941413196
 40
0.5000039303
100
AcDbArc
 50
359.9962855703
 51
63.4406225052
  0
ARC
  5
471
100
AcDbEntity
  8
0
100
AcDbCircle
 62
7
  6
CONTINUOUS
 10
-1.4186283739
 20
-24.800805611
 40
0.3153413181
100
AcDbArc
 50
42.1972265077
 51
45.3104433895
  0
ARC
  5
472
100
AcDbEntity
  8
RACCORDO
100
AcDbCircle
 62
7
  6
CONTINUOUS
 10
-53.0026696575
 20
31.9828038494
 40
0.3000075549
100
AcDbArc
 50
359.9982306104
 51
63.4364765423
  0
ARC
  5
473
100
AcDbEntity
  8
RACCORDO
100
AcDbCircle
 62
7
  6
CONTINUOUS
 10
-53.329345546
 20
32.1462192952
 40
0.2999366603
100
AcDbArc
 50
63.4376202806
 51
114.7714837855
  0
ARC
  5
474
100
AcDbEntity
  8
RACCORDO
100
AcDbCircle
 62
7
  6
CONTINUOUS
 10
-53.0025964446
 20
27.4031411724
 40
0.2999338858
100
AcDbArc
 50
298.3466504164
 51
359.9940045201
  0
ARC
  5
475
100
AcDbEntity
  8
RACCORDO
100
AcDbCircle
 62
7
  6
CONTINUOUS
 10
11.2806174131
 20
-25.314977053
 40
0.1987129222
100
AcDbArc
 50
114.9254157885
 51
116.38207736
  0
ARC
  5
476
100
AcDbEntity
  8
RACCORDO
100
AcDbCircle
 62
7
  6
CONTINUOUS
 10
10.927162416
 20
-25.487025677
 40
0.1957856016
100
AcDbArc
 50
108.6619892206
 51
116.3597832332
  0
ARC
  5
477
100
AcDbEntity
  8
RACCORDO
100
AcDbCircle
 62
7
  6
CONTINUOUS
 10
-57.6911066104
 20
7.3547800536
 40
0.1813440003
100
AcDbArc
 50
236.4614783931
 51
243.4416127035
  0
ARC
  5
478
100
AcDbEntity
  8
RACCORDO
100
AcDbCircle
 62
7
  6
CONTINUOUS
 10
-57.8524212716
 20
7.6007462904
 40
0.1095361208
100
AcDbArc
 50
179.9736119507
 51
186.2827285926
  0
ARC
  5
479
100
AcDbEntity
  8
ASSI
100
AcDbCircle
 62
7
  6
CONTINUOUS
 10
-46.3004978554
 20
4.8842896437
 40
0.0874961196
100
AcDbArc
 50
105.061869074
 51
111.661129725
  0
ARC
  5
47A
100
AcDbEntity
  8
ASSI
100
AcDbCircle
 62
7
  6
CONTINUOUS
 10
49.1589176048
 20
-42.8454180864
 40
0.0874961196
100
AcDbArc
 50
105.0618690741
 51
111.6611297249
  0
SPLINE
  5
47B
100
AcDbEntity
  8
0
100
AcDbSpline
 62
7
  6
CONTINUOUS
 70
0
 71
3
 72
11
 73
7
 74
5
 42
0.0000001
 43
0.0000001
 44
0.0000000001
 12
0.3138156219
 22
-0.2015300707
 32
0.0
 13
0.0047321734
 23
-0.3729238803
 33
0.0
 40
0.0
 40
0.0
 40
0.0
 40
0.0
 40
0.2339806254
 40
0.4918424311
 40
0.7556842856
 40
1.0
 40
1.0
 40
1.0
 40
1.0
 10
-1.4524711574
 20
-23.7782692208
 30
0.0
 10
-1.4279955656
 20
-23.7939872647
 30
0.0
 10
-1.3812521432
 20
-23.8344898195
 30
0.0
 10
-1.3251003621
 20
-23.9108619009
 30
0.0
 10
-1.2887084839
 20
-23.9997170793
 30
0.0
 10
-1.2777799753
 20
-24.0627615951
 30
0.0
 10
-1.2773945939
 20
-24.0931319832
 30
0.0
 11
-1.4524711574
 21
-23.7782692208
 31
0.0
 11
-1.3858293717
 21
-23.8346063836
 31
0.0
 11
-1.3289602133
 21
-23.9121607308
 31
0.0
 11
-1.2913428055
 21
-24.0030873925
 31
0.0
 11
-1.2773945939
 21
-24.0931319832
 31
0.0
  0
SPLINE
  5
47C
100
AcDbEntity
  8
0
100
AcDbSpline
 62
7
  6
CONTINUOUS
 70
0
 71
3
 72
9
 73
5
 74
3
 42
0.0000001
 43
0.0000001
 44
0.0000000001
 12
0.0022474152
 22
-0.1795071022
 32
0.0
 13
-0.1278864783
 23
-0.125987695
 33
0.0
 40
0.0
 40
0.0
 40
0.0
 40
0.0
 40
0.5428700397
 40
1.0
 40
1.0
 40
1.0
 40
1.0
 10
-1.2773945939
 20
-24.0931319832
 30
0.0
 10
-1.2769879091
 20
-24.1256149925
 30
0.0
 10
-1.2831691954
 20
-24.185467361
 30
0.0
 10
-1.3093977176
 20
-24.2426774683
 30
0.0
 10
-1.3288846312
 20
-24.2618750516
 30
0.0
 11
-1.2773945939
 21
-24.0931319832
 31
0.0
 11
-1.2896072577
 21
-24.1898204126
 31
0.0
 11
-1.3288846312
 21
-24.2618750516
 31
0.0
  0
SPLINE
  5
47D
100
AcDbEntity
  8
0
100
AcDbSpline
 62
7
  6
CONTINUOUS
 70
0
 71
3
 72
8
 73
4
 74
2
 42
0.0000001
 43
0.0000001
 44
0.0000000001
 12
-0.0200208059
 22
-0.0197235487
 32
0.0
 13
-0.0251372385
 23
-0.012568623
 33
0.0
 40
0.0
 40
0.0
 40
0.0
 40
0.0
 40
1.0
 40
1.0
 40
1.0
 40
1.0
 10
-1.3288846312
 20
-24.2618750516
 30
0.0
 10
-1.3355582331
 20
-24.2684495678
 30
0.0
 10
-1.3432597398
 20
-24.2741809029
 30
0.0
 10
-1.3516388192
 20
-24.2783704439
 30
0.0
 11
-1.3288846312
 21
-24.2618750516
 31
0.0
 11
-1.3516388192
 21
-24.2783704439
 31
0.0
  0
SPLINE
  5
47E
100
AcDbEntity
  8
0
100
AcDbSpline
 62
7
  6
CONTINUOUS
 70
0
 71
3
 72
10
 73
6
 74
4
 42
0.0000001
 43
0.0000001
 44
0.0000000001
 12
0.257046478
 22
-0.0748047261
 32
0.0
 13
0.2252633536
 23
-0.1446549704
 33
0.0
 40
0.0
 40
0.0
 40
0.0
 40
0.0
 40
0.2362920832
 40
0.4814109498
 40
1.0
 40
1.0
 40
1.0
 40
1.0
 10
-1.695277989
 20
-23.667570647
 30
0.0
 10
-1.6750319731
 20
-23.6734625685
 30
0.0
 10
-1.6340037375
 20
-23.6863322351
 30
0.0
 10
-1.5513084039
 20
-23.7200923297
 30
0.0
 10
-1.4914108602
 20
-23.7532637262
 30
0.0
 10
-1.4524711574
 20
-23.7782692208
 30
0.0
 11
-1.695277989
 21
-23.667570647
 31
0.0
 11
-1.6350493871
 21
-23.6869112419
 31
0.0
 11
-1.574258686
 21
-23.7116210787
 31
0.0
 11
-1.4524711574
 21
-23.7782692208
 31
0.0
  0
SPLINE
  5
47F
100
AcDbEntity
  8
0
100
AcDbSpline
 62
7
  6
CONTINUOUS
 70
0
 71
3
 72
10
 73
6
 74
4
 42
0.0000001
 43
0.0000001
 44
0.0000000001
 12
0.2763115484
 22
-0.1381557742
 32
0.0
 13
0.0793323206
 23
-0.2985656924
 33
0.0
 40
0.0
 40
0.0
 40
0.0
 40
0.0
 40
0.2224105364
 40
0.6042534692
 40
1.0
 40
1.0
 40
1.0
 40
1.0
 10
-1.5188207658
 20
-24.5528395255
 30
0.0
 10
-1.4983358992
 20
-24.5630819588
 30
0.0
 10
-1.4467304011
 20
-24.5995421727
 30
0.0
 10
-1.3857545382
 20
-24.6849395469
 30
0.0
 10
-1.3563694302
 20
-24.7601440419
 30
0.0
 10
-1.3459042667
 20
-24.7995294876
 30
0.0
 11
-1.5188207658
 21
-24.5528395255
 31
0.0
 11
-1.4623462781
 21
-24.591973488
 31
0.0
 11
-1.3909498498
 21
-24.6858743415
 31
0.0
 11
-1.3459042667
 21
-24.7995294876
 31
0.0
  0
SPLINE
  5
480
100
AcDbEntity
  8
0
100
AcDbSpline
 62
7
  6
CONTINUOUS
 70
0
 71
3
 72
9
 73
5
 74
3
 42
0.0000001
 43
0.0000001
 44
0.0000000001
 12
0.1629167104
 22
-0.6125703128
 32
0.0
 13
0.1303220388
 23
-0.6203228263
 33
0.0
 40
0.0
 40
0.0
 40
0.0
 40
0.0
 40
0.5011449125
 40
1.0
 40
1.0
 40
1.0
 40
1.0
 10
-1.3459042667
 20
-24.7995294876
 30
0.0
 10
-1.3186893065
 20
-24.9018583195
 30
0.0
 10
-1.2767586099
 20
-25.109122388
 30
0.0
 10
-1.2320475284
 20
-25.3155716753
 30
0.0
 10
-1.2103769244
 20
-25.4187220746
 30
0.0
 11
-1.3459042667
 21
-24.7995294876
 31
0.0
 11
-1.2759643128
 21
-25.1093923573
 31
0.0
 11
-1.2103769244
 21
-25.4187220746
 31
0.0
  0
SPLINE
  5
481
100
AcDbEntity
  8
0
100
AcDbSpline
 62
7
  6
CONTINUOUS
 70
0
 71
3
 72
9
 73
5
 74
3
 42
0.0000001
 43
0.0000001
 44
0.0000000001
 12
0.0372671146
 22
-0.0127441757
 32
0.0
 13
0.0356954054
 23
0.0166460169
 33
0.0
 40
0.0
 40
0.0
 40
0.0
 40
0.0
 40
0.5123517753
 40
1.0
 40
1.0
 40
1.0
 40
1.0
 10
-1.19685982
 20
-24.5658749899
 30
0.0
 10
-1.1904951959
 20
-24.5680514902
 30
0.0
 10
-1.1767306632
 20
-24.5690736951
 30
0.0
 10
-1.1643329587
 20
-24.5641688632
 30
0.0
 10
-1.1585306917
 20
-24.561463063
 30
0.0
 11
-1.19685982
 21
-24.5658749899
 31
0.0
 11
-1.1767494287
 21
-24.5675430743
 31
0.0
 11
-1.1585306917
 21
-24.561463063
 31
0.0
  0
LINE
  5
482
100
AcDbEntity
  8
0
100
AcDbLine
 62
7
  6
CONTINUOUS
 10
-1.1585306917
 20
-24.561463063
 11
-1.1538292019
 21
-24.559182685
  0
SPLINE
  5
483
100
AcDbEntity
  8
RACCORDO
100
AcDbSpline
 62
7
  6
CONTINUOUS
 70
0
 71
3
 72
12
 73
8
 74
6
 42
0.0000001
 43
0.0000001
 44
0.0000000001
 12
0.5224462622
 22
-0.2612221574
 32
0.0
 13
0.0000164681
 23
-0.5841122428
 33
0.0
 40
0.0
 40
0.0
 40
0.0
 40
0.0
 40
0.1109174704
 40
0.2309231332
 40
0.4893221325
 40
0.7537633751
 40
1.0
 40
1.0
 40
1.0
 40
1.0
 10
53.9745358587
 20
-8.0381098123
 30
0.0
 10
53.993851998
 20
-8.047767846
 30
0.0
 10
54.0317067171
 20
-8.0725994563
 30
0.0
 10
54.103056251
 20
-8.136070968
 30
0.0
 10
54.1781999038
 20
-8.2381016555
 30
0.0
 10
54.2377055947
 20
-8.3766991681
 30
0.0
 10
54.2541473246
 20
-8.4763303471
 30
0.0
 10
54.2541486763
 20
-8.5242736228
 30
0.0
 11
53.9745358587
 21
-8.0381098123
 31
0.0
 11
54.0292518249
 21
-8.0728039141
 31
0.0
 11
54.0817760297
 21
-8.1192233715
 31
0.0
 11
54.1724467466
 21
-8.239887779
 31
0.0
 11
54.2329278724
 21
-8.3820178788
 31
0.0
 11
54.2541486763
 21
-8.5242736228
 31
0.0
  0
SPLINE
  5
484
100
AcDbEntity
  8
0
100
AcDbSpline
 62
7
  6
CONTINUOUS
 70
0
 71
3
 72
9
 73
5
 74
3
 42
0.0000001
 43
0.0000001
 44
0.0000000001
 12
-0.1087199623
 22
0.5446236221
 32
0.0
 13
-0.1090135263
 23
0.5445649374
 33
0.0
 40
0.0
 40
0.0
 40
0.0
 40
0.0
 40
0.4998343578
 40
1.0
 40
1.0
 40
1.0
 40
1.0
 10
-0.912254628
 20
-25.5677832227
 30
0.0
 10
-0.9303686188
 20
-25.4770426899
 30
0.0
 10
-0.9647699864
 20
-25.2951407459
 30
0.0
 10
-1.0000341892
 20
-25.1134059519
 30
0.0
 10
-1.0182091293
 20
-25.0226150613
 30
0.0
 11
-0.912254628
 21
-25.5677832227
 31
0.0
 11
-0.9649741557
 21
-25.295242767
 31
0.0
 11
-1.0182091293
 21
-25.0226150613
 31
0.0
  0
SPLINE
  5
485
100
AcDbEntity
  8
0
100
AcDbSpline
 62
7
  6
CONTINUOUS
 70
0
 71
3
 72
11
 73
7
 74
5
 42
0.0000001
 43
0.0000001
 44
0.0000000001
 12
-0.0921710565
 22
0.4604524488
 32
0.0
 13
-0.3155612603
 23
0.3477542986
 33
0.0
 40
0.0
 40
0.0
 40
0.0
 40
0.0
 40
0.2378309259
 40
0.4940748858
 40
0.7548353113
 40
1.0
 40
1.0
 40
1.0
 40
1.0
 10
-1.0182091293
 20
-25.0226150613
 30
0.0
 10
-1.0255161719
 20
-24.9861117839
 30
0.0
 10
-1.0401417832
 20
-24.9101549971
 30
0.0
 10
-1.071518861
 20
-24.7960238267
 30
0.0
 10
-1.1160078363
 20
-24.685057501
 30
0.0
 10
-1.1592236634
 20
-24.6174146881
 30
0.0
 10
-1.1850118228
 20
-24.5889956633
 30
0.0
 11
-1.0182091293
 21
-25.0226150613
 31
0.0
 11
-1.0409666441
 21
-24.91327598
 31
0.0
 11
-1.0734652002
 21
-24.7974188591
 31
0.0
 11
-1.120553401
 21
-24.6843850918
 31
0.0
 11
-1.1850118228
 21
-24.5889956633
 31
0.0
  0
SPLINE
  5
486
100
AcDbEntity
  8
0
100
AcDbSpline
 62
7
  6
CONTINUOUS
 70
0
 71
3
 72
11
 73
7
 74
5
 42
0.0000001
 43
0.0000001
 44
0.0000000001
 12
-0.6333494509
 22
0.5969143223
 32
0.0
 13
-0.8289470693
 23
0.2651131674
 33
0.0
 40
0.0
 40
0.0
 40
0.0
 40
0.0
 40
0.2725542141
 40
0.5262218346
 40
0.7671916502
 40
1.0
 40
1.0
 40
1.0
 40
1.0
 10
-1.2288154126
 20
-23.6313944703
 30
0.0
 10
-1.2863560999
 20
-23.5771639656
 30
0.0
 10
-1.4095945313
 20
-23.4852665006
 30
0.0
 10
-1.6048318206
 20
-23.3777260684
 30
0.0
 10
-1.7991989117
 20
-23.2947586786
 30
0.0
 10
-1.9293611788
 20
-23.2503848219
 30
0.0
 10
-1.9936897785
 20
-23.2298113022
 30
0.0
 11
-1.2288154126
 21
-23.6313944703
 31
0.0
 11
-1.4168817295
 21
-23.4868331843
 31
0.0
 11
-1.6097163902
 21
-23.3793442547
 31
0.0
 11
-1.8023038537
 21
-23.2963272694
 31
0.0
 11
-1.9936897785
 21
-23.2298113022
 31
0.0
  0
SPLINE
  5
487
100
AcDbEntity
  8
RACCORDO
100
AcDbSpline
 62
7
  6
CONTINUOUS
 70
0
 71
3
 72
15
 73
11
 74
9
 42
0.0000001
 43
0.0000001
 44
0.0000000001
 12
0.0000005433
 22
-0.4373931379
 32
0.0
 13
-0.3912229335
 23
0.1955949217
 33
0.0
 40
0.0
 40
0.0
 40
0.0
 40
0.0
 40
0.1487956607
 40
0.2840505564
 40
0.4066337084
 40
0.5199163178
 40
0.6296853472
 40
0.7427992355
 40
0.8650888082
 40
1.0
 40
1.0
 40
1.0
 40
1.0
 10
54.2541486764
 20
-52.7816597506
 30
0.0
 10
54.2541487033
 20
-52.8033538176
 30
0.0
 10
54.2509980803
 20
-52.8448873097
 30
0.0
 10
54.2353657595
 20
-52.9025062266
 30
0.0
 10
54.2093053518
 20
-52.9506048137
 30
0.0
 10
54.1733220628
 20
-52.9870025059
 30
0.0
 10
54.1287869733
 20
-53.0095061932
 30
0.0
 10
54.0781928997
 20
-53.016834864
 30
0.0
 10
54.0241545381
 20
-53.0092125574
 30
0.0
 10
53.9889424929
 20
-52.9954133172
 30
0.0
 10
53.9713490421
 20
-52.9866173359
 30
0.0
 11
54.2541486764
 21
-52.7816597506
 31
0.0
 11
54.2487159947
 21
-52.846514811
 31
0.0
 11
54.2326239616
 21
-52.9034437175
 31
0.0
 11
54.2064933745
 21
-52.950262285
 31
0.0
 11
54.1713239409
 21
-52.9851652636
 31
0.0
 11
54.128468027
 21
-53.0068111391
 31
0.0
 11
54.0795732025
 21
-53.0143672869
 31
0.0
 11
54.026520852
 21
-53.0075496212
 31
0.0
 11
53.9713490421
 21
-52.9866173359
 31
0.0
  0
SPLINE
  5
488
100
AcDbEntity
  8
RACCORDO
100
AcDbSpline
 62
7
  6
CONTINUOUS
 70
0
 71
3
 72
11
 73
7
 74
5
 42
0.0000001
 43
0.0000001
 44
0.0000000001
 12
-0.5252088232
 22
0.262603433
 32
0.0
 13
-0.0000165552
 23
0.5872008777
 33
0.0
 40
0.0
 40
0.0
 40
0.0
 40
0.0
 40
0.2296735233
 40
0.4882132692
 40
0.7532075793
 40
1.0
 40
1.0
 40
1.0
 40
1.0
 10
-61.2191935487
 20
4.6086539595
 30
0.0
 10
-61.2594024023
 20
4.6287583114
 30
0.0
 10
-61.3362362886
 20
4.6888661225
 30
0.0
 10
-61.4249643454
 20
4.8082004413
 30
0.0
 10
-61.4853255946
 20
4.9477597904
 30
0.0
 10
-61.5019918216
 20
5.0481056031
 30
0.0
 10
-61.5019931835
 20
5.0964111785
 30
0.0
 11
-61.2191935487
 21
4.6086539595
 31
0.0
 11
-61.3274171692
 21
4.6891280537
 31
0.0
 11
-61.4191681608
 21
4.8100804355
 31
0.0
 11
-61.4804685951
 21
4.953101899
 31
0.0
 11
-61.5019931835
 21
5.0964111785
 31
0.0
  0
SPLINE
  5
489
100
AcDbEntity
  8
RACCORDO
100
AcDbSpline
 62
7
  6
CONTINUOUS
 70
0
 71
3
 72
15
 73
11
 74
9
 42
0.0000001
 43
0.0000001
 44
0.0000000001
 12
-0.0000013378
 22
-0.6465687866
 32
0.0
 13
-0.5782744689
 23
0.2892228111
 33
0.0
 40
0.0
 40
0.0
 40
0.0
 40
0.0
 40
0.1488327995
 40
0.2853445702
 40
0.409502329
 40
0.5236322356
 40
0.6329810521
 40
0.7448482043
 40
0.8659132721
 40
1.0
 40
1.0
 40
1.0
 40
1.0
 10
52.6066349017
 20
-49.7251169957
 30
0.0
 10
52.6066348354
 20
-49.7571938766
 30
0.0
 10
52.6024873874
 20
-49.8188310818
 30
0.0
 10
52.5816891232
 20
-49.9051235866
 30
0.0
 10
52.5462745179
 20
-49.9785822782
 30
0.0
 10
52.4961378663
 20
-50.0357765809
 30
0.0
 10
52.4323054603
 20
-50.0726051353
 30
0.0
 10
52.3583706698
 20
-50.0859201567
 30
0.0
 10
52.2789486779
 20
-50.075730393
 30
0.0
 10
52.2272584404
 20
-50.0555544595
 30
0.0
 10
52.20141213
 20
-50.0426274794
 30
0.0
 11
52.6066349017
 21
-49.7251169957
 31
0.0
 11
52.5994938979
 21
-49.8210823157
 31
0.0
 11
52.5779375017
 21
-49.9066737849
 31
0.0
 11
52.542109761
 21
-49.9785117589
 31
0.0
 11
52.4927598118
 21
-50.0333749072
 31
0.0
 11
52.4313979474
 21
-50.0684951033
 31
0.0
 11
52.3603364462
 21
-50.08198081
 31
0.0
 11
52.2825598994
 21
-50.0731444703
 31
0.0
 11
52.20141213
 21
-50.0426274794
 31
0.0
  0
SPLINE
  5
48A
100
AcDbEntity
  8
RACCORDO
100
AcDbSpline
 62
7
  6
CONTINUOUS
 70
0
 71
3
 72
9
 73
5
 74
3
 42
0.0000001
 43
0.0000001
 44
0.0000000001
 12
0.1725639098
 22
-0.0862952368
 32
0.0
 13
0.1355517978
 23
-0.1372985105
 33
0.0
 40
0.0
 40
0.0
 40
0.0
 40
0.0
 40
0.2348004321
 40
1.0
 40
1.0
 40
1.0
 40
1.0
 10
52.20141213
 20
-9.2105693485
 30
0.0
 10
52.2149181568
 20
-9.2173234015
 30
0.0
 10
52.2710349974
 20
-9.248882851
 30
0.0
 10
52.3212079157
 20
-9.2904566278
 30
0.0
 10
52.3557826414
 20
-9.3254768815
 30
0.0
 11
52.20141213
 21
-9.2105693485
 31
0.0
 11
52.2409429778
 21
-9.2326958485
 31
0.0
 11
52.3557826414
 21
-9.3254768815
 31
0.0
  0
SPLINE
  5
48B
100
AcDbEntity
  8
RACCORDO
100
AcDbSpline
 62
7
  6
CONTINUOUS
 70
0
 71
3
 72
11
 73
7
 74
5
 42
0.0000001
 43
0.0000001
 44
0.0000000001
 12
0.4722144352
 22
-0.4782993634
 32
0.0
 13
-0.0000048606
 23
-0.6721285248
 33
0.0
 40
0.0
 40
0.0
 40
0.0
 40
0.0
 40
0.2506204289
 40
0.5100378139
 40
0.7636254487
 40
1.0
 40
1.0
 40
1.0
 40
1.0
 10
52.3557826414
 20
-9.3254768815
 30
0.0
 10
52.3952315028
 20
-9.3654340787
 30
0.0
 10
52.4663431681
 20
-9.4561043981
 30
0.0
 10
52.5450956223
 20
-9.6089955115
 30
0.0
 10
52.5944231159
 20
-9.7703864758
 30
0.0
 10
52.6066352847
 20
-9.8803445777
 30
0.0
 10
52.6066349017
 20
-9.9333026039
 30
0.0
 11
52.3557826414
 21
-9.3254768815
 31
0.0
 11
52.4606470168
 21
-9.4573047058
 31
0.0
 11
52.5408030403
 21
-9.6121499758
 31
0.0
 11
52.5901881392
 21
-9.775282109
 31
0.0
 11
52.6066349017
 21
-9.9333026039
 31
0.0
  0
SPLINE
  5
48C
100
AcDbEntity
  8
RACCORDO
100
AcDbSpline
 62
7
  6
CONTINUOUS
 70
0
 71
3
 72
15
 73
11
 74
9
 42
0.0000001
 43
0.0000001
 44
0.0000000001
 12
0.0000057919
 22
0.6465728865
 32
0.0
 13
0.5783296664
 23
-0.2891215911
 33
0.0
 40
0.0
 40
0.0
 40
0.0
 40
0.0
 40
0.1488305474
 40
0.2853412356
 40
0.4094979038
 40
0.5236286482
 40
0.6329768542
 40
0.7448422918
 40
0.8659082755
 40
1.0
 40
1.0
 40
1.0
 40
1.0
 10
-59.8544794089
 20
46.2972545514
 30
0.0
 10
-59.8544791216
 20
46.3293311503
 30
0.0
 10
-59.8503294569
 20
46.3909678044
 30
0.0
 10
-59.8295315001
 20
46.4772600732
 30
0.0
 10
-59.7941137055
 20
46.5507174524
 30
0.0
 10
-59.7439800914
 20
46.607913446
 30
0.0
 10
-59.6801522445
 20
46.6447507358
 30
0.0
 10
-59.6062171588
 20
46.658067581
 30
0.0
 10
-59.5267923165
 20
46.6478769236
 30
0.0
 10
-59.4751063779
 20
46.6276879726
 30
0.0
 10
-59.4492566371
 20
46.6147650351
 30
0.0
 11
-59.8544794089
 21
46.2972545514
 31
0.0
 11
-59.8473365708
 21
46.3932188866
 31
0.0
 11
-59.8257792573
 21
46.4788099802
 31
0.0
 11
-59.7899502096
 21
46.5506470831
 31
0.0
 11
-59.7406020862
 21
46.6055132316
 31
0.0
 11
-59.6792437064
 21
46.6406396231
 31
0.0
 11
-59.60818333
 21
46.6541277704
 31
0.0
 11
-59.5304060249
 21
46.6452884617
 31
0.0
 11
-59.4492566371
 21
46.6147650351
 31
0.0
  0
SPLINE
  5
48D
100
AcDbEntity
  8
RACCORDO
100
AcDbSpline
 62
7
  6
CONTINUOUS
 70
0
 71
3
 72
11
 73
7
 74
5
 42
0.0000001
 43
0.0000001
 44
0.0000000001
 12
-0.7724931025
 22
0.3863943157
 32
0.0
 13
-0.0000077351
 23
0.8637396371
 33
0.0
 40
0.0
 40
0.0
 40
0.0
 40
0.0
 40
0.2302539168
 40
0.4899319161
 40
0.7543177587
 40
1.0
 40
1.0
 40
1.0
 40
1.0
 10
-59.4492566371
 20
5.7827069042
 30
0.0
 10
-59.5085464913
 20
5.8123631724
 30
0.0
 10
-59.6216763436
 20
5.9018081328
 30
0.0
 10
-59.7491579124
 20
6.0801896541
 30
0.0
 10
-59.8328233187
 20
6.2875096585
 30
0.0
 10
-59.8544787754
 20
6.4347049963
 30
0.0
 10
-59.8544794089
 20
6.5054401596
 30
0.0
 11
-59.4492566371
 21
5.7827069042
 31
0.0
 11
-59.6081829387
 21
5.902270528
 31
0.0
 11
-59.7406019963
 21
6.0833038751
 31
0.0
 11
-59.8257792267
 21
6.2951844355
 31
0.0
 11
-59.8544794089
 21
6.5054401596
 31
0.0
  0
SPLINE
  5
48E
100
AcDbEntity
  8
0
100
AcDbSpline
 62
7
  6
CONTINUOUS
 70
0
 71
3
 72
9
 73
5
 74
3
 42
0.0000001
 43
0.0000001
 44
0.0000000001
 12
-0.0818983254
 22
0.0180312812
 32
0.0
 13
-0.0758177286
 23
0.0358348272
 33
0.0
 40
0.0
 40
0.0
 40
0.0
 40
0.0
 40
0.242396937
 40
1.0
 40
1.0
 40
1.0
 40
1.0
 10
-1.2978857889
 20
-24.2128825154
 30
0.0
 10
-1.30450309
 20
-24.2114256063
 30
0.0
 10
-1.3315572992
 20
-24.2042973785
 30
0.0
 10
-1.3575847672
 20
-24.1936859687
 30
0.0
 10
-1.3767313484
 20
-24.1846364437
 30
0.0
 11
-1.2978857889
 21
-24.2128825154
 31
0.0
 11
-1.3175584774
 21
-24.2077652263
 31
0.0
 11
-1.3767313484
 21
-24.1846364437
 31
0.0
  0
SPLINE
  5
48F
100
AcDbEntity
  8
0
100
AcDbSpline
 62
7
  6
CONTINUOUS
 70
0
 71
3
 72
10
 73
6
 74
4
 42
0.0000001
 43
0.0000001
 44
0.0000000001
 12
-0.153865818
 22
-0.0769329323
 32
0.0
 13
-0.1555300209
 23
0.0735103982
 33
0.0
 40
0.0
 40
0.0
 40
0.0
 40
0.0
 40
0.4571693139
 40
0.7225206961
 40
1.0
 40
1.0
 40
1.0
 40
1.0
 10
-1.3516388192
 20
-24.2783704439
 30
0.0
 10
-1.3750863961
 20
-24.2900942359
 30
0.0
 10
-1.420247087
 20
-24.2899957732
 30
0.0
 10
-1.4748972193
 20
-24.2742560492
 30
0.0
 10
-1.5037672506
 20
-24.2621463266
 30
0.0
 10
-1.5181527046
 20
-24.2553471218
 30
0.0
 11
-1.3516388192
 21
-24.2783704439
 31
0.0
 11
-1.4299645496
 21
-24.2854560189
 31
0.0
 11
-1.4740442823
 21
-24.2735948976
 31
0.0
 11
-1.5181527046
 21
-24.2553471218
 31
0.0
  0
SPLINE
  5
490
100
AcDbEntity
  8
0
100
AcDbSpline
 62
7
  6
CONTINUOUS
 70
0
 71
3
 72
18
 73
14
 74
12
 42
0.0000001
 43
0.0000001
 44
0.0000000001
 12
0.9412005622
 22
0.4705990133
 32
0.0
 13
-0.7660299342
 23
0.7214707683
 33
0.0
 40
0.0
 40
0.0
 40
0.0
 40
0.0
 40
0.045794308
 40
0.09105793
 40
0.1389648729
 40
0.1905315939
 40
0.3034454709
 40
0.4295779146
 40
0.5663525134
 40
0.711467691
 40
0.8584344038
 40
0.9305901799
 40
1.0
 40
1.0
 40
1.0
 40
1.0
 10
-1.0124074604
 20
-24.4884718143
 30
0.0
 10
-0.9980402509
 20
-24.4812882289
 30
0.0
 10
-0.9699518738
 20
-24.4659116819
 30
0.0
 10
-0.9316229692
 20
-24.4351412381
 30
0.0
 10
-0.9007610796
 20
-24.3942705307
 30
0.0
 10
-0.8675029877
 20
-24.3272552479
 30
0.0
 10
-0.8447555779
 20
-24.2264848334
 30
0.0
 10
-0.8436971257
 20
-24.0940852682
 30
0.0
 10
-0.8656245061
 20
-23.9519373475
 30
0.0
 10
-0.9151376171
 20
-23.8090666091
 30
0.0
 10
-0.9769086181
 20
-23.6964712069
 30
0.0
 10
-1.0365229303
 20
-23.6145958145
 30
0.0
 10
-1.069670723
 20
-23.5773761776
 30
0.0
 10
-1.0873940564
 20
-23.5606837921
 30
0.0
 11
-1.0124074604
 21
-24.4884718143
 31
0.0
 11
-0.9705401214
 21
-24.4646115673
 31
0.0
 11
-0.9337283857
 21
-24.4343862091
 31
0.0
 11
-0.9028481457
 21
-24.3945390277
 31
0.0
 11
-0.8783755801
 21
-24.3461076035
 31
0.0
 11
-0.8498147749
 21
-24.2307727447
 31
0.0
 11
-0.8471495547
 21
-24.0980711368
 31
0.0
 11
-0.8692717999
 21
-23.9558544019
 31
0.0
 11
-0.9188269297
 21
-23.811415025
 31
0.0
 11
-0.9932451457
 21
-23.6758450681
 31
0.0
 11
-1.0381031071
 21
-23.614583447
 31
0.0
 11
-1.0873940564
 21
-23.5606837921
 31
0.0
  0
SPLINE
  5
491
100
AcDbEntity
  8
0
100
AcDbSpline
 62
7
  6
CONTINUOUS
 70
0
 71
3
 72
18
 73
14
 74
12
 42
0.0000001
 43
0.0000001
 44
0.0000000001
 12
0.941201632
 22
0.4705978307
 32
0.0
 13
-0.7660302457
 23
0.7214710618
 33
0.0
 40
0.0
 40
0.0
 40
0.0
 40
0.0
 40
0.0457943295
 40
0.0910579491
 40
0.1389648723
 40
0.1905315757
 40
0.3034454282
 40
0.4295778592
 40
0.5663524582
 40
0.7114676475
 40
0.8584343819
 40
0.9305901692
 40
1.0
 40
1.0
 40
1.0
 40
1.0
 10
-1.1538292019
 20
-24.559182685
 30
0.0
 10
-1.1394619693
 20
-24.5519991143
 30
0.0
 10
-1.1113735688
 20
-24.5366225709
 30
0.0
 10
-1.0730445882
 20
-24.5058521945
 30
0.0
 10
-1.0421826281
 20
-24.4649815281
 30
0.0
 10
-1.0089244563
 20
-24.3979662743
 30
0.0
 10
-0.9861769632
 20
-24.2971958508
 30
0.0
 10
-0.9851184576
 20
-24.1647962439
 30
0.0
 10
-1.0070457996
 20
-24.0226482579
 30
0.0
 10
-1.0565589015
 20
-23.8797774377
 30
0.0
 10
-1.1183299199
 20
-23.7671819667
 30
0.0
 10
-1.1779442596
 20
-23.6853065246
 30
0.0
 10
-1.2110920694
 20
-23.648086865
 30
0.0
 10
-1.2288154126
 20
-23.6313944703
 30
0.0
 11
-1.1538292019
 21
-24.559182685
 31
0.0
 11
-1.1119618013
 21
-24.5353224609
 31
0.0
 11
-1.0751500016
 21
-24.505097154
 31
0.0
 11
-1.044269699
 21
-24.4652500216
 31
0.0
 11
-1.0197970749
 21
-24.4168186229
 31
0.0
 11
-0.9912361725
 21
-24.301483765
 31
0.0
 11
-0.9885708906
 21
-24.1687821177
 31
0.0
 11
-1.0106930977
 21
-24.0265653173
 31
0.0
 11
-1.0602482174
 21
-23.8821258583
 31
0.0
 11
-1.1346664554
 21
-23.7465558159
 31
0.0
 11
-1.1795244377
 21
-23.6852941571
 31
0.0
 11
-1.2288154126
 21
-23.6313944703
 31
0.0
  0
SPLINE
  5
492
100
AcDbEntity
  8
RACCORDO
100
AcDbSpline
 62
7
  6
CONTINUOUS
 70
0
 71
3
 72
11
 73
7
 74
5
 42
0.0000001
 43
0.0000001
 44
0.0000000001
 12
-0.1169025421
 22
-0.1465739986
 32
0.0
 13
-0.1499488772
 23
0.1125409954
 33
0.0
 40
0.0
 40
0.0
 40
0.0
 40
0.0
 40
0.266332925
 40
0.5065046488
 40
0.7425896315
 40
1.0
 40
1.0
 40
1.0
 40
1.0
 10
52.5062567417
 20
-49.7037773264
 30
0.0
 10
52.4958784097
 20
-49.7167898203
 30
0.0
 10
52.4729614442
 20
-49.7394664
 30
0.0
 10
52.4287472907
 20
-49.7580483325
 30
0.0
 10
52.3814047279
 20
-49.7538297939
 30
0.0
 10
52.3538631255
 20
-49.7383592557
 30
0.0
 10
52.3409969936
 20
-49.7287028493
 30
0.0
 11
52.5062567417
 21
-49.7037773264
 31
0.0
 11
52.4697758109
 21
-49.7378721155
 31
0.0
 11
52.4278998142
 21
-49.7544234728
 31
0.0
 11
52.3837656124
 21
-49.751061227
 31
0.0
 11
52.3409969936
 21
-49.7287028493
 31
0.0
  0
SPLINE
  5
493
100
AcDbEntity
  8
RACCORDO
100
AcDbSpline
 62
7
  6
CONTINUOUS
 70
0
 71
3
 72
11
 73
7
 74
5
 42
0.0000001
 43
0.0000001
 44
0.0000000001
 12
0.4079950368
 22
0.1888863769
 32
0.0
 13
0.0027810966
 23
0.4495890112
 33
0.0
 40
0.0
 40
0.0
 40
0.0
 40
0.0
 40
0.2166761523
 40
0.4494780108
 40
0.7094272567
 40
1.0
 40
1.0
 40
1.0
 40
1.0
 10
54.4841478176
 20
-53.1661912166
 30
0.0
 10
54.5136154158
 20
-53.1525488255
 30
0.0
 10
54.5697236367
 20
-53.1121265749
 30
0.0
 10
54.6302171911
 20
-53.0226236553
 30
0.0
 10
54.6667961335
 20
-52.9098242301
 30
0.0
 10
54.6744088515
 20
-52.8270408084
 30
0.0
 10
54.6746782218
 20
-52.7834947043
 30
0.0
 11
54.4841478176
 21
-53.1661912166
 31
0.0
 11
54.5635787059
 21
-53.1097924434
 31
0.0
 11
54.6236596424
 21
-53.0240865776
 31
0.0
 11
54.6613316241
 21
-52.9134519666
 31
0.0
 11
54.6746782218
 21
-52.7834947043
 31
0.0
  0
SPLINE
  5
494
100
AcDbEntity
  8
RACCORDO
100
AcDbSpline
 62
7
  6
CONTINUOUS
 70
0
 71
3
 72
11
 73
7
 74
5
 42
0.0000001
 43
0.0000001
 44
0.0000000001
 12
-0.0000148491
 22
-0.1443860475
 32
0.0
 13
0.1291428057
 23
-0.0645714076
 33
0.0
 40
0.0
 40
0.0
 40
0.0
 40
0.0
 40
0.206582017
 40
0.4344785876
 40
0.6975252505
 40
1.0
 40
1.0
 40
1.0
 40
1.0
 10
-61.5898610795
 20
5.202477199
 30
0.0
 10
-61.589862102
 20
5.1925346787
 30
0.0
 10
-61.5854637688
 20
5.171464814
 30
0.0
 10
-61.5671356446
 20
5.1427105782
 30
0.0
 10
-61.5385528032
 20
5.1168956933
 30
0.0
 10
-61.5150139961
 20
5.1029215853
 30
0.0
 10
-61.5019931835
 20
5.0964111785
 30
0.0
 11
-61.5898610795
 21
5.202477199
 31
0.0
 11
-61.5840929635
 21
5.1732126772
 31
0.0
 11
-61.567027898
 21
5.1450785667
 31
0.0
 11
-61.5392882328
 21
5.1191360968
 31
0.0
 11
-61.5019931835
 21
5.0964111785
 31
0.0
  0
SPLINE
  5
495
100
AcDbEntity
  8
RACCORDO
100
AcDbSpline
 62
7
  6
CONTINUOUS
 70
0
 71
3
 72
11
 73
7
 74
5
 42
0.0000001
 43
0.0000001
 44
0.0000000001
 12
-0.0000143701
 22
-0.1443860402
 32
0.0
 13
0.1291428036
 23
-0.0645713953
 33
0.0
 40
0.0
 40
0.0
 40
0.0
 40
0.0
 40
0.2065819985
 40
0.434478562
 40
0.6975252468
 40
1.0
 40
1.0
 40
1.0
 40
1.0
 10
-61.5898610837
 20
49.4598633198
 30
0.0
 10
-61.5898620732
 20
49.4499208009
 30
0.0
 10
-61.5854637615
 20
49.4288509467
 30
0.0
 10
-61.5671356545
 20
49.4000966924
 30
0.0
 10
-61.5385527999
 20
49.3742818242
 30
0.0
 10
-61.515013996
 20
49.3603077127
 30
0.0
 10
-61.5019931835
 20
49.3537973071
 30
0.0
 11
-61.5898610837
 21
49.4598633198
 31
0.0
 11
-61.5840929531
 21
49.4305988052
 31
0.0
 11
-61.5670279037
 21
49.4024646881
 31
0.0
 11
-61.5392882322
 21
49.376522223
 31
0.0
 11
-61.5019931835
 21
49.3537973071
 31
0.0
  0
SPLINE
  5
496
100
AcDbEntity
  8
RACCORDO
100
AcDbSpline
 62
7
  6
CONTINUOUS
 70
0
 71
3
 72
11
 73
7
 74
5
 42
0.0000001
 43
0.0000001
 44
0.0000000001
 12
-0.1689815347
 22
0.0844616437
 32
0.0
 13
0.0000000046
 23
0.1889140766
 33
0.0
 40
0.0
 40
0.0
 40
0.0
 40
0.0
 40
0.2171654761
 40
0.450392866
 40
0.7103024545
 40
1.0
 40
1.0
 40
1.0
 40
1.0
 10
54.0493188753
 20
-53.1488757139
 30
0.0
 10
54.0370865568
 20
-53.1427616629
 30
0.0
 10
54.0139456564
 20
-53.125151529
 30
0.0
 10
53.9891377779
 20
-53.0871153473
 30
0.0
 10
53.974297865
 20
-53.0395999368
 30
0.0
 10
53.9713490417
 20
-53.004859984
 30
0.0
 10
53.9713490421
 20
-52.9866173359
 30
0.0
 11
54.0493188753
 21
-53.1488757139
 31
0.0
 11
54.0164937684
 21
-53.1242664987
 31
0.0
 11
53.9918311377
 21
-53.0877557784
 31
0.0
 11
53.976533072
 21
-53.0410992019
 31
0.0
 11
53.9713490421
 21
-52.9866173359
 31
0.0
  0
SPLINE
  5
497
100
AcDbEntity
  8
RACCORDO
100
AcDbSpline
 62
7
  6
CONTINUOUS
 70
0
 71
3
 72
11
 73
7
 74
5
 42
0.0000001
 43
0.0000001
 44
0.0000000001
 12
-0.1689813847
 22
0.0844619638
 32
0.0
 13
-0.0000000064
 23
0.1889140855
 33
0.0
 40
0.0
 40
0.0
 40
0.0
 40
0.0
 40
0.2171653099
 40
0.4503927527
 40
0.7103023951
 40
1.0
 40
1.0
 40
1.0
 40
1.0
 10
-61.1412237348
 20
4.4463955291
 30
0.0
 10
-61.153456033
 20
4.4525095986
 30
0.0
 10
-61.1765968721
 20
4.4701197853
 30
0.0
 10
-61.2014048218
 20
4.5081559096
 30
0.0
 10
-61.2162447134
 20
4.5556713506
 30
0.0
 10
-61.2191935487
 20
4.5904113071
 30
0.0
 10
-61.2191935493
 20
4.6086539598
 30
0.0
 11
-61.1412237348
 21
4.4463955291
 31
0.0
 11
-61.1740487768
 21
4.4710047818
 31
0.0
 11
-61.198711444
 21
4.507515492
 31
0.0
 11
-61.2140095133
 21
4.5541720805
 31
0.0
 11
-61.2191935493
 21
4.6086539598
 31
0.0
  0
SPLINE
  5
498
100
AcDbEntity
  8
RACCORDO
100
AcDbSpline
 62
7
  6
CONTINUOUS
 70
0
 71
3
 72
9
 73
5
 74
3
 42
0.0000001
 43
0.0000001
 44
0.0000000001
 12
-0.1260316343
 22
-0.0657101216
 32
0.0
 13
-0.1032641788
 23
-0.0976642324
 33
0.0
 40
0.0
 40
0.0
 40
0.0
 40
0.0
 40
0.2371046482
 40
1.0
 40
1.0
 40
1.0
 40
1.0
 10
-57.6574352236
 20
7.2759955407
 30
0.0
 10
-57.667396119
 20
7.270802149
 30
0.0
 10
-57.7085108375
 20
7.24718866
 30
0.0
 10
-57.7459273268
 20
7.2174074805
 30
0.0
 10
-57.7721872474
 20
7.1925716175
 30
0.0
 11
-57.6574352236
 21
7.2759955407
 31
0.0
 11
-57.6866851914
 21
7.259257674
 31
0.0
 11
-57.7721872474
 21
7.1925716175
 31
0.0
  0
SPLINE
  5
499
100
AcDbEntity
  8
RACCORDO
100
AcDbSpline
 62
7
  6
CONTINUOUS
 70
0
 71
3
 72
9
 73
5
 74
3
 42
0.0000001
 43
0.0000001
 44
0.0000000001
 12
-0.1370525478
 22
-0.0578461103
 32
0.0
 13
-0.1164649463
 23
-0.0925499304
 33
0.0
 40
0.0
 40
0.0
 40
0.0
 40
0.0
 40
0.2394545677
 40
1.0
 40
1.0
 40
1.0
 40
1.0
 10
-57.6641597041
 20
7.2803614495
 30
0.0
 10
-57.6750989903
 20
7.2757442777
 30
0.0
 10
-57.7200280989
 20
7.2546871513
 30
0.0
 10
-57.7617657245
 20
7.2270847116
 30
0.0
 10
-57.7912913521
 20
7.2036219026
 30
0.0
 11
-57.6641597041
 21
7.2803614495
 31
0.0
 11
-57.696432956
 21
7.2652845291
 31
0.0
 11
-57.7912913521
 21
7.2036219026
 31
0.0
  0
SPLINE
  5
49A
100
AcDbEntity
  8
RACCORDO
100
AcDbSpline
 62
7
  6
CONTINUOUS
 70
0
 71
3
 72
9
 73
5
 74
3
 42
0.0000001
 43
0.0000001
 44
0.0000000001
 12
-0.0583436283
 22
-0.0361513484
 32
0.0
 13
-0.062114807
 23
-0.0292001664
 33
0.0
 40
0.0
 40
0.0
 40
0.0
 40
0.0
 40
0.2435094818
 40
1.0
 40
1.0
 40
1.0
 40
1.0
 10
-57.9009246821
 20
7.6213595612
 30
0.0
 10
-57.9056604243
 20
7.6184251625
 30
0.0
 10
-57.9252959167
 20
7.6066788318
 30
0.0
 10
-57.9456367256
 20
7.5961226672
 30
0.0
 10
-57.9612998131
 20
7.5887594508
 30
0.0
 11
-57.9009246821
 21
7.6213595612
 31
0.0
 11
-57.9152651045
 21
7.6127750498
 31
0.0
 11
-57.9612998131
 21
7.5887594508
 31
0.0
  0
SPLINE
  5
49B
100
AcDbEntity
  8
RACCORDO
100
AcDbSpline
 62
7
  6
CONTINUOUS
 70
0
 71
3
 72
9
 73
5
 74
3
 42
0.0000001
 43
0.0000001
 44
0.0000000001
 12
-0.0589857491
 22
-0.0284808424
 32
0.0
 13
-0.0618223297
 23
-0.0216443185
 33
0.0
 40
0.0
 40
0.0
 40
0.0
 40
0.0
 40
0.2421760494
 40
1.0
 40
1.0
 40
1.0
 40
1.0
 10
-57.9014164137
 20
7.6257497991
 30
0.0
 10
-57.9061780589
 20
7.6234506732
 30
0.0
 10
-57.9259872949
 20
7.6142634616
 30
0.0
 10
-57.9463405667
 20
7.6062642658
 30
0.0
 10
-57.9619573807
 20
7.6007967382
 30
0.0
 11
-57.9014164137
 21
7.6257497991
 31
0.0
 11
-57.9158046112
 21
7.6190705042
 31
0.0
 11
-57.9619573807
 21
7.6007967382
 31
0.0
  0
SPLINE
  5
49C
100
AcDbEntity
  8
0
100
AcDbSpline
 62
7
  6
CONTINUOUS
 70
0
 71
3
 72
9
 73
5
 74
3
 42
0.0000001
 43
0.0000001
 44
0.0000000001
 12
-0.1087199623
 22
0.5446236221
 32
0.0
 13
-0.1090135263
 23
0.5445649374
 33
0.0
 40
0.0
 40
0.0
 40
0.0
 40
0.0
 40
0.4998343578
 40
1.0
 40
1.0
 40
1.0
 40
1.0
 10
-0.7708332718
 20
-25.4970725446
 30
0.0
 10
-0.7889472626
 20
-25.4063320118
 30
0.0
 10
-0.8233486302
 20
-25.2244300677
 30
0.0
 10
-0.8586128329
 20
-25.0426952738
 30
0.0
 10
-0.8767877731
 20
-24.9519043832
 30
0.0
 11
-0.7708332718
 21
-25.4970725446
 31
0.0
 11
-0.8235527994
 21
-25.2245320888
 31
0.0
 11
-0.8767877731
 21
-24.9519043832
 31
0.0
  0
SPLINE
  5
49D
100
AcDbEntity
  8
0
100
AcDbSpline
 62
7
  6
CONTINUOUS
 70
0
 71
3
 72
10
 73
6
 74
4
 42
0.0000001
 43
0.0000001
 44
0.0000000001
 12
-0.0793562898
 22
0.3964346221
 32
0.0
 13
-0.2185962821
 23
0.3401080649
 33
0.0
 40
0.0
 40
0.0
 40
0.0
 40
0.0
 40
0.2354570791
 40
0.6163653634
 40
1.0
 40
1.0
 40
1.0
 40
1.0
 10
-0.8767877731
 20
-24.9519043832
 30
0.0
 10
-0.8830161065
 20
-24.9207899372
 30
0.0
 10
-0.8987138189
 20
-24.8391949098
 30
0.0
 10
-0.9339977414
 20
-24.7089945304
 30
0.0
 10
-0.9761851153
 20
-24.6137723331
 30
0.0
 10
-1.004138817
 20
-24.5702799218
 30
0.0
 11
-0.8767877731
 21
-24.9519043832
 31
0.0
 11
-0.8958923319
 21
-24.8586460118
 31
0.0
 11
-0.9376772968
 21
-24.7104222062
 31
0.0
 11
-1.004138817
 21
-24.5702799218
 31
0.0
  0
SPLINE
  5
49E
100
AcDbEntity
  8
0
100
AcDbSpline
 62
7
  6
CONTINUOUS
 70
0
 71
3
 72
9
 73
5
 74
3
 42
0.0000001
 43
0.0000001
 44
0.0000000001
 12
-0.0425128246
 22
0.0661445582
 32
0.0
 13
-0.0552311846
 23
0.0559639087
 33
0.0
 40
0.0
 40
0.0
 40
0.0
 40
0.0
 40
0.2563966586
 40
1.0
 40
1.0
 40
1.0
 40
1.0
 10
-1.004138817
 20
-24.5702799218
 30
0.0
 10
-1.0077721991
 20
-24.5646268405
 30
0.0
 10
-1.0224057805
 20
-24.5428872018
 30
0.0
 10
-1.039075083
 20
-24.5224571542
 30
0.0
 10
-1.0527651141
 20
-24.5085855044
 30
0.0
 11
-1.004138817
 21
-24.5702799218
 31
0.0
 11
-1.0154100286
 21
-24.5535649906
 31
0.0
 11
-1.0527651141
 21
-24.5085855044
 31
0.0
  0
SPLINE
  5
49F
100
AcDbEntity
  8
0
100
AcDbSpline
 62
7
  6
CONTINUOUS
 70
0
 71
3
 72
11
 73
7
 74
5
 42
0.0000001
 43
0.0000001
 44
0.0000000001
 12
-0.6333494509
 22
0.5969143223
 32
0.0
 13
-0.8289470693
 23
0.2651131674
 33
0.0
 40
0.0
 40
0.0
 40
0.0
 40
0.0
 40
0.2725542141
 40
0.5262218346
 40
0.7671916502
 40
1.0
 40
1.0
 40
1.0
 40
1.0
 10
-1.0873940564
 20
-23.5606837921
 30
0.0
 10
-1.1449347436
 20
-23.5064532875
 30
0.0
 10
-1.2681731751
 20
-23.4145558225
 30
0.0
 10
-1.4634104644
 20
-23.3070153903
 30
0.0
 10
-1.6577775555
 20
-23.2240480004
 30
0.0
 10
-1.7879398225
 20
-23.1796741438
 30
0.0
 10
-1.8522684223
 20
-23.1591006241
 30
0.0
 11
-1.0873940564
 21
-23.5606837921
 31
0.0
 11
-1.2754603733
 21
-23.4161225062
 31
0.0
 11
-1.468295034
 21
-23.3086335766
 31
0.0
 11
-1.6608824974
 21
-23.2256165913
 31
0.0
 11
-1.8522684223
 21
-23.1591006241
 31
0.0
  0
SPLINE
  5
4A0
100
AcDbEntity
  8
RACCORDO
100
AcDbSpline
 62
7
  6
CONTINUOUS
 70
0
 71
3
 72
11
 73
7
 74
5
 42
0.0000001
 43
0.0000001
 44
0.0000000001
 12
-0.1291421879
 22
0.0645710939
 32
0.0
 13
-0.0000855061
 23
0.1443853301
 33
0.0
 40
0.0
 40
0.0
 40
0.0
 40
0.0
 40
0.3024155031
 40
0.5655309297
 40
0.7934236663
 40
1.0
 40
1.0
 40
1.0
 40
1.0
 10
52.6066349017
 20
-9.9333026039
 30
0.0
 10
52.5936167018
 20
-9.9267935039
 30
0.0
 10
52.5700797736
 20
-9.9128154429
 30
0.0
 10
52.5414939706
 20
-9.8870063854
 30
0.0
 10
52.5231573547
 20
-9.8582493422
 30
0.0
 10
52.518776915
 20
-9.8371787835
 30
0.0
 10
52.5187710272
 20
-9.8272365861
 30
0.0
 11
52.6066349017
 21
-9.9333026039
 31
0.0
 11
52.5693482479
 21
-9.9105807501
 31
0.0
 11
52.5415986044
 21
-9.8846346814
 31
0.0
 11
52.5245339618
 21
-9.8565011465
 31
0.0
 11
52.5187710272
 21
-9.8272365861
 31
0.0
  0
SPLINE
  5
4A1
100
AcDbEntity
  8
RACCORDO
100
AcDbSpline
 62
7
  6
CONTINUOUS
 70
0
 71
3
 72
11
 73
7
 74
5
 42
0.0000001
 43
0.0000001
 44
0.0000000001
 12
0.0000001773
 22
-0.1889139979
 32
0.0
 13
0.1689716344
 23
-0.0844812721
 33
0.0
 40
0.0
 40
0.0
 40
0.0
 40
0.0
 40
0.2895956949
 40
0.5496519097
 40
0.7828349621
 40
1.0
 40
1.0
 40
1.0
 40
1.0
 10
52.20141213
 20
-9.2105693485
 30
0.0
 10
52.2014121471
 20
-9.2288055753
 30
0.0
 10
52.2043699186
 20
-9.263547066
 30
0.0
 10
52.2192010347
 20
-9.3110646866
 30
0.0
 10
52.2440095673
 20
-9.3491088522
 30
0.0
 10
52.2671480718
 20
-9.3667170631
 30
0.0
 10
52.2793796489
 20
-9.3728325226
 30
0.0
 11
52.20141213
 21
-9.2105693485
 31
0.0
 11
52.206598499
 21
-9.2650316409
 31
0.0
 11
52.2219007089
 21
-9.3117159876
 31
0.0
 11
52.2465559905
 21
-9.348221542
 31
0.0
 11
52.2793796489
 21
-9.3728325226
 31
0.0
  0
SPLINE
  5
4A2
100
AcDbEntity
  8
RACCORDO
100
AcDbSpline
 62
7
  6
CONTINUOUS
 70
0
 71
3
 72
11
 73
7
 74
5
 42
0.0000001
 43
0.0000001
 44
0.0000000001
 12
0.0
 22
-0.1889072127
 32
0.0
 13
0.1689603998
 23
-0.0844885691
 33
0.0
 40
0.0
 40
0.0
 40
0.0
 40
0.0
 40
0.2895944377
 40
0.5496508871
 40
0.7828349153
 40
1.0
 40
1.0
 40
1.0
 40
1.0
 10
-59.4492566371
 20
46.6147650351
 30
0.0
 10
-59.4492566371
 20
46.5965295424
 30
0.0
 10
-59.4462991172
 20
46.5617893741
 30
0.0
 10
-59.4314692438
 20
46.5142732967
 30
0.0
 10
-59.4066627934
 20
46.4762297316
 30
0.0
 10
-59.3835260619
 20
46.4586209386
 30
0.0
 10
-59.3712952953
 20
46.4525049495
 30
0.0
 11
-59.4492566371
 21
46.6147650351
 31
0.0
 11
-59.4440707459
 21
46.5603049095
 31
0.0
 11
-59.4287698206
 21
46.5136219521
 31
0.0
 11
-59.4041165017
 21
46.4771167589
 31
0.0
 11
-59.3712952953
 21
46.4525049495
 31
0.0
  0
SPLINE
  5
4A3
100
AcDbEntity
  8
RACCORDO
100
AcDbSpline
 62
7
  6
CONTINUOUS
 70
0
 71
3
 72
11
 73
7
 74
5
 42
0.0000001
 43
0.0000001
 44
0.0000000001
 12
0.3513444201
 22
-0.1756719836
 32
0.0
 13
0.3707496947
 23
0.1298006597
 33
0.0
 40
0.0
 40
0.0
 40
0.0
 40
0.0
 40
0.2302219959
 40
0.4886887336
 40
0.7531431025
 40
1.0
 40
1.0
 40
1.0
 40
1.0
 10
-59.8544794089
 20
46.2972545514
 30
0.0
 10
-59.8275170043
 20
46.2837733665
 30
0.0
 10
-59.7660919936
 20
46.2635083918
 30
0.0
 10
-59.6678328416
 20
46.2509711334
 30
0.0
 10
-59.5666762285
 20
46.2551788289
 30
0.0
 10
-59.5007818168
 20
46.2697670326
 30
0.0
 10
-59.4702744436
 20
46.280447762
 30
0.0
 11
-59.8544794089
 21
46.2972545514
 31
0.0
 11
-59.7691246223
 21
46.2673717328
 31
0.0
 11
-59.6684933365
 21
46.2538957837
 31
0.0
 11
-59.5647107116
 21
46.2584297818
 31
0.0
 11
-59.4702744436
 21
46.280447762
 31
0.0
  0
SPLINE
  5
4A4
100
AcDbEntity
  8
RACCORDO
100
AcDbSpline
 62
7
  6
CONTINUOUS
 70
0
 71
3
 72
11
 73
7
 74
5
 42
0.0000001
 43
0.0000001
 44
0.0000000001
 12
0.3513443496
 22
-0.1756721748
 32
0.0
 13
0.3707496516
 23
0.1298008504
 33
0.0
 40
0.0
 40
0.0
 40
0.0
 40
0.0
 40
0.2302220207
 40
0.4886887503
 40
0.7531431026
 40
1.0
 40
1.0
 40
1.0
 40
1.0
 10
-59.8544794089
 20
6.5054401596
 30
0.0
 10
-59.8275170069
 20
6.4919589586
 30
0.0
 10
-59.7660919965
 20
6.4716939589
 30
0.0
 10
-59.667832839
 20
6.4591566885
 30
0.0
 10
-59.5666762226
 20
6.4633643971
 30
0.0
 10
-59.5007818132
 20
6.477952625
 30
0.0
 10
-59.4702744436
 20
6.4886333701
 30
0.0
 11
-59.8544794089
 21
6.5054401596
 31
0.0
 11
-59.7691246194
 21
6.4755573041
 31
0.0
 11
-59.6684933326
 21
6.4620813429
 31
0.0
 11
-59.5647107089
 21
6.4666153541
 31
0.0
 11
-59.4702744436
 21
6.4886333701
 31
0.0
  0
SPLINE
  5
4A5
100
AcDbEntity
  8
RACCORDO
100
AcDbSpline
 62
7
  6
CONTINUOUS
 70
0
 71
3
 72
9
 73
5
 74
3
 42
0.0000001
 43
0.0000001
 44
0.0000000001
 12
-0.0000003285
 22
0.3499495217
 32
0.0
 13
0.2542497459
 23
0.240461503
 33
0.0
 40
0.0
 40
0.0
 40
0.0
 40
0.0
 40
0.4929880511
 40
1.0
 40
1.0
 40
1.0
 40
1.0
 10
-59.4492566371
 20
5.7827069042
 30
0.0
 10
-59.4492566911
 20
5.8402138818
 30
0.0
 10
-59.4194829652
 20
5.9567391862
 30
0.0
 10
-59.3526472513
 20
6.0559965596
 30
0.0
 10
-59.3096780315
 20
6.0966355114
 30
0.0
 11
-59.4492566371
 21
5.7827069042
 31
0.0
 11
-59.4108930664
 21
5.9509082973
 31
0.0
 11
-59.3096780315
 21
6.0966355114
 31
0.0
  0
SPLINE
  5
4A6
100
AcDbEntity
  8
RACCORDO
100
AcDbSpline
 62
7
  6
CONTINUOUS
 70
0
 71
3
 72
9
 73
5
 74
3
 42
0.0000001
 43
0.0000001
 44
0.0000000001
 12
0.0
 22
0.3499494896
 32
0.0
 13
0.2542494972
 23
0.2404617193
 33
0.0
 40
0.0
 40
0.0
 40
0.0
 40
0.0
 40
0.4929880284
 40
1.0
 40
1.0
 40
1.0
 40
1.0
 10
52.20141213
 20
-50.0426274794
 30
0.0
 10
52.20141213
 20
-49.9851205097
 30
0.0
 10
52.2311859071
 20
-49.8685952474
 30
0.0
 10
52.2980215559
 20
-49.7693378623
 30
0.0
 10
52.3409907355
 20
-49.7286988722
 30
0.0
 11
52.20141213
 21
-50.0426274794
 31
0.0
 11
52.2397757747
 21
-49.8744261275
 31
0.0
 11
52.3409907355
 21
-49.7286988722
 31
0.0
  0
SPLINE
  5
4A7
100
AcDbEntity
  8
RACCORDO
100
AcDbSpline
 62
7
  6
CONTINUOUS
 70
0
 71
3
 72
11
 73
7
 74
5
 42
0.0000001
 43
0.0000001
 44
0.0000000001
 12
-0.1290908108
 22
0.0645453496
 32
0.0
 13
-0.00019756
 23
0.144327754
 33
0.0
 40
0.0
 40
0.0
 40
0.0
 40
0.0
 40
0.3023961853
 40
0.5655155062
 40
0.7934233996
 40
1.0
 40
1.0
 40
1.0
 40
1.0
 10
52.6066349017
 20
-49.7251169957
 30
0.0
 10
52.5936227121
 20
-49.7186109066
 30
0.0
 10
52.570095497
 20
-49.704639613
 30
0.0
 10
52.5415174719
 20
-49.6788455007
 30
0.0
 10
52.5231776036
 20
-49.6501066539
 30
0.0
 10
52.518784688
 20
-49.6290475358
 30
0.0
 10
52.5187710843
 20
-49.6191092903
 30
0.0
 11
52.6066349017
 21
-49.7251169957
 31
0.0
 11
52.5693644659
 21
-49.7024072824
 31
0.0
 11
52.5416209084
 21
-49.6764760215
 31
0.0
 11
52.5245510046
 21
-49.6483584392
 31
0.0
 11
52.5187710843
 21
-49.6191092903
 31
0.0
  0
SPLINE
  5
4A8
100
AcDbEntity
  8
RACCORDO
100
AcDbSpline
 62
7
  6
CONTINUOUS
 70
0
 71
3
 72
13
 73
9
 74
7
 42
0.0000001
 43
0.0000001
 44
0.0000000001
 12
-0.0675117516
 22
0.2266720263
 32
0.0
 13
0.2364132799
 23
-0.0068414324
 33
0.0
 40
0.0
 40
0.0
 40
0.0
 40
0.0
 40
0.2946322964
 40
0.424786959
 40
0.5434979225
 40
0.6533859179
 40
0.7606377002
 40
1.0
 40
1.0
 40
1.0
 40
1.0
 10
-59.4702743993
 20
46.2804475939
 30
0.0
 10
-59.4769047801
 20
46.3027092271
 30
0.0
 10
-59.483916711
 20
46.3359057797
 30
0.0
 10
-59.4831240728
 20
46.3789320302
 30
0.0
 10
-59.4770016111
 20
46.4067998313
 30
0.0
 10
-59.4644790121
 20
46.4305980126
 30
0.0
 10
-59.4375038127
 20
46.4555671738
 30
0.0
 10
-59.4083108213
 20
46.460877562
 30
0.0
 10
-59.3894480125
 20
46.4603317017
 30
0.0
 11
-59.4702743993
 21
46.2804475939
 31
0.0
 11
-59.4829603902
 21
46.3489672699
 31
0.0
 11
-59.4820449822
 21
46.379736828
 31
0.0
 11
-59.4756045324
 21
46.4070647607
 31
0.0
 11
-59.4631681258
 21
46.4298859889
 31
0.0
 11
-59.4444763114
 21
46.4470344089
 31
0.0
 11
-59.3894480125
 21
46.4603317017
 31
0.0
  0
SPLINE
  5
4A9
100
AcDbEntity
  8
RACCORDO
100
AcDbSpline
 62
7
  6
CONTINUOUS
 70
0
 71
3
 72
12
 73
8
 74
6
 42
0.0000001
 43
0.0000001
 44
0.0000000001
 12
-0.4414968034
 22
0.1386983573
 32
0.0
 13
0.110733468
 23
0.4493270087
 33
0.0
 40
0.0
 40
0.0
 40
0.0
 40
0.0
 40
0.1130788011
 40
0.2327128814
 40
0.4870650354
 40
0.7477061619
 40
1.0
 40
1.0
 40
1.0
 40
1.0
 10
-59.3096686398
 20
6.0966318843
 30
0.0
 10
-59.3263099496
 20
6.1018598323
 30
0.0
 10
-59.3592960726
 20
6.1171511567
 30
0.0
 10
-59.4179453192
 20
6.165221503
 30
0.0
 10
-59.4687389058
 20
6.2527270244
 30
0.0
 10
-59.4886768075
 20
6.3711697492
 30
0.0
 10
-59.4795868527
 20
6.450846108
 30
0.0
 10
-59.4702743955
 20
6.4886335865
 30
0.0
 11
-59.3096686398
 21
6.0966318843
 31
0.0
 11
-59.3571947404
 21
6.1185328302
 31
0.0
 11
-59.4001782313
 21
6.1534254759
 31
0.0
 11
-59.4614453876
 21
6.2539302255
 31
0.0
 11
-59.4831051786
 21
6.3725865722
 31
0.0
 11
-59.4702743955
 21
6.4886335865
 31
0.0
  0
SPLINE
  5
4AA
100
AcDbEntity
  8
RACCORDO
100
AcDbSpline
 62
7
  6
CONTINUOUS
 70
0
 71
3
 72
11
 73
7
 74
5
 42
0.0000001
 43
0.0000001
 44
0.0000000001
 12
-0.0842364438
 22
-0.4358691232
 32
0.0
 13
0.392815761
 23
-0.206817429
 33
0.0
 40
0.0
 40
0.0
 40
0.0
 40
0.0
 40
0.2513544077
 40
0.4490547015
 40
0.6471862803
 40
1.0
 40
1.0
 40
1.0
 40
1.0
 10
-57.9612995172
 20
7.5887592397
 30
0.0
 10
-57.968357251
 20
7.5522400312
 30
0.0
 10
-57.9681922268
 20
7.4843485462
 30
0.0
 10
-57.9446890376
 20
7.3908832747
 30
0.0
 10
-57.8966634459
 20
7.290849659
 30
0.0
 10
-57.8374957886
 20
7.227949764
 30
0.0
 10
-57.7912988587
 20
7.2036270885
 30
0.0
 11
-57.9612995172
 21
7.5887592397
 31
0.0
 11
-57.9631147971
 21
7.4771891609
 31
0.0
 11
-57.9419563018
 21
7.392011823
 31
0.0
 11
-57.9035051363
 21
7.3129042186
 31
0.0
 11
-57.7912988587
 21
7.2036270885
 31
0.0
  0
SPLINE
  5
4AB
100
AcDbEntity
  8
RACCORDO
100
AcDbSpline
 62
7
  6
CONTINUOUS
 70
0
 71
3
 72
12
 73
8
 74
6
 42
0.0000001
 43
0.0000001
 44
0.0000000001
 12
0.1085217983
 22
-0.4044988893
 32
0.0
 13
0.3126372022
 23
-0.2786652328
 33
0.0
 40
0.0
 40
0.0
 40
0.0
 40
0.0
 40
0.1121992588
 40
0.2350803539
 40
0.5040553405
 40
0.7738486873
 40
1.0
 40
1.0
 40
1.0
 40
1.0
 10
-57.900924319
 20
7.6213593813
 30
0.0
 10
-57.8968656306
 20
7.6062312227
 30
0.0
 10
-57.8849094154
 20
7.5754900314
 30
0.0
 10
-57.852678424
 20
7.5129048231
 30
0.0
 10
-57.8020431933
 20
7.4353515841
 30
0.0
 10
-57.7356743505
 20
7.3515987173
 30
0.0
 10
-57.6877274778
 20
7.3013681161
 30
0.0
 10
-57.6641597065
 20
7.28036128
 30
0.0
 11
-57.900924319
 21
7.6213593813
 31
0.0
 11
-57.8847520807
 21
7.5772406109
 31
0.0
 11
-57.8615351916
 21
7.531312197
 31
0.0
 11
-57.8007311668
 21
7.4364841193
 31
0.0
 11
-57.7304329441
 21
7.3480251626
 31
0.0
 11
-57.6641597065
 21
7.28036128
 31
0.0
  0
SPLINE
  5
4AC
100
AcDbEntity
  8
RACCORDO
100
AcDbSpline
 62
7
  6
CONTINUOUS
 70
0
 71
3
 72
8
 73
4
 74
2
 42
0.0000001
 43
0.0000001
 44
0.0000000001
 12
0.0059833559
 22
-0.0053364598
 32
0.0
 13
0.0072501747
 23
-0.0034224724
 33
0.0
 40
0.0
 40
0.0
 40
0.0
 40
0.0
 40
1.0
 40
1.0
 40
1.0
 40
1.0
 10
-57.6641597065
 20
7.28036128
 30
0.0
 10
-57.6621652546
 20
7.2785824601
 30
0.0
 10
-57.6598519485
 20
7.2771363648
 30
0.0
 10
-57.6574352236
 20
7.2759955407
 30
0.0
 11
-57.6641597065
 21
7.28036128
 31
0.0
 11
-57.6574352236
 21
7.2759955407
 31
0.0
  0
SPLINE
  5
4AD
100
AcDbEntity
  8
RACCORDO
100
AcDbSpline
 62
7
  6
CONTINUOUS
 70
0
 71
3
 72
8
 73
4
 74
2
 42
0.0000001
 43
0.0000001
 44
0.0000000001
 12
-0.0001031589
 22
-0.0044167052
 32
0.0
 13
0.001129886
 23
-0.0042709816
 33
0.0
 40
0.0
 40
0.0
 40
0.0
 40
0.0
 40
1.0
 40
1.0
 40
1.0
 40
1.0
 10
-57.9014164137
 20
7.6257497991
 30
0.0
 10
-57.9014508
 20
7.6242775641
 30
0.0
 10
-57.9013009477
 20
7.6227830418
 30
0.0
 10
-57.900924319
 20
7.6213593813
 30
0.0
 11
-57.9014164137
 21
7.6257497991
 31
0.0
 11
-57.900924319
 21
7.6213593813
 31
0.0
  0
SPLINE
  5
4AE
100
AcDbEntity
  8
RACCORDO
100
AcDbSpline
 62
7
  6
CONTINUOUS
 70
0
 71
3
 72
11
 73
7
 74
5
 42
0.0000001
 43
0.0000001
 44
0.0000000001
 12
-0.0064027649
 22
1.0264962597
 32
0.0
 13
-0.9153126615
 23
0.4646916164
 33
0.0
 40
0.0
 40
0.0
 40
0.0
 40
0.0
 40
0.246670931
 40
0.5119111179
 40
0.7706382137
 40
1.0
 40
1.0
 40
1.0
 40
1.0
 10
54.6746782218
 20
-8.5261085757
 30
0.0
 10
54.6741517631
 20
-8.441706313
 30
0.0
 10
54.6441398233
 20
-8.2664474947
 30
0.0
 10
54.538191383
 20
-8.0226171361
 30
0.0
 10
54.3834482197
 20
-7.8137699815
 30
0.0
 10
54.2497581111
 20
-7.7080609428
 30
0.0
 10
54.179778862
 20
-7.672533443
 30
0.0
 11
54.6746782218
 21
-8.5261085757
 31
0.0
 11
54.6358557579
 21
-8.2758906941
 31
0.0
 11
54.5281749511
 21
-8.0258154568
 31
0.0
 11
54.3680226665
 21
-7.8139475756
 31
0.0
 11
54.179778862
 21
-7.672533443
 31
0.0
  0
SPLINE
  5
4AF
100
AcDbEntity
  8
RACCORDO
100
AcDbSpline
 62
7
  6
CONTINUOUS
 70
0
 71
3
 72
11
 73
7
 74
5
 42
0.0000001
 43
0.0000001
 44
0.0000000001
 12
-0.299681524
 22
0.1475650771
 32
0.0
 13
-0.2939897456
 23
-0.1586016938
 33
0.0
 40
0.0
 40
0.0
 40
0.0
 40
0.0
 40
0.2798231701
 40
0.5359571054
 40
0.7731397735
 40
1.0
 40
1.0
 40
1.0
 40
1.0
 10
-61.0107637294
 20
49.9227378527
 30
0.0
 10
-61.0387163408
 20
49.9365018952
 30
0.0
 10
-61.0945766177
 20
49.958596208
 30
0.0
 10
-61.1800591691
 20
49.9735810567
 30
0.0
 10
-61.2609371833
 20
49.9679888372
 30
0.0
 10
-61.3102843427
 20
49.9500505659
 30
0.0
 10
-61.3325158695
 20
49.9380570938
 30
0.0
 11
-61.0107637294
 21
49.9227378527
 31
0.0
 11
-61.0979719075
 21
49.9563817201
 31
0.0
 11
-61.1823855942
 21
49.9703381907
 31
0.0
 11
-61.2613737534
 21
49.9641637349
 31
0.0
 11
-61.3325158695
 21
49.9380570938
 31
0.0
  0
SPLINE
  5
4B0
100
AcDbEntity
  8
RACCORDO
100
AcDbSpline
 62
7
  6
CONTINUOUS
 70
0
 71
3
 72
11
 73
7
 74
5
 42
0.0000001
 43
0.0000001
 44
0.0000000001
 12
-0.3862036919
 22
-0.2022094734
 32
0.0
 13
0.0000000146
 23
-0.4359380263
 33
0.0
 40
0.0
 40
0.0
 40
0.0
 40
0.0
 40
0.2308407491
 40
0.4894506686
 40
0.7538191199
 40
1.0
 40
1.0
 40
1.0
 40
1.0
 10
54.1793972267
 20
-7.6727328399
 30
0.0
 10
54.1496800435
 20
-7.6882922353
 30
0.0
 10
54.0931118759
 20
-7.7336866831
 30
0.0
 10
54.027836388
 20
-7.8228032239
 30
0.0
 10
53.9835456134
 20
-7.9264263763
 30
0.0
 10
53.9713490409
 20
-8.0007432017
 30
0.0
 10
53.9713490421
 20
-8.0365164041
 30
0.0
 11
54.1793972267
 21
-7.6727328399
 31
0.0
 11
54.0994765945
 21
-7.7338846544
 31
0.0
 11
54.0320448285
 21
-7.8242328174
 31
0.0
 11
53.9871108213
 21
-7.9303605547
 31
0.0
 11
53.9713490421
 21
-8.0365164041
 31
0.0
  0
SPLINE
  5
4B1
100
AcDbEntity
  8
RACCORDO
100
AcDbSpline
 62
7
  6
CONTINUOUS
 70
0
 71
3
 72
11
 73
7
 74
5
 42
0.0000001
 43
0.0000001
 44
0.0000000001
 12
-0.3869302045
 22
-0.2017369093
 32
0.0
 13
-0.0000000106
 23
-0.43636311
 33
0.0
 40
0.0
 40
0.0
 40
0.0
 40
0.0
 40
0.2307390512
 40
0.4893391875
 40
0.7537623063
 40
1.0
 40
1.0
 40
1.0
 40
1.0
 10
-61.0107637292
 20
49.9227378526
 30
0.0
 10
-61.0405236986
 20
49.9072216582
 30
0.0
 10
-61.0971917126
 20
49.861853871
 30
0.0
 10
-61.1625858374
 20
49.7726984996
 30
0.0
 10
-61.2069683909
 20
49.6689767783
 30
0.0
 10
-61.2191935484
 20
49.5945712402
 30
0.0
 10
-61.2191935493
 20
49.5587548916
 30
0.0
 11
-61.0107637292
 21
49.9227378526
 31
0.0
 11
-61.0908047836
 21
49.8616551037
 31
0.0
 11
-61.158364783
 21
49.7712708382
 31
0.0
 11
-61.2033958472
 21
49.6650362637
 31
0.0
 11
-61.2191935493
 21
49.5587548916
 31
0.0
  0
SPLINE
  5
4B2
100
AcDbEntity
  8
RACCORDO
100
AcDbSpline
 62
7
  6
CONTINUOUS
 70
0
 71
3
 72
11
 73
7
 74
5
 42
0.0000001
 43
0.0000001
 44
0.0000000001
 12
-0.3888888757
 22
-0.1877728259
 32
0.0
 13
-0.3862571023
 23
0.1931285652
 33
0.0
 40
0.0
 40
0.0
 40
0.0
 40
0.0
 40
0.236631889
 40
0.5012536727
 40
0.7652017156
 40
1.0
 40
1.0
 40
1.0
 40
1.0
 10
54.6746782218
 20
-8.526108576
 30
0.0
 10
54.6440037187
 20
-8.5409195888
 30
0.0
 10
54.5740447766
 20
-8.5619728553
 30
0.0
 10
54.463744545
 20
-8.5717351812
 30
0.0
 10
54.3537968815
 20
-8.5610652445
 30
0.0
 10
54.2843795113
 20
-8.5393890414
 30
0.0
 10
54.2541486763
 20
-8.5242736228
 30
0.0
 11
54.6746782218
 21
-8.526108576
 31
0.0
 11
54.5774399351
 21
-8.5575304913
 31
0.0
 11
54.4636627461
 21
-8.5682018974
 31
0.0
 11
54.3502753701
 21
-8.5565392719
 31
0.0
 11
54.2541486763
 21
-8.5242736228
 31
0.0
  0
SPLINE
  5
4B3
100
AcDbEntity
  8
RACCORDO
100
AcDbSpline
 62
7
  6
CONTINUOUS
 70
0
 71
3
 72
11
 73
7
 74
5
 42
0.0000001
 43
0.0000001
 44
0.0000000001
 12
-0.388767542
 22
-0.1870394454
 32
0.0
 13
-0.3858745531
 23
0.1929372569
 33
0.0
 40
0.0
 40
0.0
 40
0.0
 40
0.0
 40
0.2367532785
 40
0.5013779545
 40
0.765259998
 40
1.0
 40
1.0
 40
1.0
 40
1.0
 10
54.6742895852
 20
-52.7836820176
 30
0.0
 10
54.6436089218
 20
-52.7984427516
 30
0.0
 10
54.5736880338
 20
-52.8194174372
 30
0.0
 10
54.4634844325
 20
-52.8291126279
 30
0.0
 10
54.3536678232
 20
-52.8184177577
 30
0.0
 10
54.2843420742
 20
-52.7967564488
 30
0.0
 10
54.2541486764
 20
-52.7816597514
 30
0.0
 11
54.6742895852
 21
-52.7836820176
 31
0.0
 11
54.5770661673
 21
-52.8149909361
 31
0.0
 11
54.4633943376
 21
-52.8255867864
 31
0.0
 11
54.3501516258
 21
-52.8138994408
 31
0.0
 11
54.2541486764
 21
-52.7816597514
 31
0.0
  0
SPLINE
  5
4B4
100
AcDbEntity
  8
RACCORDO
100
AcDbSpline
 62
7
  6
CONTINUOUS
 70
0
 71
3
 72
15
 73
11
 74
9
 42
0.0000001
 43
0.0000001
 44
0.0000000001
 12
-0.0000005386
 22
0.4335126965
 32
0.0
 13
0.3877521025
 23
-0.1938596529
 33
0.0
 40
0.0
 40
0.0
 40
0.0
 40
0.0
 40
0.1483180457
 40
0.2831791256
 40
0.4055265112
 40
0.5187913057
 40
0.628751172
 40
0.742181094
 40
0.8648057621
 40
1.0
 40
1.0
 40
1.0
 40
1.0
 10
-61.5019931835
 20
49.3577003471
 30
0.0
 10
-61.5019932101
 20
49.3791329324
 30
0.0
 10
-61.4981863639
 20
49.4201379907
 30
0.0
 10
-61.4822828042
 20
49.4769376515
 30
0.0
 10
-61.455980304
 20
49.524257222
 30
0.0
 10
-61.419970588
 20
49.5599606498
 30
0.0
 10
-61.3755922036
 20
49.5819226912
 30
0.0
 10
-61.3253019423
 20
49.5889312402
 30
0.0
 10
-61.2716383221
 20
49.5812198013
 30
0.0
 10
-61.2366674993
 20
49.5674911276
 30
0.0
 10
-61.2191935493
 20
49.5587548916
 30
0.0
 11
-61.5019931835
 21
49.3577003471
 31
0.0
 11
-61.4960032674
 21
49.4217184876
 31
0.0
 11
-61.4795448556
 21
49.4778180318
 31
0.0
 11
-61.4532258162
 21
49.5238664745
 31
0.0
 11
-61.4180389445
 21
49.5581135707
 31
0.0
 11
-61.3753178616
 21
49.5792616785
 31
0.0
 11
-61.3266815204
 21
49.5865088066
 31
0.0
 11
-61.2739747764
 21
49.5795866917
 31
0.0
 11
-61.2191935493
 21
49.5587548916
 31
0.0
  0
SPLINE
  5
4B5
100
AcDbEntity
  8
IMPORT_IGES
100
AcDbSpline
 62
7
  6
CONTINUOUS
 70
0
 71
3
 72
8
 73
4
 74
2
 42
0.0000001
 43
0.0000001
 44
0.0000000001
 12
-0.0588607447
 22
0.0129653963
 32
0.0
 13
-0.059405601
 23
0.0251265302
 33
0.0
 40
0.0
 40
0.0
 40
0.0
 40
0.0
 40
1.0
 40
1.0
 40
1.0
 40
1.0
 10
-1.2979103049
 20
-24.2128771165
 30
0.0
 10
-1.3175305531
 20
-24.2085553178
 30
0.0
 10
-1.337736915
 20
-24.2016148055
 30
0.0
 10
-1.357538782
 20
-24.1932392954
 30
0.0
 11
-1.2979103049
 21
-24.2128771165
 31
0.0
 11
-1.357538782
 21
-24.1932392954
 31
0.0
  0
SPLINE
  5
4B6
100
AcDbEntity
  8
IMPORT_IGES
100
AcDbSpline
 62
7
  6
CONTINUOUS
 70
0
 71
3
 72
9
 73
5
 74
3
 42
0.0000001
 43
0.0000001
 44
0.0000000001
 12
-0.0719484215
 22
0.3594276568
 32
0.0
 13
-0.1990361688
 23
0.332124161
 33
0.0
 40
0.0
 40
0.0
 40
0.0
 40
0.0
 40
0.3064912004
 40
1.0
 40
1.0
 40
1.0
 40
1.0
 10
-0.8767877731
 20
-24.9519043832
 30
0.0
 10
-0.8841382924
 20
-24.9151839119
 30
0.0
 10
-0.9063683997
 20
-24.7984166016
 30
0.0
 10
-0.9499573439
 20
-24.6602243963
 30
0.0
 10
-0.9959684553
 20
-24.5834473869
 30
0.0
 11
-0.8767877731
 21
-24.9519043832
 31
0.0
 11
-0.8997713389
 21
-24.8415950184
 31
0.0
 11
-0.9959684553
 21
-24.5834473869
 31
0.0
  0
SPLINE
  5
4B7
100
AcDbEntity
  8
IMPORT_IGES
100
AcDbSpline
 62
7
  6
CONTINUOUS
 70
0
 71
3
 72
8
 73
4
 74
2
 42
0.0000001
 43
0.0000001
 44
0.0000000001
 12
-0.0523574717
 22
0.0873669417
 32
0.0
 13
-0.0668832013
 23
0.0661051502
 33
0.0
 40
0.0
 40
0.0
 40
0.0
 40
0.0
 40
1.0
 40
1.0
 40
1.0
 40
1.0
 10
-0.9959684553
 20
-24.5834473869
 30
0.0
 10
-1.0134209459
 20
-24.554325073
 30
0.0
 10
-1.0331440634
 20
-24.5279451141
 30
0.0
 10
-1.0554384638
 20
-24.5059100641
 30
0.0
 11
-0.9959684553
 21
-24.5834473869
 31
0.0
 11
-1.0554384638
 21
-24.5059100641
 31
0.0
  0
SPLINE
  5
4B8
100
AcDbEntity
  8
IMPORT_IGES
100
AcDbSpline
 62
7
  6
CONTINUOUS
 70
0
 71
3
 72
9
 73
5
 74
3
 42
0.0000001
 43
0.0000001
 44
0.0000000001
 12
-0.1089310306
 22
0.5456809512
 32
0.0
 13
-0.1092475052
 23
0.545733753
 33
0.0
 40
0.0
 40
0.0
 40
0.0
 40
0.0
 40
0.1980141723
 40
1.0
 40
1.0
 40
1.0
 40
1.0
 10
-0.7708332718
 20
-25.4970725446
 30
0.0
 10
-0.7780232344
 20
-25.461055024
 30
0.0
 10
-0.8132148797
 20
-25.2793526818
 30
0.0
 10
-0.8475827894
 20
-25.0977946284
 30
0.0
 10
-0.8767877731
 20
-24.9519043832
 30
0.0
 11
-0.7708332718
 21
-25.4970725446
 31
0.0
 11
-0.7919278251
 21
-25.3891014037
 31
0.0
 11
-0.8767877731
 21
-24.9519043832
 31
0.0
  0
SPLINE
  5
4B9
100
AcDbEntity
  8
IMPORT_IGES
100
AcDbSpline
 62
7
  6
CONTINUOUS
 70
0
 71
3
 72
9
 73
5
 74
3
 42
0.0000001
 43
0.0000001
 44
0.0000000001
 12
-0.7242720778
 22
0.6826063808
 32
0.0
 13
-0.7618885033
 23
0.2436665522
 33
0.0
 40
0.0
 40
0.0
 40
0.0
 40
0.0
 40
0.2957417834
 40
1.0
 40
1.0
 40
1.0
 40
1.0
 10
-1.0873940564
 20
-23.5606837921
 30
0.0
 10
-1.1587932283
 20
-23.4933920493
 30
0.0
 10
-1.4154300291
 20
-23.3135765504
 30
0.0
 10
-1.6734130094
 20
-23.2163020146
 30
0.0
 10
-1.8522684223
 20
-23.1591006241
 30
0.0
 11
-1.0873940564
 21
-23.5606837921
 31
0.0
 11
-1.3107074198
 21
-23.3942534336
 31
0.0
 11
-1.8522684223
 21
-23.1591006241
 31
0.0
  0
SPLINE
  5
4BA
100
AcDbEntity
  8
IMPORT_IGES
100
AcDbSpline
 62
7
  6
CONTINUOUS
 70
0
 71
3
 72
9
 73
5
 74
3
 42
0.0000001
 43
0.0000001
 44
0.0000000001
 12
0.0443426486
 22
0.0221713243
 32
0.0
 13
0.0397038801
 23
0.0264877824
 33
0.0
 40
0.0
 40
0.0
 40
0.0
 40
0.0
 40
0.0529699826
 40
1.0
 40
1.0
 40
1.0
 40
1.0
 10
-1.0124071759
 20
-24.4884716721
 30
0.0
 10
-1.0116242328
 20
-24.4880802005
 30
0.0
 10
-0.9968871236
 20
-24.4806294369
 30
0.0
 10
-0.9828443889
 20
-24.4728203189
 30
0.0
 10
-0.9703108001
 20
-24.4644587439
 30
0.0
 11
-1.0124071759
 21
-24.4884716721
 31
0.0
 11
-1.0100649323
 21
-24.4872898614
 31
0.0
 11
-0.9703108001
 21
-24.4644587439
 31
0.0
  0
SPLINE
  5
4BB
100
AcDbEntity
  8
IMPORT_IGES
100
AcDbSpline
 62
7
  6
CONTINUOUS
 70
0
 71
3
 72
16
 73
12
 74
10
 42
0.0000001
 43
0.0000001
 44
0.0000000001
 12
0.5918942464
 22
0.3948723892
 32
0.0
 13
-0.7723802419
 23
0.7274516852
 33
0.0
 40
0.0
 40
0.0
 40
0.0
 40
0.0
 40
0.063526156
 40
0.2350520403
 40
0.3378746638
 40
0.4554210254
 40
0.5509332403
 40
0.636789735
 40
0.7863333931
 40
0.909918364
 40
1.0
 40
1.0
 40
1.0
 40
1.0
 10
-0.9703108001
 20
-24.4644587439
 30
0.0
 10
-0.9577772114
 20
-24.4560971689
 30
0.0
 10
-0.9142335775
 20
-24.421583977
 30
0.0
 10
-0.8695078856
 20
-24.3402730383
 30
0.0
 10
-0.8458375147
 20
-24.2236179871
 30
0.0
 10
-0.8436137308
 20
-24.1180856649
 30
0.0
 10
-0.8553333196
 20
-24.0126210394
 30
0.0
 10
-0.883737579
 20
-23.8925810066
 30
0.0
 10
-0.937086591
 20
-23.7621830483
 30
0.0
 10
-1.0124112447
 20
-23.6434062569
 30
0.0
 10
-1.0642016311
 20
-23.5825271381
 30
0.0
 10
-1.0873940564
 20
-23.5606837921
 30
0.0
 11
-0.9703108001
 21
-24.4644587439
 31
0.0
 11
-0.9351484833
 21
-24.4358309914
 31
0.0
 11
-0.8681318576
 21
-24.3176250152
 31
0.0
 11
-0.849286835
 21
-24.2262535227
 31
0.0
 11
-0.846457796
 21
-24.1095092461
 31
0.0
 11
-0.858057269
 21
-24.0087147965
 31
0.0
 11
-0.8802366388
 21
-23.9156686148
 31
0.0
 11
-0.9457567379
 21
-23.7557195296
 31
0.0
 11
-1.0218614311
 21
-23.6354589392
 31
0.0
 11
-1.0873940564
 21
-23.5606837921
 31
0.0
  0
SPLINE
  5
4BC
100
AcDbEntity
  8
RACCORDO
100
AcDbSpline
 62
7
  6
CONTINUOUS
 70
0
 71
3
 72
8
 73
4
 74
2
 42
0.0000001
 43
0.0000001
 44
0.0000000001
 12
0.1754378928
 22
0.0275703537
 32
0.0
 13
0.1740107906
 23
-0.0354799014
 33
0.0
 40
0.0
 40
0.0
 40
0.0
 40
0.0
 40
1.0
 40
1.0
 40
1.0
 40
1.0
 10
-36.3283142897
 20
-1.2583670147
 30
0.0
 10
-36.269834992
 20
-1.2491768968
 30
0.0
 10
-36.2087723118
 20
-1.2505587834
 30
0.0
 10
-36.150768715
 20
-1.2623854172
 30
0.0
 11
-36.3283142897
 21
-1.2583670147
 31
0.0
 11
-36.150768715
 21
-1.2623854172
 31
0.0
  0
SPLINE
  5
4BD
100
AcDbEntity
  8
RACCORDO
100
AcDbSpline
 62
7
  6
CONTINUOUS
 70
0
 71
3
 72
8
 73
4
 74
2
 42
0.0000001
 43
0.0000001
 44
0.0000000001
 12
0.1754378928
 22
0.0275703537
 32
0.0
 13
0.1740107906
 23
-0.0354799014
 33
0.0
 40
0.0
 40
0.0
 40
0.0
 40
0.0
 40
1.0
 40
1.0
 40
1.0
 40
1.0
 10
-12.4988157637
 20
-13.1731162777
 30
0.0
 10
-12.4403364661
 20
-13.1639261598
 30
0.0
 10
-12.3792737859
 20
-13.1653080464
 30
0.0
 10
-12.321270189
 20
-13.1771346802
 30
0.0
 11
-12.4988157637
 21
-13.1731162777
 31
0.0
 11
-12.321270189
 21
-13.1771346802
 31
0.0
  0
SPLINE
  5
4BE
100
AcDbEntity
  8
RACCORDO
100
AcDbSpline
 62
7
  6
CONTINUOUS
 70
0
 71
3
 72
8
 73
4
 74
2
 42
0.0000001
 43
0.0000001
 44
0.0000000001
 12
0.1781590767
 22
0.0322301011
 32
0.0
 13
0.1779590726
 23
-0.0333167297
 33
0.0
 40
0.0
 40
0.0
 40
0.0
 40
0.0
 40
1.0
 40
1.0
 40
1.0
 40
1.0
 10
11.3254681413
 20
-25.0928758536
 30
0.0
 10
11.3848545001
 20
-25.0821324866
 30
0.0
 10
11.4471985289
 20
-25.0823226177
 30
0.0
 10
11.5065182198
 20
-25.0934281943
 30
0.0
 11
11.3254681413
 21
-25.0928758536
 31
0.0
 11
11.5065182198
 21
-25.0934281943
 31
0.0
  0
SPLINE
  5
4BF
100
AcDbEntity
  8
RACCORDO
100
AcDbSpline
 62
7
  6
CONTINUOUS
 70
0
 71
3
 72
8
 73
4
 74
2
 42
0.0000001
 43
0.0000001
 44
0.0000000001
 12
0.1754378928
 22
0.0275703537
 32
0.0
 13
0.1740107906
 23
-0.0354799014
 33
0.0
 40
0.0
 40
0.0
 40
0.0
 40
0.0
 40
1.0
 40
1.0
 40
1.0
 40
1.0
 10
35.1601812883
 20
-37.0026148037
 30
0.0
 10
35.2186605859
 20
-36.9934246857
 30
0.0
 10
35.2797232661
 20
-36.9948065724
 30
0.0
 10
35.337726863
 20
-37.0066332062
 30
0.0
 11
35.1601812883
 21
-37.0026148037
 31
0.0
 11
35.337726863
 21
-37.0066332062
 31
0.0
  0
SPLINE
  5
4C0
100
AcDbEntity
  8
ASSI
100
AcDbSpline
 62
7
  6
CONTINUOUS
 70
0
 71
3
 72
8
 73
4
 74
2
 42
0.0000001
 43
0.0000001
 44
0.0000000001
 12
0.0017199938
 22
-0.0008550042
 32
0.0
 13
0.0000082581
 23
-0.0019207661
 33
0.0
 40
0.0
 40
0.0
 40
0.0
 40
0.0
 40
1.0
 40
1.0
 40
1.0
 40
1.0
 10
37.5237615373
 20
-37.006035631
 30
0.0
 10
37.5243348686
 20
-37.0063206324
 30
0.0
 10
37.5247773008
 20
-37.0070238828
 30
0.0
 10
37.5247800535
 20
-37.0076641381
 30
0.0
 11
37.5237615373
 21
-37.006035631
 31
0.0
 11
37.5247800535
 21
-37.0076641381
 31
0.0
  0
SPLINE
  5
4C1
100
AcDbEntity
  8
ASSI
100
AcDbSpline
 62
7
  6
CONTINUOUS
 70
0
 71
3
 72
8
 73
4
 74
2
 42
0.0000001
 43
0.0000001
 44
0.0000000001
 12
-0.0322886643
 22
0.0161348252
 32
0.0
 13
-0.0345470447
 23
0.0104590691
 33
0.0
 40
0.0
 40
0.0
 40
0.0
 40
0.0
 40
1.0
 40
1.0
 40
1.0
 40
1.0
 10
33.3303973964
 20
-34.9093535605
 30
0.0
 10
33.3196345083
 20
-34.9039752854
 30
0.0
 10
33.3084336705
 20
-34.8993484491
 30
0.0
 10
33.2969179889
 20
-34.8958620928
 30
0.0
 11
33.3303973964
 21
-34.9093535605
 31
0.0
 11
33.2969179889
 21
-34.8958620928
 31
0.0
  0
SPLINE
  5
4C2
100
AcDbEntity
  8
ASSI
100
AcDbSpline
 62
7
  6
CONTINUOUS
 70
0
 71
3
 72
9
 73
5
 74
3
 42
0.0000001
 43
0.0000001
 44
0.0000000001
 12
-0.0774879905
 22
0.0234593799
 32
0.0
 13
-0.075213758
 23
-0.0299603369
 33
0.0
 40
0.0
 40
0.0
 40
0.0
 40
0.0
 40
0.2646796662
 40
1.0
 40
1.0
 40
1.0
 40
1.0
 10
33.2969179889
 20
-34.8958620928
 30
0.0
 10
33.2900814904
 20
-34.8937923525
 30
0.0
 10
33.2639398067
 20
-34.887479363
 30
0.0
 10
33.2351541829
 20
-34.8884084332
 30
0.0
 10
33.216718781
 20
-34.8957519148
 30
0.0
 11
33.2969179889
 21
-34.8958620928
 31
0.0
 11
33.2760579241
 21
-34.8909578575
 31
0.0
 11
33.216718781
 21
-34.8957519148
 31
0.0
  0
SPLINE
  5
4C3
100
AcDbEntity
  8
ASSI
100
AcDbSpline
 62
7
  6
CONTINUOUS
 70
0
 71
3
 72
8
 73
4
 74
2
 42
0.0000001
 43
0.0000001
 44
0.0000000001
 12
0.0017199938
 22
-0.0008550042
 32
0.0
 13
0.0000082581
 23
-0.0019207661
 33
0.0
 40
0.0
 40
0.0
 40
0.0
 40
0.0
 40
1.0
 40
1.0
 40
1.0
 40
1.0
 10
21.6138589606
 20
-29.0510843426
 30
0.0
 10
21.6144322919
 20
-29.051369344
 30
0.0
 10
21.6148747241
 20
-29.0520725944
 30
0.0
 10
21.6148774768
 20
-29.0527128498
 30
0.0
 11
21.6138589606
 21
-29.0510843426
 31
0.0
 11
21.6148774768
 21
-29.0527128498
 31
0.0
  0
SPLINE
  5
4C4
100
AcDbEntity
  8
ASSI
100
AcDbSpline
 62
7
  6
CONTINUOUS
 70
0
 71
3
 72
8
 73
4
 74
2
 42
0.0000001
 43
0.0000001
 44
0.0000000001
 12
-0.0322886643
 22
0.0161348252
 32
0.0
 13
-0.0345470447
 23
0.0104590691
 33
0.0
 40
0.0
 40
0.0
 40
0.0
 40
0.0
 40
1.0
 40
1.0
 40
1.0
 40
1.0
 10
17.4204948197
 20
-26.9544022721
 30
0.0
 10
17.4097319316
 20
-26.9490239971
 30
0.0
 10
17.3985310938
 20
-26.9443971608
 30
0.0
 10
17.3870154122
 20
-26.9409108044
 30
0.0
 11
17.4204948197
 21
-26.9544022721
 31
0.0
 11
17.3870154122
 21
-26.9409108044
 31
0.0
  0
SPLINE
  5
4C5
100
AcDbEntity
  8
ASSI
100
AcDbSpline
 62
7
  6
CONTINUOUS
 70
0
 71
3
 72
9
 73
5
 74
3
 42
0.0000001
 43
0.0000001
 44
0.0000000001
 12
-0.0774879905
 22
0.0234593799
 32
0.0
 13
-0.075213758
 23
-0.0299603369
 33
0.0
 40
0.0
 40
0.0
 40
0.0
 40
0.0
 40
0.2646796662
 40
1.0
 40
1.0
 40
1.0
 40
1.0
 10
17.3870154122
 20
-26.9409108044
 30
0.0
 10
17.3801789137
 20
-26.9388410641
 30
0.0
 10
17.35403723
 20
-26.9325280747
 30
0.0
 10
17.3252516062
 20
-26.9334571448
 30
0.0
 10
17.3068162043
 20
-26.9408006265
 30
0.0
 11
17.3870154122
 21
-26.9409108044
 31
0.0
 11
17.3661553474
 21
-26.9360065691
 31
0.0
 11
17.3068162043
 21
-26.9408006265
 31
0.0
  0
SPLINE
  5
4C6
100
AcDbEntity
  8
ASSI
100
AcDbSpline
 62
7
  6
CONTINUOUS
 70
0
 71
3
 72
8
 73
4
 74
2
 42
0.0000001
 43
0.0000001
 44
0.0000000001
 12
0.0017199938
 22
-0.0008550042
 32
0.0
 13
0.0000082581
 23
-0.0019207661
 33
0.0
 40
0.0
 40
0.0
 40
0.0
 40
0.0
 40
1.0
 40
1.0
 40
1.0
 40
1.0
 10
5.7039563839
 20
-21.0961330543
 30
0.0
 10
5.7045297152
 20
-21.0964180557
 30
0.0
 10
5.7049721474
 20
-21.0971213061
 30
0.0
 10
5.7049749001
 20
-21.0977615614
 30
0.0
 11
5.7039563839
 21
-21.0961330543
 31
0.0
 11
5.7049749001
 21
-21.0977615614
 31
0.0
  0
SPLINE
  5
4C7
100
AcDbEntity
  8
ASSI
100
AcDbSpline
 62
7
  6
CONTINUOUS
 70
0
 71
3
 72
8
 73
4
 74
2
 42
0.0000001
 43
0.0000001
 44
0.0000000001
 12
-0.0322886643
 22
0.0161348252
 32
0.0
 13
-0.0345470447
 23
0.0104590691
 33
0.0
 40
0.0
 40
0.0
 40
0.0
 40
0.0
 40
1.0
 40
1.0
 40
1.0
 40
1.0
 10
1.510592243
 20
-18.9994509838
 30
0.0
 10
1.4998293549
 20
-18.9940727087
 30
0.0
 10
1.4886285171
 20
-18.9894458724
 30
0.0
 10
1.4771128355
 20
-18.9859595161
 30
0.0
 11
1.510592243
 21
-18.9994509838
 31
0.0
 11
1.4771128355
 21
-18.9859595161
 31
0.0
  0
SPLINE
  5
4C8
100
AcDbEntity
  8
ASSI
100
AcDbSpline
 62
7
  6
CONTINUOUS
 70
0
 71
3
 72
9
 73
5
 74
3
 42
0.0000001
 43
0.0000001
 44
0.0000000001
 12
-0.0774879905
 22
0.0234593799
 32
0.0
 13
-0.075213758
 23
-0.0299603369
 33
0.0
 40
0.0
 40
0.0
 40
0.0
 40
0.0
 40
0.2646796662
 40
1.0
 40
1.0
 40
1.0
 40
1.0
 10
1.4771128355
 20
-18.9859595161
 30
0.0
 10
1.470276337
 20
-18.9838897758
 30
0.0
 10
1.4441346533
 20
-18.9775767863
 30
0.0
 10
1.4153490295
 20
-18.9785058565
 30
0.0
 10
1.3969136276
 20
-18.9858493381
 30
0.0
 11
1.4771128355
 21
-18.9859595161
 31
0.0
 11
1.4562527707
 21
-18.9810552808
 31
0.0
 11
1.3969136276
 21
-18.9858493381
 31
0.0
  0
SPLINE
  5
4C9
100
AcDbEntity
  8
ASSI
100
AcDbSpline
 62
7
  6
CONTINUOUS
 70
0
 71
3
 72
8
 73
4
 74
2
 42
0.0000001
 43
0.0000001
 44
0.0000000001
 12
0.0017199938
 22
-0.0008550042
 32
0.0
 13
0.0000082581
 23
-0.0019207661
 33
0.0
 40
0.0
 40
0.0
 40
0.0
 40
0.0
 40
1.0
 40
1.0
 40
1.0
 40
1.0
 10
-10.2059461928
 20
-13.1411817659
 30
0.0
 10
-10.2053728615
 20
-13.1414667673
 30
0.0
 10
-10.2049304293
 20
-13.1421700177
 30
0.0
 10
-10.2049276766
 20
-13.1428102731
 30
0.0
 11
-10.2059461928
 21
-13.1411817659
 31
0.0
 11
-10.2049276766
 21
-13.1428102731
 31
0.0
  0
SPLINE
  5
4CA
100
AcDbEntity
  8
ASSI
100
AcDbSpline
 62
7
  6
CONTINUOUS
 70
0
 71
3
 72
8
 73
4
 74
2
 42
0.0000001
 43
0.0000001
 44
0.0000000001
 12
-0.0322886643
 22
0.0161348252
 32
0.0
 13
-0.0345470447
 23
0.0104590691
 33
0.0
 40
0.0
 40
0.0
 40
0.0
 40
0.0
 40
1.0
 40
1.0
 40
1.0
 40
1.0
 10
-14.3993103337
 20
-11.0444996954
 30
0.0
 10
-14.4100732218
 20
-11.0391214204
 30
0.0
 10
-14.4212740596
 20
-11.0344945841
 30
0.0
 10
-14.4327897412
 20
-11.0310082277
 30
0.0
 11
-14.3993103337
 21
-11.0444996954
 31
0.0
 11
-14.4327897412
 21
-11.0310082277
 31
0.0
  0
SPLINE
  5
4CB
100
AcDbEntity
  8
ASSI
100
AcDbSpline
 62
7
  6
CONTINUOUS
 70
0
 71
3
 72
9
 73
5
 74
3
 42
0.0000001
 43
0.0000001
 44
0.0000000001
 12
-0.0774879905
 22
0.0234593799
 32
0.0
 13
-0.075213758
 23
-0.0299603369
 33
0.0
 40
0.0
 40
0.0
 40
0.0
 40
0.0
 40
0.2646796662
 40
1.0
 40
1.0
 40
1.0
 40
1.0
 10
-14.4327897412
 20
-11.0310082277
 30
0.0
 10
-14.4396262397
 20
-11.0289384875
 30
0.0
 10
-14.4657679234
 20
-11.022625498
 30
0.0
 10
-14.4945535472
 20
-11.0235545681
 30
0.0
 10
-14.5129889491
 20
-11.0308980498
 30
0.0
 11
-14.4327897412
 21
-11.0310082277
 31
0.0
 11
-14.453649806
 21
-11.0261039924
 31
0.0
 11
-14.5129889491
 21
-11.0308980498
 31
0.0
  0
SPLINE
  5
4CC
100
AcDbEntity
  8
ASSI
100
AcDbSpline
 62
7
  6
CONTINUOUS
 70
0
 71
3
 72
8
 73
4
 74
2
 42
0.0000001
 43
0.0000001
 44
0.0000000001
 12
0.0017199938
 22
-0.0008550042
 32
0.0
 13
0.0000082581
 23
-0.0019207661
 33
0.0
 40
0.0
 40
0.0
 40
0.0
 40
0.0
 40
1.0
 40
1.0
 40
1.0
 40
1.0
 10
-26.1158487695
 20
-5.1862304776
 30
0.0
 10
-26.1152754382
 20
-5.186515479
 30
0.0
 10
-26.114833006
 20
-5.1872187294
 30
0.0
 10
-26.1148302533
 20
-5.1878589847
 30
0.0
 11
-26.1158487695
 21
-5.1862304776
 31
0.0
 11
-26.1148302533
 21
-5.1878589847
 31
0.0
  0
SPLINE
  5
4CD
100
AcDbEntity
  8
ASSI
100
AcDbSpline
 62
7
  6
CONTINUOUS
 70
0
 71
3
 72
8
 73
4
 74
2
 42
0.0000001
 43
0.0000001
 44
0.0000000001
 12
-0.0322886643
 22
0.0161348252
 32
0.0
 13
-0.0345470447
 23
0.0104590691
 33
0.0
 40
0.0
 40
0.0
 40
0.0
 40
0.0
 40
1.0
 40
1.0
 40
1.0
 40
1.0
 10
-30.3092129104
 20
-3.0895484071
 30
0.0
 10
-30.3199757985
 20
-3.084170132
 30
0.0
 10
-30.3311766363
 20
-3.0795432957
 30
0.0
 10
-30.3426923179
 20
-3.0760569394
 30
0.0
 11
-30.3092129104
 21
-3.0895484071
 31
0.0
 11
-30.3426923179
 21
-3.0760569394
 31
0.0
  0
SPLINE
  5
4CE
100
AcDbEntity
  8
ASSI
100
AcDbSpline
 62
7
  6
CONTINUOUS
 70
0
 71
3
 72
9
 73
5
 74
3
 42
0.0000001
 43
0.0000001
 44
0.0000000001
 12
-0.0774879905
 22
0.0234593799
 32
0.0
 13
-0.075213758
 23
-0.0299603369
 33
0.0
 40
0.0
 40
0.0
 40
0.0
 40
0.0
 40
0.2646796662
 40
1.0
 40
1.0
 40
1.0
 40
1.0
 10
-30.3426923179
 20
-3.0760569394
 30
0.0
 10
-30.3495288164
 20
-3.0739871991
 30
0.0
 10
-30.3756705001
 20
-3.0676742096
 30
0.0
 10
-30.4044561239
 20
-3.0686032798
 30
0.0
 10
-30.4228915258
 20
-3.0759467614
 30
0.0
 11
-30.3426923179
 21
-3.0760569394
 31
0.0
 11
-30.3635523827
 21
-3.0711527041
 31
0.0
 11
-30.4228915258
 21
-3.0759467614
 31
0.0
  0
SPLINE
  5
4CF
100
AcDbEntity
  8
ASSI
100
AcDbSpline
 62
7
  6
CONTINUOUS
 70
0
 71
3
 72
8
 73
4
 74
2
 42
0.0000001
 43
0.0000001
 44
0.0000000001
 12
0.0017199875
 22
-0.0008550395
 32
0.0
 13
0.0000082235
 23
-0.0019207763
 33
0.0
 40
0.0
 40
0.0
 40
0.0
 40
0.0
 40
1.0
 40
1.0
 40
1.0
 40
1.0
 10
-42.0257513093
 20
2.8553233334
 30
0.0
 10
-42.0251779802
 20
2.8550383202
 30
0.0
 10
-42.0247355676
 20
2.8543350523
 30
0.0
 10
-42.0247328265
 20
2.8536947935
 30
0.0
 11
-42.0257513093
 21
2.8553233334
 31
0.0
 11
-42.0247328265
 21
2.8536947935
 31
0.0
  0
SPLINE
  5
4D0
100
AcDbEntity
  8
ASSI
100
AcDbSpline
 62
7
  6
CONTINUOUS
 70
0
 71
3
 72
8
 73
4
 74
2
 42
0.0000001
 43
0.0000001
 44
0.0000000001
 12
-0.032268327
 22
0.0161247358
 32
0.0
 13
-0.0345239903
 23
0.0104568695
 33
0.0
 40
0.0
 40
0.0
 40
0.0
 40
0.0
 40
1.0
 40
1.0
 40
1.0
 40
1.0
 10
-46.2191150776
 20
4.9520052175
 30
0.0
 10
-46.2298711866
 20
4.9573801294
 30
0.0
 10
-46.2410646472
 20
4.9620045221
 30
0.0
 10
-46.252572644
 20
4.9654901453
 30
0.0
 11
-46.2191150776
 21
4.9520052175
 31
0.0
 11
-46.252572644
 21
4.9654901453
 31
0.0
  0
SPLINE
  5
4D1
100
AcDbEntity
  8
ASSI
100
AcDbSpline
 62
7
  6
CONTINUOUS
 70
0
 71
3
 72
9
 73
5
 74
3
 42
0.0000001
 43
0.0000001
 44
0.0000000001
 12
-0.0479673986
 22
0.0145287038
 32
0.0
 13
-0.0500426309
 23
-0.0027730218
 33
0.0
 40
0.0
 40
0.0
 40
0.0
 40
0.0
 40
0.257878631
 40
1.0
 40
1.0
 40
1.0
 40
1.0
 10
-46.252572644
 20
4.9654901453
 30
0.0
 10
-46.2566958997
 20
4.9667390261
 30
0.0
 10
-46.2728396699
 20
4.9710138554
 30
0.0
 10
-46.2897397341
 20
4.9727796072
 30
0.0
 10
-46.3021189693
 20
4.9720936343
 30
0.0
 11
-46.252572644
 21
4.9654901453
 31
0.0
 11
-46.265072461
 21
4.9687769432
 31
0.0
 11
-46.3021189693
 21
4.9720936343
 31
0.0
  0
SPLINE
  5
4D2
100
AcDbEntity
  8
ASSI
100
AcDbSpline
 62
7
  6
CONTINUOUS
 70
0
 71
3
 72
8
 73
4
 74
2
 42
0.0000001
 43
0.0000001
 44
0.0000000001
 12
-0.0213414878
 22
-0.0011825999
 32
0.0
 13
-0.0206349063
 23
-0.005572996
 33
0.0
 40
0.0
 40
0.0
 40
0.0
 40
0.0
 40
1.0
 40
1.0
 40
1.0
 40
1.0
 10
-46.3021189693
 20
4.9720936343
 30
0.0
 10
-46.3092327986
 20
4.9716994343
 30
0.0
 10
-46.3163564629
 20
4.9706375682
 30
0.0
 10
-46.323234765
 20
4.9687799029
 30
0.0
 11
-46.3021189693
 21
4.9720936343
 31
0.0
 11
-46.323234765
 21
4.9687799029
 31
0.0
  0
SPLINE
  5
4D3
100
AcDbEntity
  8
ASSI
100
AcDbSpline
 62
7
  6
CONTINUOUS
 70
0
 71
3
 72
8
 73
4
 74
2
 42
0.0000001
 43
0.0000001
 44
0.0000000001
 12
-0.032268327
 22
0.0161247358
 32
0.0
 13
-0.0345239903
 23
0.0104568695
 33
0.0
 40
0.0
 40
0.0
 40
0.0
 40
0.0
 40
1.0
 40
1.0
 40
1.0
 40
1.0
 10
49.2403003826
 20
-42.7777025126
 30
0.0
 10
49.2295442736
 20
-42.7723276007
 30
0.0
 10
49.218350813
 20
-42.7677032079
 30
0.0
 10
49.2068428162
 20
-42.7642175848
 30
0.0
 11
49.2403003826
 21
-42.7777025126
 31
0.0
 11
49.2068428162
 21
-42.7642175848
 31
0.0
  0
SPLINE
  5
4D4
100
AcDbEntity
  8
ASSI
100
AcDbSpline
 62
7
  6
CONTINUOUS
 70
0
 71
3
 72
9
 73
5
 74
3
 42
0.0000001
 43
0.0000001
 44
0.0000000001
 12
-0.0479673986
 22
0.0145287038
 32
0.0
 13
-0.0500426309
 23
-0.0027730218
 33
0.0
 40
0.0
 40
0.0
 40
0.0
 40
0.0
 40
0.257878631
 40
1.0
 40
1.0
 40
1.0
 40
1.0
 10
49.2068428162
 20
-42.7642175848
 30
0.0
 10
49.2027195605
 20
-42.762968704
 30
0.0
 10
49.1865757903
 20
-42.7586938747
 30
0.0
 10
49.1696757261
 20
-42.7569281229
 30
0.0
 10
49.1572964909
 20
-42.7576140958
 30
0.0
 11
49.2068428162
 21
-42.7642175848
 31
0.0
 11
49.1943429992
 21
-42.7609307869
 31
0.0
 11
49.1572964909
 21
-42.7576140958
 31
0.0
  0
SPLINE
  5
4D5
100
AcDbEntity
  8
ASSI
100
AcDbSpline
 62
7
  6
CONTINUOUS
 70
0
 71
3
 72
8
 73
4
 74
2
 42
0.0000001
 43
0.0000001
 44
0.0000000001
 12
-0.0213414878
 22
-0.0011825999
 32
0.0
 13
-0.0206349063
 23
-0.005572996
 33
0.0
 40
0.0
 40
0.0
 40
0.0
 40
0.0
 40
1.0
 40
1.0
 40
1.0
 40
1.0
 10
49.1572964909
 20
-42.7576140958
 30
0.0
 10
49.1501826616
 20
-42.7580082958
 30
0.0
 10
49.1430589973
 20
-42.7590701619
 30
0.0
 10
49.1361806952
 20
-42.7609278272
 30
0.0
 11
49.1572964909
 21
-42.7576140958
 31
0.0
 11
49.1361806952
 21
-42.7609278272
 31
0.0
  0
SPLINE
  5
4D6
100
AcDbEntity
  8
RACCORDO
100
AcDbSpline
 62
7
  6
CONTINUOUS
 70
0
 71
3
 72
9
 73
5
 74
3
 42
0.0000001
 43
0.0000001
 44
0.0000000001
 12
0.0317554346
 22
0.0230405984
 32
0.0
 13
0.0285054272
 23
0.0269576968
 33
0.0
 40
0.0
 40
0.0
 40
0.0
 40
0.0
 40
0.2582404105
 40
1.0
 40
1.0
 40
1.0
 40
1.0
 10
-56.457299807
 20
40.5593851983
 30
0.0
 10
-56.4545662948
 20
40.5613685362
 30
0.0
 10
-56.4440949463
 20
40.5692032192
 30
0.0
 10
-56.4340959175
 20
40.5776779406
 30
0.0
 10
-56.4270478595
 20
40.5843433173
 30
0.0
 11
-56.457299807
 21
40.5593851983
 31
0.0
 11
-56.4491895422
 21
40.5654576826
 31
0.0
 11
-56.4270478595
 21
40.5843433173
 31
0.0
  0
SPLINE
  5
4D7
100
AcDbEntity
  8
RACCORDO
100
AcDbSpline
 62
7
  6
CONTINUOUS
 70
0
 71
3
 72
9
 73
5
 74
3
 42
0.0000001
 43
0.0000001
 44
0.0000000001
 12
0.0968224551
 22
0.091565384
 32
0.0
 13
-0.0000002118
 23
0.1332621752
 33
0.0
 40
0.0
 40
0.0
 40
0.0
 40
0.0
 40
0.5349302884
 40
1.0
 40
1.0
 40
1.0
 40
1.0
 10
-56.4270478595
 20
40.5843433173
 30
0.0
 10
-56.4097834382
 20
40.6006703498
 30
0.0
 10
-56.3809429984
 20
40.6357860539
 30
0.0
 10
-56.3690651821
 20
40.6805428498
 30
0.0
 10
-56.3690652149
 20
40.7012015836
 30
0.0
 11
-56.4270478595
 21
40.5843433173
 31
0.0
 11
-56.3837820503
 21
40.6409980596
 31
0.0
 11
-56.3690652149
 21
40.7012015836
 31
0.0
  0
SPLINE
  5
4D8
100
AcDbEntity
  8
RACCORDO
100
AcDbSpline
 62
7
  6
CONTINUOUS
 70
0
 71
3
 72
9
 73
5
 74
3
 42
0.0000001
 43
0.0000001
 44
0.0000000001
 12
0.0317554346
 22
0.0230405984
 32
0.0
 13
0.0285054272
 23
0.0269576968
 33
0.0
 40
0.0
 40
0.0
 40
0.0
 40
0.0
 40
0.2582404105
 40
1.0
 40
1.0
 40
1.0
 40
1.0
 10
-56.457299807
 20
21.5068263151
 30
0.0
 10
-56.4545662948
 20
21.5088096529
 30
0.0
 10
-56.4440949463
 20
21.5166443359
 30
0.0
 10
-56.4340959175
 20
21.5251190574
 30
0.0
 10
-56.4270478595
 20
21.5317844341
 30
0.0
 11
-56.457299807
 21
21.5068263151
 31
0.0
 11
-56.4491895422
 21
21.5128987994
 31
0.0
 11
-56.4270478595
 21
21.5317844341
 31
0.0
  0
SPLINE
  5
4D9
100
AcDbEntity
  8
RACCORDO
100
AcDbSpline
 62
7
  6
CONTINUOUS
 70
0
 71
3
 72
9
 73
5
 74
3
 42
0.0000001
 43
0.0000001
 44
0.0000000001
 12
0.0968224551
 22
0.091565384
 32
0.0
 13
-0.0000002118
 23
0.1332621752
 33
0.0
 40
0.0
 40
0.0
 40
0.0
 40
0.0
 40
0.5349302884
 40
1.0
 40
1.0
 40
1.0
 40
1.0
 10
-56.4270478595
 20
21.5317844341
 30
0.0
 10
-56.4097834382
 20
21.5481114665
 30
0.0
 10
-56.3809429984
 20
21.5832271707
 30
0.0
 10
-56.3690651821
 20
21.6279839665
 30
0.0
 10
-56.3690652149
 20
21.6486427004
 30
0.0
 11
-56.4270478595
 21
21.5317844341
 31
0.0
 11
-56.3837820503
 21
21.5884391764
 31
0.0
 11
-56.3690652149
 21
21.6486427004
 31
0.0
  0
SPLINE
  5
4DA
100
AcDbEntity
  8
DRAFT
100
AcDbSpline
 62
7
  6
CONTINUOUS
 70
0
 71
3
 72
9
 73
5
 74
3
 42
0.0000001
 43
0.0000001
 44
0.0000000001
 12
-0.0332954727
 22
-0.1355395461
 32
0.0
 13
-0.1246927706
 23
-0.0626998406
 33
0.0
 40
0.0
 40
0.0
 40
0.0
 40
0.0
 40
0.5315779866
 40
1.0
 40
1.0
 40
1.0
 40
1.0
 10
-42.6025736869
 20
1.7685943005
 30
0.0
 10
-42.6084734003
 20
1.7445776875
 30
0.0
 10
-42.6262870005
 20
1.7002422006
 30
0.0
 10
-42.6624141819
 20
1.6675921782
 30
0.0
 10
-42.6818837947
 20
1.657802183
 30
0.0
 11
-42.6025736869
 21
1.7685943005
 31
0.0
 11
-42.6325869988
 21
1.7007441717
 31
0.0
 11
-42.6818837947
 21
1.657802183
 31
0.0
  0
SPLINE
  5
4DB
100
AcDbEntity
  8
DRAFT
100
AcDbSpline
 62
7
  6
CONTINUOUS
 70
0
 71
3
 72
9
 73
5
 74
3
 42
0.0000001
 43
0.0000001
 44
0.0000000001
 12
-0.0332954727
 22
-0.1355395461
 32
0.0
 13
-0.1246927706
 23
-0.0626998406
 33
0.0
 40
0.0
 40
0.0
 40
0.0
 40
0.0
 40
0.5315779866
 40
1.0
 40
1.0
 40
1.0
 40
1.0
 10
-26.6926711102
 20
-6.1863569878
 30
0.0
 10
-26.6985708236
 20
-6.2103736008
 30
0.0
 10
-26.7163844238
 20
-6.2547090878
 30
0.0
 10
-26.7525116052
 20
-6.2873591102
 30
0.0
 10
-26.771981218
 20
-6.2971491054
 30
0.0
 11
-26.6926711102
 21
-6.1863569878
 31
0.0
 11
-26.7226844221
 21
-6.2542071166
 31
0.0
 11
-26.771981218
 21
-6.2971491054
 31
0.0
  0
SPLINE
  5
4DC
100
AcDbEntity
  8
DRAFT
100
AcDbSpline
 62
7
  6
CONTINUOUS
 70
0
 71
3
 72
9
 73
5
 74
3
 42
0.0000001
 43
0.0000001
 44
0.0000000001
 12
-0.0332954727
 22
-0.1355395461
 32
0.0
 13
-0.1246927706
 23
-0.0626998406
 33
0.0
 40
0.0
 40
0.0
 40
0.0
 40
0.0
 40
0.5315779866
 40
1.0
 40
1.0
 40
1.0
 40
1.0
 10
5.1271340432
 20
-22.0962595645
 30
0.0
 10
5.1212343298
 20
-22.1202761775
 30
0.0
 10
5.1034207296
 20
-22.1646116645
 30
0.0
 10
5.0672935482
 20
-22.1972616869
 30
0.0
 10
5.0478239353
 20
-22.2070516821
 30
0.0
 11
5.1271340432
 21
-22.0962595645
 31
0.0
 11
5.0971207313
 21
-22.1641096933
 31
0.0
 11
5.0478239353
 21
-22.2070516821
 31
0.0
  0
SPLINE
  5
4DD
100
AcDbEntity
  8
DRAFT
100
AcDbSpline
 62
7
  6
CONTINUOUS
 70
0
 71
3
 72
9
 73
5
 74
3
 42
0.0000001
 43
0.0000001
 44
0.0000000001
 12
-0.0332954727
 22
-0.1355395461
 32
0.0
 13
-0.1246927706
 23
-0.0626998406
 33
0.0
 40
0.0
 40
0.0
 40
0.0
 40
0.0
 40
0.5315779866
 40
1.0
 40
1.0
 40
1.0
 40
1.0
 10
21.0370366199
 20
-30.0512108529
 30
0.0
 10
21.0311369064
 20
-30.0752274659
 30
0.0
 10
21.0133233063
 20
-30.1195629528
 30
0.0
 10
20.9771961249
 20
-30.1522129752
 30
0.0
 10
20.957726512
 20
-30.1620029704
 30
0.0
 11
21.0370366199
 21
-30.0512108529
 31
0.0
 11
21.007023308
 21
-30.1190609817
 31
0.0
 11
20.957726512
 21
-30.1620029704
 31
0.0
  0
SPLINE
  5
4DE
100
AcDbEntity
  8
RACCORDO
100
AcDbSpline
 62
7
  6
CONTINUOUS
 70
0
 71
3
 72
11
 73
7
 74
5
 42
0.0000001
 43
0.0000001
 44
0.0000000001
 12
0.5878046047
 22
-0.2840366875
 32
0.0
 13
0.0848509815
 23
-0.6472954534
 33
0.0
 40
0.0
 40
0.0
 40
0.0
 40
0.0
 40
0.2272268744
 40
0.4805317991
 40
0.7443161687
 40
1.0
 40
1.0
 40
1.0
 40
1.0
 10
-55.8438128402
 20
8.4833835283
 30
0.0
 10
-55.7992911725
 20
8.4618699387
 30
0.0
 10
-55.7132241838
 20
8.3993258284
 30
0.0
 10
-55.6092625513
 20
8.2734729067
 30
0.0
 10
-55.5318811165
 20
8.1227958809
 30
0.0
 10
-55.5026127366
 20
8.0123619011
 30
0.0
 10
-55.4953810619
 20
7.9571942406
 30
0.0
 11
-55.8438128402
 21
8.4833835283
 31
0.0
 11
-55.7221320349
 21
8.3985371819
 31
0.0
 11
-55.615632517
 21
8.2720313883
 31
0.0
 11
-55.5369358307
 21
8.1188578177
 31
0.0
 11
-55.4953810619
 21
7.9571942406
 31
0.0
  0
SPLINE
  5
4DF
100
AcDbEntity
  8
RACCORDO
100
AcDbSpline
 62
7
  6
CONTINUOUS
 70
0
 71
3
 72
11
 73
7
 74
5
 42
0.0000001
 43
0.0000001
 44
0.0000000001
 12
0.5878046047
 22
-0.2840366875
 32
0.0
 13
0.0848509815
 23
-0.6472954534
 33
0.0
 40
0.0
 40
0.0
 40
0.0
 40
0.0
 40
0.2272268744
 40
0.4805317991
 40
0.7443161687
 40
1.0
 40
1.0
 40
1.0
 40
1.0
 10
12.6748342568
 20
-25.7759400202
 30
0.0
 10
12.7193559245
 20
-25.7974536098
 30
0.0
 10
12.8054229131
 20
-25.8599977201
 30
0.0
 10
12.9093845457
 20
-25.9858506417
 30
0.0
 10
12.9867659805
 20
-26.1365276676
 30
0.0
 10
13.0160343604
 20
-26.2469616474
 30
0.0
 10
13.0232660351
 20
-26.3021293079
 30
0.0
 11
12.6748342568
 21
-25.7759400202
 31
0.0
 11
12.7965150621
 21
-25.8607863665
 31
0.0
 11
12.90301458
 21
-25.9872921602
 31
0.0
 11
12.9817112662
 21
-26.1404657308
 31
0.0
 11
13.0232660351
 21
-26.3021293079
 31
0.0
  0
SPLINE
  5
4E0
100
AcDbEntity
  8
RACCORDO
100
AcDbSpline
 62
7
  6
CONTINUOUS
 70
0
 71
3
 72
11
 73
7
 74
5
 42
0.0000001
 43
0.0000001
 44
0.0000000001
 12
0.5878046047
 22
-0.2840366875
 32
0.0
 13
0.0848509815
 23
-0.6472954534
 33
0.0
 40
0.0
 40
0.0
 40
0.0
 40
0.0
 40
0.2272268744
 40
0.4805317991
 40
0.7443161687
 40
1.0
 40
1.0
 40
1.0
 40
1.0
 10
36.5043327827
 20
-37.6906892832
 30
0.0
 10
36.5488544504
 20
-37.7122028728
 30
0.0
 10
36.6349214391
 20
-37.7747469831
 30
0.0
 10
36.7388830716
 20
-37.9005999047
 30
0.0
 10
36.8162645065
 20
-38.0512769306
 30
0.0
 10
36.8455328864
 20
-38.1617109104
 30
0.0
 10
36.852764561
 20
-38.2168785709
 30
0.0
 11
36.5043327827
 21
-37.6906892832
 31
0.0
 11
36.6260135881
 21
-37.7755356295
 31
0.0
 11
36.732513106
 21
-37.9020414232
 31
0.0
 11
36.8112097922
 21
-38.0552149938
 31
0.0
 11
36.852764561
 21
-38.2168785709
 31
0.0
  0
SPLINE
  5
4E1
100
AcDbEntity
  8
RACCORDO
100
AcDbSpline
 62
7
  6
CONTINUOUS
 70
0
 71
3
 72
11
 73
7
 74
5
 42
0.0000001
 43
0.0000001
 44
0.0000000001
 12
0.5878046047
 22
-0.2840366875
 32
0.0
 13
0.0848509815
 23
-0.6472954534
 33
0.0
 40
0.0
 40
0.0
 40
0.0
 40
0.0
 40
0.2272268744
 40
0.4805317991
 40
0.7443161687
 40
1.0
 40
1.0
 40
1.0
 40
1.0
 10
-34.9841627952
 20
-1.9464414942
 30
0.0
 10
-34.9396411275
 20
-1.9679550838
 30
0.0
 10
-34.8535741388
 20
-2.0304991941
 30
0.0
 10
-34.7496125063
 20
-2.1563521158
 30
0.0
 10
-34.6722310715
 20
-2.3070291416
 30
0.0
 10
-34.6429626916
 20
-2.4174631214
 30
0.0
 10
-34.6357310169
 20
-2.4726307819
 30
0.0
 11
-34.9841627952
 21
-1.9464414942
 31
0.0
 11
-34.8624819899
 21
-2.0312878406
 31
0.0
 11
-34.755982472
 21
-2.1577936342
 31
0.0
 11
-34.6772857857
 21
-2.3109672048
 31
0.0
 11
-34.6357310169
 21
-2.4726307819
 31
0.0
  0
SPLINE
  5
4E2
100
AcDbEntity
  8
RACCORDO
100
AcDbSpline
 62
7
  6
CONTINUOUS
 70
0
 71
3
 72
12
 73
8
 74
6
 42
0.0000001
 43
0.0000001
 44
0.0000000001
 12
0.0
 22
0.7332228092
 32
0.0
 13
-0.6558144176
 23
0.3279072088
 33
0.0
 40
0.0
 40
0.0
 40
0.0
 40
0.0
 40
0.2472833297
 40
0.5126686892
 40
0.7709371794
 40
0.8902174734
 40
1.0
 40
1.0
 40
1.0
 40
1.0
 10
-11.1794014268
 20
-14.6401047711
 30
0.0
 10
-11.1794014268
 20
-14.5796668452
 30
0.0
 10
-11.1998901635
 20
-14.4541310712
 30
0.0
 10
-11.273756571
 20
-14.279337731
 30
0.0
 10
-11.3671573605
 20
-14.1505880953
 30
0.0
 10
-11.4556385131
 20
-14.0704479964
 30
0.0
 10
-11.5026239202
 20
-14.0392445051
 30
0.0
 10
-11.5266229081
 20
-14.0272450111
 30
0.0
 11
-11.1794014268
 21
-14.6401047711
 31
0.0
 11
-11.2058281506
 21
-14.4607271965
 31
0.0
 11
-11.2810904977
 21
-14.2812849397
 31
0.0
 11
-11.3937599944
 21
-14.1290812745
 31
0.0
 11
-11.458826184
 21
-14.0706392238
 31
0.0
 11
-11.5266229081
 21
-14.0272450111
 31
0.0
  0
SPLINE
  5
4E3
100
AcDbEntity
  8
RACCORDO
100
AcDbSpline
 62
7
  6
CONTINUOUS
 70
0
 71
3
 72
11
 73
7
 74
5
 42
0.0000001
 43
0.0000001
 44
0.0000000001
 12
0.6512316141
 22
-0.336934202
 32
0.0
 13
-0.0105541963
 23
-0.7331547454
 33
0.0
 40
0.0
 40
0.0
 40
0.0
 40
0.0
 40
0.2280141848
 40
0.4859361893
 40
0.7515579068
 40
1.0
 40
1.0
 40
1.0
 40
1.0
 10
-11.1608355666
 20
-13.8581051085
 30
0.0
 10
-11.1113388847
 20
-13.883713701
 30
0.0
 10
-11.017127926
 20
-13.9601490254
 30
0.0
 10
-10.9095876047
 20
-14.1110227163
 30
0.0
 10
-10.8375079757
 20
-14.2871076935
 30
0.0
 10
-10.8188027033
 20
-14.4132564894
 30
0.0
 10
-10.8196767389
 20
-14.4739719893
 30
0.0
 11
-11.1608355666
 21
-13.8581051085
 31
0.0
 11
-11.0283598447
 21
-13.9600937197
 31
0.0
 11
-10.917007093
 21
-14.1129516685
 31
0.0
 11
-10.8437246754
 21
-14.2934008967
 31
0.0
 11
-10.8196767389
 21
-14.4739719893
 31
0.0
  0
SPLINE
  5
4E4
100
AcDbEntity
  8
RACCORDO
100
AcDbSpline
 62
7
  6
CONTINUOUS
 70
0
 71
3
 72
9
 73
5
 74
3
 42
0.0000001
 43
0.0000001
 44
0.0000000001
 12
-0.0000256854
 22
-0.1493772331
 32
0.0
 13
-0.1143359048
 23
-0.0961293883
 33
0.0
 40
0.0
 40
0.0
 40
0.0
 40
0.0
 40
0.4593390356
 40
1.0
 40
1.0
 40
1.0
 40
1.0
 10
-55.3499854317
 20
8.0473266079
 30
0.0
 10
-55.3499893645
 20
8.0244550098
 30
0.0
 10
-55.3649134754
 20
7.9743261908
 30
0.0
 10
-55.3996108455
 20
7.9369056898
 30
0.0
 10
-55.420216499
 20
7.9195812206
 30
0.0
 11
-55.3499854317
 21
8.0473266079
 31
0.0
 11
-55.3678718243
 21
7.9810841209
 31
0.0
 11
-55.420216499
 21
7.9195812206
 31
0.0
  0
SPLINE
  5
4E5
100
AcDbEntity
  8
RACCORDO
100
AcDbSpline
 62
7
  6
CONTINUOUS
 70
0
 71
3
 72
10
 73
6
 74
4
 42
0.0000001
 43
0.0000001
 44
0.0000000001
 12
-0.2007783487
 22
0.1003543499
 32
0.0
 13
-0.2024658842
 23
-0.0969046262
 33
0.0
 40
0.0
 40
0.0
 40
0.0
 40
0.0
 40
0.2285889596
 40
0.4671563765
 40
1.0
 40
1.0
 40
1.0
 40
1.0
 10
-55.626393713
 20
8.4945738828
 30
0.0
 10
-55.6416922843
 20
8.5022205149
 30
0.0
 10
-55.6753107242
 20
8.5135329512
 30
0.0
 10
-55.7506564971
 20
8.5181033587
 30
0.0
 10
-55.8078519551
 20
8.500595199
 30
0.0
 10
-55.8438128402
 20
8.4833835283
 30
0.0
 11
-55.626393713
 21
8.4945738828
 31
0.0
 11
-55.6749708968
 21
8.5110939495
 31
0.0
 11
-55.7283953585
 21
8.5147466708
 31
0.0
 11
-55.8438128402
 21
8.4833835283
 31
0.0
  0
SPLINE
  5
4E6
100
AcDbEntity
  8
RACCORDO
100
AcDbSpline
 62
7
  6
CONTINUOUS
 70
0
 71
3
 72
9
 73
5
 74
3
 42
0.0000001
 43
0.0000001
 44
0.0000000001
 12
0.1969201258
 22
0.0665595788
 32
0.0
 13
0.1859197966
 23
-0.0929598983
 33
0.0
 40
0.0
 40
0.0
 40
0.0
 40
0.0
 40
0.4667201946
 40
1.0
 40
1.0
 40
1.0
 40
1.0
 10
10.8645140526
 20
-25.3015339403
 30
0.0
 10
10.8951495858
 20
-25.2911790405
 30
0.0
 10
10.9667596426
 20
-25.2860227321
 30
0.0
 10
11.0341698173
 20
-25.3076413738
 30
0.0
 10
11.0672189083
 20
-25.3241659193
 30
0.0
 11
10.8645140526
 21
-25.3015339403
 31
0.0
 11
10.9610784543
 21
-25.2921982608
 31
0.0
 11
11.0672189083
 21
-25.3241659193
 31
0.0
  0
SPLINE
  5
4E7
100
AcDbEntity
  8
RACCORDO
100
AcDbSpline
 62
7
  6
CONTINUOUS
 70
0
 71
3
 72
10
 73
6
 74
4
 42
0.0000001
 43
0.0000001
 44
0.0000000001
 12
0.209289967
 22
0.0972619934
 32
0.0
 13
0.2077974871
 23
-0.1004111049
 33
0.0
 40
0.0
 40
0.0
 40
0.0
 40
0.0
 40
0.2295603236
 40
0.4689688949
 40
1.0
 40
1.0
 40
1.0
 40
1.0
 10
11.1968722113
 20
-25.134772817
 30
0.0
 10
11.2128871022
 20
-25.1273303188
 30
0.0
 10
11.2478232806
 20
-25.1165011202
 30
0.0
 10
11.3252997367
 20
-25.1129246578
 30
0.0
 10
11.3838813452
 20
-25.1310809126
 30
0.0
 10
11.420663655
 20
-25.1488547193
 30
0.0
 11
11.1968722113
 21
-25.134772817
 31
0.0
 11
11.2474245723
 21
-25.1189214328
 31
0.0
 11
11.3025987385
 21
-25.1159868915
 31
0.0
 11
11.420663655
 21
-25.1488547193
 31
0.0
  0
SPLINE
  5
4E8
100
AcDbEntity
  8
RACCORDO
100
AcDbSpline
 62
7
  6
CONTINUOUS
 70
0
 71
3
 72
10
 73
6
 74
4
 42
0.0000001
 43
0.0000001
 44
0.0000000001
 12
0.2027091416
 22
0.093592367
 32
0.0
 13
0.1983031934
 23
-0.1025981029
 33
0.0
 40
0.0
 40
0.0
 40
0.0
 40
0.0
 40
0.2284623571
 40
0.4669561241
 40
1.0
 40
1.0
 40
1.0
 40
1.0
 10
35.0281812472
 20
-37.0426216454
 30
0.0
 10
35.0436183833
 20
-37.0354942011
 30
0.0
 10
35.0773777158
 20
-37.0252875476
 30
0.0
 10
35.1524316674
 20
-37.0230923973
 30
0.0
 10
35.208756116
 20
-37.0422885701
 30
0.0
 10
35.2439908836
 20
-37.0605183336
 30
0.0
 11
35.0281812472
 21
-37.0426216454
 31
0.0
 11
35.07696069
 21
-37.0277046533
 31
0.0
 11
35.1301733067
 21
-37.0257350428
 31
0.0
 11
35.2439908836
 21
-37.0605183336
 31
0.0
  0
SPLINE
  5
4E9
100
AcDbEntity
  8
RACCORDO
100
AcDbSpline
 62
7
  6
CONTINUOUS
 70
0
 71
3
 72
10
 73
6
 74
4
 42
0.0000001
 43
0.0000001
 44
0.0000000001
 12
0.2027091416
 22
0.093592367
 32
0.0
 13
0.1983031934
 23
-0.1025981029
 33
0.0
 40
0.0
 40
0.0
 40
0.0
 40
0.0
 40
0.2284623571
 40
0.4669561241
 40
1.0
 40
1.0
 40
1.0
 40
1.0
 10
-36.4603143307
 20
-1.2983738564
 30
0.0
 10
-36.4448771947
 20
-1.2912464122
 30
0.0
 10
-36.4111178622
 20
-1.2810397586
 30
0.0
 10
-36.3360639105
 20
-1.2788446083
 30
0.0
 10
-36.279739462
 20
-1.2980407812
 30
0.0
 10
-36.2445046944
 20
-1.3162705446
 30
0.0
 11
-36.4603143307
 21
-1.2983738564
 31
0.0
 11
-36.411534888
 21
-1.2834568643
 31
0.0
 11
-36.3583222713
 21
-1.2814872538
 31
0.0
 11
-36.2445046944
 21
-1.3162705446
 31
0.0
  0
SPLINE
  5
4EA
100
AcDbEntity
  8
RACCORDO
100
AcDbSpline
 62
7
  6
CONTINUOUS
 70
0
 71
3
 72
10
 73
6
 74
4
 42
0.0000001
 43
0.0000001
 44
0.0000000001
 12
0.2027091416
 22
0.093592367
 32
0.0
 13
0.1983031934
 23
-0.1025981029
 33
0.0
 40
0.0
 40
0.0
 40
0.0
 40
0.0
 40
0.2284623571
 40
0.4669561241
 40
1.0
 40
1.0
 40
1.0
 40
1.0
 10
-12.6308158048
 20
-13.2131231194
 30
0.0
 10
-12.6153786687
 20
-13.2059956752
 30
0.0
 10
-12.5816193362
 20
-13.1957890216
 30
0.0
 10
-12.5065653845
 20
-13.1935938713
 30
0.0
 10
-12.450240936
 20
-13.2127900441
 30
0.0
 10
-12.4150061684
 20
-13.2310198076
 30
0.0
 11
-12.6308158048
 21
-13.2131231194
 31
0.0
 11
-12.582036362
 21
-13.1982061273
 31
0.0
 11
-12.5288237453
 21
-13.1962365168
 31
0.0
 11
-12.4150061684
 21
-13.2310198076
 31
0.0
  0
SPLINE
  5
4EB
100
AcDbEntity
  8
RACCORDO
100
AcDbSpline
 62
7
  6
CONTINUOUS
 70
0
 71
3
 72
11
 73
7
 74
5
 42
0.0000001
 43
0.0000001
 44
0.0000000001
 12
0.3974925321
 22
-0.1920748174
 32
0.0
 13
-0.0061350161
 23
-0.4414242972
 33
0.0
 40
0.0
 40
0.0
 40
0.0
 40
0.0
 40
0.2304286388
 40
0.4885150198
 40
0.752907934
 40
1.0
 40
1.0
 40
1.0
 40
1.0
 10
-52.998960536
 20
32.2444287253
 30
0.0
 10
-52.9684293149
 20
32.2296755457
 30
0.0
 10
-52.9100601804
 20
32.1851000634
 30
0.0
 10
-52.8430094818
 20
32.0956032568
 30
0.0
 10
-52.7980361175
 20
31.9905569548
 30
0.0
 10
-52.7863555058
 20
31.9149682918
 30
0.0
 10
-52.7868608103
 20
31.8786108113
 30
0.0
 11
-52.998960536
 21
32.2444287253
 31
0.0
 11
-52.9166719717
 21
32.1846215512
 31
0.0
 11
-52.8474742311
 21
32.0941051332
 31
0.0
 11
-52.8018908313
 21
31.9866533676
 31
0.0
 11
-52.7868608103
 21
31.8786108113
 31
0.0
  0
SPLINE
  5
4EC
100
AcDbEntity
  8
RACCORDO
100
AcDbSpline
 62
7
  6
CONTINUOUS
 70
0
 71
3
 72
11
 73
7
 74
5
 42
0.0000001
 43
0.0000001
 44
0.0000000001
 12
0.0025985231
 22
-0.1842770766
 32
0.0
 13
-0.1621869435
 23
-0.0875225037
 33
0.0
 40
0.0
 40
0.0
 40
0.0
 40
0.0
 40
0.2885747165
 40
0.5479727227
 40
0.7816955354
 40
1.0
 40
1.0
 40
1.0
 40
1.0
 10
-52.7868608103
 20
27.2988985726
 30
0.0
 10
-52.7866108543
 20
27.2811726709
 30
0.0
 10
-52.7889893416
 20
27.2473463652
 30
0.0
 10
-52.8027241223
 20
27.2008496903
 30
0.0
 10
-52.8262390863
 20
27.163247222
 30
0.0
 10
-52.8484136403
 20
27.1454420674
 30
0.0
 10
-52.8602156849
 20
27.1390732163
 30
0.0
 11
-52.7868608103
 21
27.2988985726
 31
0.0
 11
-52.7911265423
 21
27.2458869309
 31
0.0
 11
-52.8052879096
 21
27.2002267099
 31
0.0
 11
-52.8286825721
 21
27.1640595624
 31
0.0
 11
-52.8602156849
 21
27.1390732163
 31
0.0
  0
SPLINE
  5
4ED
100
AcDbEntity
  8
RACCORDO
100
AcDbSpline
 62
7
  6
CONTINUOUS
 70
0
 71
3
 72
11
 73
7
 74
5
 42
0.0000001
 43
0.0000001
 44
0.0000000001
 12
-0.0000124808
 22
-0.1402926118
 32
0.0
 13
-0.1245837348
 23
-0.064505117
 33
0.0
 40
0.0
 40
0.0
 40
0.0
 40
0.0
 40
0.2077729763
 40
0.4361383275
 40
0.6987155742
 40
1.0
 40
1.0
 40
1.0
 40
1.0
 10
-52.7026627962
 20
27.4030969724
 30
0.0
 10
-52.7026636606
 20
27.3933806345
 30
0.0
 10
-52.7068434626
 20
27.3728329014
 30
0.0
 10
-52.7243530569
 20
27.3446538141
 30
0.0
 10
-52.7517380996
 20
27.3192346174
 30
0.0
 10
-52.7743490974
 20
27.3053767017
 30
0.0
 10
-52.7868608103
 20
27.2988985726
 30
0.0
 11
-52.7026627962
 21
27.4030969724
 31
0.0
 11
-52.708177952
 21
27.3744744629
 31
0.0
 11
-52.7245056562
 21
27.346909309
 31
0.0
 11
-52.751076667
 21
27.3213947311
 31
0.0
 11
-52.7868608103
 21
27.2988985726
 31
0.0
  0
SPLINE
  5
4EE
100
AcDbEntity
  8
RACCORDO
100
AcDbSpline
 62
7
  6
CONTINUOUS
 70
0
 71
3
 72
11
 73
7
 74
5
 42
0.0000001
 43
0.0000001
 44
0.0000000001
 12
-0.0000400072
 22
-0.140278172
 32
0.0
 13
-0.1245709164
 23
-0.0644984801
 33
0.0
 40
0.0
 40
0.0
 40
0.0
 40
0.0
 40
0.207772967
 40
0.4361420497
 40
0.6987203143
 40
1.0
 40
1.0
 40
1.0
 40
1.0
 10
-52.702662799
 20
31.9827945734
 30
0.0
 10
-52.7026655698
 20
31.973079236
 30
0.0
 10
-52.7068484255
 20
31.9525343545
 30
0.0
 10
-52.7243588453
 20
31.9243598026
 30
0.0
 10
-52.7517419835
 20
31.898944368
 30
0.0
 10
-52.7743505815
 20
31.8850881719
 30
0.0
 10
-52.7868608103
 20
31.8786108113
 30
0.0
 11
-52.702662799
 21
31.9827945734
 31
0.0
 11
-52.7081821385
 21
31.954175926
 31
0.0
 11
-52.7245111384
 21
31.9266147627
 31
0.0
 11
-52.7510806586
 21
31.9011038987
 31
0.0
 11
-52.7868608103
 21
31.8786108113
 31
0.0
  0
SPLINE
  5
4EF
100
AcDbEntity
  8
RACCORDO
100
AcDbSpline
 62
7
  6
CONTINUOUS
 70
0
 71
3
 72
9
 73
5
 74
3
 42
0.0000001
 43
0.0000001
 44
0.0000000001
 12
-0.1199996392
 22
0.0599629832
 32
0.0
 13
-0.1210017713
 23
-0.0579141097
 33
0.0
 40
0.0
 40
0.0
 40
0.0
 40
0.0
 40
0.4650363047
 40
1.0
 40
1.0
 40
1.0
 40
1.0
 10
-52.8685108931
 20
32.2511392351
 30
0.0
 10
-52.8871122894
 20
32.2604342232
 30
0.0
 10
-52.933486523
 20
32.2685556529
 30
0.0
 10
-52.9773833511
 20
32.2547560407
 30
0.0
 10
-52.998960536
 20
32.2444287253
 30
0.0
 11
-52.8685108931
 21
32.2511392351
 31
0.0
 11
-52.9297079332
 21
32.2632471251
 31
0.0
 11
-52.998960536
 21
32.2444287253
 31
0.0
  0
SPLINE
  5
4F0
100
AcDbEntity
  8
RACCORDO
100
AcDbSpline
 62
7
  6
CONTINUOUS
 70
0
 71
3
 72
9
 73
5
 74
3
 42
0.0000001
 43
0.0000001
 44
0.0000000001
 12
-0.1200027248
 22
0.0599767827
 32
0.0
 13
-0.1210098253
 23
-0.0579179644
 33
0.0
 40
0.0
 40
0.0
 40
0.0
 40
0.0
 40
0.465035448
 40
1.0
 40
1.0
 40
1.0
 40
1.0
 10
-53.1951955874
 20
32.4144815844
 30
0.0
 10
-53.2137974277
 20
32.4237786944
 30
0.0
 10
-53.260174702
 20
32.4319034773
 30
0.0
 10
-53.304074823
 20
32.4181032159
 30
0.0
 10
-53.3256534786
 20
32.4077751966
 30
0.0
 11
-53.1951955874
 21
32.4144815844
 31
0.0
 11
-53.2563958766
 21
32.426593853
 31
0.0
 11
-53.3256534786
 21
32.4077751966
 31
0.0
  0
SPLINE
  5
4F1
100
AcDbEntity
  8
RACCORDO
100
AcDbSpline
 62
7
  6
CONTINUOUS
 70
0
 71
3
 72
10
 73
6
 74
4
 42
0.0000001
 43
0.0000001
 44
0.0000000001
 12
-0.2007849185
 22
0.1003834788
 32
0.0
 13
-0.2024829331
 23
-0.0969127862
 33
0.0
 40
0.0
 40
0.0
 40
0.0
 40
0.0
 40
0.228589462
 40
0.467155801
 40
1.0
 40
1.0
 40
1.0
 40
1.0
 10
-36.0270683654
 20
-1.3050887891
 30
0.0
 10
-36.0423674709
 20
-1.2974399207
 30
0.0
 10
-36.0759877947
 20
-1.2861234977
 30
0.0
 10
-36.1513398299
 20
-1.2815483614
 30
0.0
 10
-36.2085407423
 20
-1.299057406
 30
0.0
 10
-36.2445046944
 20
-1.3162705446
 30
0.0
 11
-36.0270683654
 21
-1.3050887891
 31
0.0
 11
-36.0756482816
 21
-1.2885629879
 31
0.0
 11
-36.1290767878
 21
-1.2849068661
 31
0.0
 11
-36.2445046944
 21
-1.3162705446
 31
0.0
  0
SPLINE
  5
4F2
100
AcDbEntity
  8
RACCORDO
100
AcDbSpline
 62
7
  6
CONTINUOUS
 70
0
 71
3
 72
9
 73
5
 74
3
 42
0.0000001
 43
0.0000001
 44
0.0000000001
 12
-0.0000256854
 22
-0.1493772331
 32
0.0
 13
-0.1143359048
 23
-0.0961293883
 33
0.0
 40
0.0
 40
0.0
 40
0.0
 40
0.0
 40
0.4593390356
 40
1.0
 40
1.0
 40
1.0
 40
1.0
 10
-34.4903353867
 20
-2.3824984146
 30
0.0
 10
-34.4903393195
 20
-2.4053700127
 30
0.0
 10
-34.5052634304
 20
-2.4554988317
 30
0.0
 10
-34.5399608005
 20
-2.4929193327
 30
0.0
 10
-34.560566454
 20
-2.5102438019
 30
0.0
 11
-34.4903353867
 21
-2.3824984146
 31
0.0
 11
-34.5082217793
 21
-2.4487409016
 31
0.0
 11
-34.560566454
 21
-2.5102438019
 31
0.0
  0
SPLINE
  5
4F3
100
AcDbEntity
  8
RACCORDO
100
AcDbSpline
 62
7
  6
CONTINUOUS
 70
0
 71
3
 72
10
 73
6
 74
4
 42
0.0000001
 43
0.0000001
 44
0.0000000001
 12
-0.2007783487
 22
0.1003543499
 32
0.0
 13
-0.2024658842
 23
-0.0969046262
 33
0.0
 40
0.0
 40
0.0
 40
0.0
 40
0.0
 40
0.2285889596
 40
0.4671563765
 40
1.0
 40
1.0
 40
1.0
 40
1.0
 10
-34.766743668
 20
-1.9352511397
 30
0.0
 10
-34.7820422392
 20
-1.9276045076
 30
0.0
 10
-34.8156606792
 20
-1.9162920713
 30
0.0
 10
-34.8910064521
 20
-1.9117216638
 30
0.0
 10
-34.9482019101
 20
-1.9292298235
 30
0.0
 10
-34.9841627952
 20
-1.9464414942
 30
0.0
 11
-34.766743668
 21
-1.9352511397
 31
0.0
 11
-34.8153208518
 21
-1.918731073
 31
0.0
 11
-34.8687453134
 21
-1.9150783517
 31
0.0
 11
-34.9841627952
 21
-1.9464414942
 31
0.0
  0
SPLINE
  5
4F4
100
AcDbEntity
  8
RACCORDO
100
AcDbSpline
 62
7
  6
CONTINUOUS
 70
0
 71
3
 72
10
 73
6
 74
4
 42
0.0000001
 43
0.0000001
 44
0.0000000001
 12
-0.2007849185
 22
0.1003834788
 32
0.0
 13
-0.2024829331
 23
-0.0969127862
 33
0.0
 40
0.0
 40
0.0
 40
0.0
 40
0.0
 40
0.228589462
 40
0.467155801
 40
1.0
 40
1.0
 40
1.0
 40
1.0
 10
-12.1975698394
 20
-13.2198380521
 30
0.0
 10
-12.212868945
 20
-13.2121891837
 30
0.0
 10
-12.2464892688
 20
-13.2008727607
 30
0.0
 10
-12.321841304
 20
-13.1962976244
 30
0.0
 10
-12.3790422163
 20
-13.213806669
 30
0.0
 10
-12.4150061684
 20
-13.2310198076
 30
0.0
 11
-12.1975698394
 21
-13.2198380521
 31
0.0
 11
-12.2461497556
 21
-13.2033122509
 31
0.0
 11
-12.2995782619
 21
-13.1996561291
 31
0.0
 11
-12.4150061684
 21
-13.2310198076
 31
0.0
  0
SPLINE
  5
4F5
100
AcDbEntity
  8
ASSI
100
AcDbSpline
 62
7
  6
CONTINUOUS
 70
0
 71
3
 72
11
 73
7
 74
5
 42
0.0000001
 43
0.0000001
 44
0.0000000001
 12
0.0483159092
 22
0.0240461291
 32
0.0
 13
0.048326814
 23
-0.0240242057
 33
0.0
 40
0.0
 40
0.0
 40
0.0
 40
0.0
 40
0.4141056993
 40
0.7151930062
 40
0.9055096016
 40
1.0
 40
1.0
 40
1.0
 40
1.0
 10
-42.0761060411
 20
2.8372630366
 30
0.0
 10
-42.0694367433
 20
2.8405822496
 30
0.0
 10
-42.057811028
 20
2.8459781953
 30
0.0
 10
-42.0425833817
 20
2.8522501969
 30
0.0
 10
-42.0327867708
 20
2.855245328
 30
0.0
 10
-42.0272734493
 20
2.8560800189
 30
0.0
 10
-42.0257513093
 20
2.8553233334
 30
0.0
 11
-42.0761060411
 21
2.8372630366
 31
0.0
 11
-42.0558392885
 21
2.8466826499
 31
0.0
 11
-42.0407382757
 21
2.8526827268
 31
0.0
 11
-42.0308490805
 21
2.8554577851
 31
0.0
 11
-42.0257513093
 21
2.8553233334
 31
0.0
  0
SPLINE
  5
4F6
100
AcDbEntity
  8
RACCORDO
100
AcDbSpline
 62
7
  6
CONTINUOUS
 70
0
 71
3
 72
11
 73
7
 74
5
 42
0.0000001
 43
0.0000001
 44
0.0000000001
 12
-0.0000812425
 22
-0.2475015482
 32
0.0
 13
-0.2228804517
 23
-0.1076165751
 33
0.0
 40
0.0
 40
0.0
 40
0.0
 40
0.0
 40
0.2053978708
 40
0.43288631
 40
0.6963220094
 40
1.0
 40
1.0
 40
1.0
 40
1.0
 10
-10.6670083675
 20
-14.2941737502
 30
0.0
 10
-10.6670139299
 20
-14.3111191805
 30
0.0
 10
-10.674713031
 20
-14.3471081653
 30
0.0
 10
-10.7066662176
 20
-14.3959601833
 30
0.0
 10
-10.7563187098
 20
-14.4396245289
 30
0.0
 10
-10.797115443
 20
-14.4630783942
 30
0.0
 10
-10.8196767389
 20
-14.4739719893
 30
0.0
 11
-10.6670083675
 21
-14.2941737502
 31
0.0
 11
-10.6770590062
 21
-14.3440066051
 31
0.0
 11
-10.7067664123
 21
-14.3918352743
 31
0.0
 11
-10.7549605182
 21
-14.4357495723
 31
0.0
 11
-10.8196767389
 21
-14.4739719893
 31
0.0
  0
SPLINE
  5
4F7
100
AcDbEntity
  8
RACCORDO
100
AcDbSpline
 62
7
  6
CONTINUOUS
 70
0
 71
3
 72
10
 73
6
 74
4
 42
0.0000001
 43
0.0000001
 44
0.0000000001
 12
-0.2007672143
 22
0.1003049638
 32
0.0
 13
-0.2024369874
 23
-0.0968907955
 33
0.0
 40
0.0
 40
0.0
 40
0.0
 40
0.0
 40
0.2285881083
 40
0.4671573455
 40
1.0
 40
1.0
 40
1.0
 40
1.0
 10
-10.9434455964
 20
-13.8469001839
 30
0.0
 10
-10.9587432623
 20
-13.8392573433
 30
0.0
 10
-10.9923585077
 20
-13.8279516653
 30
0.0
 10
-11.0676936653
 20
-13.8233892628
 30
0.0
 10
-11.1248798794
 20
-13.8408959256
 30
0.0
 10
-11.1608355666
 20
-13.8581051085
 30
0.0
 11
-10.9434455964
 21
-13.8469001839
 31
0.0
 11
-10.9920181485
 21
-13.8303898375
 31
0.0
 11
-11.0454357525
 21
-13.8267428751
 31
0.0
 11
-11.1608355666
 21
-13.8581051085
 31
0.0
  0
SPLINE
  5
4F8
100
AcDbEntity
  8
RACCORDO
100
AcDbSpline
 62
7
  6
CONTINUOUS
 70
0
 71
3
 72
10
 73
6
 74
4
 42
0.0000001
 43
0.0000001
 44
0.0000000001
 12
-0.2007849323
 22
0.1003834738
 32
0.0
 13
-0.2024829422
 23
-0.0969127905
 33
0.0
 40
0.0
 40
0.0
 40
0.0
 40
0.0
 40
0.2285894578
 40
0.4671557942
 40
1.0
 40
1.0
 40
1.0
 40
1.0
 10
11.638099993
 20
-25.1376729685
 30
0.0
 10
11.6228008867
 20
-25.1300241005
 30
0.0
 10
11.5891805637
 20
-25.1187076729
 30
0.0
 10
11.5138285245
 20
-25.1141325349
 30
0.0
 10
11.4566276092
 20
-25.1316415797
 30
0.0
 10
11.420663655
 20
-25.1488547193
 30
0.0
 11
11.638099993
 21
-25.1376729685
 31
0.0
 11
11.5895200764
 21
-25.1211471642
 31
0.0
 11
11.5360915685
 21
-25.1174910403
 31
0.0
 11
11.420663655
 21
-25.1488547193
 31
0.0
  0
SPLINE
  5
4F9
100
AcDbEntity
  8
RACCORDO
100
AcDbSpline
 62
7
  6
CONTINUOUS
 70
0
 71
3
 72
9
 73
5
 74
3
 42
0.0000001
 43
0.0000001
 44
0.0000000001
 12
-0.0000256854
 22
-0.1493772331
 32
0.0
 13
-0.1143359048
 23
-0.0961293883
 33
0.0
 40
0.0
 40
0.0
 40
0.0
 40
0.0
 40
0.4593390356
 40
1.0
 40
1.0
 40
1.0
 40
1.0
 10
13.1686616653
 20
-26.2119969406
 30
0.0
 10
13.1686577325
 20
-26.2348685387
 30
0.0
 10
13.1537336216
 20
-26.2849973577
 30
0.0
 10
13.1190362514
 20
-26.3224178587
 30
0.0
 10
13.0984305979
 20
-26.3397423279
 30
0.0
 11
13.1686616653
 21
-26.2119969406
 31
0.0
 11
13.1507752727
 21
-26.2782394275
 31
0.0
 11
13.0984305979
 21
-26.3397423279
 31
0.0
  0
SPLINE
  5
4FA
100
AcDbEntity
  8
RACCORDO
100
AcDbSpline
 62
7
  6
CONTINUOUS
 70
0
 71
3
 72
10
 73
6
 74
4
 42
0.0000001
 43
0.0000001
 44
0.0000000001
 12
-0.2007783487
 22
0.1003543499
 32
0.0
 13
-0.2024658842
 23
-0.0969046262
 33
0.0
 40
0.0
 40
0.0
 40
0.0
 40
0.0
 40
0.2285889596
 40
0.4671563765
 40
1.0
 40
1.0
 40
1.0
 40
1.0
 10
12.892253384
 20
-25.7647496657
 30
0.0
 10
12.8769548127
 20
-25.7571030336
 30
0.0
 10
12.8433363728
 20
-25.7457905973
 30
0.0
 10
12.7679905999
 20
-25.7412201898
 30
0.0
 10
12.7107951419
 20
-25.7587283495
 30
0.0
 10
12.6748342567
 20
-25.7759400202
 30
0.0
 11
12.892253384
 21
-25.7647496657
 31
0.0
 11
12.8436762001
 21
-25.748229599
 31
0.0
 11
12.7902517385
 21
-25.7445768776
 31
0.0
 11
12.6748342567
 21
-25.7759400202
 31
0.0
  0
SPLINE
  5
4FB
100
AcDbEntity
  8
RACCORDO
100
AcDbSpline
 62
7
  6
CONTINUOUS
 70
0
 71
3
 72
10
 73
6
 74
4
 42
0.0000001
 43
0.0000001
 44
0.0000000001
 12
-0.2007849185
 22
0.1003834788
 32
0.0
 13
-0.2024829331
 23
-0.0969127862
 33
0.0
 40
0.0
 40
0.0
 40
0.0
 40
0.0
 40
0.228589462
 40
0.467155801
 40
1.0
 40
1.0
 40
1.0
 40
1.0
 10
35.4614272125
 20
-37.0493365781
 30
0.0
 10
35.446128107
 20
-37.0416877096
 30
0.0
 10
35.4125077832
 20
-37.0303712867
 30
0.0
 10
35.337155748
 20
-37.0257961504
 30
0.0
 10
35.2799548357
 20
-37.043305195
 30
0.0
 10
35.2439908836
 20
-37.0605183336
 30
0.0
 11
35.4614272125
 21
-37.0493365781
 31
0.0
 11
35.4128472963
 21
-37.0328107769
 31
0.0
 11
35.3594187901
 21
-37.0291546551
 31
0.0
 11
35.2439908836
 21
-37.0605183336
 31
0.0
  0
SPLINE
  5
4FC
100
AcDbEntity
  8
RACCORDO
100
AcDbSpline
 62
7
  6
CONTINUOUS
 70
0
 71
3
 72
9
 73
5
 74
3
 42
0.0000001
 43
0.0000001
 44
0.0000000001
 12
-0.0000256854
 22
-0.1493772331
 32
0.0
 13
-0.1143359048
 23
-0.0961293883
 33
0.0
 40
0.0
 40
0.0
 40
0.0
 40
0.0
 40
0.4593390356
 40
1.0
 40
1.0
 40
1.0
 40
1.0
 10
36.9981601913
 20
-38.1267462036
 30
0.0
 10
36.9981562585
 20
-38.1496178016
 30
0.0
 10
36.9832321476
 20
-38.1997466207
 30
0.0
 10
36.9485347774
 20
-38.2371671217
 30
0.0
 10
36.9279291239
 20
-38.2544915909
 30
0.0
 11
36.9981601913
 21
-38.1267462036
 31
0.0
 11
36.9802737987
 21
-38.1929886905
 31
0.0
 11
36.9279291239
 21
-38.2544915909
 31
0.0
  0
SPLINE
  5
4FD
100
AcDbEntity
  8
RACCORDO
100
AcDbSpline
 62
7
  6
CONTINUOUS
 70
0
 71
3
 72
10
 73
6
 74
4
 42
0.0000001
 43
0.0000001
 44
0.0000000001
 12
-0.2007783487
 22
0.1003543499
 32
0.0
 13
-0.2024658842
 23
-0.0969046262
 33
0.0
 40
0.0
 40
0.0
 40
0.0
 40
0.0
 40
0.2285889596
 40
0.4671563765
 40
1.0
 40
1.0
 40
1.0
 40
1.0
 10
36.72175191
 20
-37.6794989287
 30
0.0
 10
36.7064533387
 20
-37.6718522966
 30
0.0
 10
36.6728348988
 20
-37.6605398603
 30
0.0
 10
36.5974891259
 20
-37.6559694527
 30
0.0
 10
36.5402936679
 20
-37.6734776125
 30
0.0
 10
36.5043327827
 20
-37.6906892832
 30
0.0
 11
36.72175191
 21
-37.6794989287
 31
0.0
 11
36.6731747261
 21
-37.662978862
 31
0.0
 11
36.6197502645
 21
-37.6593261406
 31
0.0
 11
36.5043327827
 21
-37.6906892832
 31
0.0
  0
SPLINE
  5
4FE
100
AcDbEntity
  8
RACCORDO
100
AcDbSpline
 62
7
  6
CONTINUOUS
 70
0
 71
3
 72
9
 73
5
 74
3
 42
0.0000001
 43
0.0000001
 44
0.0000000001
 12
0.1211472951
 22
0.0559346344
 32
0.0
 13
0.1185141191
 23
-0.061316833
 33
0.0
 40
0.0
 40
0.0
 40
0.0
 40
0.0
 40
0.4648521119
 40
1.0
 40
1.0
 40
1.0
 40
1.0
 10
-53.4551392584
 20
32.4185132105
 30
0.0
 10
-53.4363673998
 20
32.4271803215
 30
0.0
 10
-53.3900027716
 20
32.4338020829
 30
0.0
 10
-53.3467943388
 20
32.4187130545
 30
0.0
 10
-53.3256534786
 20
32.4077751966
 30
0.0
 11
-53.4551392584
 21
32.4185132105
 31
0.0
 11
-53.3939440234
 21
32.428645171
 31
0.0
 11
-53.3256534786
 21
32.4077751966
 31
0.0
  0
SPLINE
  5
4FF
100
AcDbEntity
  8
ASSI
100
AcDbSpline
 62
7
  6
CONTINUOUS
 70
0
 71
3
 72
11
 73
7
 74
5
 42
0.0000001
 43
0.0000001
 44
0.0000000001
 12
0.048315538
 22
0.0240467905
 32
0.0
 13
0.0483272103
 23
-0.0240233238
 33
0.0
 40
0.0
 40
0.0
 40
0.0
 40
0.0
 40
0.4141046671
 40
0.7151915315
 40
0.9055086154
 40
1.0
 40
1.0
 40
1.0
 40
1.0
 10
-26.1662034644
 20
-5.2042907921
 30
0.0
 10
-26.1595342345
 20
-5.2009714961
 30
0.0
 10
-26.147908481
 20
-5.1955756992
 30
0.0
 10
-26.1326808948
 20
-5.1893036666
 30
0.0
 10
-26.1228842604
 20
-5.1863085068
 30
0.0
 10
-26.1173709378
 20
-5.1854738119
 30
0.0
 10
-26.1158487695
 20
-5.1862304776
 30
0.0
 11
-26.1662034644
 21
-5.2042907921
 31
0.0
 11
-26.145936774
 21
-5.1948712142
 31
0.0
 11
-26.1308357989
 21
-5.1888711377
 31
0.0
 11
-26.1209465911
 21
-5.1860960536
 31
0.0
 11
-26.1158487695
 21
-5.1862304776
 31
0.0
  0
SPLINE
  5
500
100
AcDbEntity
  8
ASSI
100
AcDbSpline
 62
7
  6
CONTINUOUS
 70
0
 71
3
 72
11
 73
7
 74
5
 42
0.0000001
 43
0.0000001
 44
0.0000000001
 12
0.048315538
 22
0.0240467905
 32
0.0
 13
0.0483272103
 23
-0.0240233238
 33
0.0
 40
0.0
 40
0.0
 40
0.0
 40
0.0
 40
0.4141046671
 40
0.7151915315
 40
0.9055086154
 40
1.0
 40
1.0
 40
1.0
 40
1.0
 10
-10.2563008877
 20
-13.1592420805
 30
0.0
 10
-10.2496316578
 20
-13.1559227844
 30
0.0
 10
-10.2380059043
 20
-13.1505269875
 30
0.0
 10
-10.2227783181
 20
-13.1442549549
 30
0.0
 10
-10.2129816837
 20
-13.1412597951
 30
0.0
 10
-10.2074683611
 20
-13.1404251002
 30
0.0
 10
-10.2059461928
 20
-13.1411817659
 30
0.0
 11
-10.2563008877
 21
-13.1592420805
 31
0.0
 11
-10.2360341973
 21
-13.1498225025
 31
0.0
 11
-10.2209332222
 21
-13.1438224261
 31
0.0
 11
-10.2110440144
 21
-13.1410473419
 31
0.0
 11
-10.2059461928
 21
-13.1411817659
 31
0.0
  0
SPLINE
  5
501
100
AcDbEntity
  8
ASSI
100
AcDbSpline
 62
7
  6
CONTINUOUS
 70
0
 71
3
 72
11
 73
7
 74
5
 42
0.0000001
 43
0.0000001
 44
0.0000000001
 12
0.048315538
 22
0.0240467905
 32
0.0
 13
0.0483272103
 23
-0.0240233238
 33
0.0
 40
0.0
 40
0.0
 40
0.0
 40
0.0
 40
0.4141046671
 40
0.7151915315
 40
0.9055086154
 40
1.0
 40
1.0
 40
1.0
 40
1.0
 10
5.653601689
 20
-21.1141933688
 30
0.0
 10
5.6602709189
 20
-21.1108740728
 30
0.0
 10
5.6718966724
 20
-21.1054782759
 30
0.0
 10
5.6871242586
 20
-21.0992062433
 30
0.0
 10
5.696920893
 20
-21.0962110835
 30
0.0
 10
5.7024342156
 20
-21.0953763886
 30
0.0
 10
5.7039563839
 20
-21.0961330543
 30
0.0
 11
5.653601689
 21
-21.1141933688
 31
0.0
 11
5.6738683794
 21
-21.1047737909
 31
0.0
 11
5.6889693545
 21
-21.0987737144
 31
0.0
 11
5.6988585623
 21
-21.0959986303
 31
0.0
 11
5.7039563839
 21
-21.0961330543
 31
0.0
  0
SPLINE
  5
502
100
AcDbEntity
  8
ASSI
100
AcDbSpline
 62
7
  6
CONTINUOUS
 70
0
 71
3
 72
11
 73
7
 74
5
 42
0.0000001
 43
0.0000001
 44
0.0000000001
 12
0.048315538
 22
0.0240467905
 32
0.0
 13
0.0483272103
 23
-0.0240233238
 33
0.0
 40
0.0
 40
0.0
 40
0.0
 40
0.0
 40
0.4141046671
 40
0.7151915315
 40
0.9055086154
 40
1.0
 40
1.0
 40
1.0
 40
1.0
 10
21.5635042657
 20
-29.0691446572
 30
0.0
 10
21.5701734956
 20
-29.0658253611
 30
0.0
 10
21.5817992491
 20
-29.0604295642
 30
0.0
 10
21.5970268353
 20
-29.0541575316
 30
0.0
 10
21.6068234697
 20
-29.0511623718
 30
0.0
 10
21.6123367923
 20
-29.0503276769
 30
0.0
 10
21.6138589606
 20
-29.0510843426
 30
0.0
 11
21.5635042657
 21
-29.0691446572
 31
0.0
 11
21.5837709561
 21
-29.0597250792
 31
0.0
 11
21.5988719312
 21
-29.0537250028
 31
0.0
 11
21.608761139
 21
-29.0509499186
 31
0.0
 11
21.6138589606
 21
-29.0510843426
 31
0.0
  0
SPLINE
  5
503
100
AcDbEntity
  8
ASSI
100
AcDbSpline
 62
7
  6
CONTINUOUS
 70
0
 71
3
 72
11
 73
7
 74
5
 42
0.0000001
 43
0.0000001
 44
0.0000000001
 12
0.048315538
 22
0.0240467905
 32
0.0
 13
0.0483272103
 23
-0.0240233238
 33
0.0
 40
0.0
 40
0.0
 40
0.0
 40
0.0
 40
0.4141046671
 40
0.7151915315
 40
0.9055086154
 40
1.0
 40
1.0
 40
1.0
 40
1.0
 10
37.4734068424
 20
-37.0240959455
 30
0.0
 10
37.4800760723
 20
-37.0207766495
 30
0.0
 10
37.4917018258
 20
-37.0153808526
 30
0.0
 10
37.506929412
 20
-37.00910882
 30
0.0
 10
37.5167260464
 20
-37.0061136602
 30
0.0
 10
37.522239369
 20
-37.0052789653
 30
0.0
 10
37.5237615373
 20
-37.006035631
 30
0.0
 11
37.4734068424
 21
-37.0240959455
 31
0.0
 11
37.4936735328
 21
-37.0146763676
 31
0.0
 11
37.5087745079
 21
-37.0086762911
 31
0.0
 11
37.5186637157
 21
-37.0059012069
 31
0.0
 11
37.5237615373
 21
-37.006035631
 31
0.0
  0
SPLINE
  5
504
100
AcDbEntity
  8
SMUSSO
100
AcDbSpline
 62
7
  6
CONTINUOUS
 70
0
 71
3
 72
11
 73
7
 74
5
 42
0.0000001
 43
0.0000001
 44
0.0000000001
 12
0.5212902236
 22
-0.3908910505
 32
0.0
 13
0.0000000005
 23
-0.6515668121
 33
0.0
 40
0.0
 40
0.0
 40
0.0
 40
0.0
 40
0.2409201141
 40
0.4999921995
 40
0.7590683138
 40
1.0
 40
1.0
 40
1.0
 40
1.0
 10
74.9709672865
 20
10.0510183388
 30
0.0
 10
75.0128303866
 20
10.0196271667
 30
0.0
 10
75.090402805
 20
9.9417629637
 30
0.0
 10
75.1792634727
 20
9.8016032473
 30
0.0
 10
75.2380846599
 20
9.646419689
 30
0.0
 10
75.2538391877
 20
9.537641097
 30
0.0
 10
75.2538391878
 20
9.4853134001
 30
0.0
 11
74.9709672865
 21
10.0510183388
 31
0.0
 11
75.0831657798
 21
9.9412329955
 31
0.0
 11
75.1741366096
 21
9.7990405757
 31
0.0
 11
75.2333181669
 21
9.640949445
 31
0.0
 11
75.2538391878
 21
9.4853134001
 31
0.0
  0
SPLINE
  5
505
100
AcDbEntity
  8
DRAFT
100
AcDbSpline
 62
7
  6
CONTINUOUS
 70
0
 71
3
 72
11
 73
7
 74
5
 42
0.0000001
 43
0.0000001
 44
0.0000000001
 12
0.6261200182
 22
0.330537926
 32
0.0
 13
0.6332655671
 23
-0.3166327829
 33
0.0
 40
0.0
 40
0.0
 40
0.0
 40
0.0
 40
0.2272052889
 40
0.4644991273
 40
0.7204661003
 40
1.0
 40
1.0
 40
1.0
 40
1.0
 10
-71.3748681411
 20
83.0875902713
 30
0.0
 10
-71.3274488813
 20
83.1126235929
 30
0.0
 10
-71.2224711954
 20
83.1498383868
 30
0.0
 10
-71.0509152342
 20
83.1605347067
 30
0.0
 10
-70.8700157232
 20
83.1276801534
 30
0.0
 10
-70.7520068479
 20
83.0801677424
 30
0.0
 10
-70.6930004501
 20
83.0506645435
 30
0.0
 11
-71.3748681411
 21
83.0875902713
 31
0.0
 11
-71.2234046985
 21
83.1417761194
 31
0.0
 11
-71.0558220554
 21
83.1537094883
 31
0.0
 11
-70.8772102804
 21
83.1230280839
 31
0.0
 11
-70.6930004501
 21
83.0506645435
 31
0.0
  0
SPLINE
  5
506
100
AcDbEntity
  8
DRAFT
100
AcDbSpline
 62
7
  6
CONTINUOUS
 70
0
 71
3
 72
9
 73
5
 74
3
 42
0.0000001
 43
0.0000001
 44
0.0000000001
 12
-0.2861906178
 22
-0.1510842179
 32
0.0
 13
-0.1691987988
 23
-0.2758682241
 33
0.0
 40
0.0
 40
0.0
 40
0.0
 40
0.0
 40
0.4874623108
 40
1.0
 40
1.0
 40
1.0
 40
1.0
 10
-73.0471116592
 20
82.2047969633
 30
0.0
 10
-73.0936140392
 20
82.180247676
 30
0.0
 10
-73.1820059666
 20
82.1155537831
 30
0.0
 10
-73.2492557377
 20
82.029544193
 30
0.0
 10
-73.2781626581
 20
81.9824132389
 30
0.0
 11
-73.0471116592
 21
82.2047969633
 31
0.0
 11
-73.1747657169
 21
82.1121109815
 31
0.0
 11
-73.2781626581
 21
81.9824132389
 31
0.0
  0
SPLINE
  5
507
100
AcDbEntity
  8
DRAFT
100
AcDbSpline
 62
7
  6
CONTINUOUS
 70
0
 71
3
 72
9
 73
5
 74
3
 42
0.0000001
 43
0.0000001
 44
0.0000000001
 12
0.2237767483
 22
-0.1118883742
 32
0.0
 13
0.200153488
 23
-0.1501120336
 33
0.0
 40
0.0
 40
0.0
 40
0.0
 40
0.0
 40
0.2413233768
 40
1.0
 40
1.0
 40
1.0
 40
1.0
 10
74.193179016
 20
10.6075748105
 30
0.0
 10
74.2111798695
 20
10.5985743837
 30
0.0
 10
74.2848324411
 20
10.5594103621
 30
0.0
 10
74.3546816403
 20
10.5132350608
 30
0.0
 10
74.4052988978
 20
10.4752728972
 30
0.0
 11
74.193179016
 21
10.6075748105
 31
0.0
 11
74.2465065472
 21
10.5792636801
 31
0.0
 11
74.4052988978
 21
10.4752728972
 31
0.0
  0
SPLINE
  5
508
100
AcDbEntity
  8
DRAFT
100
AcDbSpline
 62
7
  6
CONTINUOUS
 70
0
 71
3
 72
9
 73
5
 74
3
 42
0.0000001
 43
0.0000001
 44
0.0000000001
 12
0.2402651583
 22
0.0068428664
 32
0.0
 13
0.2173065564
 23
0.1027230823
 33
0.0
 40
0.0
 40
0.0
 40
0.0
 40
0.0
 40
0.507549906
 40
1.0
 40
1.0
 40
1.0
 40
1.0
 10
72.9104500955
 20
-82.0148883078
 30
0.0
 10
72.9510989483
 20
-82.0137306091
 30
0.0
 10
73.0312236657
 20
-82.0039156651
 30
0.0
 10
73.1076118875
 20
-81.9775135734
 30
0.0
 10
73.1432827656
 20
-81.9606515762
 30
0.0
 11
72.9104500955
 21
-82.0148883078
 31
0.0
 11
73.0314709868
 21
-81.9994944975
 31
0.0
 11
73.1432827656
 21
-81.9606515762
 31
0.0
  0
SPLINE
  5
509
100
AcDbEntity
  8
DRAFT
100
AcDbSpline
 62
7
  6
CONTINUOUS
 70
0
 71
3
 72
11
 73
7
 74
5
 42
0.0000001
 43
0.0000001
 44
0.0000000001
 12
0.0
 22
-0.9568012632
 32
0.0
 13
-0.8650231053
 23
-0.4089054714
 33
0.0
 40
0.0
 40
0.0
 40
0.0
 40
0.0
 40
0.2901625027
 40
0.5498879963
 40
0.78281024
 40
1.0
 40
1.0
 40
1.0
 40
1.0
 10
75.2538391878
 20
-80.3358074305
 30
0.0
 10
75.2538391878
 20
-80.4283500469
 30
0.0
 10
75.2387110156
 20
-80.6044203208
 30
0.0
 10
75.1622397567
 20
-80.8447500023
 30
0.0
 10
75.034453477
 20
-81.0360101416
 30
0.0
 10
74.9154892184
 20
-81.1229288978
 30
0.0
 10
74.8528644982
 20
-81.1525322582
 30
0.0
 11
75.2538391878
 21
-80.3358074305
 31
0.0
 11
75.2271287717
 21
-80.6121473956
 31
0.0
 11
75.1483475901
 21
-80.8478348975
 31
0.0
 11
75.0214631914
 21
-81.0310480558
 31
0.0
 11
74.8528644982
 21
-81.1525322582
 31
0.0
  0
SPLINE
  5
50A
100
AcDbEntity
  8
DRAFT
100
AcDbSpline
 62
7
  6
CONTINUOUS
 70
0
 71
3
 72
11
 73
7
 74
5
 42
0.0000001
 43
0.0000001
 44
0.0000000001
 12
1.5637021623
 22
-1.1727525407
 32
0.0
 13
0.0000000014
 23
-1.9546132544
 33
0.0
 40
0.0
 40
0.0
 40
0.0
 40
0.0
 40
0.2409247476
 40
0.4999964389
 40
0.7590688621
 40
1.0
 40
1.0
 40
1.0
 40
1.0
 10
74.4052988978
 20
10.4752728972
 30
0.0
 10
74.5308770807
 20
10.3810911939
 30
0.0
 10
74.7635747807
 20
10.1474981047
 30
0.0
 10
75.0301345639
 20
9.7270307257
 30
0.0
 10
75.2065805886
 20
9.2615007911
 30
0.0
 10
75.2538391877
 20
8.9351823519
 30
0.0
 10
75.2538391878
 20
8.7782066201
 30
0.0
 11
74.4052988978
 21
10.4752728972
 31
0.0
 11
74.7418679997
 21
10.1459069929
 31
0.0
 11
75.0147560739
 21
9.7193418414
 31
0.0
 11
75.1922820364
 21
9.2450932665
 31
0.0
 11
75.2538391878
 21
8.7782066201
 31
0.0
  0
SPLINE
  5
50B
100
AcDbEntity
  8
DRAFT
100
AcDbSpline
 62
7
  6
CONTINUOUS
 70
0
 71
3
 72
12
 73
8
 74
6
 42
0.0000001
 43
0.0000001
 44
0.0000000001
 12
0.0
 22
2.1421545657
 32
0.0
 13
-1.9160012917
 23
0.9580006437
 33
0.0
 40
0.0
 40
0.0
 40
0.0
 40
0.0
 40
0.2466626608
 40
0.5115167918
 40
0.6433273503
 40
0.7704456963
 40
1.0
 40
1.0
 40
1.0
 40
1.0
 10
73.5330974963
 20
7.947356151
 30
0.0
 10
73.5330974963
 20
8.1234859993
 30
0.0
 10
73.4722906899
 20
8.4892963769
 30
0.0
 10
73.2884658188
 20
8.9147363561
 30
0.0
 10
73.0814346605
 20
9.2274600571
 30
0.0
 10
72.8537583716
 20
9.4919998912
 30
0.0
 10
72.6485664822
 20
9.6525048325
 30
0.0
 10
72.5019577014
 20
9.7258092228
 30
0.0
 11
73.5330974963
 21
7.947356151
 31
0.0
 11
73.4546053812
 21
8.469883183
 31
0.0
 11
73.2310818169
 21
8.9913550114
 31
0.0
 11
73.0748275498
 21
9.2265378705
 31
0.0
 11
72.8965549647
 21
9.4323777761
 31
0.0
 11
72.5019577014
 21
9.7258092228
 31
0.0
  0
SPLINE
  5
50C
100
AcDbEntity
  8
DRAFT
100
AcDbSpline
 62
7
  6
CONTINUOUS
 70
0
 71
3
 72
11
 73
7
 74
5
 42
0.0000001
 43
0.0000001
 44
0.0000000001
 12
-0.6156404704
 22
0.3078202352
 32
0.0
 13
-0.6086937972
 23
-0.3213383688
 33
0.0
 40
0.0
 40
0.0
 40
0.0
 40
0.0
 40
0.2795338998
 40
0.5355008729
 40
0.7727947112
 40
1.0
 40
1.0
 40
1.0
 40
1.0
 10
-72.3842217628
 20
82.1688989549
 30
0.0
 10
-72.4415858899
 20
82.1975810184
 30
0.0
 10
-72.556310333
 20
82.2437710605
 30
0.0
 10
-72.7321750348
 20
82.2757112035
 30
0.0
 10
-72.8989562372
 20
82.2653125844
 30
0.0
 10
-73.0010121759
 20
82.2291335556
 30
0.0
 10
-73.0471116592
 20
82.2047969633
 30
0.0
 11
-72.3842217628
 21
82.1688989549
 31
0.0
 11
-72.5633046507
 21
82.2392484677
 31
0.0
 11
-72.736945289
 21
82.269075945
 31
0.0
 11
-72.8998637589
 21
82.2574747067
 31
0.0
 11
-73.0471116592
 21
82.2047969633
 31
0.0
  0
SPLINE
  5
50D
100
AcDbEntity
  8
DRAFT
100
AcDbSpline
 62
7
  6
CONTINUOUS
 70
0
 71
3
 72
11
 73
7
 74
5
 42
0.0000001
 43
0.0000001
 44
0.0000000001
 12
0.8409477157
 22
0.3975247819
 32
0.0
 13
-0.0000000007
 23
0.9301714964
 33
0.0
 40
0.0
 40
0.0
 40
0.0
 40
0.0
 40
0.21718976
 40
0.4501120036
 40
0.7098374972
 40
1.0
 40
1.0
 40
1.0
 40
1.0
 10
73.1432827656
 20
-81.9606515762
 30
0.0
 10
73.2041645097
 20
-81.9318721389
 30
0.0
 10
73.3198177459
 20
-81.8473725124
 30
0.0
 10
73.444047468
 20
-81.6614355401
 30
0.0
 10
73.5183903728
 20
-81.4277947329
 30
0.0
 10
73.5330974964
 20
-81.2566248604
 30
0.0
 10
73.5330974963
 20
-81.1666578972
 30
0.0
 11
73.1432827656
 21
-81.9606515762
 31
0.0
 11
73.3071890069
 21
-81.8425485317
 31
0.0
 11
73.4305419491
 21
-81.6644345763
 31
0.0
 11
73.5071304867
 21
-81.4353067471
 31
0.0
 11
73.5330974963
 21
-81.1666578972
 31
0.0
  0
SPLINE
  5
50E
100
AcDbEntity
  8
SMUSSO
100
AcDbSpline
 62
7
  6
CONTINUOUS
 70
0
 71
3
 72
11
 73
7
 74
5
 42
0.0000001
 43
0.0000001
 44
0.0000000001
 12
0.5211626239
 22
-0.3908665135
 32
0.0
 13
0.0
 23
-0.6514500072
 33
0.0
 40
0.0
 40
0.0
 40
0.0
 40
0.0
 40
0.2409429555
 40
0.5000138527
 40
0.7590645363
 40
1.0
 40
1.0
 40
1.0
 40
1.0
 10
72.602253796
 20
8.9539497315
 30
0.0
 10
72.644110617
 20
8.9225575538
 30
0.0
 10
72.7216487252
 20
8.844679604
 30
0.0
 10
72.8104864065
 20
8.7045444066
 30
0.0
 10
72.8692823814
 20
8.5493878264
 30
0.0
 10
72.8850314708
 20
8.4406339206
 30
0.0
 10
72.8850314708
 20
8.388314784
 30
0.0
 11
72.602253796
 21
8.9539497315
 31
0.0
 11
72.7144214457
 21
8.8441518313
 31
0.0
 11
72.8053620111
 21
8.701976893
 31
0.0
 11
72.8645168784
 21
8.5439257731
 31
0.0
 11
72.8850314708
 21
8.388314784
 31
0.0
  0
SPLINE
  5
50F
100
AcDbEntity
  8
SMUSSO
100
AcDbSpline
 62
7
  6
CONTINUOUS
 70
0
 71
3
 72
11
 73
7
 74
5
 42
0.0000001
 43
0.0000001
 44
0.0000000001
 12
0.4148400139
 22
0.2074023936
 32
0.0
 13
0.4148329688
 23
-0.2074164844
 33
0.0
 40
0.0
 40
0.0
 40
0.0
 40
0.0
 40
0.2271114176
 40
0.4646734053
 40
0.7207749347
 40
1.0
 40
1.0
 40
1.0
 40
1.0
 10
-73.9332857774
 20
82.1147403315
 30
0.0
 10
-73.9018808095
 20
82.1304414821
 30
0.0
 10
-73.832675861
 20
82.1534719673
 30
0.0
 10
-73.7202331677
 20
82.1590963306
 30
0.0
 10
-73.6018955747
 20
82.1368617815
 30
0.0
 10
-73.5246828224
 20
82.1056439438
 30
0.0
 10
-73.4860722348
 20
82.08633865
 30
0.0
 11
-73.9332857774
 21
82.1147403315
 31
0.0
 11
-73.8334475013
 21
82.1483186257
 31
0.0
 11
-73.7234559619
 21
82.1547708214
 31
0.0
 11
-73.606523516
 21
82.133906869
 31
0.0
 11
-73.4860722348
 21
82.08633865
 31
0.0
  0
SPLINE
  5
510
100
AcDbEntity
  8
SMUSSO
100
AcDbSpline
 62
7
  6
CONTINUOUS
 70
0
 71
3
 72
9
 73
5
 74
3
 42
0.0000001
 43
0.0000001
 44
0.0000000001
 12
0.1491936387
 22
-0.0745968195
 32
0.0
 13
0.1334429872
 23
-0.1000819488
 33
0.0
 40
0.0
 40
0.0
 40
0.0
 40
0.0
 40
0.2413231767
 40
1.0
 40
1.0
 40
1.0
 40
1.0
 10
72.1779246896
 20
9.2543401878
 30
0.0
 10
72.1899259839
 20
9.2483395407
 30
0.0
 10
72.2390306511
 20
9.2222284835
 30
0.0
 10
72.2855994465
 20
9.191442744
 30
0.0
 10
72.319346147
 20
9.1661327923
 30
0.0
 11
72.1779246896
 21
9.2543401878
 31
0.0
 11
72.2134784912
 21
9.2354648953
 31
0.0
 11
72.319346147
 21
9.1661327923
 31
0.0
  0
SPLINE
  5
511
100
AcDbEntity
  8
SMUSSO
100
AcDbSpline
 62
7
  6
CONTINUOUS
 70
0
 71
3
 72
11
 73
7
 74
5
 42
0.0000001
 43
0.0000001
 44
0.0000000001
 12
-0.0000000006
 22
-0.6297215485
 32
0.0
 13
-0.5632496412
 23
-0.2816009061
 33
0.0
 40
0.0
 40
0.0
 40
0.0
 40
0.0
 40
0.2897538844
 40
0.5495823905
 40
0.7828465249
 40
1.0
 40
1.0
 40
1.0
 40
1.0
 10
72.8850314708
 20
-82.0318806002
 30
0.0
 10
72.8850314707
 20
-82.0927020218
 30
0.0
 10
72.8752184829
 20
-82.2085026713
 30
0.0
 10
72.8257173785
 20
-82.3668773579
 30
0.0
 10
72.7430589734
 20
-82.4936765131
 30
0.0
 10
72.6659087712
 20
-82.5523707564
 30
0.0
 10
72.6251382322
 20
-82.5727542949
 30
0.0
 11
72.8850314708
 21
-82.0318806002
 31
0.0
 11
72.8677521317
 21
-82.2135248469
 31
0.0
 11
72.8167610304
 21
-82.368996015
 31
0.0
 11
72.7345511638
 21
-82.4907278369
 31
0.0
 11
72.6251382322
 21
-82.5727542949
 31
0.0
  0
SPLINE
  5
512
100
AcDbEntity
  8
SMUSSO
100
AcDbSpline
 62
7
  6
CONTINUOUS
 70
0
 71
3
 72
11
 73
7
 74
5
 42
0.0000001
 43
0.0000001
 44
0.0000000001
 12
1.042453391
 22
-0.7818377649
 32
0.0
 13
0.0000000001
 23
-1.3030653717
 33
0.0
 40
0.0
 40
0.0
 40
0.0
 40
0.0
 40
0.2409256215
 40
0.499997499
 40
0.7590695332
 40
1.0
 40
1.0
 40
1.0
 40
1.0
 10
72.319346147
 20
9.1661327923
 30
0.0
 10
72.4030640574
 20
9.1033445426
 30
0.0
 10
72.5581937275
 20
8.9476155191
 30
0.0
 10
72.7358977391
 20
8.6673051203
 30
0.0
 10
72.853526372
 20
8.3569542436
 30
0.0
 10
72.8850314708
 20
8.1394107762
 30
0.0
 10
72.8850314708
 20
8.0347613934
 30
0.0
 11
72.319346147
 21
9.1661327923
 31
0.0
 11
72.5437229603
 21
8.9465547399
 31
0.0
 11
72.7256456568
 21
8.6621790816
 31
0.0
 11
72.8439941991
 21
8.3460159229
 31
0.0
 11
72.8850314708
 21
8.0347613934
 31
0.0
  0
ELLIPSE
  5
513
100
AcDbEntity
  8
RACCORDO
100
AcDbEllipse
 62
7
  6
CONTINUOUS
 10
-60.7290696772
 20
49.4682513847
 30
0.0
 11
-0.313181275
 21
0.626269159
 31
0.0
 40
0.6121897086
 41
-0.6846338794
 42
0.0188552051
  0
ELLIPSE
  5
514
100
AcDbEntity
  8
RACCORDO
100
AcDbEllipse
 62
7
  6
CONTINUOUS
 10
-57.3578340127
 20
7.6867336249
 30
0.0
 11
-0.1341484654
 21
0.2683369961
 31
0.0
 40
0.6125552124
 41
0.8862964655
 42
2.4567882058
  0
ELLIPSE
  5
515
100
AcDbEntity
  8
RACCORDO
100
AcDbEllipse
 62
7
  6
CONTINUOUS
 10
-56.6117192354
 20
8.0447200672
 30
0.0
 11
-0.1340229113
 21
0.2684080287
 31
0.0
 40
0.6140178746
 41
0.8880524522
 42
2.4561097232
  0
ELLIPSE
  5
516
100
AcDbEntity
  8
RACCORDO
100
AcDbEllipse
 62
7
  6
CONTINUOUS
 10
54.4711746637
 20
-8.1318707857
 30
0.0
 11
-0.3130130858
 21
0.6261196575
 31
0.0
 40
0.6125552124
 41
-2.255296188
 42
-0.6848044477
  0
ELLIPSE
  5
517
100
AcDbEntity
  8
RACCORDO
100
AcDbEllipse
 62
7
  6
CONTINUOUS
 10
54.4711746637
 20
-52.4011390822
 30
0.0
 11
-0.313181275
 21
0.626269159
 31
0.0
 40
0.6121897086
 41
-3.1605525579
 42
-2.2557347926
  0
ELLIPSE
  5
518
100
AcDbEntity
  8
RACCORDO
100
AcDbEllipse
 62
7
  6
CONTINUOUS
 10
49.8333504041
 20
-44.9670788643
 30
0.0
 11
-0.1341371037
 21
0.2683722998
 31
0.0
 40
0.6123537661
 41
-0.6845550499
 42
0.0106817792
  0
ELLIPSE
  5
519
100
AcDbEntity
  8
RACCORDO
100
AcDbEllipse
 62
7
  6
CONTINUOUS
 10
-29.7161624794
 20
-5.1923224226
 30
0.0
 11
-0.1341371037
 21
0.2683722998
 31
0.0
 40
0.6123537661
 41
-0.6845550499
 42
0.0106817792
  0
ELLIPSE
  5
51A
100
AcDbEntity
  8
RACCORDO
100
AcDbEllipse
 62
7
  6
CONTINUOUS
 10
-45.6260650561
 20
2.7626288658
 30
0.0
 11
-0.1341371037
 21
0.2683722998
 31
0.0
 40
0.6123537661
 41
-0.6845550499
 42
0.0106817792
  0
ELLIPSE
  5
51B
100
AcDbEntity
  8
RACCORDO
100
AcDbEllipse
 62
7
  6
CONTINUOUS
 10
-13.8062599027
 20
-13.1472737109
 30
0.0
 11
-0.1341371037
 21
0.2683722998
 31
0.0
 40
0.6123537661
 41
-0.6845550499
 42
0.0106817792
  0
ELLIPSE
  5
51C
100
AcDbEntity
  8
RACCORDO
100
AcDbEllipse
 62
7
  6
CONTINUOUS
 10
33.9234478274
 20
-37.012127576
 30
0.0
 11
-0.1341371037
 21
0.2683722998
 31
0.0
 40
0.6123537661
 41
-0.6845550499
 42
0.0106817792
  0
ELLIPSE
  5
51D
100
AcDbEntity
  8
RACCORDO
100
AcDbEllipse
 62
7
  6
CONTINUOUS
 10
26.8355708823
 20
-33.4681891034
 30
0.0
 11
-0.1342205464
 21
0.2684010681
 31
0.0
 40
0.6121897086
 41
-0.6846338794
 42
0.0192587573
  0
ELLIPSE
  5
51E
100
AcDbEntity
  8
RACCORDO
100
AcDbEllipse
 62
7
  6
CONTINUOUS
 10
18.0135452507
 20
-29.0571762876
 30
0.0
 11
-0.1341371037
 21
0.2683722998
 31
0.0
 40
0.6123537661
 41
-0.6845550499
 42
0.0106817792
  0
ELLIPSE
  5
51F
100
AcDbEntity
  8
RACCORDO
100
AcDbEllipse
 62
7
  6
CONTINUOUS
 10
2.103642674
 20
-21.1022249993
 30
0.0
 11
-0.1341371037
 21
0.2683722998
 31
0.0
 40
0.6123537661
 41
-0.6845550499
 42
0.0106817792
  0
ELLIPSE
  5
520
100
AcDbEntity
  8
RACCORDO
100
AcDbEllipse
 62
7
  6
CONTINUOUS
 10
-4.9842342711
 20
-17.5582865267
 30
0.0
 11
-0.1342205464
 21
0.2684010681
 31
0.0
 40
0.6121897086
 41
-0.6846338794
 42
0.0192587573
  0
ELLIPSE
  5
521
100
AcDbEntity
  8
RACCORDO
100
AcDbEllipse
 62
7
  6
CONTINUOUS
 10
-20.8941368478
 20
-9.6033352384
 30
0.0
 11
-0.1342205464
 21
0.2684010681
 31
0.0
 40
0.6121897086
 41
-0.6846338794
 42
0.0192587573
  0
ELLIPSE
  5
522
100
AcDbEntity
  8
RACCORDO
100
AcDbEllipse
 62
7
  6
CONTINUOUS
 10
21.3213722485
 20
-30.7833121176
 30
0.0
 11
-0.1342205464
 21
0.2684010681
 31
0.0
 40
0.6121897086
 41
-0.6846338794
 42
0.0192587602
  0
ELLIPSE
  5
523
100
AcDbEntity
  8
RACCORDO
100
AcDbEllipse
 62
7
  6
CONTINUOUS
 10
-26.4083354815
 20
-6.9184582526
 30
0.0
 11
-0.1342205464
 21
0.2684010681
 31
0.0
 40
0.6121897086
 41
-0.6846338794
 42
0.0192587602
  0
ELLIPSE
  5
524
100
AcDbEntity
  8
RACCORDO
100
AcDbEllipse
 62
7
  6
CONTINUOUS
 10
-10.4984329048
 20
-14.8734095409
 30
0.0
 11
-0.1342205464
 21
0.2684010681
 31
0.0
 40
0.6121897086
 41
-0.6846338794
 42
0.0192587602
  0
ELLIPSE
  5
525
100
AcDbEntity
  8
RACCORDO
100
AcDbEllipse
 62
7
  6
CONTINUOUS
 10
5.4114696718
 20
-22.8283608293
 30
0.0
 11
-0.1342205464
 21
0.2684010681
 31
0.0
 40
0.6121897086
 41
-0.6846338794
 42
0.0192587602
  0
ELLIPSE
  5
526
100
AcDbEntity
  8
RACCORDO
100
AcDbEllipse
 62
7
  6
CONTINUOUS
 10
-2.5632620818
 20
-18.7687726214
 30
0.0
 11
-0.1341371037
 21
0.2683722998
 31
0.0
 40
0.6123537661
 41
-2.2553513767
 42
-0.6845550499
  0
ELLIPSE
  5
527
100
AcDbEntity
  8
RACCORDO
100
AcDbEllipse
 62
7
  6
CONTINUOUS
 10
4.5246148633
 20
-22.3127110939
 30
0.0
 11
-0.1341484654
 21
0.2683369961
 31
0.0
 40
0.6125552124
 41
-2.255296188
 42
-0.6848044477
  0
ELLIPSE
  5
528
100
AcDbEntity
  8
RACCORDO
100
AcDbEllipse
 62
7
  6
CONTINUOUS
 10
13.3466404949
 20
-26.7237239097
 30
0.0
 11
-0.1341371037
 21
0.2683722998
 31
0.0
 40
0.6123537661
 41
-2.2553513767
 42
-0.6845550499
  0
ELLIPSE
  5
529
100
AcDbEntity
  8
RACCORDO
100
AcDbEllipse
 62
7
  6
CONTINUOUS
 10
20.43451744
 20
-30.2676623823
 30
0.0
 11
-0.1341484654
 21
0.2683369961
 31
0.0
 40
0.6125552124
 41
-2.255296188
 42
-0.6848044477
  0
ELLIPSE
  5
52A
100
AcDbEntity
  8
RACCORDO
100
AcDbEllipse
 62
7
  6
CONTINUOUS
 10
29.2565430716
 20
-34.6786751981
 30
0.0
 11
-0.1341371037
 21
0.2683722998
 31
0.0
 40
0.6123537661
 41
-2.2553513767
 42
-0.6845550499
  0
ELLIPSE
  5
52B
100
AcDbEntity
  8
RACCORDO
100
AcDbEllipse
 62
7
  6
CONTINUOUS
 10
45.1664456483
 20
-42.6336264864
 30
0.0
 11
-0.1341371037
 21
0.2683722998
 31
0.0
 40
0.6123537661
 41
-2.2553513767
 42
-0.6845550499
  0
ELLIPSE
  5
52C
100
AcDbEntity
  8
RACCORDO
100
AcDbEllipse
 62
7
  6
CONTINUOUS
 10
-56.2680221129
 20
41.7081470075
 30
0.0
 11
-0.1341371037
 21
0.2683722998
 31
0.0
 40
0.6123537661
 41
-3.1519578821
 42
-2.2553513767
  0
ELLIPSE
  5
52D
100
AcDbEntity
  8
RACCORDO
100
AcDbEllipse
 62
7
  6
CONTINUOUS
 10
-56.2680544266
 20
33.348890547
 30
0.0
 11
-0.1341484654
 21
0.2683369961
 31
0.0
 40
0.6125552124
 41
-2.255296188
 42
-0.6848044477
  0
ELLIPSE
  5
52E
100
AcDbEntity
  8
RACCORDO
100
AcDbEllipse
 62
7
  6
CONTINUOUS
 10
-56.2680544266
 20
22.655604281
 30
0.0
 11
-0.1342205464
 21
0.2684010681
 31
0.0
 40
0.6121897086
 41
-3.1605454984
 42
-2.2557347926
  0
ELLIPSE
  5
52F
100
AcDbEntity
  8
RACCORDO
100
AcDbEllipse
 62
7
  6
CONTINUOUS
 10
-56.2680221129
 20
14.296315507
 30
0.0
 11
-0.1341371037
 21
0.2683722998
 31
0.0
 40
0.6123537661
 41
-2.2553513767
 42
-0.6845550499
  0
ELLIPSE
  5
530
100
AcDbEntity
  8
RACCORDO
100
AcDbEllipse
 62
7
  6
CONTINUOUS
 10
-50.2929698119
 20
5.0960812437
 30
0.0
 11
-0.1341371037
 21
0.2683722998
 31
0.0
 40
0.6123537661
 41
-2.2553513767
 42
-0.6845550499
  0
ELLIPSE
  5
531
100
AcDbEntity
  8
RACCORDO
100
AcDbEllipse
 62
7
  6
CONTINUOUS
 10
-34.3830672352
 20
-2.8588700447
 30
0.0
 11
-0.1341371037
 21
0.2683722998
 31
0.0
 40
0.6123537661
 41
-2.2553513767
 42
-0.6845550499
  0
ELLIPSE
  5
532
100
AcDbEntity
  8
RACCORDO
100
AcDbEllipse
 62
7
  6
CONTINUOUS
 10
-27.2951902901
 20
-6.4028085172
 30
0.0
 11
-0.1341484654
 21
0.2683369961
 31
0.0
 40
0.6125552124
 41
-2.255296188
 42
-0.6848044477
  0
ELLIPSE
  5
533
100
AcDbEntity
  8
RACCORDO
100
AcDbEllipse
 62
7
  6
CONTINUOUS
 10
-18.4731646585
 20
-10.813821333
 30
0.0
 11
-0.1341371037
 21
0.2683722998
 31
0.0
 40
0.6123537661
 41
-2.2553513767
 42
-0.6845550499
  0
ELLIPSE
  5
534
100
AcDbEntity
  8
RACCORDO
100
AcDbEllipse
 62
7
  6
CONTINUOUS
 10
-56.3399993642
 20
40.240843915
 30
0.0
 11
-0.1341484654
 21
0.2683369961
 31
0.0
 40
0.6125552124
 41
-2.255296188
 42
-0.6848044477
  0
ELLIPSE
  5
535
100
AcDbEntity
  8
RACCORDO
100
AcDbEllipse
 62
7
  6
CONTINUOUS
 10
-56.3399993642
 20
34.7467333777
 30
0.0
 11
-0.1342205464
 21
0.2684010681
 31
0.0
 40
0.6121897086
 41
-3.1605454984
 42
-2.2557347926
  0
ELLIPSE
  5
536
100
AcDbEntity
  8
RACCORDO
100
AcDbEllipse
 62
7
  6
CONTINUOUS
 10
-56.3399993642
 20
21.1882850318
 30
0.0
 11
-0.1341484654
 21
0.2683369961
 31
0.0
 40
0.6125552124
 41
-2.255296188
 42
-0.6848044477
  0
ELLIPSE
  5
537
100
AcDbEntity
  8
RACCORDO
100
AcDbEllipse
 62
7
  6
CONTINUOUS
 10
-56.3399993642
 20
15.6941744944
 30
0.0
 11
-0.1342205464
 21
0.2684010681
 31
0.0
 40
0.6121897086
 41
-3.1605454984
 42
-2.2557347926
  0
ELLIPSE
  5
538
100
AcDbEntity
  8
RACCORDO
100
AcDbEllipse
 62
7
  6
CONTINUOUS
 10
25.8072947175
 20
-33.0262733521
 30
0.0
 11
-0.1341484654
 21
0.2683369961
 31
0.0
 40
0.6125552124
 41
-2.255296188
 42
-0.6848044477
  0
ELLIPSE
  5
539
100
AcDbEntity
  8
RACCORDO
100
AcDbEllipse
 62
7
  6
CONTINUOUS
 10
-6.0125104359
 20
-17.1163707754
 30
0.0
 11
-0.1341484654
 21
0.2683369961
 31
0.0
 40
0.6125552124
 41
-2.255296188
 42
-0.6848044477
  0
ELLIPSE
  5
53A
100
AcDbEntity
  8
RACCORDO
100
AcDbEllipse
 62
7
  6
CONTINUOUS
 10
9.8973921408
 20
-25.0713220638
 30
0.0
 11
-0.1341484654
 21
0.2683369961
 31
0.0
 40
0.6125552124
 41
-2.255296188
 42
-0.6848044477
  0
ELLIPSE
  5
53B
100
AcDbEntity
  8
ASSI
100
AcDbEllipse
 62
7
  6
CONTINUOUS
 10
49.1188320437
 20
-42.9405751369
 30
0.0
 11
0.0974129977
 21
0.1748074534
 31
0.0
 40
0.6437101552
 41
0.6611775963
 42
0.7135374739
  0
ELLIPSE
  5
53C
100
AcDbEntity
  8
ASSI
100
AcDbEllipse
 62
7
  6
CONTINUOUS
 10
-46.3405834165
 20
4.7891325932
 30
0.0
 11
0.0974129977
 21
0.1748074534
 31
0.0
 40
0.6437101552
 41
0.6611775963
 42
0.7135374739
  0
ELLIPSE
  5
53D
100
AcDbEntity
  8
ASSI
100
AcDbEllipse
 62
7
  6
CONTINUOUS
 10
-30.4306808398
 20
-3.2524212356
 30
0.0
 11
0.0974129977
 21
0.1748074534
 31
0.0
 40
0.6437101552
 41
0.6611775963
 42
0.7135374739
  0
ELLIPSE
  5
53E
100
AcDbEntity
  8
ASSI
100
AcDbEllipse
 62
7
  6
CONTINUOUS
 10
-14.5207782631
 20
-11.2073725239
 30
0.0
 11
0.0974129977
 21
0.1748074534
 31
0.0
 40
0.6437101552
 41
0.6611775963
 42
0.7135374739
  0
ELLIPSE
  5
53F
100
AcDbEntity
  8
ASSI
100
AcDbEllipse
 62
7
  6
CONTINUOUS
 10
1.3891243136
 20
-19.1623238123
 30
0.0
 11
0.0974129977
 21
0.1748074534
 31
0.0
 40
0.6437101552
 41
0.6611775963
 42
0.7135374739
  0
ELLIPSE
  5
540
100
AcDbEntity
  8
ASSI
100
AcDbEllipse
 62
7
  6
CONTINUOUS
 10
17.2990268903
 20
-27.1172751006
 30
0.0
 11
0.0974129977
 21
0.1748074534
 31
0.0
 40
0.6437101552
 41
0.6611775963
 42
0.7135374739
  0
ELLIPSE
  5
541
100
AcDbEntity
  8
ASSI
100
AcDbEllipse
 62
7
  6
CONTINUOUS
 10
33.208929467
 20
-35.072226389
 30
0.0
 11
0.0974129977
 21
0.1748074534
 31
0.0
 40
0.6437101552
 41
0.6611775963
 42
0.7135374739
  0
ELLIPSE
  5
542
100
AcDbEntity
  8
RACCORDO
100
AcDbEllipse
 62
7
  6
CONTINUOUS
 10
-56.8436139273
 20
22.3897918302
 30
0.0
 11
-0.1342205464
 21
0.2684010681
 31
0.0
 40
0.6121897086
 41
2.5485846547
 42
4.0274505145
  0
ELLIPSE
  5
543
100
AcDbEntity
  8
RACCORDO
100
AcDbEllipse
 62
7
  6
CONTINUOUS
 10
-56.8337075379
 20
41.4373975187
 30
0.0
 11
-0.1341371037
 21
0.2683722998
 31
0.0
 40
0.6123537661
 41
2.5021907388
 42
4.0278339304
  0
ELLIPSE
  5
544
100
AcDbEntity
  8
RACCORDO
100
AcDbEllipse
 62
7
  6
CONTINUOUS
 10
24.8720105288
 20
-33.4975215618
 30
0.0
 11
-0.1341484654
 21
0.2683369961
 31
0.0
 40
0.6125552124
 41
4.404657259
 42
5.5983808594
  0
ELLIPSE
  5
545
100
AcDbEntity
  8
RACCORDO
100
AcDbEllipse
 62
7
  6
CONTINUOUS
 10
20.4181788062
 20
-31.2706057006
 30
0.0
 11
-0.1342205464
 21
0.2684010681
 31
0.0
 40
0.6121897086
 41
-0.6846338794
 42
0.8444045998
  0
ELLIPSE
  5
546
100
AcDbEntity
  8
RACCORDO
100
AcDbEllipse
 62
7
  6
CONTINUOUS
 10
4.5082762295
 20
-23.3156544122
 30
0.0
 11
-0.1342205464
 21
0.2684010681
 31
0.0
 40
0.6121897086
 41
-0.6846338794
 42
0.8444045998
  0
ELLIPSE
  5
547
100
AcDbEntity
  8
RACCORDO
100
AcDbEllipse
 62
7
  6
CONTINUOUS
 10
8.9621079521
 20
-25.5425702735
 30
0.0
 11
-0.1341484654
 21
0.2683369961
 31
0.0
 40
0.6125552124
 41
4.404657259
 42
5.5983808594
  0
ELLIPSE
  5
548
100
AcDbEntity
  8
RACCORDO
100
AcDbEllipse
 62
7
  6
CONTINUOUS
 10
-11.4016263472
 20
-15.3607031239
 30
0.0
 11
-0.1342205464
 21
0.2684010681
 31
0.0
 40
0.6121897086
 41
-0.6846338794
 42
0.8444045998
  0
ELLIPSE
  5
549
100
AcDbEntity
  8
RACCORDO
100
AcDbEllipse
 62
7
  6
CONTINUOUS
 10
-6.9477946246
 20
-17.5876189851
 30
0.0
 11
-0.1341484654
 21
0.2683369961
 31
0.0
 40
0.6125552124
 41
4.404657259
 42
5.5983808594
  0
ELLIPSE
  5
54A
100
AcDbEntity
  8
RACCORDO
100
AcDbEllipse
 62
7
  6
CONTINUOUS
 10
-27.3115289239
 20
-7.4057518355
 30
0.0
 11
-0.1342205464
 21
0.2684010681
 31
0.0
 40
0.6121897086
 41
-0.6846338794
 42
0.8444045998
  0
ELLIPSE
  5
54B
100
AcDbEntity
  8
RACCORDO
100
AcDbEllipse
 62
7
  6
CONTINUOUS
 10
-57.2752835529
 20
34.3147881451
 30
0.0
 11
-0.1342205464
 21
0.2684010681
 31
0.0
 40
0.6121897086
 41
2.4569587742
 42
4.0274505145
  0
ELLIPSE
  5
54C
100
AcDbEntity
  8
RACCORDO
100
AcDbEllipse
 62
7
  6
CONTINUOUS
 10
-57.2752835529
 20
15.2622292618
 30
0.0
 11
-0.1342205464
 21
0.2684010681
 31
0.0
 40
0.6121897086
 41
2.4569587742
 42
4.0274505145
  0
ELLIPSE
  5
54D
100
AcDbEntity
  8
RACCORDO
100
AcDbEllipse
 62
7
  6
CONTINUOUS
 10
-5.5400456202
 20
-17.8581595008
 30
0.0
 11
-0.1342205464
 21
0.2684010681
 31
0.0
 40
0.6121897086
 41
-0.6846338794
 42
0.4620153947
  0
ELLIPSE
  5
54E
100
AcDbEntity
  8
RACCORDO
100
AcDbEllipse
 62
7
  6
CONTINUOUS
 10
-3.1289475068
 20
-19.0637085576
 30
0.0
 11
-0.1341371037
 21
0.2683722998
 31
0.0
 40
0.6123537661
 41
-1.8312068973
 42
-0.6845550499
  0
ELLIPSE
  5
54F
100
AcDbEntity
  8
RACCORDO
100
AcDbEllipse
 62
7
  6
CONTINUOUS
 10
1.5379572491
 20
-21.3971609355
 30
0.0
 11
-0.1341371037
 21
0.2683722998
 31
0.0
 40
0.6123537661
 41
-0.6845550499
 42
0.4620967974
  0
ELLIPSE
  5
550
100
AcDbEntity
  8
RACCORDO
100
AcDbEllipse
 62
7
  6
CONTINUOUS
 10
3.9490553625
 20
-22.6027099922
 30
0.0
 11
-0.1341484654
 21
0.2683369961
 31
0.0
 40
0.6125552124
 41
-1.8314537231
 42
-0.6848044477
  0
ELLIPSE
  5
551
100
AcDbEntity
  8
RACCORDO
100
AcDbEllipse
 62
7
  6
CONTINUOUS
 10
12.7809550699
 20
-27.0186598459
 30
0.0
 11
-0.1341371037
 21
0.2683722998
 31
0.0
 40
0.6123537661
 41
-1.8312068973
 42
-0.6845550499
  0
ELLIPSE
  5
552
100
AcDbEntity
  8
RACCORDO
100
AcDbEllipse
 62
7
  6
CONTINUOUS
 10
17.4478598258
 20
-29.3521122238
 30
0.0
 11
-0.1341371037
 21
0.2683722998
 31
0.0
 40
0.6123537661
 41
-0.6845550499
 42
0.4620967974
  0
ELLIPSE
  5
553
100
AcDbEntity
  8
RACCORDO
100
AcDbEllipse
 62
7
  6
CONTINUOUS
 10
19.8589579392
 20
-30.5576612806
 30
0.0
 11
-0.1341484654
 21
0.2683369961
 31
0.0
 40
0.6125552124
 41
-1.8314537231
 42
-0.6848044477
  0
ELLIPSE
  5
554
100
AcDbEntity
  8
RACCORDO
100
AcDbEllipse
 62
7
  6
CONTINUOUS
 10
10.5112998552
 20
-26.0570637033
 30
0.0
 11
-0.2237009107
 21
0.4473351135
 31
0.0
 40
0.6121897086
 41
-0.6846338794
 42
0.1822092509
  0
ELLIPSE
  5
555
100
AcDbEntity
  8
RACCORDO
100
AcDbEllipse
 62
7
  6
CONTINUOUS
 10
28.6908576466
 20
-34.9736111343
 30
0.0
 11
-0.1341371037
 21
0.2683722998
 31
0.0
 40
0.6123537661
 41
-1.8312068973
 42
-0.6845550499
  0
ELLIPSE
  5
556
100
AcDbEntity
  8
RACCORDO
100
AcDbEllipse
 62
7
  6
CONTINUOUS
 10
33.3577624025
 20
-37.3070635122
 30
0.0
 11
-0.1341371037
 21
0.2683722998
 31
0.0
 40
0.6123537661
 41
-0.6845550499
 42
0.4620967974
  0
ELLIPSE
  5
557
100
AcDbEntity
  8
RACCORDO
100
AcDbEllipse
 62
7
  6
CONTINUOUS
 10
44.6007602233
 20
-42.9285624226
 30
0.0
 11
-0.1341371037
 21
0.2683722998
 31
0.0
 40
0.6123537661
 41
-1.8312068973
 42
-0.6845550499
  0
ELLIPSE
  5
558
100
AcDbEntity
  8
RACCORDO
100
AcDbEllipse
 62
7
  6
CONTINUOUS
 10
49.2676649792
 20
-45.2620148005
 30
0.0
 11
-0.1341371037
 21
0.2683722998
 31
0.0
 40
0.6123537661
 41
-0.6845550499
 42
0.4620967974
  0
ELLIPSE
  5
559
100
AcDbEntity
  8
RACCORDO
100
AcDbEllipse
 62
7
  6
CONTINUOUS
 10
26.2797595332
 20
-33.7680620775
 30
0.0
 11
-0.1342205464
 21
0.2684010681
 31
0.0
 40
0.6121897086
 41
-0.6846338794
 42
0.4620153947
  0
ELLIPSE
  5
55A
100
AcDbEntity
  8
RACCORDO
100
AcDbEllipse
 62
7
  6
CONTINUOUS
 10
-14.3719453276
 20
-13.4422096471
 30
0.0
 11
-0.1341371037
 21
0.2683722998
 31
0.0
 40
0.6123537661
 41
-0.6845550499
 42
0.4620967974
  0
ELLIPSE
  5
55B
100
AcDbEntity
  8
RACCORDO
100
AcDbEllipse
 62
7
  6
CONTINUOUS
 10
-12.1022901128
 20
-14.7502687193
 30
0.0
 11
-0.2235807756
 21
0.4472283268
 31
0.0
 40
0.6125552124
 41
-1.5516475793
 42
-0.6848044477
  0
ELLIPSE
  5
55C
100
AcDbEntity
  8
RACCORDO
100
AcDbEllipse
 62
7
  6
CONTINUOUS
 10
-21.4499481969
 20
-9.9032082125
 30
0.0
 11
-0.1342205464
 21
0.2684010681
 31
0.0
 40
0.6121897086
 41
-0.6846338794
 42
0.4620153947
  0
ELLIPSE
  5
55D
100
AcDbEntity
  8
RACCORDO
100
AcDbEllipse
 62
7
  6
CONTINUOUS
 10
-19.0388500834
 20
-11.1087572692
 30
0.0
 11
-0.1341371037
 21
0.2683722998
 31
0.0
 40
0.6123537661
 41
-1.8312068973
 42
-0.6845550499
  0
ELLIPSE
  5
55E
100
AcDbEntity
  8
ASSI
100
AcDbEllipse
 62
7
  6
CONTINUOUS
 10
37.3247778773
 20
-37.5557487711
 30
0.0
 11
0.1997674032
 21
0.1243735635
 31
0.0
 40
0.0775313764
 41
5.4495541764
 42
6.9679906257
  0
ELLIPSE
  5
55F
100
AcDbEntity
  8
ASSI
100
AcDbEllipse
 62
7
  6
CONTINUOUS
 10
21.4148753006
 20
-29.6007974828
 30
0.0
 11
0.1997674032
 21
0.1243735635
 31
0.0
 40
0.0775313764
 41
5.4495541764
 42
6.9679906257
  0
ELLIPSE
  5
560
100
AcDbEntity
  8
ASSI
100
AcDbEllipse
 62
7
  6
CONTINUOUS
 10
5.5049727239
 20
-21.6458461944
 30
0.0
 11
0.1997674032
 21
0.1243735635
 31
0.0
 40
0.0775313764
 41
5.4495541764
 42
6.9679906257
  0
ELLIPSE
  5
561
100
AcDbEntity
  8
RACCORDO
100
AcDbEllipse
 62
7
  6
CONTINUOUS
 10
-56.8436139273
 20
33.0588916488
 30
0.0
 11
-0.1341484654
 21
0.2683369961
 31
0.0
 40
0.6125552124
 41
-2.255296188
 42
-0.7764303281
  0
ELLIPSE
  5
562
100
AcDbEntity
  8
RACCORDO
100
AcDbEllipse
 62
7
  6
CONTINUOUS
 10
-56.8337075379
 20
14.0013795708
 30
0.0
 11
-0.1341371037
 21
0.2683722998
 31
0.0
 40
0.6123537661
 41
-2.2553513767
 42
-0.7297081851
  0
ELLIPSE
  5
563
100
AcDbEntity
  8
RACCORDO
100
AcDbEllipse
 62
7
  6
CONTINUOUS
 10
-50.8586552368
 20
4.8011453075
 30
0.0
 11
-0.1341371037
 21
0.2683722998
 31
0.0
 40
0.6123537661
 41
-1.8312068973
 42
-0.6845550499
  0
ELLIPSE
  5
564
100
AcDbEntity
  8
RACCORDO
100
AcDbEllipse
 62
7
  6
CONTINUOUS
 10
-46.191750481
 20
2.4676929296
 30
0.0
 11
-0.1341371037
 21
0.2683722998
 31
0.0
 40
0.6123537661
 41
-0.6845550499
 42
0.4620967974
  0
ELLIPSE
  5
565
100
AcDbEntity
  8
RACCORDO
100
AcDbEllipse
 62
7
  6
CONTINUOUS
 10
-34.9487526601
 20
-3.1538059809
 30
0.0
 11
-0.1341371037
 21
0.2683722998
 31
0.0
 40
0.6123537661
 41
-1.8312068973
 42
-0.6845550499
  0
ELLIPSE
  5
566
100
AcDbEntity
  8
RACCORDO
100
AcDbEllipse
 62
7
  6
CONTINUOUS
 10
-30.2818479043
 20
-5.4872583588
 30
0.0
 11
-0.1341371037
 21
0.2683722998
 31
0.0
 40
0.6123537661
 41
-0.6845550499
 42
0.4620967974
  0
ELLIPSE
  5
567
100
AcDbEntity
  8
RACCORDO
100
AcDbEllipse
 62
7
  6
CONTINUOUS
 10
-27.8707497909
 20
-6.6928074155
 30
0.0
 11
-0.1341484654
 21
0.2683369961
 31
0.0
 40
0.6125552124
 41
-1.8314537231
 42
-0.6848044477
  0
ELLIPSE
  5
568
100
AcDbEntity
  8
ASSI
100
AcDbEllipse
 62
7
  6
CONTINUOUS
 10
-42.0831195709
 20
2.6604006704
 30
0.0
 11
0.0823576675
 21
0.1823694112
 31
0.0
 40
0.5796795686
 41
0.6094740628
 42
0.6618339404
  0
ELLIPSE
  5
569
100
AcDbEntity
  8
ASSI
100
AcDbEllipse
 62
7
  6
CONTINUOUS
 10
-10.4049298528
 20
-13.6908949061
 30
0.0
 11
0.1997674032
 21
0.1243735635
 31
0.0
 40
0.0775313764
 41
5.4495541764
 42
6.9679906257
  0
ELLIPSE
  5
56A
100
AcDbEntity
  8
ASSI
100
AcDbEllipse
 62
7
  6
CONTINUOUS
 10
-26.3148324295
 20
-5.7359436177
 30
0.0
 11
0.1997674032
 21
0.1243735635
 31
0.0
 40
0.0775313764
 41
5.4495541764
 42
6.9679906257
  0
ELLIPSE
  5
56B
100
AcDbEntity
  8
ASSI
100
AcDbEllipse
 62
7
  6
CONTINUOUS
 10
-42.2247350062
 20
2.2190076706
 30
0.0
 11
0.1997674032
 21
0.1243735635
 31
0.0
 40
0.0775313764
 41
5.4495541764
 42
6.9679906257
  0
ELLIPSE
  5
56C
100
AcDbEntity
  8
RACCORDO
100
AcDbEllipse
 62
7
  6
CONTINUOUS
 10
-57.2752835529
 20
20.7170368221
 30
0.0
 11
-0.1341484654
 21
0.2683369961
 31
0.0
 40
0.6125552124
 41
-2.255296188
 42
-0.6848044477
  0
ELLIPSE
  5
56D
100
AcDbEntity
  8
RACCORDO
100
AcDbEllipse
 62
7
  6
CONTINUOUS
 10
-57.2752835529
 20
39.7695957053
 30
0.0
 11
-0.1341484654
 21
0.2683369961
 31
0.0
 40
0.6125552124
 41
-2.255296188
 42
-0.6848044477
  0
ELLIPSE
  5
56E
100
AcDbEntity
  8
ASSI
100
AcDbEllipse
 62
7
  6
CONTINUOUS
 10
-26.1732169942
 20
-5.3811531584
 30
0.0
 11
0.0823576675
 21
0.1823694112
 31
0.0
 40
0.5796795686
 41
0.6094740628
 42
0.6618339404
  0
ELLIPSE
  5
56F
100
AcDbEntity
  8
ASSI
100
AcDbEllipse
 62
7
  6
CONTINUOUS
 10
-10.2633144175
 20
-13.3361044467
 30
0.0
 11
0.0823576675
 21
0.1823694112
 31
0.0
 40
0.5796795686
 41
0.6094740628
 42
0.6618339404
  0
ELLIPSE
  5
570
100
AcDbEntity
  8
ASSI
100
AcDbEllipse
 62
7
  6
CONTINUOUS
 10
5.6465881592
 20
-21.2910557351
 30
0.0
 11
0.0823576675
 21
0.1823694112
 31
0.0
 40
0.5796795686
 41
0.6094740628
 42
0.6618339404
  0
ELLIPSE
  5
571
100
AcDbEntity
  8
ASSI
100
AcDbEllipse
 62
7
  6
CONTINUOUS
 10
21.5564907359
 20
-29.2460070234
 30
0.0
 11
0.0823576675
 21
0.1823694112
 31
0.0
 40
0.5796795686
 41
0.6094740628
 42
0.6618339404
  0
ELLIPSE
  5
572
100
AcDbEntity
  8
ASSI
100
AcDbEllipse
 62
7
  6
CONTINUOUS
 10
37.4663933126
 20
-37.2009583118
 30
0.0
 11
0.0823576675
 21
0.1823694112
 31
0.0
 40
0.5796795686
 41
0.6094740628
 42
0.6618339404
  0
ELLIPSE
  5
573
100
AcDbEntity
  8
SMUSSO
100
AcDbEllipse
 62
7
  6
CONTINUOUS
 10
-74.782434667
 20
80.5721320302
 30
0.0
 11
-0.268640788
 21
0.9802821504
 31
0.0
 40
0.3951602023
 41
0.1790466627
 42
0.9644448261
  0
ELLIPSE
  5
574
100
AcDbEntity
  8
SMUSSO
100
AcDbEllipse
 62
7
  6
CONTINUOUS
 10
-74.782434667
 20
-9.4945099634
 30
0.0
 11
-0.268640788
 21
0.9802821504
 31
0.0
 40
0.3951602023
 41
0.9644448261
 42
1.7498429895
  0
ELLIPSE
  5
575
100
AcDbEntity
  8
SMUSSO
100
AcDbEllipse
 62
7
  6
CONTINUOUS
 10
-74.782434667
 20
-9.4945099634
 30
0.0
 11
-0.6685268303
 21
0.7774608711
 31
0.0
 40
0.423927136
 41
1.5651843117
 42
2.3505824751
  0
ELLIPSE
  5
576
100
AcDbEntity
  8
SMUSSO
100
AcDbEllipse
 62
7
  6
CONTINUOUS
 10
70.8815622574
 20
7.7401335679
 30
0.0
 11
-0.0351548098
 21
1.0451726698
 31
0.0
 40
0.7123478368
 41
-1.1543313489
 42
-0.3689331855
  0
ELLIPSE
  5
577
100
AcDbEntity
  8
SMUSSO
100
AcDbEllipse
 62
7
  6
CONTINUOUS
 10
70.8815622574
 20
7.7401335679
 30
0.0
 11
0.7972192175
 21
-0.6616331853
 31
0.0
 40
0.76072271
 41
0.5631481298
 42
1.3485462932
  0
ELLIPSE
  5
578
100
AcDbEntity
  8
SMUSSO
100
AcDbEllipse
 62
7
  6
CONTINUOUS
 10
-74.782434667
 20
80.5721320302
 30
0.0
 11
-0.0351548098
 21
1.0451726698
 31
0.0
 40
0.7123478368
 41
-0.3689331855
 42
0.4164649779
  0
ELLIPSE
  5
579
100
AcDbEntity
  8
SMUSSO
100
AcDbEllipse
 62
7
  6
CONTINUOUS
 10
70.8815622574
 20
-82.3265084256
 30
0.0
 11
0.7972192175
 21
-0.6616331853
 31
0.0
 40
0.76072271
 41
-0.2222500336
 42
0.5631481298
  0
ELLIPSE
  5
57A
100
AcDbEntity
  8
SMUSSO
100
AcDbEllipse
 62
7
  6
CONTINUOUS
 10
70.8815622574
 20
-82.3265084256
 30
0.0
 11
-0.6685268303
 21
0.7774608711
 31
0.0
 40
0.423927136
 41
2.3505824751
 42
3.1359806385
  0
ENDSEC
  0
SECTION
  2
OBJECTS
  0
DICTIONARY
  5
C
100
AcDbDictionary
280
0
281
1
  3
ACAD_GROUP
350
D
  3
ACAD_MLINESTYLE
350
17
  3
ACAD_LAYOUT
350
1A
  3
ACAD_PLOTSETTINGS
350
19
  3
ACAD_PLOTSTYLENAME
350
E
  0
DICTIONARY
  5
D
102
{ACAD_REACTORS
330
C
102
}
100
AcDbDictionary
280
0
281
1
  0
ACDBDICTIONARYWDFLT
  5
E
102
{ACAD_REACTORS
330
C
102
}
100
AcDbDictionary
281
1
  3
Normal
350
F
100
AcDbDictionaryWithDefault
340
F
  0
DICTIONARY
  5
17
102
{ACAD_REACTORS
330
C
102
}
100
AcDbDictionary
280
0
281
1
  3
Standard
350
18
  0
DICTIONARY
  5
19
102
{ACAD_REACTORS
330
C
102
}
100
AcDbDictionary
281
1
  0
DICTIONARY
  5
1A
102
{ACAD_REACTORS
330
C
102
}
100
AcDbDictionary
281
1
  3
Model
350
57B
  3
Layout1
350
57C
  0
ACDBPLACEHOLDER
  5
F
102
{ACAD_REACTORS
330
E
102
}
  0
MLINESTYLE
  5
18
102
{ACAD_REACTORS
330
17
102
}
100
AcDbMlineStyle
  2
STANDARD
 70
0
  3

 62
256
 51
90.0
 52
90.0
 71
2
 49
0.5
 62
256
  6
BYLAYER
 49
-0.5
 62
256
  6
BYLAYER
  0
LAYOUT
  5
57B
102
{ACAD_REACTORS
330
1A
102
}
100
AcDbPlotSettings
  1

  2
none_device
  4
ISO_A4_(297.00_x_210.00_MM)
  6

 40
0.0
 41
0.0
 42
0.0
 43
0.0
 44
297.0
 45
210.0
 46
0.0
 47
0.0
 48
0.0
 49
0.0
140
0.0
141
0.0
142
1.0
143
1.0
 70
1024
 72
1
 73
0
 74
0
  7

 75
0
147
1.0
148
0.0
149
0.0
100
AcDbLayout
  1
Model
 70
0
 71
0
 10
0.0
 20
0.0
 11
297.0
 21
210.0
 12
0.0
 22
0.0
 32
0.0
 14
0.0
 24
0.0
 34
0.0
 15
0.0
 25
0.0
 35
0.0
146
0.0
 13
0.0
 23
0.0
 33
0.0
 16
1.0
 26
0.0
 36
0.0
 17
0.0
 27
1.0
 37
0.0
 76
0
330
212
345
0
346
0
  0
LAYOUT
  5
57C
102
{ACAD_REACTORS
330
1A
102
}
100
AcDbPlotSettings
  1

  2
none_device
  4
ISO_A4_(297.00_x_210.00_MM)
  6

 40
0.0
 41
0.0
 42
0.0
 43
0.0
 44
297.0
 45
210.0
 46
0.0
 47
0.0
 48
0.0
 49
0.0
140
0.0
141
0.0
142
1.0
143
1.0
 70
0
 72
1
 73
0
 74
0
  7

 75
0
147
1.0
148
0.0
149
0.0
100
AcDbLayout
  1
Layout1
 70
0
 71
1
 10
0.0
 20
0.0
 11
297.0
 21
210.0
 12
0.0
 22
0.0
 32
0.0
 14
0.0
 24
0.0
 34
0.0
 15
0.0
 25
0.0
 35
0.0
146
0.0
 13
0.0
 23
0.0
 33
0.0
 16
1.0
 26
0.0
 36
0.0
 17
0.0
 27
1.0
 37
0.0
 76
0
330
213
345
0
346
0
  0
ENDSEC
  0
EOF
