  0
SECTION
  2
HEADER
  9
$ACADVER
  1
AC1015
  9
$DWGCODEPAGE
  3
ANSI_1252
  9
$EXTMAX
 10
297.0
 20
210.0
 30
0.0
  9
$EXTMIN
 10
0.0
 20
0.0
 30
0.0
  9
$LIMMIN
 10
0.0
 20
0.0
  9
$LIMMAX
 10
297.0
 20
210.0
  9
$VIEWCTR
 10
148.5
 20
105.0
  9
$VIEWSIZE
 40
210.0
  9
$CLAYER
  8
0
  9
$LTSCALE
 40
16.335
  9
$CELTYPE
  6
BYLAYER
  9
$DIMSCALE
 40
1.0
  9
$DIMASZ
 40
3.0
  9
$DIMEXO
 40
0.5
  9
$DIMDLI
 40
11.286
  9
$DIMEXE
 40
1.5
  9
$DIMCEN
 40
2.673
  9
$DIMLFAC
 40
1.0
  9
$DIMBLK
  1
_FILLED
  9
$DIMTXT
 40
3.0
  9
$DIMTOL
 70
1
  9
$DIMLIM
 70
0
  9
$DIMTFAC
 40
1.0
  9
$DIMTP
 40
0.01
  9
$DIMTM
 40
0.01
  9
$DIMGAP
 40
0.625
  9
$DIMDSEP
 70
44
  9
$PDMODE
 70
3
  9
$PDSIZE
 40
3.0
  9
$HANDSEED
  5
260
  9
$TILEMODE
 70
1
  9
$MEASUREMENT
 70
1
  9
$INSUNITS
 70
4
  0
ENDSEC
  0
SECTION
  2
CLASSES
  0
CLASS
  1
ACDBDICTIONARYWDFLT
  2
AcDbDictionaryWithDefault
  3
AutoCAD 2000
 90
0
280
0
281
0
  0
CLASS
  1
ACDBPLACEHOLDER
  2
AcDbPlaceHolder
  3
AutoCAD 2000
 90
0
280
0
281
0
  0
CLASS
  1
LAYOUT
  2
AcDbLayout
  3
AutoCAD 2000
 90
0
280
0
281
0
  0
ENDSEC
  0
SECTION
  2
TABLES
  0
TABLE
  2
VPORT
  5
8
100
AcDbSymbolTable
 70
2
  0
VPORT
  5
1F4
100
AcDbSymbolTableRecord
100
AcDbViewportTableRecord
  2
*ACTIVE
 70
0
 10
0.0
 20
0.0
 11
1.0
 21
1.0
 12
148.5
 22
105.0
 13
0.0
 23
0.0
 14
1.0
 24
1.0
 15
0.0
 25
0.0
 16
0.0
 26
0.0
 36
1.0
 17
0.0
 27
0.0
 37
0.0
 40
210.0
 41
1.4142857143
 42
50.0
 43
0.0
 44
0.0
 50
0.0
 51
0.0
 71
0
 72
100
 73
1
 74
1
 75
0
 76
0
 77
0
 78
0
  0
ENDTAB
  0
TABLE
  2
LTYPE
  5
5
100
AcDbSymbolTable
 70
6
  0
LTYPE
  5
14
100
AcDbSymbolTableRecord
100
AcDbLinetypeTableRecord
  2
BYBLOCK
 70
0
  3

 72
65
 73
0
 40
0.0
  0
LTYPE
  5
15
100
AcDbSymbolTableRecord
100
AcDbLinetypeTableRecord
  2
BYLAYER
 70
0
  3

 72
65
 73
0
 40
0.0
  0
LTYPE
  5
16
100
AcDbSymbolTableRecord
100
AcDbLinetypeTableRecord
  2
CONTINUOUS
 70
64
  3
Solid line
 72
65
 73
0
 40
0.0
  0
LTYPE
  5
1F5
100
AcDbSymbolTableRecord
100
AcDbLinetypeTableRecord
  2
CENTER
 70
64
  3
____ _ ____ _ ____ _ ____ _ ____ _ ____ _ ____
 72
65
 73
4
 40
0.6
 49
0.375
 74
0
 49
-0.075
 74
0
 49
0.075
 74
0
 49
-0.075
 74
0
  0
LTYPE
  5
1F6
100
AcDbSymbolTableRecord
100
AcDbLinetypeTableRecord
  2
HIDDEN
 70
64
  3
- - - - - - - - - - - - - - - - - - - -
 72
65
 73
2
 40
0.2
 49
0.1
 74
0
 49
-0.1
 74
0
  0
LTYPE
  5
1F7
100
AcDbSymbolTableRecord
100
AcDbLinetypeTableRecord
  2
PHANTOM
 70
64
  3
_____ _ _ _____ _ _ _____ _ _ _____
 72
65
 73
6
 40
0.8
 49
0.45
 74
0
 49
-0.05
 74
0
 49
0.1
 74
0
 49
-0.05
 74
0
 49
0.1
 74
0
 49
-0.05
 74
0
  0
LTYPE
  5
1F8
100
AcDbSymbolTableRecord
100
AcDbLinetypeTableRecord
  2
DOT
 70
64
  3
. . . . . . . . . . . . . . . . . . . .
 72
65
 73
2
 40
0.2
 49
0.1
 74
0
 49
-0.1
 74
0
  0
LTYPE
  5
1F9
100
AcDbSymbolTableRecord
100
AcDbLinetypeTableRecord
  2
DASHED
 70
64
  3
- - - - - - - - - - - - - - - - - - - -
 72
65
 73
2
 40
0.2
 49
0.1
 74
0
 49
-0.1
 74
0
  0
ENDTAB
  0
TABLE
  2
LAYER
  5
2
100
AcDbSymbolTable
 70
36
  0
LAYER
  5
10
100
AcDbSymbolTableRecord
100
AcDbLayerTableRecord
  2
0
 70
0
 62
7
  6
CONTINUOUS
370
-3
390
F
  0
LAYER
  5
1FA
100
AcDbSymbolTableRecord
100
AcDbLayerTableRecord
  2
DEFAULT_1
 70
0
 62
7
  6
CENTER
370
-3
390
F
  0
LAYER
  5
1FB
100
AcDbSymbolTableRecord
100
AcDbLayerTableRecord
  2
DEFAULT_2
 70
0
 62
7
  6
HIDDEN
370
-3
390
F
  0
LAYER
  5
1FC
100
AcDbSymbolTableRecord
100
AcDbLayerTableRecord
  2
DEFAULT_3
 70
0
 62
7
  6
PHANTOM
370
-3
390
F
  0
LAYER
  5
1FD
100
AcDbSymbolTableRecord
100
AcDbLayerTableRecord
  2
ASSI
 70
0
 62
7
  6
CONTINUOUS
370
-3
390
F
  0
LAYER
  5
1FE
100
AcDbSymbolTableRecord
100
AcDbLayerTableRecord
  2
COORDINATE
 70
0
 62
7
  6
CONTINUOUS
370
-3
390
F
  0
LAYER
  5
1FF
100
AcDbSymbolTableRecord
100
AcDbLayerTableRecord
  2
COORD_ORIGINE
 70
0
 62
7
  6
CONTINUOUS
370
-3
390
F
  0
LAYER
  5
200
100
AcDbSymbolTableRecord
100
AcDbLayerTableRecord
  2
COPY_PUBLISH
 70
0
 62
7
  6
CONTINUOUS
370
-3
390
F
  0
LAYER
  5
201
100
AcDbSymbolTableRecord
100
AcDbLayerTableRecord
  2
COSMETIC
 70
0
 62
7
  6
CONTINUOUS
370
-3
390
F
  0
LAYER
  5
202
100
AcDbSymbolTableRecord
100
AcDbLayerTableRecord
  2
COSMETICI
 70
0
 62
7
  6
CONTINUOUS
370
-3
390
F
  0
LAYER
  5
203
100
AcDbSymbolTableRecord
100
AcDbLayerTableRecord
  2
CURVE
 70
0
 62
7
  6
CONTINUOUS
370
-3
390
F
  0
LAYER
  5
204
100
AcDbSymbolTableRecord
100
AcDbLayerTableRecord
  2
CURVE_INIEZIONE
 70
0
 62
7
  6
CONTINUOUS
370
-3
390
F
  0
LAYER
  5
205
100
AcDbSymbolTableRecord
100
AcDbLayerTableRecord
  2
CURVE_PERNI
 70
0
 62
7
  6
CONTINUOUS
370
-3
390
F
  0
LAYER
  5
206
100
AcDbSymbolTableRecord
100
AcDbLayerTableRecord
  2
DRAFT
 70
0
 62
7
  6
CONTINUOUS
370
-3
390
F
  0
LAYER
  5
207
100
AcDbSymbolTableRecord
100
AcDbLayerTableRecord
  2
IMPORT_IGES
 70
0
 62
7
  6
CONTINUOUS
370
-3
390
F
  0
LAYER
  5
208
100
AcDbSymbolTableRecord
100
AcDbLayerTableRecord
  2
INTFCLR_2
 70
0
 62
7
  6
CONTINUOUS
370
-3
390
F
  0
LAYER
  5
209
100
AcDbSymbolTableRecord
100
AcDbLayerTableRecord
  2
INTF_1
 70
0
 62
7
  6
CONTINUOUS
370
-3
390
F
  0
LAYER
  5
20A
100
AcDbSymbolTableRecord
100
AcDbLayerTableRecord
  2
INTF_14
 70
0
 62
7
  6
CONTINUOUS
370
-3
390
F
  0
LAYER
  5
20B
100
AcDbSymbolTableRecord
100
AcDbLayerTableRecord
  2
NOTE
 70
0
 62
7
  6
CONTINUOUS
370
-3
390
F
  0
LAYER
  5
20C
100
AcDbSymbolTableRecord
100
AcDbLayerTableRecord
  2
PIANI
 70
0
 62
7
  6
CONTINUOUS
370
-3
390
F
  0
LAYER
  5
20D
100
AcDbSymbolTableRecord
100
AcDbLayerTableRecord
  2
PIANI_ORIGINE
 70
0
 62
7
  6
CONTINUOUS
370
-3
390
F
  0
LAYER
  5
20E
100
AcDbSymbolTableRecord
100
AcDbLayerTableRecord
  2
PIANI_RIFERIMENTO
 70
0
 62
7
  6
CONTINUOUS
370
-3
390
F
  0
LAYER
  5
20F
100
AcDbSymbolTableRecord
100
AcDbLayerTableRecord
  2
PIANO_CHIUSURA
 70
0
 62
7
  6
CONTINUOUS
370
-3
390
F
  0
LAYER
  5
210
100
AcDbSymbolTableRecord
100
AcDbLayerTableRecord
  2
PUNTI
 70
0
 62
7
  6
CONTINUOUS
370
-3
390
F
  0
LAYER
  5
211
100
AcDbSymbolTableRecord
100
AcDbLayerTableRecord
  2
PUNTO_INIEZIONE
 70
0
 62
7
  6
CONTINUOUS
370
-3
390
F
  0
LAYER
  5
212
100
AcDbSymbolTableRecord
100
AcDbLayerTableRecord
  2
RACCORDO
 70
0
 62
7
  6
CONTINUOUS
370
-3
390
F
  0
LAYER
  5
213
100
AcDbSymbolTableRecord
100
AcDbLayerTableRecord
  2
SIMBOLI
 70
0
 62
7
  6
CONTINUOUS
370
-3
390
F
  0
LAYER
  5
214
100
AcDbSymbolTableRecord
100
AcDbLayerTableRecord
  2
SMUSSO
 70
0
 62
7
  6
CONTINUOUS
370
-3
390
F
  0
LAYER
  5
215
100
AcDbSymbolTableRecord
100
AcDbLayerTableRecord
  2
SUPERFICI
 70
0
 62
7
  6
CONTINUOUS
370
-3
390
F
  0
LAYER
  5
216
100
AcDbSymbolTableRecord
100
AcDbLayerTableRecord
  2
TRASH
 70
0
 62
7
  6
CONTINUOUS
370
-3
390
F
  0
LAYER
  5
217
100
AcDbSymbolTableRecord
100
AcDbLayerTableRecord
  2
XSEC_DATUMS
 70
0
 62
7
  6
CONTINUOUS
370
-3
390
F
  0
ENDTAB
  0
TABLE
  2
STYLE
  5
3
100
AcDbSymbolTable
 70
1
  0
STYLE
  5
11
100
AcDbSymbolTableRecord
100
AcDbTextStyleTableRecord
  2
STANDARD
 70
0
 40
0.0
 41
0.8
 50
0.0
 71
0
 42
0.2
  3
txt
  4

  0
STYLE
  5
218
100
AcDbSymbolTableRecord
100
AcDbTextStyleTableRecord
  2
TEXTSTYLE_1
 70
0
 40
0.0
 41
0.8
 50
0.0
 71
0
 42
0.2
  3
gdt
  4

  0
ENDTAB
  0
TABLE
  2
VIEW
  5
6
100
AcDbSymbolTable
 70
0
  0
ENDTAB
  0
TABLE
  2
UCS
  5
7
100
AcDbSymbolTable
 70
0
  0
ENDTAB
  0
TABLE
  2
APPID
  5
9
100
AcDbSymbolTable
 70
1
  0
APPID
  5
219
100
AcDbSymbolTableRecord
100
AcDbRegAppTableRecord
  2
ACAD
 70
0
  0
ENDTAB
  0
TABLE
  2
BLOCK_RECORD
  5
1
100
AcDbSymbolTable
 70
0
  0
BLOCK_RECORD
  5
21A
100
AcDbSymbolTableRecord
100
AcDbBlockTableRecord
  2
*Model_Space
  0
BLOCK_RECORD
  5
21B
100
AcDbSymbolTableRecord
100
AcDbBlockTableRecord
  2
*Paper_Space
  0
ENDTAB
  0
TABLE
  2
DIMSTYLE
  5
A
100
AcDbSymbolTable
 70
1
100
AcDbDimStyleTable
 71
0
  0
DIMSTYLE
105
21C
100
AcDbSymbolTableRecord
100
AcDbDimStyleTableRecord
  2
STANDARD
 70
0
  3

  4

 40
1.0
 41
3.0
 42
0.5
 43
0.38
 44
1.5
 45
0.0
 46
0.0
 47
0.01
 48
0.01
140
3.0
141
0.09
142
0.0
143
25.4
144
1.0
145
0.0
146
1.0
147
0.625
 71
1.0
 72
0.0
 73
0
 74
0
 75
0
 76
0
 77
1
 78
8
170
0
171
2
172
0
173
0
174
0
175
0
176
0
177
0
178
0
270
2
271
2
272
2
273
2
274
2
275
0
280
0
281
0
282
0
283
1
284
8
285
0
286
0
287
3
288
0
340
11
278
44
  0
ENDTAB
  0
ENDSEC
  0
SECTION
  2
BLOCKS
  0
BLOCK
  5
20
100
AcDbEntity
  8
0
100
AcDbBlockBegin
  2
*Model_Space
 70
0
 10
0.0
 20
0.0
 30
0.0
  3
*Model_Space
  1

  0
ENDBLK
  5
21
100
AcDbEntity
  8
0
100
AcDbBlockEnd
  0
BLOCK
  5
1C
100
AcDbEntity
  8
0
100
AcDbBlockBegin
  2
*Paper_Space
 70
0
 10
0.0
 20
0.0
 30
0.0
  3
*Paper_Space
  1

  0
ENDBLK
  5
1D
100
AcDbEntity
  8
0
100
AcDbBlockEnd
  0
ENDSEC
  0
SECTION
  2
ENTITIES
  0
LWPOLYLINE
  5
21D
100
AcDbEntity
  8
RACCORDO
100
AcDbPolyline
 62
7
  6
CONTINUOUS
 90
13
 70
0
 10
108.9577655405
 20
159.3305895655
 10
108.938045426
 20
159.3190669526
 10
108.9079205781
 20
159.2972341236
 10
108.8802996014
 20
159.2716865963
 10
108.8554125121
 20
159.2427115357
 10
108.8332563107
 20
159.2104015516
 10
108.8138021943
 20
159.1747380931
 10
108.7971228266
 20
159.1357750654
 10
108.7833872027
 20
159.0938277655
 10
108.7727021262
 20
159.0492707166
 10
108.7650968165
 20
159.0024081029
 10
108.7605559653
 20
158.9534538926
 10
108.7590526872
 20
158.9026820267
  0
LWPOLYLINE
  5
21E
100
AcDbEntity
  8
SMUSSO
100
AcDbPolyline
 62
7
  6
CONTINUOUS
 90
15
 70
0
 10
106.4096724718
 20
158.1075287323
 10
106.3906577225
 20
158.0973276388
 10
106.3568850019
 20
158.0754734443
 10
106.3252538608
 20
158.0499266901
 10
106.2958994247
 20
158.0207966092
 10
106.2689470709
 20
157.9882077797
 10
106.2445114295
 20
157.9522993601
 10
106.2226979171
 20
157.9132255053
 10
106.2036019662
 20
157.8711545472
 10
106.1873077625
 20
157.8262678466
 10
106.1738826913
 20
157.7787564209
 10
106.1633790664
 20
157.7288211351
 10
106.1558401464
 20
157.6766749607
 10
106.1512999425
 20
157.6225420595
 10
106.1497778759
 20
157.5666542268
  0
LINE
  5
21F
100
AcDbEntity
  8
RACCORDO
100
AcDbLine
 62
7
  6
CONTINUOUS
 10
108.9577470384
 20
159.330586335
 11
110.5669233047
 21
160.1905242203
  0
LINE
  5
220
100
AcDbEntity
  8
RACCORDO
100
AcDbLine
 62
7
  6
CONTINUOUS
 10
109.3247381122
 20
159.3126596373
 11
110.9352344991
 21
160.1685777103
  0
LWPOLYLINE
  5
221
100
AcDbEntity
  8
RACCORDO
100
AcDbPolyline
 62
7
  6
CONTINUOUS
 90
11
 70
0
 10
110.5670878392
 20
160.1906023724
 10
110.579825836
 20
160.197034666
 10
110.6141763181
 20
160.2108470461
 10
110.6500993304
 20
160.2203852057
 10
110.68759946
 20
160.225659899
 10
110.7266285845
 20
160.2266502617
 10
110.7668991381
 20
160.2233252237
 10
110.8080623367
 20
160.2157295379
 10
110.8499036521
 20
160.203981702
 10
110.8923380895
 20
160.1882092825
 10
110.9352270832
 20
160.1685622037
  0
LINE
  5
222
100
AcDbEntity
  8
RACCORDO
100
AcDbLine
 62
7
  6
CONTINUOUS
 10
106.4096723002
 20
158.1075286465
 11
108.1774380146
 21
158.9914115037
  0
LINE
  5
223
100
AcDbEntity
  8
SMUSSO
100
AcDbLine
 62
7
  6
CONTINUOUS
 10
106.8568846571
 20
158.07912624
 11
108.6246516101
 21
158.9630097165
  0
LWPOLYLINE
  5
224
100
AcDbEntity
  8
SMUSSO
100
AcDbPolyline
 62
7
  6
CONTINUOUS
 90
12
 70
0
 10
108.17743801
 20
158.9914115014
 10
108.1941926528
 20
158.9992782928
 10
108.2318045607
 20
159.0134819959
 10
108.2710987491
 20
159.0237611177
 10
108.3119069205
 20
159.0300716237
 10
108.3540542187
 20
159.0323864877
 10
108.3973600525
 20
159.0306958338
 10
108.4416390699
 20
159.0250069396
 10
108.486701856
 20
159.0153441425
 10
108.532355518
 20
159.0017487731
 10
108.5784044984
 20
158.9842790362
 10
108.6246516101
 20
158.9630097165
  0
LINE
  5
225
100
AcDbEntity
  8
SMUSSO
100
AcDbLine
 62
7
  6
CONTINUOUS
 10
106.1497778759
 20
156.8595474456
 11
106.8568846571
 21
158.07912624
  0
LINE
  5
226
100
AcDbEntity
  8
SMUSSO
100
AcDbLine
 62
7
  6
CONTINUOUS
 10
172.1935512387
 20
42.9508880507
 11
173.6077648011
 21
42.9508880507
  0
LINE
  5
227
100
AcDbEntity
  8
RACCORDO
100
AcDbLine
 62
7
  6
CONTINUOUS
 10
109.3247381122
 20
159.3126596373
 11
109.1121493886
 21
158.7192608272
  0
LINE
  5
228
100
AcDbEntity
  8
RACCORDO
100
AcDbLine
 62
7
  6
CONTINUOUS
 10
176.0895511185
 20
44.1603908152
 11
175.3763278277
 21
44.3009638421
  0
LWPOLYLINE
  5
229
100
AcDbEntity
  8
SMUSSO
100
AcDbPolyline
 62
7
  6
CONTINUOUS
 90
4
 70
0
 10
106.7154775935
 20
75.5485178097
 10
106.7646015787
 20
75.5138660994
 10
106.8106457595
 20
75.4852844913
 10
106.8568846571
 20
75.460302719
  0
LINE
  5
22A
100
AcDbEntity
  8
SMUSSO
100
AcDbLine
 62
7
  6
CONTINUOUS
 10
106.1497778759
 20
75.9727747321
 11
106.8568846571
 21
75.460302719
  0
LINE
  5
22B
100
AcDbEntity
  8
SMUSSO
100
AcDbLine
 62
7
  6
CONTINUOUS
 10
106.1497778759
 20
75.9727747321
 11
106.7154688753
 21
75.5485064826
  0
LWPOLYLINE
  5
22C
100
AcDbEntity
  8
RACCORDO
100
AcDbPolyline
 62
7
  6
CONTINUOUS
 90
10
 70
0
 10
175.5238656936
 20
43.7504132046
 10
175.5659241142
 20
43.7312377964
 10
175.607716019
 20
43.7159434431
 10
175.6490365949
 20
43.7046558242
 10
175.689724738
 20
43.6974652378
 10
175.7295264532
 20
43.6944551805
 10
175.7680964114
 20
43.6956625245
 10
175.8051116431
 20
43.7010375395
 10
175.8405002222
 20
43.7105250479
 10
175.8723056593
 20
43.7232087491
  0
LWPOLYLINE
  5
22D
100
AcDbEntity
  8
SMUSSO
100
AcDbPolyline
 62
7
  6
CONTINUOUS
 90
12
 70
0
 10
172.9006580199
 20
42.4384160375
 10
172.9469146851
 20
42.4171516011
 10
172.9929694206
 20
42.3996847501
 10
173.0386250376
 20
42.3860902925
 10
173.0836839948
 20
42.3764254234
 10
173.1279553705
 20
42.3707325433
 10
173.1712556889
 20
42.3690390805
 10
173.2134024552
 20
42.3713537487
 10
173.2542122399
 20
42.3776651608
 10
173.2935075868
 20
42.3879449389
 10
173.3311191135
 20
42.4021485067
 10
173.3478730256
 20
42.4100149554
  0
LINE
  5
22E
100
AcDbEntity
  8
SMUSSO
100
AcDbLine
 62
7
  6
CONTINUOUS
 10
106.8568846571
 20
75.460302719
 11
172.9006580199
 21
42.4384160375
  0
LINE
  5
22F
100
AcDbEntity
  8
SMUSSO
100
AcDbLine
 62
7
  6
CONTINUOUS
 10
106.1497778759
 20
75.9727747321
 11
172.1935512387
 21
42.9508880507
  0
LINE
  5
230
100
AcDbEntity
  8
RACCORDO
100
AcDbLine
 62
7
  6
CONTINUOUS
 10
175.3752593458
 20
43.8247163785
 11
175.5238656936
 21
43.7504132046
  0
LINE
  5
231
100
AcDbEntity
  8
RACCORDO
100
AcDbLine
 62
7
  6
CONTINUOUS
 10
108.7590526872
 20
158.9026820267
 11
108.7591398185
 21
158.8957656122
  0
LINE
  5
232
100
AcDbEntity
  8
SMUSSO
100
AcDbLine
 62
7
  6
CONTINUOUS
 10
106.1497778759
 20
75.9727747321
 11
106.1497778759
 21
157.5666542268
  0
LINE
  5
233
100
AcDbEntity
  8
RACCORDO
100
AcDbLine
 62
7
  6
CONTINUOUS
 10
108.7590526872
 20
158.9026820267
 11
108.7590526872
 21
158.8958091779
  0
LINE
  5
234
100
AcDbEntity
  8
RACCORDO
100
AcDbLine
 62
7
  6
CONTINUOUS
 10
175.5238656936
 20
43.7504132046
 11
175.3755317541
 21
43.8523115048
  0
LINE
  5
235
100
AcDbEntity
  8
SMUSSO
100
AcDbLine
 62
7
  6
CONTINUOUS
 10
172.1935512387
 20
42.9508880507
 11
172.9006580199
 21
42.4384160375
  0
LINE
  5
236
100
AcDbEntity
  8
RACCORDO
100
AcDbLine
 62
7
  6
CONTINUOUS
 10
175.5238656936
 20
126.2130958466
 11
177.1661519575
 21
127.0531072057
  0
LINE
  5
237
100
AcDbEntity
  8
SMUSSO
100
AcDbLine
 62
7
  6
CONTINUOUS
 10
172.9006580199
 20
125.0572395586
 11
174.6684249729
 21
125.9411230351
  0
LINE
  5
238
100
AcDbEntity
  8
SMUSSO
100
AcDbLine
 62
7
  6
CONTINUOUS
 10
173.6077648011
 20
123.8376607642
 11
175.3755317541
 21
124.7215442407
  0
LINE
  5
239
100
AcDbEntity
  8
RACCORDO
100
AcDbLine
 62
7
  6
CONTINUOUS
 10
176.0895511185
 20
125.2374328111
 11
177.7443371138
 21
126.0559113145
  0
LINE
  5
23A
100
AcDbEntity
  8
RACCORDO
100
AcDbLine
 62
7
  6
CONTINUOUS
 10
175.5238656936
 20
126.2130958466
 11
175.0667664815
 21
125.6623014844
  0
LINE
  5
23B
100
AcDbEntity
  8
SMUSSO
100
AcDbLine
 62
7
  6
CONTINUOUS
 10
172.1935512387
 20
123.8376607642
 11
172.9006580199
 21
125.0572395586
  0
LINE
  5
23C
100
AcDbEntity
  8
RACCORDO
100
AcDbLine
 62
7
  6
CONTINUOUS
 10
176.0895511185
 20
125.2374328111
 11
175.3763278277
 21
125.1030839895
  0
LINE
  5
23D
100
AcDbEntity
  8
SMUSSO
100
AcDbLine
 62
7
  6
CONTINUOUS
 10
172.1935512387
 20
123.8376607642
 11
173.6077648011
 21
123.8376607642
  0
LWPOLYLINE
  5
23E
100
AcDbEntity
  8
SMUSSO
100
AcDbPolyline
 62
7
  6
CONTINUOUS
 90
25
 70
0
 10
173.6077648011
 20
123.8376607642
 10
173.6062605006
 20
123.8950633548
 10
173.6017308502
 20
123.9537321829
 10
173.5941952713
 20
124.0134160319
 10
173.5836839954
 20
124.073858308
 10
173.570244061
 20
124.1348012019
 10
173.5539391212
 20
124.1959867971
 10
173.5348419205
 20
124.2571545492
 10
173.5130312852
 20
124.3180410534
 10
173.4885979091
 20
124.3783842333
 10
173.4616453059
 20
124.4379251331
 10
173.4322900085
 20
124.4964093485
 10
173.4006583647
 20
124.5535867629
 10
173.3668861469
 20
124.6092126941
 10
173.3311176489
 20
124.6630487816
 10
173.2935057141
 20
124.7148643295
 10
173.2542106187
 20
124.7644370634
 10
173.2134014095
 20
124.8115550953
 10
173.1712548615
 20
124.8560176707
 10
173.1279538662
 20
124.8976356015
 10
173.0836814561
 20
124.936229478
 10
173.0386220389
 20
124.9716314471
 10
172.992966847
 20
125.0036890525
 10
172.9469131111
 20
125.0322658831
 10
172.9006580199
 20
125.0572395586
  0
LINE
  5
23F
100
AcDbEntity
  8
SMUSSO
100
AcDbLine
 62
7
  6
CONTINUOUS
 10
172.1935512387
 20
42.9508880507
 11
172.1935512387
 21
123.8376607642
  0
LINE
  5
240
100
AcDbEntity
  8
SMUSSO
100
AcDbLine
 62
7
  6
CONTINUOUS
 10
173.6077648011
 20
42.9508880507
 11
173.6077648011
 21
123.8376607642
  0
LWPOLYLINE
  5
241
100
AcDbEntity
  8
RACCORDO
100
AcDbPolyline
 62
7
  6
CONTINUOUS
 90
22
 70
0
 10
176.0895511185
 20
125.2374328111
 10
176.0879350907
 20
125.2897643299
 10
176.083036368
 20
125.3434383271
 10
176.0749139832
 20
125.3981647881
 10
176.063632741
 20
125.4537049963
 10
176.0492905155
 20
125.5096912209
 10
176.0320384712
 20
125.5656199546
 10
176.0120833285
 20
125.6209880427
 10
175.9895168487
 20
125.6756593674
 10
175.9643244736
 20
125.7296741602
 10
175.9365354784
 20
125.7829266734
 10
175.9064106305
 20
125.8348843503
 10
175.8742903613
 20
125.8849600336
 10
175.8405002222
 20
125.9326750297
 10
175.8051116431
 20
125.9779613956
 10
175.7680964114
 20
126.0208526686
 10
175.7295264532
 20
126.0612026475
 10
175.689724738
 20
126.0986009069
 10
175.6490365949
 20
126.1326946293
 10
175.607716019
 20
126.1632446615
 10
175.5659241142
 20
126.1901000845
 10
175.5238656936
 20
126.2130958466
  0
LINE
  5
242
100
AcDbEntity
  8
SMUSSO
100
AcDbLine
 62
7
  6
CONTINUOUS
 10
175.3755317541
 20
125.0750976313
 11
175.3755317541
 21
43.8347715272
  0
LINE
  5
243
100
AcDbEntity
  8
RACCORDO
100
AcDbLine
 62
7
  6
CONTINUOUS
 10
175.3763278277
 20
124.7215442407
 11
175.3763278277
 21
125.1030839895
  0
LINE
  5
244
100
AcDbEntity
  8
RACCORDO
100
AcDbLine
 62
7
  6
CONTINUOUS
 10
176.0895511185
 20
44.1603908152
 11
176.0895511185
 21
125.2374328111
  0
LINE
  5
245
100
AcDbEntity
  8
RACCORDO
100
AcDbLine
 62
7
  6
CONTINUOUS
 10
177.7443274394
 20
44.9399160147
 11
177.744339471
 21
126.4664565594
  0
LWPOLYLINE
  5
246
100
AcDbEntity
  8
SMUSSO
100
AcDbPolyline
 62
7
  6
CONTINUOUS
 90
15
 70
0
 10
175.3755317541
 20
43.8347715257
 10
175.3740177812
 20
43.7788876869
 10
175.3694823464
 20
43.7247571292
 10
175.3619448721
 20
43.6726116491
 10
175.3514376369
 20
43.6226745447
 10
175.338005635
 20
43.57515965
 10
175.3217063814
 20
43.530270421
 10
175.3026096689
 20
43.4881990766
 10
175.2807972736
 20
43.4491257793
 10
175.2563626022
 20
43.4132178527
 10
175.2294102897
 20
43.3806290619
 10
175.2000557491
 20
43.3514989547
 10
175.1684246805
 20
43.3259522702
 10
175.1346525356
 20
43.3040984046
 10
175.1156385729
 20
43.2938977291
  0
LWPOLYLINE
  5
247
100
AcDbEntity
  8
RACCORDO
100
AcDbPolyline
 62
7
  6
CONTINUOUS
 90
13
 70
0
 10
177.7442397259
 20
44.9399216724
 10
177.7428131861
 20
44.8880540503
 10
177.7384549419
 20
44.8381568193
 10
177.7310846775
 20
44.7904573652
 10
177.7206212393
 20
44.7451159646
 10
177.7070403837
 20
44.7024245394
 10
177.6904333537
 20
44.6627785385
 10
177.6709355919
 20
44.6264704074
 10
177.6485806682
 20
44.5935474859
 10
177.6233524463
 20
44.5640184753
 10
177.5952236826
 20
44.537948036
 10
177.5644029753
 20
44.5156107741
 10
177.5292624497
 20
44.4963375475
  0
LWPOLYLINE
  5
248
100
AcDbEntity
  8
SMUSSO
100
AcDbPolyline
 62
7
  6
CONTINUOUS
 90
12
 70
0
 10
106.8568846571
 20
158.07912624
 10
106.8106473306
 20
158.1004003458
 10
106.7646041475
 20
158.117872973
 10
106.7189522967
 20
158.1314693137
 10
106.6738852291
 20
158.1411301275
 10
106.6295979567
 20
158.1468150593
 10
106.5862862259
 20
158.1485028159
 10
106.5441384282
 20
158.146187632
 10
106.5033320961
 20
158.1398779463
 10
106.464039266
 20
158.1295994265
 10
106.4264270818
 20
158.11539553
 10
106.4096724718
 20
158.1075287323
  0
LINE
  5
249
100
AcDbEntity
  8
SMUSSO
100
AcDbLine
 62
7
  6
CONTINUOUS
 10
172.1935512387
 20
123.8376607642
 11
106.1497778759
 21
156.8595474456
  0
LINE
  5
24A
100
AcDbEntity
  8
SMUSSO
100
AcDbLine
 62
7
  6
CONTINUOUS
 10
172.9006580199
 20
125.0572395586
 11
106.8568846571
 21
158.07912624
  0
LINE
  5
24B
100
AcDbEntity
  8
SMUSSO
100
AcDbLine
 62
7
  6
CONTINUOUS
 10
108.6246516101
 20
158.9630097165
 11
174.6684249729
 21
125.9411230351
  0
LINE
  5
24C
100
AcDbEntity
  8
RACCORDO
100
AcDbLine
 62
7
  6
CONTINUOUS
 10
175.5238656936
 20
126.2130958466
 11
109.3247381122
 21
159.3126596373
  0
LWPOLYLINE
  5
24D
100
AcDbEntity
  8
SMUSSO
100
AcDbPolyline
 62
7
  6
CONTINUOUS
 90
4
 70
0
 10
174.6684249729
 20
125.9411230351
 10
174.7146720142
 20
125.9161452839
 10
174.7607210131
 20
125.8875660339
 10
174.8098463297
 20
125.8529150902
  0
LWPOLYLINE
  5
24E
100
AcDbEntity
  8
RACCORDO
100
AcDbPolyline
 62
7
  6
CONTINUOUS
 90
11
 70
0
 10
109.3247381122
 20
159.3126596373
 10
109.2825669418
 20
159.3317786706
 10
109.2404171656
 20
159.3468940882
 10
109.1985795145
 20
159.3579231696
 10
109.1572952057
 20
159.364815673
 10
109.1168868889
 20
159.3675224296
 10
109.0777442541
 20
159.3660287473
 10
109.040227996
 20
159.3604032191
 10
109.0044291386
 20
159.3507105715
 10
108.9703337137
 20
159.3369383574
 10
108.9577655405
 20
159.3305895655
  0
LINE
  5
24F
100
AcDbEntity
  8
RACCORDO
100
AcDbLine
 62
7
  6
CONTINUOUS
 10
110.9352344991
 20
160.1685777103
 11
177.1661519575
 21
127.0531072057
  0
LWPOLYLINE
  5
250
100
AcDbEntity
  8
RACCORDO
100
AcDbPolyline
 62
7
  6
CONTINUOUS
 90
8
 70
0
 10
177.1661076172
 20
127.0530137571
 10
177.2093516197
 20
127.0296078394
 10
177.252648415
 20
127.0025273755
 10
177.295705145
 20
126.9718376512
 10
177.3383155273
 20
126.9375556841
 10
177.3801005019
 20
126.8998599292
 10
177.4205419933
 20
126.859140945
 10
177.4443428128
 20
126.8330243234
  0
LINE
  5
251
100
AcDbEntity
  8
SMUSSO
100
AcDbLine
 62
7
  6
CONTINUOUS
 10
175.0926890417
 20
125.6407830562
 11
174.8098463291
 21
125.8529150906
  0
LWPOLYLINE
  5
252
100
AcDbEntity
  8
SMUSSO
100
AcDbPolyline
 62
7
  6
CONTINUOUS
 90
17
 70
0
 10
175.0929103083
 20
125.6406049613
 10
175.1134766348
 20
125.6243859941
 10
175.1428124011
 20
125.5983543228
 10
175.1714578804
 20
125.5694995682
 10
175.1987623234
 20
125.5384772095
 10
175.2246927073
 20
125.5052404185
 10
175.2492820548
 20
125.4698360235
 10
175.2719786858
 20
125.4330599885
 10
175.2927402272
 20
125.3948817024
 10
175.311609052
 20
125.3553317763
 10
175.3281605988
 20
125.3152980078
 10
175.3423432051
 20
125.2747656874
 10
175.3542085334
 20
125.2337495246
 10
175.3634870098
 20
125.193181445
 10
175.3700887764
 20
125.1533720906
 10
175.3741036912
 20
125.1140108193
 10
175.3755317541
 20
125.0750976313
  0
LWPOLYLINE
  5
253
100
AcDbEntity
  8
SMUSSO
100
AcDbPolyline
 62
7
  6
CONTINUOUS
 90
22
 70
0
 10
174.8098463297
 20
125.8529150902
 10
174.8514378161
 20
125.820107467
 10
174.895717157
 20
125.7815170211
 10
174.9390232014
 20
125.7399015717
 10
174.9811705104
 20
125.6954393165
 10
175.0219785972
 20
125.6483206538
 10
175.0612727093
 20
125.5987473593
 10
175.0988845811
 20
125.5469317168
 10
175.134653155
 20
125.4930956068
 10
175.1684252653
 20
125.4374695627
 10
175.2000562923
 20
125.3802917879
 10
175.2294107892
 20
125.3218071233
 10
175.2563630613
 20
125.262265996
 10
175.2807977144
 20
125.2019233137
 10
175.3026100872
 20
125.1410375287
 10
175.3217067282
 20
125.0798695209
 10
175.3380058477
 20
125.0186813633
 10
175.3514377181
 20
124.9577349286
 10
175.3619448827
 20
124.8972909302
 10
175.3694823396
 20
124.8376081134
 10
175.3740177766
 20
124.7789421422
 10
175.3755317541
 20
124.7215442407
  0
LINE
  5
254
100
AcDbEntity
  8
RACCORDO
100
AcDbLine
 62
7
  6
CONTINUOUS
 10
177.7260550359
 20
126.5137900885
 11
177.4445081585
 21
126.8328369549
  0
LWPOLYLINE
  5
255
100
AcDbEntity
  8
RACCORDO
100
AcDbPolyline
 62
7
  6
CONTINUOUS
 90
16
 70
0
 10
177.4443428128
 20
126.8330243234
 10
177.4592663778
 20
126.8157614237
 10
177.4961944981
 20
126.7698053136
 10
177.5312726213
 20
126.721286273
 10
177.5644033274
 20
126.6702265355
 10
177.5952312216
 20
126.6170649903
 10
177.6233670589
 20
126.5624729741
 10
177.6486023268
 20
126.5069841695
 10
177.6709642434
 20
126.4506975968
 10
177.690468861
 20
126.3936650521
 10
177.7070824926
 20
126.3359986193
 10
177.7206701512
 20
126.2782123204
 10
177.7311411024
 20
126.2209619692
 10
177.738519399
 20
126.1646786903
 10
177.7428856957
 20
126.1095619858
 10
177.7443199316
 20
126.0559124805
  0
LWPOLYLINE
  5
256
100
AcDbEntity
  8
RACCORDO
100
AcDbPolyline
 62
7
  6
CONTINUOUS
 90
10
 70
0
 10
177.7260336336
 20
126.5138093322
 10
177.7272557418
 20
126.5123803615
 10
177.7309924819
 20
126.5074770398
 10
177.7343113375
 20
126.5022707089
 10
177.7372104482
 20
126.4967583313
 10
177.7396916745
 20
126.4909429444
 10
177.7416551606
 20
126.4849887509
 10
177.7430676213
 20
126.4789504847
 10
177.7439623419
 20
126.4727734117
 10
177.7443393223
 20
126.466457532
  0
LWPOLYLINE
  5
257
100
AcDbEntity
  8
RACCORDO
100
AcDbPolyline
 62
7
  6
CONTINUOUS
 90
13
 70
0
 10
175.8723056593
 20
43.7232087491
 10
175.9064106305
 20
43.7419320147
 10
175.9365354784
 20
43.7637648437
 10
175.9643244736
 20
43.7893963802
 10
175.9895168487
 20
43.8185240837
 10
176.0120833285
 20
43.851039207
 10
176.0320384712
 20
43.8869531787
 10
176.0492905155
 20
43.9262025447
 10
176.063632741
 20
43.9684531454
 10
176.0749139832
 20
44.0133082771
 10
176.083036368
 20
44.0604294284
 10
176.0879350907
 20
44.1095625744
 10
176.0895511185
 20
44.1603908152
  0
LWPOLYLINE
  5
258
100
AcDbEntity
  8
SMUSSO
100
AcDbPolyline
 62
7
  6
CONTINUOUS
 90
15
 70
0
 10
173.3478730256
 20
42.4100149554
 10
173.3668868792
 20
42.4202156011
 10
173.4006583647
 20
42.442069178
 10
173.4322892761
 20
42.4676158174
 10
173.4616438411
 20
42.4967459628
 10
173.4885960362
 20
42.5293347129
 10
173.5130296636
 20
42.5652421255
 10
173.5348408745
 20
42.6043148295
 10
173.5539382939
 20
42.6463865218
 10
173.5702425578
 20
42.6912782526
 10
173.5836814593
 20
42.7387965934
 10
173.5941922758
 20
42.788735475
 10
173.6017282793
 20
42.8408801912
 10
173.6062589281
 20
42.8950083149
 10
173.6077648011
 20
42.9508880507
  0
LINE
  5
259
100
AcDbEntity
  8
SMUSSO
100
AcDbLine
 62
7
  6
CONTINUOUS
 10
173.6077648011
 20
42.9508880507
 11
175.3755317541
 21
43.8347715272
  0
LINE
  5
25A
100
AcDbEntity
  8
RACCORDO
100
AcDbLine
 62
7
  6
CONTINUOUS
 10
173.347872854
 20
42.4100148696
 11
175.1156385684
 21
43.2938977268
  0
LINE
  5
25B
100
AcDbEntity
  8
RACCORDO
100
AcDbLine
 62
7
  6
CONTINUOUS
 10
176.0895511185
 20
44.1603908152
 11
177.7443274394
 21
44.9399160147
  0
LINE
  5
25C
100
AcDbEntity
  8
RACCORDO
100
AcDbLine
 62
7
  6
CONTINUOUS
 10
175.8723159776
 20
43.7232145481
 11
177.5292541024
 21
44.4963350003
  0
ELLIPSE
  5
25D
100
AcDbEntity
  8
RACCORDO
100
AcDbEllipse
 62
7
  6
CONTINUOUS
 10
175.0415503546
 20
125.2501671645
 30
0.0
 11
-0.2020389729
 21
0.4152955385
 31
0.0
 40
0.6427677728
 41
4.0645027796
 42
5.2449921841
  0
ENDSEC
  0
SECTION
  2
OBJECTS
  0
DICTIONARY
  5
C
100
AcDbDictionary
280
0
281
1
  3
ACAD_GROUP
350
D
  3
ACAD_MLINESTYLE
350
17
  3
ACAD_LAYOUT
350
1A
  3
ACAD_PLOTSETTINGS
350
19
  3
ACAD_PLOTSTYLENAME
350
E
  0
DICTIONARY
  5
D
102
{ACAD_REACTORS
330
C
102
}
100
AcDbDictionary
280
0
281
1
  0
ACDBDICTIONARYWDFLT
  5
E
102
{ACAD_REACTORS
330
C
102
}
100
AcDbDictionary
281
1
  3
Normal
350
F
100
AcDbDictionaryWithDefault
340
F
  0
DICTIONARY
  5
17
102
{ACAD_REACTORS
330
C
102
}
100
AcDbDictionary
280
0
281
1
  3
Standard
350
18
  0
DICTIONARY
  5
19
102
{ACAD_REACTORS
330
C
102
}
100
AcDbDictionary
281
1
  0
DICTIONARY
  5
1A
102
{ACAD_REACTORS
330
C
102
}
100
AcDbDictionary
281
1
  3
Model
350
25E
  3
Layout1
350
25F
  0
ACDBPLACEHOLDER
  5
F
102
{ACAD_REACTORS
330
E
102
}
  0
MLINESTYLE
  5
18
102
{ACAD_REACTORS
330
17
102
}
100
AcDbMlineStyle
  2
STANDARD
 70
0
  3

 62
256
 51
90.0
 52
90.0
 71
2
 49
0.5
 62
256
  6
BYLAYER
 49
-0.5
 62
256
  6
BYLAYER
  0
LAYOUT
  5
25E
102
{ACAD_REACTORS
330
1A
102
}
100
AcDbPlotSettings
  1

  2
none_device
  4
ISO_A4_(297.00_x_210.00_MM)
  6

 40
0.0
 41
0.0
 42
0.0
 43
0.0
 44
297.0
 45
210.0
 46
0.0
 47
0.0
 48
0.0
 49
0.0
140
0.0
141
0.0
142
1.0
143
1.0
 70
1024
 72
1
 73
0
 74
0
  7

 75
0
147
1.0
148
0.0
149
0.0
100
AcDbLayout
  1
Model
 70
0
 71
0
 10
0.0
 20
0.0
 11
297.0
 21
210.0
 12
0.0
 22
0.0
 32
0.0
 14
0.0
 24
0.0
 34
0.0
 15
0.0
 25
0.0
 35
0.0
146
0.0
 13
0.0
 23
0.0
 33
0.0
 16
1.0
 26
0.0
 36
0.0
 17
0.0
 27
1.0
 37
0.0
 76
0
330
21A
345
0
346
0
  0
LAYOUT
  5
25F
102
{ACAD_REACTORS
330
1A
102
}
100
AcDbPlotSettings
  1

  2
none_device
  4
ISO_A4_(297.00_x_210.00_MM)
  6

 40
0.0
 41
0.0
 42
0.0
 43
0.0
 44
297.0
 45
210.0
 46
0.0
 47
0.0
 48
0.0
 49
0.0
140
0.0
141
0.0
142
1.0
143
1.0
 70
0
 72
1
 73
0
 74
0
  7

 75
0
147
1.0
148
0.0
149
0.0
100
AcDbLayout
  1
Layout1
 70
0
 71
1
 10
0.0
 20
0.0
 11
297.0
 21
210.0
 12
0.0
 22
0.0
 32
0.0
 14
0.0
 24
0.0
 34
0.0
 15
0.0
 25
0.0
 35
0.0
146
0.0
 13
0.0
 23
0.0
 33
0.0
 16
1.0
 26
0.0
 36
0.0
 17
0.0
 27
1.0
 37
0.0
 76
0
330
21B
345
0
346
0
  0
ENDSEC
  0
EOF
