  0
SECTION
  2
HEADER
  9
$ACADVER
  1
AC1015
  9
$DWGCODEPAGE
  3
ANSI_1252
  9
$EXTMAX
 10
297.0
 20
210.0
 30
0.0
  9
$EXTMIN
 10
0.0
 20
0.0
 30
0.0
  9
$LIMMIN
 10
0.0
 20
0.0
  9
$LIMMAX
 10
297.0
 20
210.0
  9
$VIEWCTR
 10
148.5
 20
105.0
  9
$VIEWSIZE
 40
210.0
  9
$CLAYER
  8
0
  9
$LTSCALE
 40
16.335
  9
$CELTYPE
  6
BYLAYER
  9
$DIMSCALE
 40
1.0
  9
$DIMASZ
 40
3.0
  9
$DIMEXO
 40
0.5
  9
$DIMDLI
 40
11.286
  9
$DIMEXE
 40
1.5
  9
$DIMCEN
 40
2.673
  9
$DIMLFAC
 40
1.0
  9
$DIMBLK
  1
_FILLED
  9
$DIMTXT
 40
3.0
  9
$DIMTOL
 70
1
  9
$DIMLIM
 70
0
  9
$DIMTFAC
 40
1.0
  9
$DIMTP
 40
0.01
  9
$DIMTM
 40
0.01
  9
$DIMGAP
 40
0.625
  9
$DIMDSEP
 70
44
  9
$PDMODE
 70
3
  9
$PDSIZE
 40
3.0
  9
$HANDSEED
  5
261
  9
$TILEMODE
 70
1
  9
$MEASUREMENT
 70
1
  9
$INSUNITS
 70
4
  0
ENDSEC
  0
SECTION
  2
CLASSES
  0
CLASS
  1
ACDBDICTIONARYWDFLT
  2
AcDbDictionaryWithDefault
  3
AutoCAD 2000
 90
0
280
0
281
0
  0
CLASS
  1
ACDBPLACEHOLDER
  2
AcDbPlaceHolder
  3
AutoCAD 2000
 90
0
280
0
281
0
  0
CLASS
  1
LAYOUT
  2
AcDbLayout
  3
AutoCAD 2000
 90
0
280
0
281
0
  0
ENDSEC
  0
SECTION
  2
TABLES
  0
TABLE
  2
VPORT
  5
8
100
AcDbSymbolTable
 70
2
  0
VPORT
  5
1F4
100
AcDbSymbolTableRecord
100
AcDbViewportTableRecord
  2
*ACTIVE
 70
0
 10
0.0
 20
0.0
 11
1.0
 21
1.0
 12
148.5
 22
105.0
 13
0.0
 23
0.0
 14
1.0
 24
1.0
 15
0.0
 25
0.0
 16
0.0
 26
0.0
 36
1.0
 17
0.0
 27
0.0
 37
0.0
 40
210.0
 41
1.4142857143
 42
50.0
 43
0.0
 44
0.0
 50
0.0
 51
0.0
 71
0
 72
100
 73
1
 74
1
 75
0
 76
0
 77
0
 78
0
  0
ENDTAB
  0
TABLE
  2
LTYPE
  5
5
100
AcDbSymbolTable
 70
6
  0
LTYPE
  5
14
100
AcDbSymbolTableRecord
100
AcDbLinetypeTableRecord
  2
BYBLOCK
 70
0
  3

 72
65
 73
0
 40
0.0
  0
LTYPE
  5
15
100
AcDbSymbolTableRecord
100
AcDbLinetypeTableRecord
  2
BYLAYER
 70
0
  3

 72
65
 73
0
 40
0.0
  0
LTYPE
  5
16
100
AcDbSymbolTableRecord
100
AcDbLinetypeTableRecord
  2
CONTINUOUS
 70
64
  3
Solid line
 72
65
 73
0
 40
0.0
  0
LTYPE
  5
1F5
100
AcDbSymbolTableRecord
100
AcDbLinetypeTableRecord
  2
CENTER
 70
64
  3
____ _ ____ _ ____ _ ____ _ ____ _ ____ _ ____
 72
65
 73
4
 40
0.6
 49
0.375
 74
0
 49
-0.075
 74
0
 49
0.075
 74
0
 49
-0.075
 74
0
  0
LTYPE
  5
1F6
100
AcDbSymbolTableRecord
100
AcDbLinetypeTableRecord
  2
HIDDEN
 70
64
  3
- - - - - - - - - - - - - - - - - - - -
 72
65
 73
2
 40
0.2
 49
0.1
 74
0
 49
-0.1
 74
0
  0
LTYPE
  5
1F7
100
AcDbSymbolTableRecord
100
AcDbLinetypeTableRecord
  2
PHANTOM
 70
64
  3
_____ _ _ _____ _ _ _____ _ _ _____
 72
65
 73
6
 40
0.8
 49
0.45
 74
0
 49
-0.05
 74
0
 49
0.1
 74
0
 49
-0.05
 74
0
 49
0.1
 74
0
 49
-0.05
 74
0
  0
LTYPE
  5
1F8
100
AcDbSymbolTableRecord
100
AcDbLinetypeTableRecord
  2
DOT
 70
64
  3
. . . . . . . . . . . . . . . . . . . .
 72
65
 73
2
 40
0.2
 49
0.1
 74
0
 49
-0.1
 74
0
  0
LTYPE
  5
1F9
100
AcDbSymbolTableRecord
100
AcDbLinetypeTableRecord
  2
DASHED
 70
64
  3
- - - - - - - - - - - - - - - - - - - -
 72
65
 73
2
 40
0.2
 49
0.1
 74
0
 49
-0.1
 74
0
  0
ENDTAB
  0
TABLE
  2
LAYER
  5
2
100
AcDbSymbolTable
 70
36
  0
LAYER
  5
10
100
AcDbSymbolTableRecord
100
AcDbLayerTableRecord
  2
0
 70
0
 62
7
  6
CONTINUOUS
370
-3
390
F
  0
LAYER
  5
1FA
100
AcDbSymbolTableRecord
100
AcDbLayerTableRecord
  2
DEFAULT_1
 70
0
 62
7
  6
CENTER
370
-3
390
F
  0
LAYER
  5
1FB
100
AcDbSymbolTableRecord
100
AcDbLayerTableRecord
  2
DEFAULT_2
 70
0
 62
7
  6
HIDDEN
370
-3
390
F
  0
LAYER
  5
1FC
100
AcDbSymbolTableRecord
100
AcDbLayerTableRecord
  2
DEFAULT_3
 70
0
 62
7
  6
PHANTOM
370
-3
390
F
  0
LAYER
  5
1FD
100
AcDbSymbolTableRecord
100
AcDbLayerTableRecord
  2
ASSI
 70
0
 62
7
  6
CONTINUOUS
370
-3
390
F
  0
LAYER
  5
1FE
100
AcDbSymbolTableRecord
100
AcDbLayerTableRecord
  2
COORDINATE
 70
0
 62
7
  6
CONTINUOUS
370
-3
390
F
  0
LAYER
  5
1FF
100
AcDbSymbolTableRecord
100
AcDbLayerTableRecord
  2
COPY_PUBLISH
 70
0
 62
7
  6
CONTINUOUS
370
-3
390
F
  0
LAYER
  5
200
100
AcDbSymbolTableRecord
100
AcDbLayerTableRecord
  2
COSMETIC
 70
0
 62
7
  6
CONTINUOUS
370
-3
390
F
  0
LAYER
  5
201
100
AcDbSymbolTableRecord
100
AcDbLayerTableRecord
  2
COSMETICI
 70
0
 62
7
  6
CONTINUOUS
370
-3
390
F
  0
LAYER
  5
202
100
AcDbSymbolTableRecord
100
AcDbLayerTableRecord
  2
CURVE
 70
0
 62
7
  6
CONTINUOUS
370
-3
390
F
  0
LAYER
  5
203
100
AcDbSymbolTableRecord
100
AcDbLayerTableRecord
  2
CURVE_INIEZIONE
 70
0
 62
7
  6
CONTINUOUS
370
-3
390
F
  0
LAYER
  5
204
100
AcDbSymbolTableRecord
100
AcDbLayerTableRecord
  2
CURVE_PUNZONI
 70
0
 62
7
  6
CONTINUOUS
370
-3
390
F
  0
LAYER
  5
205
100
AcDbSymbolTableRecord
100
AcDbLayerTableRecord
  2
DRAFT
 70
0
 62
7
  6
CONTINUOUS
370
-3
390
F
  0
LAYER
  5
206
100
AcDbSymbolTableRecord
100
AcDbLayerTableRecord
  2
IMPORT_IGES
 70
0
 62
7
  6
CONTINUOUS
370
-3
390
F
  0
LAYER
  5
207
100
AcDbSymbolTableRecord
100
AcDbLayerTableRecord
  2
INTF_1
 70
0
 62
7
  6
CONTINUOUS
370
-3
390
F
  0
LAYER
  5
208
100
AcDbSymbolTableRecord
100
AcDbLayerTableRecord
  2
INTF_14
 70
0
 62
7
  6
CONTINUOUS
370
-3
390
F
  0
LAYER
  5
209
100
AcDbSymbolTableRecord
100
AcDbLayerTableRecord
  2
NOTE
 70
0
 62
7
  6
CONTINUOUS
370
-3
390
F
  0
LAYER
  5
20A
100
AcDbSymbolTableRecord
100
AcDbLayerTableRecord
  2
PIANI
 70
0
 62
7
  6
CONTINUOUS
370
-3
390
F
  0
LAYER
  5
20B
100
AcDbSymbolTableRecord
100
AcDbLayerTableRecord
  2
PUNTI
 70
0
 62
7
  6
CONTINUOUS
370
-3
390
F
  0
LAYER
  5
20C
100
AcDbSymbolTableRecord
100
AcDbLayerTableRecord
  2
RACCORDO
 70
0
 62
7
  6
CONTINUOUS
370
-3
390
F
  0
LAYER
  5
20D
100
AcDbSymbolTableRecord
100
AcDbLayerTableRecord
  2
SIMBOLI
 70
0
 62
7
  6
CONTINUOUS
370
-3
390
F
  0
LAYER
  5
20E
100
AcDbSymbolTableRecord
100
AcDbLayerTableRecord
  2
SMUSSO
 70
0
 62
7
  6
CONTINUOUS
370
-3
390
F
  0
LAYER
  5
20F
100
AcDbSymbolTableRecord
100
AcDbLayerTableRecord
  2
SUPERFICI
 70
0
 62
7
  6
CONTINUOUS
370
-3
390
F
  0
LAYER
  5
210
100
AcDbSymbolTableRecord
100
AcDbLayerTableRecord
  2
TRASH
 70
0
 62
7
  6
CONTINUOUS
370
-3
390
F
  0
LAYER
  5
211
100
AcDbSymbolTableRecord
100
AcDbLayerTableRecord
  2
XSEC_DATUMS
 70
0
 62
7
  6
CONTINUOUS
370
-3
390
F
  0
ENDTAB
  0
TABLE
  2
STYLE
  5
3
100
AcDbSymbolTable
 70
1
  0
STYLE
  5
11
100
AcDbSymbolTableRecord
100
AcDbTextStyleTableRecord
  2
STANDARD
 70
0
 40
0.0
 41
0.8
 50
0.0
 71
0
 42
0.2
  3
txt
  4

  0
STYLE
  5
212
100
AcDbSymbolTableRecord
100
AcDbTextStyleTableRecord
  2
TEXTSTYLE_1
 70
0
 40
0.0
 41
0.8
 50
0.0
 71
0
 42
0.2
  3
gdt
  4

  0
ENDTAB
  0
TABLE
  2
VIEW
  5
6
100
AcDbSymbolTable
 70
0
  0
ENDTAB
  0
TABLE
  2
UCS
  5
7
100
AcDbSymbolTable
 70
0
  0
ENDTAB
  0
TABLE
  2
APPID
  5
9
100
AcDbSymbolTable
 70
1
  0
APPID
  5
213
100
AcDbSymbolTableRecord
100
AcDbRegAppTableRecord
  2
ACAD
 70
0
  0
ENDTAB
  0
TABLE
  2
BLOCK_RECORD
  5
1
100
AcDbSymbolTable
 70
0
  0
BLOCK_RECORD
  5
214
100
AcDbSymbolTableRecord
100
AcDbBlockTableRecord
  2
*Model_Space
  0
BLOCK_RECORD
  5
215
100
AcDbSymbolTableRecord
100
AcDbBlockTableRecord
  2
*Paper_Space
  0
ENDTAB
  0
TABLE
  2
DIMSTYLE
  5
A
100
AcDbSymbolTable
 70
1
100
AcDbDimStyleTable
 71
0
  0
DIMSTYLE
105
216
100
AcDbSymbolTableRecord
100
AcDbDimStyleTableRecord
  2
STANDARD
 70
0
  3

  4

 40
1.0
 41
3.0
 42
0.5
 43
0.38
 44
1.5
 45
0.0
 46
0.0
 47
0.01
 48
0.01
140
3.0
141
0.09
142
0.0
143
25.4
144
1.0
145
0.0
146
1.0
147
0.625
 71
1.0
 72
0.0
 73
0
 74
0
 75
0
 76
0
 77
1
 78
8
170
0
171
2
172
0
173
0
174
0
175
0
176
0
177
0
178
0
270
2
271
2
272
2
273
2
274
2
275
0
280
0
281
0
282
0
283
1
284
8
285
0
286
0
287
3
288
0
340
11
278
44
  0
ENDTAB
  0
ENDSEC
  0
SECTION
  2
BLOCKS
  0
BLOCK
  5
20
100
AcDbEntity
  8
0
100
AcDbBlockBegin
  2
*Model_Space
 70
0
 10
0.0
 20
0.0
 30
0.0
  3
*Model_Space
  1

  0
ENDBLK
  5
21
100
AcDbEntity
  8
0
100
AcDbBlockEnd
  0
BLOCK
  5
1C
100
AcDbEntity
  8
0
100
AcDbBlockBegin
  2
*Paper_Space
 70
0
 10
0.0
 20
0.0
 30
0.0
  3
*Paper_Space
  1

  0
ENDBLK
  5
1D
100
AcDbEntity
  8
0
100
AcDbBlockEnd
  0
ENDSEC
  0
SECTION
  2
ENTITIES
  0
LWPOLYLINE
  5
217
100
AcDbEntity
  8
CURVE
100
AcDbPolyline
 62
7
  6
CONTINUOUS
 90
13
 70
0
 10
105.5171711245
 20
172.0881558487
 10
105.5069393068
 20
172.082495366
 10
105.4730504877
 20
172.0605715918
 10
105.4413240705
 20
172.03494106
 10
105.4118861455
 20
172.0056963135
 10
105.384947672
 20
171.9730637263
 10
105.3606628335
 20
171.9373194799
 10
105.3390271702
 20
171.8985443422
 10
105.3200163161
 20
171.8566769242
 10
105.3036751357
 20
171.8116893745
 10
105.2901739029
 20
171.7638867513
 10
105.279653994
 20
171.7137341932
 10
105.2793457074
 20
171.7115909625
  0
LINE
  5
218
100
AcDbEntity
  8
CURVE
100
AcDbLine
 62
7
  6
CONTINUOUS
 10
105.5170980926
 20
172.0881126182
 11
107.1434345752
 21
172.9551435908
  0
LINE
  5
219
100
AcDbEntity
  8
CURVE
100
AcDbLine
 62
7
  6
CONTINUOUS
 10
107.6061343799
 20
172.9288827054
 11
105.9732568264
 21
172.0643285748
  0
LWPOLYLINE
  5
21A
100
AcDbEntity
  8
SMUSSO
100
AcDbPolyline
 62
7
  6
CONTINUOUS
 90
17
 70
0
 10
102.9167689887
 20
170.9299079274
 10
102.9094630191
 20
170.9261543798
 10
102.8787361359
 20
170.9080276796
 10
102.8496512885
 20
170.8869486146
 10
102.8223068608
 20
170.8629884944
 10
102.7967954523
 20
170.83622843
 10
102.7732033112
 20
170.8067589316
 10
102.7516100119
 20
170.7746795879
 10
102.7320880477
 20
170.7400986594
 10
102.7147040443
 20
170.7031334416
 10
102.6995182821
 20
170.6639097425
 10
102.6865838169
 20
170.6225611184
 10
102.675942756
 20
170.5792266504
 10
102.6676275713
 20
170.5340512023
 10
102.6616652238
 20
170.487187046
 10
102.658077068
 20
170.4387933449
 10
102.6568752339
 20
170.3890338425
  0
LINE
  5
21B
100
AcDbEntity
  8
RACCORDO
100
AcDbLine
 62
7
  6
CONTINUOUS
 10
102.9167690139
 20
170.92990794
 11
104.6845353725
 21
171.8137911194
  0
LINE
  5
21C
100
AcDbEntity
  8
SMUSSO
100
AcDbLine
 62
7
  6
CONTINUOUS
 10
103.3639820151
 20
170.9015058557
 11
105.131748968
 21
171.7853893322
  0
LWPOLYLINE
  5
21D
100
AcDbEntity
  8
CURVE
100
AcDbPolyline
 62
7
  6
CONTINUOUS
 90
12
 70
0
 10
107.1436316608
 20
172.9552407791
 10
107.1697744262
 20
172.9679134725
 10
107.2080272131
 20
172.9822942281
 10
107.2476904681
 20
172.9925688683
 10
107.2887195813
 20
172.9987673239
 10
107.3312108242
 20
173.0009065689
 10
107.375165641
 20
172.9989418215
 10
107.4202547547
 20
172.9928467414
 10
107.4660807145
 20
172.9826877515
 10
107.5124039287
 20
172.9685741099
 10
107.5591406597
 20
172.9505977184
 10
107.6061343799
 20
172.9288827054
  0
LWPOLYLINE
  5
21E
100
AcDbEntity
  8
SMUSSO
100
AcDbPolyline
 62
7
  6
CONTINUOUS
 90
12
 70
0
 10
104.6845355488
 20
171.8137912075
 10
104.7012948367
 20
171.8216600308
 10
104.7389092775
 20
171.8358639541
 10
104.778205803
 20
171.8461427413
 10
104.8190160606
 20
171.8524524642
 10
104.8611648067
 20
171.8547661999
 10
104.9044714303
 20
171.8530742681
 10
104.9487504658
 20
171.8473841429
 10
104.9938119345
 20
171.8377204967
 10
105.0394627285
 20
171.8241250511
 10
105.0855074586
 20
171.8066563004
 10
105.131748968
 20
171.7853893322
  0
LINE
  5
21F
100
AcDbEntity
  8
SMUSSO
100
AcDbLine
 62
7
  6
CONTINUOUS
 10
102.6568752339
 20
169.6819270613
 11
103.3639820151
 21
170.9015058557
  0
LINE
  5
220
100
AcDbEntity
  8
CURVE
100
AcDbLine
 62
7
  6
CONTINUOUS
 10
105.9732568264
 20
172.0643285748
 11
105.6360548606
 21
171.5332363859
  0
LINE
  5
221
100
AcDbEntity
  8
0
100
AcDbLine
 62
7
  6
CONTINUOUS
 10
188.5772617313
 20
39.9857996041
 11
187.8640384406
 21
39.9531675503
  0
LINE
  5
222
100
AcDbEntity
  8
SMUSSO
100
AcDbLine
 62
7
  6
CONTINUOUS
 10
184.6812618515
 20
38.6030917589
 11
186.0954754139
 21
38.6030917589
  0
LINE
  5
223
100
AcDbEntity
  8
SMUSSO
100
AcDbLine
 62
7
  6
CONTINUOUS
 10
102.6568752339
 20
79.6152850677
 11
102.6568752339
 21
170.3890338425
  0
LWPOLYLINE
  5
224
100
AcDbEntity
  8
0
100
AcDbPolyline
 62
7
  6
CONTINUOUS
 90
12
 70
0
 10
187.8702626459
 20
39.473273743
 10
187.916319153
 20
39.4520888709
 10
187.9622710849
 20
39.4346307286
 10
188.0079240167
 20
39.4210011859
 10
188.0531667083
 20
39.4112722485
 10
188.0977157986
 20
39.4055431727
 10
188.1411320092
 20
39.4038640645
 10
188.1830793062
 20
39.4061850232
 10
188.2235626091
 20
39.4124421065
 10
188.262656105
 20
39.4226420878
 10
188.3002886631
 20
39.4368193027
 10
188.3067513495
 20
39.4397288377
  0
LWPOLYLINE
  5
225
100
AcDbEntity
  8
SMUSSO
100
AcDbPolyline
 62
7
  6
CONTINUOUS
 90
13
 70
0
 10
185.3883686327
 20
38.0906197457
 10
185.4294892302
 20
38.0715306194
 10
185.4704683147
 20
38.0554352536
 10
185.5111672382
 20
38.0423881161
 10
185.5514470265
 20
38.0324327232
 10
185.5911726433
 20
38.0256033898
 10
185.6302134514
 20
38.0219251148
 10
185.6684391957
 20
38.0214112679
 10
185.7057186736
 20
38.0240626581
 10
185.7419239701
 20
38.0298694276
 10
185.7769318256
 20
38.038811552
 10
185.810624539
 20
38.0508591511
 10
185.8355827973
 20
38.062218243
  0
LINE
  5
226
100
AcDbEntity
  8
SMUSSO
100
AcDbLine
 62
7
  6
CONTINUOUS
 10
103.3639820151
 20
79.1028130545
 11
185.3883686327
 21
38.0906197457
  0
LINE
  5
227
100
AcDbEntity
  8
SMUSSO
100
AcDbLine
 62
7
  6
CONTINUOUS
 10
102.6568752339
 20
79.6152850677
 11
184.6812618515
 21
38.6030917589
  0
LINE
  5
228
100
AcDbEntity
  8
SMUSSO
100
AcDbLine
 62
7
  6
CONTINUOUS
 10
102.6568752339
 20
79.6152850677
 11
103.3639820151
 21
79.1028130545
  0
LWPOLYLINE
  5
229
100
AcDbEntity
  8
SMUSSO
100
AcDbPolyline
 62
7
  6
CONTINUOUS
 90
5
 70
0
 10
103.2225698421
 20
79.1910255905
 10
103.241204009
 20
79.1773687259
 10
103.2819007162
 20
79.1497182447
 10
103.3228729343
 20
79.1248382942
 10
103.3639820151
 20
79.1028130545
  0
LINE
  5
22A
100
AcDbEntity
  8
SMUSSO
100
AcDbLine
 62
7
  6
CONTINUOUS
 10
102.6568752339
 20
79.6152850677
 11
103.2225639317
 21
79.1910185444
  0
LINE
  5
22B
100
AcDbEntity
  8
0
100
AcDbLine
 62
7
  6
CONTINUOUS
 10
187.8629699912
 20
39.4769200704
 11
187.8702626459
 21
39.473273743
  0
LINE
  5
22C
100
AcDbEntity
  8
SMUSSO
100
AcDbLine
 62
7
  6
CONTINUOUS
 10
184.6812618515
 20
38.6030917589
 11
185.3883686327
 21
38.0906197457
  0
LINE
  5
22D
100
AcDbEntity
  8
0
100
AcDbLine
 62
7
  6
CONTINUOUS
 10
187.8701549501
 20
39.4733275909
 11
187.8630211782
 21
39.4788097146
  0
LINE
  5
22E
100
AcDbEntity
  8
0
100
AcDbLine
 62
7
  6
CONTINUOUS
 10
187.8702626459
 20
131.1158256651
 11
189.5446371443
 21
131.9594686928
  0
LINE
  5
22F
100
AcDbEntity
  8
0
100
AcDbLine
 62
7
  6
CONTINUOUS
 10
188.5772617313
 20
129.8964326185
 11
190.2516362297
 21
130.7400756462
  0
LINE
  5
230
100
AcDbEntity
  8
SMUSSO
100
AcDbLine
 62
7
  6
CONTINUOUS
 10
185.3883686327
 20
129.8893125469
 11
187.1561355857
 21
130.7731960233
  0
LINE
  5
231
100
AcDbEntity
  8
SMUSSO
100
AcDbLine
 62
7
  6
CONTINUOUS
 10
186.0954754139
 20
128.6697337525
 11
187.8632423669
 21
129.553617229
  0
LINE
  5
232
100
AcDbEntity
  8
SMUSSO
100
AcDbLine
 62
7
  6
CONTINUOUS
 10
184.6812618515
 20
128.6697337525
 11
185.3883686327
 21
129.8893125469
  0
LINE
  5
233
100
AcDbEntity
  8
0
100
AcDbLine
 62
7
  6
CONTINUOUS
 10
187.8701549501
 20
131.115879513
 11
187.5513279967
 21
130.4946597877
  0
LINE
  5
234
100
AcDbEntity
  8
SMUSSO
100
AcDbLine
 62
7
  6
CONTINUOUS
 10
184.6812618515
 20
128.6697337525
 11
186.0954754139
 21
128.6697337525
  0
LINE
  5
235
100
AcDbEntity
  8
0
100
AcDbLine
 62
7
  6
CONTINUOUS
 10
188.5772617313
 20
129.8963007186
 11
187.8640384406
 21
129.9351569778
  0
LINE
  5
236
100
AcDbEntity
  8
SMUSSO
100
AcDbLine
 62
7
  6
CONTINUOUS
 10
184.6812618515
 20
38.6030917589
 11
184.6812618515
 21
128.6697337525
  0
LINE
  5
237
100
AcDbEntity
  8
SMUSSO
100
AcDbLine
 62
7
  6
CONTINUOUS
 10
184.6812618515
 20
128.6697337525
 11
102.6568752339
 21
169.6819270613
  0
LWPOLYLINE
  5
238
100
AcDbEntity
  8
0
100
AcDbPolyline
 62
7
  6
CONTINUOUS
 90
25
 70
0
 10
188.5772617313
 20
129.8964326185
 10
188.5757660467
 20
129.9535867649
 10
188.5712499056
 20
130.0121255717
 10
188.5637158107
 20
130.0718088863
 10
188.5531572161
 20
130.1325028956
 10
188.5396138037
 20
130.1938400899
 10
188.5232249596
 20
130.2552126529
 10
188.5041699949
 20
130.3161192021
 10
188.4825010034
 20
130.3765394817
 10
188.4581832815
 20
130.4365815658
 10
188.4312216165
 20
130.4961554759
 10
188.4017798435
 20
130.5548259299
 10
188.370051306
 20
130.6121841758
 10
188.3361720138
 20
130.6679826977
 10
188.3002886631
 20
130.7219814157
 10
188.262656105
 20
130.7738160608
 10
188.2235626091
 20
130.8231421493
 10
188.1830793062
 20
130.8699187208
 10
188.1411320092
 20
130.9142255094
 10
188.0977157986
 20
130.9560014079
 10
188.0531667083
 20
130.9948589598
 10
188.0079240167
 20
131.0304079325
 10
187.9622710849
 20
131.0624586694
 10
187.916319153
 20
131.0909644128
 10
187.8702626459
 20
131.1158256651
  0
LWPOLYLINE
  5
239
100
AcDbEntity
  8
SMUSSO
100
AcDbPolyline
 62
7
  6
CONTINUOUS
 90
28
 70
0
 10
186.0954754139
 20
128.6697337525
 10
186.0942850956
 20
128.7206898052
 10
186.0907038056
 20
128.7726685646
 10
186.0847436742
 20
128.8254941571
 10
186.0764236066
 20
128.8789872065
 10
186.0657730129
 20
128.9329673383
 10
186.0528317131
 20
128.9872537916
 10
186.0376453432
 20
129.0416638017
 10
186.0202634299
 20
129.0960123329
 10
186.0007430154
 20
129.1501146004
 10
185.9791493981
 20
129.2037871632
 10
185.9555563984
 20
129.2568487874
 10
185.9300443349
 20
129.3091201729
 10
185.9026997036
 20
129.3604245356
 10
185.8736148563
 20
129.4105881908
 10
185.8428881765
 20
129.4594413855
 10
185.8106237085
 20
129.5068188532
 10
185.7769305506
 20
129.5525602465
 10
185.7419224559
 20
129.5965106641
 10
185.705717309
 20
129.6385211056
 10
185.6684381862
 20
129.6784497059
 10
185.6302126868
 20
129.7161620888
 10
185.5911718255
 20
129.7515314835
 10
185.5514460454
 20
129.7844373814
 10
185.5111662323
 20
129.8147666722
 10
185.4704675055
 20
129.8424161436
 10
185.4294887563
 20
129.8672928286
 10
185.3883686327
 20
129.8893125469
  0
LINE
  5
23A
100
AcDbEntity
  8
SMUSSO
100
AcDbLine
 62
7
  6
CONTINUOUS
 10
186.0954754139
 20
38.6030917589
 11
186.0954754139
 21
128.6697337525
  0
LINE
  5
23B
100
AcDbEntity
  8
SMUSSO
100
AcDbLine
 62
7
  6
CONTINUOUS
 10
187.8632423669
 20
129.9071706196
 11
187.8632423669
 21
39.4869752354
  0
LINE
  5
23C
100
AcDbEntity
  8
0
100
AcDbLine
 62
7
  6
CONTINUOUS
 10
187.8640384406
 20
129.553617229
 11
187.8640384406
 21
129.9351569778
  0
LINE
  5
23D
100
AcDbEntity
  8
0
100
AcDbLine
 62
7
  6
CONTINUOUS
 10
188.5772617313
 20
39.9856677043
 11
188.5772617313
 21
129.8964326185
  0
LWPOLYLINE
  5
23E
100
AcDbEntity
  8
SMUSSO
100
AcDbPolyline
 62
7
  6
CONTINUOUS
 90
15
 70
0
 10
187.8632423669
 20
39.4869752354
 10
187.8617287568
 20
39.4310979924
 10
187.8571942462
 20
39.3769721676
 10
187.8496580098
 20
39.3248296419
 10
187.8391520415
 20
39.2748936892
 10
187.8257211099
 20
39.2273784702
 10
187.8094226557
 20
39.1824880387
 10
187.7903263248
 20
39.1404147716
 10
187.7685137485
 20
39.1013389919
 10
187.7440784233
 20
39.0654285034
 10
187.7171249267
 20
39.032837181
 10
187.6877686272
 20
39.0037046939
 10
187.6561354781
 20
38.9781561123
 10
187.6223609599
 20
38.9563008564
 10
187.603349005
 20
38.9461013469
  0
LWPOLYLINE
  5
23F
100
AcDbEntity
  8
CURVE
100
AcDbPolyline
 62
7
  6
CONTINUOUS
 90
12
 70
0
 10
105.9732568264
 20
172.0643285748
 10
105.9271523363
 20
172.0855010002
 10
105.8811752353
 20
172.1029553614
 10
105.8355053769
 20
172.1165846322
 10
105.7902284041
 20
172.1262986864
 10
105.7456308261
 20
172.1319944945
 10
105.7021772795
 20
172.1336461225
 10
105.6601868641
 20
172.1313031833
 10
105.6196475909
 20
172.1250173546
 10
105.5805169412
 20
172.1148015511
 10
105.5428547541
 20
172.1006151408
 10
105.5171711245
 20
172.0881558487
  0
LWPOLYLINE
  5
240
100
AcDbEntity
  8
SMUSSO
100
AcDbPolyline
 62
7
  6
CONTINUOUS
 90
13
 70
0
 10
103.3639820151
 20
170.9015058557
 10
103.3228734065
 20
170.9206009765
 10
103.2819015228
 20
170.9366999426
 10
103.241205012
 20
170.9497482865
 10
103.2009203163
 20
170.9597012257
 10
103.161185004
 20
170.9665257114
 10
103.1221373085
 20
170.9702005426
 10
103.0839112013
 20
170.9707142082
 10
103.0466341687
 20
170.9680640405
 10
103.0104305715
 20
170.9622581207
 10
102.9754221587
 20
170.9533157176
 10
102.9417281422
 20
170.941267467
 10
102.9167689887
 20
170.9299079274
  0
LINE
  5
241
100
AcDbEntity
  8
SMUSSO
100
AcDbLine
 62
7
  6
CONTINUOUS
 10
185.3883686327
 20
129.8893125469
 11
103.3639820151
 21
170.9015058557
  0
LINE
  5
242
100
AcDbEntity
  8
SMUSSO
100
AcDbLine
 62
7
  6
CONTINUOUS
 10
105.131748968
 20
171.7853893322
 11
187.1561355857
 21
130.7731960233
  0
LINE
  5
243
100
AcDbEntity
  8
0
100
AcDbLine
 62
7
  6
CONTINUOUS
 10
187.8702626459
 20
131.1158256651
 11
105.9732568264
 21
172.0643285748
  0
LINE
  5
244
100
AcDbEntity
  8
0
100
AcDbLine
 62
7
  6
CONTINUOUS
 10
189.5324091118
 20
131.9657373268
 11
107.6061343799
 21
172.9288827054
  0
LINE
  5
245
100
AcDbEntity
  8
0
100
AcDbLine
 62
7
  6
CONTINUOUS
 10
189.5376632355
 20
131.9630681362
 11
189.5324091118
 21
131.9657373268
  0
LWPOLYLINE
  5
246
100
AcDbEntity
  8
0
100
AcDbPolyline
 62
7
  6
CONTINUOUS
 90
3
 70
0
 10
189.5446371443
 20
131.9594686928
 10
189.5428970437
 20
131.9603729036
 10
189.5376632355
 20
131.9630681362
  0
LWPOLYLINE
  5
247
100
AcDbEntity
  8
SMUSSO
100
AcDbPolyline
 62
7
  6
CONTINUOUS
 90
4
 70
0
 10
187.1561355857
 20
130.7731960233
 10
187.2023770923
 20
130.7482214838
 10
187.2484218493
 20
130.7196454868
 10
187.2975568081
 20
130.6849881792
  0
LINE
  5
248
100
AcDbEntity
  8
0
100
AcDbLine
 62
7
  6
CONTINUOUS
 10
190.24941731
 20
130.7967919519
 11
190.2516362297
 21
130.7400756462
  0
LINE
  5
249
100
AcDbEntity
  8
0
100
AcDbLine
 62
7
  6
CONTINUOUS
 10
190.2517262891
 20
130.7336089108
 11
190.2516362297
 21
130.7400756462
  0
LINE
  5
24A
100
AcDbEntity
  8
0
100
AcDbLine
 62
7
  6
CONTINUOUS
 10
190.2517802626
 20
130.7271433661
 11
190.2517262891
 21
130.7336089108
  0
LINE
  5
24B
100
AcDbEntity
  8
0
100
AcDbLine
 62
7
  6
CONTINUOUS
 10
190.2517982355
 20
130.7206787547
 11
190.2517802626
 21
130.7271433661
  0
LINE
  5
24C
100
AcDbEntity
  8
0
100
AcDbLine
 62
7
  6
CONTINUOUS
 10
190.2517982355
 20
131.3128418654
 11
190.2517982355
 21
130.7400756462
  0
LINE
  5
24D
100
AcDbEntity
  8
0
100
AcDbLine
 62
7
  6
CONTINUOUS
 10
190.2517902536
 20
40.7741853279
 11
190.2517982355
 21
130.7206787547
  0
LINE
  5
24E
100
AcDbEntity
  8
0
100
AcDbLine
 62
7
  6
CONTINUOUS
 10
190.2517482866
 20
40.7676795863
 11
190.2517902536
 21
40.7741853279
  0
LWPOLYLINE
  5
24F
100
AcDbEntity
  8
0
100
AcDbPolyline
 62
7
  6
CONTINUOUS
 90
3
 70
0
 10
190.2516362297
 20
40.7589493345
 10
190.2516702591
 20
40.7611379069
 10
190.2517482866
 20
40.7676795863
  0
LWPOLYLINE
  5
250
100
AcDbEntity
  8
0
100
AcDbPolyline
 62
7
  6
CONTINUOUS
 90
15
 70
0
 10
190.2516362297
 20
40.7589493345
 10
190.24941731
 20
40.7030333795
 10
190.2443435884
 20
40.648787787
 10
190.2364154708
 20
40.5964577518
 10
190.2256596828
 20
40.5462089299
 10
190.2120784928
 20
40.4983590986
 10
190.1957028717
 20
40.4533290822
 10
190.1766945731
 20
40.4114357946
 10
190.155118571
 20
40.3726612426
 10
190.130878414
 20
40.3369116404
 10
190.1039644371
 20
40.304271656
 10
190.0745536262
 20
40.2750231874
 10
190.0428210676
 20
40.2493756716
 10
190.0088887156
 20
40.2274328802
 10
189.9794529845
 20
40.2122378848
  0
LWPOLYLINE
  5
251
100
AcDbEntity
  8
0
100
AcDbPolyline
 62
7
  6
CONTINUOUS
 90
7
 70
0
 10
189.5446371443
 20
131.9594686928
 10
189.5899097877
 20
131.9342741686
 10
189.6352487553
 20
131.9055173283
 10
189.6804600416
 20
131.8732948848
 10
189.7254672633
 20
131.8376691277
 10
189.7699522553
 20
131.7988090659
 10
189.7841198344
 20
131.7856179631
  0
LINE
  5
252
100
AcDbEntity
  8
SMUSSO
100
AcDbLine
 62
7
  6
CONTINUOUS
 10
187.5803996544
 20
130.4728560445
 11
187.2975569419
 21
130.6849880789
  0
LWPOLYLINE
  5
253
100
AcDbEntity
  8
SMUSSO
100
AcDbPolyline
 62
7
  6
CONTINUOUS
 90
20
 70
0
 10
187.5804647669
 20
130.4728059909
 10
187.5883552384
 20
130.4667722452
 10
187.6138438429
 20
130.4456447542
 10
187.6388958993
 20
130.4223828767
 10
187.6630925674
 20
130.3973749944
 10
187.6864189631
 20
130.3705918009
 10
187.7088899705
 20
130.3420626026
 10
187.7301314021
 20
130.3122637001
 10
187.7501215676
 20
130.2811761394
 10
187.7688821571
 20
130.2488188745
 10
187.7861040535
 20
130.2157250677
 10
187.8017629203
 20
130.1818803479
 10
187.8158830938
 20
130.1472990862
 10
187.8282284661
 20
130.1125575586
 10
187.8387690488
 20
130.0776524775
 10
187.8475348302
 20
130.0425871305
 10
187.854379667
 20
130.0079476572
 10
187.8592548449
 20
129.9739294376
 10
187.8622090782
 20
129.9403370917
 10
187.8632423669
 20
129.9071706196
  0
LWPOLYLINE
  5
254
100
AcDbEntity
  8
SMUSSO
100
AcDbPolyline
 62
7
  6
CONTINUOUS
 90
22
 70
0
 10
187.2975568081
 20
130.6849881792
 10
187.3391342772
 20
130.6521921752
 10
187.3834134458
 20
130.6136031263
 10
187.4267201458
 20
130.571988328
 10
187.468868869
 20
130.5275258331
 10
187.5096790565
 20
130.4804058984
 10
187.5489755273
 20
130.4308306238
 10
187.5865899495
 20
130.3790122559
 10
187.6223611847
 20
130.3251726612
 10
187.6561356933
 20
130.2695428697
 10
187.6877688243
 20
130.2123611362
 10
187.7171251051
 20
130.1538723496
 10
187.744078591
 20
130.0943275132
 10
187.768513925
 20
130.033981628
 10
187.7903265101
 20
129.9730931818
 10
187.8094228208
 20
129.9119235659
 10
187.8257212194
 20
129.8507348015
 10
187.8391520922
 20
129.7897888434
 10
187.8496580257
 20
129.729347074
 10
187.8571942494
 20
129.6696683863
 10
187.8617287566
 20
129.6110080856
 10
187.8632423669
 20
129.553617229
  0
LINE
  5
255
100
AcDbEntity
  8
0
100
AcDbLine
 62
7
  6
CONTINUOUS
 10
190.2289841056
 20
131.3648690194
 11
189.7842632247
 21
131.7854689141
  0
LWPOLYLINE
  5
256
100
AcDbEntity
  8
0
100
AcDbPolyline
 62
7
  6
CONTINUOUS
 90
19
 70
0
 10
189.7841198344
 20
131.7856179631
 10
189.8133711604
 20
131.7570477714
 10
189.8553756431
 20
131.7127604318
 10
189.8959809061
 20
131.6660156768
 10
189.9351905043
 20
131.6167075072
 10
189.9729180611
 20
131.5648698959
 10
190.0088887156
 20
131.5108536257
 10
190.0428210676
 20
131.4550186478
 10
190.0745536262
 20
131.397598408
 10
190.1039644371
 20
131.338848331
 10
190.130878414
 20
131.2791957887
 10
190.155118571
 20
131.2190693185
 10
190.1766945731
 20
131.1585672552
 10
190.1957028717
 20
131.0976231133
 10
190.2120784928
 20
131.0362541051
 10
190.2256596828
 20
130.9749648174
 10
190.2364154708
 20
130.9144136095
 10
190.2443435884
 20
130.8549841388
 10
190.24941731
 20
130.7967919519
  0
LWPOLYLINE
  5
257
100
AcDbEntity
  8
0
100
AcDbPolyline
 62
7
  6
CONTINUOUS
 90
15
 70
0
 10
188.3067513495
 20
39.4397288377
 10
188.3361720138
 20
39.4549202728
 10
188.370051306
 20
39.476835162
 10
188.4017798435
 20
39.5024692109
 10
188.4312216165
 20
39.5317122892
 10
188.4581832815
 20
39.5643494062
 10
188.4825010034
 20
39.6001063798
 10
188.5041699949
 20
39.6388938531
 10
188.5232249596
 20
39.6807839707
 10
188.5396138037
 20
39.7258064856
 10
188.5531572161
 20
39.7736378048
 10
188.5637158107
 20
39.8238084381
 10
188.5712499056
 20
39.8759850056
 10
188.5757660467
 20
39.930019625
 10
188.5772617313
 20
39.9856677043
  0
LWPOLYLINE
  5
258
100
AcDbEntity
  8
SMUSSO
100
AcDbPolyline
 62
7
  6
CONTINUOUS
 90
17
 70
0
 10
185.8355827973
 20
38.062218243
 10
185.8428885921
 20
38.0659717033
 10
185.8736149849
 20
38.0840981582
 10
185.902699575
 20
38.1051770947
 10
185.9300439193
 20
38.1291371731
 10
185.9555555679
 20
38.1558973576
 10
185.9791481229
 20
38.1853670629
 10
186.000741501
 20
38.2174464461
 10
186.0202620651
 20
38.2520266745
 10
186.0376443334
 20
38.2889910247
 10
186.0528309485
 20
38.3282151503
 10
186.0657721957
 20
38.3695671654
 10
186.0764226268
 20
38.4129063184
 10
186.08474267
 20
38.4580841958
 10
186.0907029979
 20
38.5049473423
 10
186.0942846226
 20
38.5533377778
 10
186.0954754139
 20
38.6030917589
  0
LINE
  5
259
100
AcDbEntity
  8
SMUSSO
100
AcDbLine
 62
7
  6
CONTINUOUS
 10
186.0954754139
 20
38.6030917589
 11
187.8632423669
 21
39.4869752354
  0
LINE
  5
25A
100
AcDbEntity
  8
RACCORDO
100
AcDbLine
 62
7
  6
CONTINUOUS
 10
185.8355828225
 20
38.0622182556
 11
187.6033491812
 21
38.946101435
  0
LINE
  5
25B
100
AcDbEntity
  8
0
100
AcDbLine
 62
7
  6
CONTINUOUS
 10
188.5772617313
 20
39.9856677043
 11
190.2516362297
 21
40.7589493345
  0
LINE
  5
25C
100
AcDbEntity
  8
0
100
AcDbLine
 62
7
  6
CONTINUOUS
 10
188.3067372066
 20
39.4397222992
 11
189.9794223829
 21
40.2122237446
  0
ELLIPSE
  5
25D
100
AcDbEntity
  8
0
100
AcDbEllipse
 62
7
  6
CONTINUOUS
 10
190.2136652987
 20
131.3285064852
 30
0.0
 11
-0.0224526501
 21
0.0468722033
 31
0.0
 40
0.6575765081
 41
-2.2003689788
 42
-1.0441075105
  0
ELLIPSE
  5
25E
100
AcDbEntity
  8
0
100
AcDbEllipse
 62
7
  6
CONTINUOUS
 10
187.5447712874
 20
130.0934811777
 30
0.0
 11
-0.2013242519
 21
0.4033147226
 31
0.0
 40
0.6143846044
 41
4.0300855831
 42
5.2239796868
  0
ENDSEC
  0
SECTION
  2
OBJECTS
  0
DICTIONARY
  5
C
100
AcDbDictionary
280
0
281
1
  3
ACAD_GROUP
350
D
  3
ACAD_MLINESTYLE
350
17
  3
ACAD_LAYOUT
350
1A
  3
ACAD_PLOTSETTINGS
350
19
  3
ACAD_PLOTSTYLENAME
350
E
  0
DICTIONARY
  5
D
102
{ACAD_REACTORS
330
C
102
}
100
AcDbDictionary
280
0
281
1
  0
ACDBDICTIONARYWDFLT
  5
E
102
{ACAD_REACTORS
330
C
102
}
100
AcDbDictionary
281
1
  3
Normal
350
F
100
AcDbDictionaryWithDefault
340
F
  0
DICTIONARY
  5
17
102
{ACAD_REACTORS
330
C
102
}
100
AcDbDictionary
280
0
281
1
  3
Standard
350
18
  0
DICTIONARY
  5
19
102
{ACAD_REACTORS
330
C
102
}
100
AcDbDictionary
281
1
  0
DICTIONARY
  5
1A
102
{ACAD_REACTORS
330
C
102
}
100
AcDbDictionary
281
1
  3
Model
350
25F
  3
Layout1
350
260
  0
ACDBPLACEHOLDER
  5
F
102
{ACAD_REACTORS
330
E
102
}
  0
MLINESTYLE
  5
18
102
{ACAD_REACTORS
330
17
102
}
100
AcDbMlineStyle
  2
STANDARD
 70
0
  3

 62
256
 51
90.0
 52
90.0
 71
2
 49
0.5
 62
256
  6
BYLAYER
 49
-0.5
 62
256
  6
BYLAYER
  0
LAYOUT
  5
25F
102
{ACAD_REACTORS
330
1A
102
}
100
AcDbPlotSettings
  1

  2
none_device
  4
ISO_A4_(297.00_x_210.00_MM)
  6

 40
0.0
 41
0.0
 42
0.0
 43
0.0
 44
297.0
 45
210.0
 46
0.0
 47
0.0
 48
0.0
 49
0.0
140
0.0
141
0.0
142
1.0
143
1.0
 70
1024
 72
1
 73
0
 74
0
  7

 75
0
147
1.0
148
0.0
149
0.0
100
AcDbLayout
  1
Model
 70
0
 71
0
 10
0.0
 20
0.0
 11
297.0
 21
210.0
 12
0.0
 22
0.0
 32
0.0
 14
0.0
 24
0.0
 34
0.0
 15
0.0
 25
0.0
 35
0.0
146
0.0
 13
0.0
 23
0.0
 33
0.0
 16
1.0
 26
0.0
 36
0.0
 17
0.0
 27
1.0
 37
0.0
 76
0
330
214
345
0
346
0
  0
LAYOUT
  5
260
102
{ACAD_REACTORS
330
1A
102
}
100
AcDbPlotSettings
  1

  2
none_device
  4
ISO_A4_(297.00_x_210.00_MM)
  6

 40
0.0
 41
0.0
 42
0.0
 43
0.0
 44
297.0
 45
210.0
 46
0.0
 47
0.0
 48
0.0
 49
0.0
140
0.0
141
0.0
142
1.0
143
1.0
 70
0
 72
1
 73
0
 74
0
  7

 75
0
147
1.0
148
0.0
149
0.0
100
AcDbLayout
  1
Layout1
 70
0
 71
1
 10
0.0
 20
0.0
 11
297.0
 21
210.0
 12
0.0
 22
0.0
 32
0.0
 14
0.0
 24
0.0
 34
0.0
 15
0.0
 25
0.0
 35
0.0
146
0.0
 13
0.0
 23
0.0
 33
0.0
 16
1.0
 26
0.0
 36
0.0
 17
0.0
 27
1.0
 37
0.0
 76
0
330
215
345
0
346
0
  0
ENDSEC
  0
EOF
