  0
SECTION
  2
HEADER
  9
$ACADVER
  1
AC1015
  9
$DWGCODEPAGE
  3
ANSI_1252
  9
$EXTMAX
 10
297.0
 20
210.0
 30
0.0
  9
$EXTMIN
 10
0.0
 20
0.0
 30
0.0
  9
$LIMMIN
 10
0.0
 20
0.0
  9
$LIMMAX
 10
297.0
 20
210.0
  9
$VIEWCTR
 10
148.5
 20
105.0
  9
$VIEWSIZE
 40
210.0
  9
$CLAYER
  8
0
  9
$LTSCALE
 40
16.335
  9
$CELTYPE
  6
BYLAYER
  9
$DIMSCALE
 40
1.0
  9
$DIMASZ
 40
3.0
  9
$DIMEXO
 40
0.5
  9
$DIMDLI
 40
11.286
  9
$DIMEXE
 40
1.5
  9
$DIMCEN
 40
2.673
  9
$DIMLFAC
 40
1.0
  9
$DIMBLK
  1
_FILLED
  9
$DIMTXT
 40
3.0
  9
$DIMTOL
 70
1
  9
$DIMLIM
 70
0
  9
$DIMTFAC
 40
1.0
  9
$DIMTP
 40
0.01
  9
$DIMTM
 40
0.01
  9
$DIMGAP
 40
0.625
  9
$DIMDSEP
 70
44
  9
$PDMODE
 70
3
  9
$PDSIZE
 40
3.0
  9
$HANDSEED
  5
258
  9
$TILEMODE
 70
1
  9
$MEASUREMENT
 70
1
  9
$INSUNITS
 70
4
  0
ENDSEC
  0
SECTION
  2
CLASSES
  0
CLASS
  1
ACDBDICTIONARYWDFLT
  2
AcDbDictionaryWithDefault
  3
AutoCAD 2000
 90
0
280
0
281
0
  0
CLASS
  1
ACDBPLACEHOLDER
  2
AcDbPlaceHolder
  3
AutoCAD 2000
 90
0
280
0
281
0
  0
CLASS
  1
LAYOUT
  2
AcDbLayout
  3
AutoCAD 2000
 90
0
280
0
281
0
  0
ENDSEC
  0
SECTION
  2
TABLES
  0
TABLE
  2
VPORT
  5
8
100
AcDbSymbolTable
 70
2
  0
VPORT
  5
1F4
100
AcDbSymbolTableRecord
100
AcDbViewportTableRecord
  2
*ACTIVE
 70
0
 10
0.0
 20
0.0
 11
1.0
 21
1.0
 12
148.5
 22
105.0
 13
0.0
 23
0.0
 14
1.0
 24
1.0
 15
0.0
 25
0.0
 16
0.0
 26
0.0
 36
1.0
 17
0.0
 27
0.0
 37
0.0
 40
210.0
 41
1.4142857143
 42
50.0
 43
0.0
 44
0.0
 50
0.0
 51
0.0
 71
0
 72
100
 73
1
 74
1
 75
0
 76
0
 77
0
 78
0
  0
ENDTAB
  0
TABLE
  2
LTYPE
  5
5
100
AcDbSymbolTable
 70
6
  0
LTYPE
  5
14
100
AcDbSymbolTableRecord
100
AcDbLinetypeTableRecord
  2
BYBLOCK
 70
0
  3

 72
65
 73
0
 40
0.0
  0
LTYPE
  5
15
100
AcDbSymbolTableRecord
100
AcDbLinetypeTableRecord
  2
BYLAYER
 70
0
  3

 72
65
 73
0
 40
0.0
  0
LTYPE
  5
16
100
AcDbSymbolTableRecord
100
AcDbLinetypeTableRecord
  2
CONTINUOUS
 70
64
  3
Solid line
 72
65
 73
0
 40
0.0
  0
LTYPE
  5
1F5
100
AcDbSymbolTableRecord
100
AcDbLinetypeTableRecord
  2
CENTER
 70
64
  3
____ _ ____ _ ____ _ ____ _ ____ _ ____ _ ____
 72
65
 73
4
 40
0.6
 49
0.375
 74
0
 49
-0.075
 74
0
 49
0.075
 74
0
 49
-0.075
 74
0
  0
LTYPE
  5
1F6
100
AcDbSymbolTableRecord
100
AcDbLinetypeTableRecord
  2
HIDDEN
 70
64
  3
- - - - - - - - - - - - - - - - - - - -
 72
65
 73
2
 40
0.2
 49
0.1
 74
0
 49
-0.1
 74
0
  0
LTYPE
  5
1F7
100
AcDbSymbolTableRecord
100
AcDbLinetypeTableRecord
  2
PHANTOM
 70
64
  3
_____ _ _ _____ _ _ _____ _ _ _____
 72
65
 73
6
 40
0.8
 49
0.45
 74
0
 49
-0.05
 74
0
 49
0.1
 74
0
 49
-0.05
 74
0
 49
0.1
 74
0
 49
-0.05
 74
0
  0
LTYPE
  5
1F8
100
AcDbSymbolTableRecord
100
AcDbLinetypeTableRecord
  2
DOT
 70
64
  3
. . . . . . . . . . . . . . . . . . . .
 72
65
 73
2
 40
0.2
 49
0.1
 74
0
 49
-0.1
 74
0
  0
LTYPE
  5
1F9
100
AcDbSymbolTableRecord
100
AcDbLinetypeTableRecord
  2
DASHED
 70
64
  3
- - - - - - - - - - - - - - - - - - - -
 72
65
 73
2
 40
0.2
 49
0.1
 74
0
 49
-0.1
 74
0
  0
ENDTAB
  0
TABLE
  2
LAYER
  5
2
100
AcDbSymbolTable
 70
36
  0
LAYER
  5
10
100
AcDbSymbolTableRecord
100
AcDbLayerTableRecord
  2
0
 70
0
 62
7
  6
CONTINUOUS
370
-3
390
F
  0
LAYER
  5
1FA
100
AcDbSymbolTableRecord
100
AcDbLayerTableRecord
  2
DEFAULT_1
 70
0
 62
7
  6
CENTER
370
-3
390
F
  0
LAYER
  5
1FB
100
AcDbSymbolTableRecord
100
AcDbLayerTableRecord
  2
DEFAULT_2
 70
0
 62
7
  6
HIDDEN
370
-3
390
F
  0
LAYER
  5
1FC
100
AcDbSymbolTableRecord
100
AcDbLayerTableRecord
  2
DEFAULT_3
 70
0
 62
7
  6
PHANTOM
370
-3
390
F
  0
LAYER
  5
1FD
100
AcDbSymbolTableRecord
100
AcDbLayerTableRecord
  2
ASSI
 70
0
 62
7
  6
CONTINUOUS
370
-3
390
F
  0
LAYER
  5
1FE
100
AcDbSymbolTableRecord
100
AcDbLayerTableRecord
  2
COORDINATE
 70
0
 62
7
  6
CONTINUOUS
370
-3
390
F
  0
LAYER
  5
1FF
100
AcDbSymbolTableRecord
100
AcDbLayerTableRecord
  2
COPY_PUBLISH
 70
0
 62
7
  6
CONTINUOUS
370
-3
390
F
  0
LAYER
  5
200
100
AcDbSymbolTableRecord
100
AcDbLayerTableRecord
  2
COSMETIC
 70
0
 62
7
  6
CONTINUOUS
370
-3
390
F
  0
LAYER
  5
201
100
AcDbSymbolTableRecord
100
AcDbLayerTableRecord
  2
COSMETICI
 70
0
 62
7
  6
CONTINUOUS
370
-3
390
F
  0
LAYER
  5
202
100
AcDbSymbolTableRecord
100
AcDbLayerTableRecord
  2
CURVE
 70
0
 62
7
  6
CONTINUOUS
370
-3
390
F
  0
LAYER
  5
203
100
AcDbSymbolTableRecord
100
AcDbLayerTableRecord
  2
CURVE_PUNTI_INIEZIONE
 70
0
 62
7
  6
CONTINUOUS
370
-3
390
F
  0
LAYER
  5
204
100
AcDbSymbolTableRecord
100
AcDbLayerTableRecord
  2
CURVE_PUNZONI
 70
0
 62
7
  6
CONTINUOUS
370
-3
390
F
  0
LAYER
  5
205
100
AcDbSymbolTableRecord
100
AcDbLayerTableRecord
  2
DRAFT
 70
0
 62
7
  6
CONTINUOUS
370
-3
390
F
  0
LAYER
  5
206
100
AcDbSymbolTableRecord
100
AcDbLayerTableRecord
  2
IMPORT_IGES
 70
0
 62
7
  6
CONTINUOUS
370
-3
390
F
  0
LAYER
  5
207
100
AcDbSymbolTableRecord
100
AcDbLayerTableRecord
  2
INTF_1
 70
0
 62
7
  6
CONTINUOUS
370
-3
390
F
  0
LAYER
  5
208
100
AcDbSymbolTableRecord
100
AcDbLayerTableRecord
  2
INTF_14
 70
0
 62
7
  6
CONTINUOUS
370
-3
390
F
  0
LAYER
  5
209
100
AcDbSymbolTableRecord
100
AcDbLayerTableRecord
  2
NOTE
 70
0
 62
7
  6
CONTINUOUS
370
-3
390
F
  0
LAYER
  5
20A
100
AcDbSymbolTableRecord
100
AcDbLayerTableRecord
  2
PIANI
 70
0
 62
7
  6
CONTINUOUS
370
-3
390
F
  0
LAYER
  5
20B
100
AcDbSymbolTableRecord
100
AcDbLayerTableRecord
  2
PUNTI
 70
0
 62
7
  6
CONTINUOUS
370
-3
390
F
  0
LAYER
  5
20C
100
AcDbSymbolTableRecord
100
AcDbLayerTableRecord
  2
RACCORDO
 70
0
 62
7
  6
CONTINUOUS
370
-3
390
F
  0
LAYER
  5
20D
100
AcDbSymbolTableRecord
100
AcDbLayerTableRecord
  2
SIMBOLI
 70
0
 62
7
  6
CONTINUOUS
370
-3
390
F
  0
LAYER
  5
20E
100
AcDbSymbolTableRecord
100
AcDbLayerTableRecord
  2
SMUSSO
 70
0
 62
7
  6
CONTINUOUS
370
-3
390
F
  0
LAYER
  5
20F
100
AcDbSymbolTableRecord
100
AcDbLayerTableRecord
  2
SUPERFICI
 70
0
 62
7
  6
CONTINUOUS
370
-3
390
F
  0
LAYER
  5
210
100
AcDbSymbolTableRecord
100
AcDbLayerTableRecord
  2
TRASH
 70
0
 62
7
  6
CONTINUOUS
370
-3
390
F
  0
LAYER
  5
211
100
AcDbSymbolTableRecord
100
AcDbLayerTableRecord
  2
XSEC_DATUMS
 70
0
 62
7
  6
CONTINUOUS
370
-3
390
F
  0
ENDTAB
  0
TABLE
  2
STYLE
  5
3
100
AcDbSymbolTable
 70
1
  0
STYLE
  5
11
100
AcDbSymbolTableRecord
100
AcDbTextStyleTableRecord
  2
STANDARD
 70
0
 40
0.0
 41
0.8
 50
0.0
 71
0
 42
0.2
  3
txt
  4

  0
STYLE
  5
212
100
AcDbSymbolTableRecord
100
AcDbTextStyleTableRecord
  2
TEXTSTYLE_1
 70
0
 40
0.0
 41
0.8
 50
0.0
 71
0
 42
0.2
  3
gdt
  4

  0
ENDTAB
  0
TABLE
  2
VIEW
  5
6
100
AcDbSymbolTable
 70
0
  0
ENDTAB
  0
TABLE
  2
UCS
  5
7
100
AcDbSymbolTable
 70
0
  0
ENDTAB
  0
TABLE
  2
APPID
  5
9
100
AcDbSymbolTable
 70
1
  0
APPID
  5
213
100
AcDbSymbolTableRecord
100
AcDbRegAppTableRecord
  2
ACAD
 70
0
  0
ENDTAB
  0
TABLE
  2
BLOCK_RECORD
  5
1
100
AcDbSymbolTable
 70
0
  0
BLOCK_RECORD
  5
214
100
AcDbSymbolTableRecord
100
AcDbBlockTableRecord
  2
*Model_Space
  0
BLOCK_RECORD
  5
215
100
AcDbSymbolTableRecord
100
AcDbBlockTableRecord
  2
*Paper_Space
  0
ENDTAB
  0
TABLE
  2
DIMSTYLE
  5
A
100
AcDbSymbolTable
 70
1
100
AcDbDimStyleTable
 71
0
  0
DIMSTYLE
105
216
100
AcDbSymbolTableRecord
100
AcDbDimStyleTableRecord
  2
STANDARD
 70
0
  3

  4

 40
1.0
 41
3.0
 42
0.5
 43
0.38
 44
1.5
 45
0.0
 46
0.0
 47
0.01
 48
0.01
140
3.0
141
0.09
142
0.0
143
25.4
144
1.0
145
0.0
146
1.0
147
0.625
 71
1.0
 72
0.0
 73
0
 74
0
 75
0
 76
0
 77
1
 78
8
170
0
171
2
172
0
173
0
174
0
175
0
176
0
177
0
178
0
270
2
271
2
272
2
273
2
274
2
275
0
280
0
281
0
282
0
283
1
284
8
285
0
286
0
287
3
288
0
340
11
278
44
  0
ENDTAB
  0
ENDSEC
  0
SECTION
  2
BLOCKS
  0
BLOCK
  5
20
100
AcDbEntity
  8
0
100
AcDbBlockBegin
  2
*Model_Space
 70
0
 10
0.0
 20
0.0
 30
0.0
  3
*Model_Space
  1

  0
ENDBLK
  5
21
100
AcDbEntity
  8
0
100
AcDbBlockEnd
  0
BLOCK
  5
1C
100
AcDbEntity
  8
0
100
AcDbBlockBegin
  2
*Paper_Space
 70
0
 10
0.0
 20
0.0
 30
0.0
  3
*Paper_Space
  1

  0
ENDBLK
  5
1D
100
AcDbEntity
  8
0
100
AcDbBlockEnd
  0
ENDSEC
  0
SECTION
  2
ENTITIES
  0
LINE
  5
217
100
AcDbEntity
  8
0
100
AcDbLine
 62
7
  6
CONTINUOUS
 10
99.593656761
 20
176.475745724
 11
101.2304866004
 21
177.3483668144
  0
LINE
  5
218
100
AcDbEntity
  8
0
100
AcDbLine
 62
7
  6
CONTINUOUS
 10
100.0508350673
 20
176.4525052366
 11
101.6930738337
 21
177.3220094123
  0
LWPOLYLINE
  5
219
100
AcDbEntity
  8
SMUSSO
100
AcDbPolyline
 62
7
  6
CONTINUOUS
 90
17
 70
0
 10
97.0226822895
 20
175.3333720042
 10
97.01537632
 20
175.3296184565
 10
96.9846494368
 20
175.3114917563
 10
96.9555645894
 20
175.2904126913
 10
96.9282201617
 20
175.2664525711
 10
96.9027087532
 20
175.2396925067
 10
96.879116612
 20
175.2102230083
 10
96.8575233128
 20
175.1781436646
 10
96.8380013486
 20
175.1435627361
 10
96.8206173451
 20
175.1065975184
 10
96.805431583
 20
175.0673738193
 10
96.7924971178
 20
175.0260251951
 10
96.7818560568
 20
174.9826907271
 10
96.7735408722
 20
174.937515279
 10
96.7675785247
 20
174.8906511228
 10
96.7639903689
 20
174.8422574217
 10
96.7627885348
 20
174.7924979192
  0
LINE
  5
21A
100
AcDbEntity
  8
RACCORDO
100
AcDbLine
 62
7
  6
CONTINUOUS
 10
97.0226823148
 20
175.3333720168
 11
98.7904486734
 21
176.2172551961
  0
LINE
  5
21B
100
AcDbEntity
  8
SMUSSO
100
AcDbLine
 62
7
  6
CONTINUOUS
 10
97.4698953159
 20
175.3049699324
 11
99.2376622689
 21
176.1888534089
  0
LWPOLYLINE
  5
21C
100
AcDbEntity
  8
0
100
AcDbPolyline
 62
7
  6
CONTINUOUS
 90
12
 70
0
 10
99.5936553092
 20
176.47574495
 10
99.6191757601
 20
176.4881389043
 10
99.6568809456
 20
176.5023902094
 10
99.6963037282
 20
176.5127342154
 10
99.7372696104
 20
176.5191236137
 10
99.7795770249
 20
176.5215188465
 10
99.8230442523
 20
176.5199117477
 10
99.8674847647
 20
176.5143091297
 10
99.9126820249
 20
176.5047196143
 10
99.9584333384
 20
176.4911786268
 10
100.0045505396
 20
176.4737491038
 10
100.0508350673
 20
176.4525052366
  0
LWPOLYLINE
  5
21D
100
AcDbEntity
  8
SMUSSO
100
AcDbPolyline
 62
7
  6
CONTINUOUS
 90
12
 70
0
 10
98.7904488496
 20
176.2172552842
 10
98.8072081376
 20
176.2251241075
 10
98.8448225783
 20
176.2393280308
 10
98.8841191039
 20
176.249606818
 10
98.9249293615
 20
176.255916541
 10
98.9670781076
 20
176.2582302766
 10
99.0103847311
 20
176.2565383448
 10
99.0546637666
 20
176.2508482197
 10
99.0997252353
 20
176.2411845735
 10
99.1453760293
 20
176.2275891278
 10
99.1914207595
 20
176.2101203771
 10
99.2376622689
 20
176.1888534089
  0
LINE
  5
21E
100
AcDbEntity
  8
SMUSSO
100
AcDbLine
 62
7
  6
CONTINUOUS
 10
96.7627885348
 20
174.085391138
 11
97.4698953159
 21
175.3049699324
  0
LINE
  5
21F
100
AcDbEntity
  8
0
100
AcDbLine
 62
7
  6
CONTINUOUS
 10
100.0508350673
 20
176.4525052366
 11
99.689952081
 21
175.9627085028
  0
LINE
  5
220
100
AcDbEntity
  8
0
100
AcDbLine
 62
7
  6
CONTINUOUS
 10
198.5637357953
 20
36.4207613706
 11
197.9144135835
 21
36.3420744229
  0
LINE
  5
221
100
AcDbEntity
  8
SMUSSO
100
AcDbLine
 62
7
  6
CONTINUOUS
 10
194.6970777291
 20
35.0516045473
 11
196.1112912915
 21
35.0516045473
  0
LWPOLYLINE
  5
222
100
AcDbEntity
  8
0
100
AcDbPolyline
 62
7
  6
CONTINUOUS
 90
12
 70
0
 10
99.3621926518
 20
176.1265882174
 10
99.3674585675
 20
176.1519177077
 10
99.3807216744
 20
176.1993407279
 10
99.396855933
 20
176.244143698
 10
99.4157961132
 20
176.2861373452
 10
99.4374590912
 20
176.3251378922
 10
99.4617732409
 20
176.360986901
 10
99.4886382296
 20
176.3935324986
 10
99.5179349365
 20
176.4226339546
 10
99.5495466428
 20
176.448171431
 10
99.5833437284
 20
176.4700386411
 10
99.5936553092
 20
176.47574495
  0
LINE
  5
223
100
AcDbEntity
  8
SMUSSO
100
AcDbLine
 62
7
  6
CONTINUOUS
 10
96.7627885348
 20
84.0187491444
 11
96.7627885348
 21
174.7924979192
  0
LINE
  5
224
100
AcDbEntity
  8
SMUSSO
100
AcDbLine
 62
7
  6
CONTINUOUS
 10
96.7627885348
 20
84.0187491444
 11
97.4698953159
 21
83.5062771312
  0
LWPOLYLINE
  5
225
100
AcDbEntity
  8
SMUSSO
100
AcDbPolyline
 62
7
  6
CONTINUOUS
 90
5
 70
0
 10
97.328483143
 20
83.5944896672
 10
97.3471173099
 20
83.5808328026
 10
97.3878140171
 20
83.5531823214
 10
97.4287862352
 20
83.5283023709
 10
97.4698953159
 20
83.5062771312
  0
LINE
  5
226
100
AcDbEntity
  8
SMUSSO
100
AcDbLine
 62
7
  6
CONTINUOUS
 10
96.7627885348
 20
84.0187491444
 11
97.3284772326
 21
83.5944826211
  0
LWPOLYLINE
  5
227
100
AcDbEntity
  8
SMUSSO
100
AcDbPolyline
 62
7
  6
CONTINUOUS
 90
13
 70
0
 10
195.4041845103
 20
34.5391325341
 10
195.4453051077
 20
34.5200434077
 10
195.4862841922
 20
34.503948042
 10
195.5269831158
 20
34.4909009044
 10
195.5672629041
 20
34.4809455116
 10
195.6069885209
 20
34.4741161782
 10
195.646029329
 20
34.4704379032
 10
195.6842550733
 20
34.4699240562
 10
195.7215345511
 20
34.4725754464
 10
195.7577398477
 20
34.478382216
 10
195.7927477032
 20
34.4873243404
 10
195.8264404165
 20
34.4993719395
 10
195.8513986749
 20
34.5107310314
  0
LINE
  5
228
100
AcDbEntity
  8
SMUSSO
100
AcDbLine
 62
7
  6
CONTINUOUS
 10
97.4698953159
 20
83.5062771312
 11
195.4041845103
 21
34.5391325341
  0
LINE
  5
229
100
AcDbEntity
  8
SMUSSO
100
AcDbLine
 62
7
  6
CONTINUOUS
 10
96.7627885348
 20
84.0187491444
 11
194.6970777291
 21
35.0516045473
  0
LINE
  5
22A
100
AcDbEntity
  8
SMUSSO
100
AcDbLine
 62
7
  6
CONTINUOUS
 10
194.6970777291
 20
35.0516045473
 11
195.4041845103
 21
34.5391325341
  0
LINE
  5
22B
100
AcDbEntity
  8
0
100
AcDbLine
 62
7
  6
CONTINUOUS
 10
197.8566290141
 20
127.5496082632
 11
199.5248660105
 21
128.4061133239
  0
LINE
  5
22C
100
AcDbEntity
  8
SMUSSO
100
AcDbLine
 62
7
  6
CONTINUOUS
 10
195.4041845103
 20
126.3378253352
 11
197.1719514633
 21
127.2217088117
  0
LINE
  5
22D
100
AcDbEntity
  8
SMUSSO
100
AcDbLine
 62
7
  6
CONTINUOUS
 10
196.1112912915
 20
125.1182465409
 11
197.8790582444
 21
126.0021300173
  0
LINE
  5
22E
100
AcDbEntity
  8
0
100
AcDbLine
 62
7
  6
CONTINUOUS
 10
198.5637357953
 20
126.3300294688
 11
200.2478659614
 21
127.1591228666
  0
LINE
  5
22F
100
AcDbEntity
  8
SMUSSO
100
AcDbLine
 62
7
  6
CONTINUOUS
 10
194.6970777291
 20
125.1182465409
 11
196.1112912915
 21
125.1182465409
  0
LINE
  5
230
100
AcDbEntity
  8
0
100
AcDbLine
 62
7
  6
CONTINUOUS
 10
198.5637357953
 20
126.3300294688
 11
197.9144135835
 21
126.4087164165
  0
LINE
  5
231
100
AcDbEntity
  8
SMUSSO
100
AcDbLine
 62
7
  6
CONTINUOUS
 10
194.6970777291
 20
125.1182465409
 11
195.4041845103
 21
126.3378253352
  0
LINE
  5
232
100
AcDbEntity
  8
0
100
AcDbLine
 62
7
  6
CONTINUOUS
 10
197.8566290141
 20
127.5496082632
 11
197.596215532
 21
126.957526874
  0
LWPOLYLINE
  5
233
100
AcDbEntity
  8
SMUSSO
100
AcDbPolyline
 62
7
  6
CONTINUOUS
 90
13
 70
0
 10
97.4698953159
 20
175.3049699324
 10
97.4287867074
 20
175.3240650532
 10
97.3878148237
 20
175.3401640194
 10
97.3471183129
 20
175.3532123632
 10
97.3068336172
 20
175.3631653024
 10
97.2670983049
 20
175.3699897881
 10
97.2280506093
 20
175.3736646193
 10
97.1898245022
 20
175.3741782849
 10
97.1525474696
 20
175.3715281173
 10
97.1163438724
 20
175.3657221974
 10
97.0813354596
 20
175.3567797944
 10
97.047641443
 20
175.3447315437
 10
97.0226822895
 20
175.3333720042
  0
LINE
  5
234
100
AcDbEntity
  8
SMUSSO
100
AcDbLine
 62
7
  6
CONTINUOUS
 10
194.6970777291
 20
125.1182465409
 11
96.7627885348
 21
174.085391138
  0
LINE
  5
235
100
AcDbEntity
  8
SMUSSO
100
AcDbLine
 62
7
  6
CONTINUOUS
 10
195.4041845103
 20
126.3378253352
 11
97.4698953159
 21
175.3049699324
  0
LINE
  5
236
100
AcDbEntity
  8
0
100
AcDbLine
 62
7
  6
CONTINUOUS
 10
197.596215532
 20
126.957526874
 11
197.4515833675
 21
127.0298429562
  0
LINE
  5
237
100
AcDbEntity
  8
SMUSSO
100
AcDbLine
 62
7
  6
CONTINUOUS
 10
99.2376622689
 20
176.1888534089
 11
197.1719514633
 21
127.2217088117
  0
LINE
  5
238
100
AcDbEntity
  8
0
100
AcDbLine
 62
7
  6
CONTINUOUS
 10
197.8566290141
 20
127.5496082632
 11
100.0508350673
 21
176.4525052366
  0
LWPOLYLINE
  5
239
100
AcDbEntity
  8
SMUSSO
100
AcDbPolyline
 62
7
  6
CONTINUOUS
 90
4
 70
0
 10
197.1719514633
 20
127.2217088117
 10
197.2181929698
 20
127.1967342722
 10
197.2642377269
 20
127.1681582752
 10
197.3133726857
 20
127.1335009676
  0
LINE
  5
23A
100
AcDbEntity
  8
SMUSSO
100
AcDbLine
 62
7
  6
CONTINUOUS
 10
194.6970777291
 20
35.0516045473
 11
194.6970777291
 21
125.1182465409
  0
LINE
  5
23B
100
AcDbEntity
  8
SMUSSO
100
AcDbLine
 62
7
  6
CONTINUOUS
 10
196.1112912915
 20
35.0516045473
 11
196.1112912915
 21
125.1182465409
  0
LWPOLYLINE
  5
23C
100
AcDbEntity
  8
0
100
AcDbPolyline
 62
7
  6
CONTINUOUS
 90
12
 70
0
 10
101.6930738337
 20
177.3220094123
 10
101.6459572065
 20
177.3438490281
 10
101.5991174681
 20
177.361842579
 10
101.5527575182
 20
177.3759144699
 10
101.5071130194
 20
177.3860242563
 10
101.4623476226
 20
177.3921121482
 10
101.4185523707
 20
177.3940989782
 10
101.3759039919
 20
177.3919703459
 10
101.334601743
 20
177.3857441398
 10
101.2947630717
 20
177.3754154007
 10
101.2565467613
 20
177.3610217679
 10
101.230627711
 20
177.3484420428
  0
LINE
  5
23D
100
AcDbEntity
  8
0
100
AcDbLine
 62
7
  6
CONTINUOUS
 10
101.6930738337
 20
177.3220094123
 11
199.5248660105
 21
128.4061133239
  0
LWPOLYLINE
  5
23E
100
AcDbEntity
  8
0
100
AcDbPolyline
 62
7
  6
CONTINUOUS
 90
25
 70
0
 10
197.8566290141
 20
127.5496082632
 10
197.9028259101
 20
127.5246114186
 10
197.948794291
 20
127.4959981505
 10
197.9943383881
 20
127.4638914328
 10
198.039253195
 20
127.4284249145
 10
198.0833577443
 20
127.3897550016
 10
198.1264957975
 20
127.3480594602
 10
198.1684867248
 20
127.3035150565
 10
198.2091463084
 20
127.2563129253
 10
198.248320283
 20
127.2066705407
 10
198.2858446472
 20
127.1548044608
 10
198.3215550581
 20
127.1009329763
 10
198.3553076642
 20
127.0452909203
 10
198.38696385
 20
126.9881194978
 10
198.4163821777
 20
126.9296605246
 10
198.4434279877
 20
126.8701595276
 10
198.4679909454
 20
126.8098719651
 10
198.489960222
 20
126.7490552908
 10
198.5092168893
 20
126.6879632199
 10
198.5256803222
 20
126.626861404
 10
198.5392793922
 20
126.5660072954
 10
198.5499272055
 20
126.5056424693
 10
198.5575679434
 20
126.4460189156
 10
198.5621777205
 20
126.387397765
 10
198.5637357953
 20
126.3300294688
  0
LINE
  5
23F
100
AcDbEntity
  8
SMUSSO
100
AcDbLine
 62
7
  6
CONTINUOUS
 10
197.596215532
 20
126.9213688329
 11
197.3133728195
 21
127.1335008672
  0
LWPOLYLINE
  5
240
100
AcDbEntity
  8
SMUSSO
100
AcDbPolyline
 62
7
  6
CONTINUOUS
 90
20
 70
0
 10
197.5962806445
 20
126.9213187792
 10
197.604171116
 20
126.9152850336
 10
197.6296597205
 20
126.8941575426
 10
197.6547117769
 20
126.8708956651
 10
197.678908445
 20
126.8458877827
 10
197.7022348407
 20
126.8191045893
 10
197.7247058481
 20
126.790575391
 10
197.7459472796
 20
126.7607764885
 10
197.7659374451
 20
126.7296889278
 10
197.7846980347
 20
126.6973316629
 10
197.8019199311
 20
126.6642378561
 10
197.8175787978
 20
126.6303931362
 10
197.8316989714
 20
126.5958118745
 10
197.8440443436
 20
126.561070347
 10
197.8545849264
 20
126.5261652658
 10
197.8633507078
 20
126.4910999189
 10
197.8701955446
 20
126.4564604456
 10
197.8750707225
 20
126.422442226
 10
197.8780249557
 20
126.3888498801
 10
197.8790582444
 20
126.3556834079
  0
LWPOLYLINE
  5
241
100
AcDbEntity
  8
SMUSSO
100
AcDbPolyline
 62
7
  6
CONTINUOUS
 90
22
 70
0
 10
197.3133726857
 20
127.1335009676
 10
197.3549501547
 20
127.1007049635
 10
197.3992293234
 20
127.0621159146
 10
197.4425360234
 20
127.0205011164
 10
197.4846847465
 20
126.9760386215
 10
197.5254949341
 20
126.9289186867
 10
197.5647914048
 20
126.8793434122
 10
197.6024058271
 20
126.8275250443
 10
197.6381770622
 20
126.7736854495
 10
197.6719515708
 20
126.7180556581
 10
197.7035847019
 20
126.6608739246
 10
197.7329409826
 20
126.6023851379
 10
197.7598944686
 20
126.5428403016
 10
197.7843298026
 20
126.4824944164
 10
197.8061423877
 20
126.4216059702
 10
197.8252386984
 20
126.3604363542
 10
197.8415370969
 20
126.2992475899
 10
197.8549679698
 20
126.2383016318
 10
197.8654739032
 20
126.1778598624
 10
197.873010127
 20
126.1181811747
 10
197.8775446341
 20
126.059520874
 10
197.8790582444
 20
126.0021300173
  0
LWPOLYLINE
  5
242
100
AcDbEntity
  8
SMUSSO
100
AcDbPolyline
 62
7
  6
CONTINUOUS
 90
28
 70
0
 10
196.1112912915
 20
125.1182465409
 10
196.1101009731
 20
125.1692025936
 10
196.1065196832
 20
125.221181353
 10
196.1005595518
 20
125.2740069455
 10
196.0922394841
 20
125.3274999949
 10
196.0815888905
 20
125.3814801267
 10
196.0686475907
 20
125.43576658
 10
196.0534612207
 20
125.4901765901
 10
196.0360793074
 20
125.5445251212
 10
196.016558893
 20
125.5986273888
 10
195.9949652756
 20
125.6522999515
 10
195.9713722759
 20
125.7053615757
 10
195.9458602124
 20
125.7576329613
 10
195.9185155812
 20
125.808937324
 10
195.8894307338
 20
125.8591009792
 10
195.8587040541
 20
125.9079541738
 10
195.8264395861
 20
125.9553316416
 10
195.7927464281
 20
126.0010730349
 10
195.7577383334
 20
126.0450234525
 10
195.7215331865
 20
126.087033894
 10
195.6842540638
 20
126.1269624943
 10
195.6460285644
 20
126.1646748772
 10
195.6069877031
 20
126.2000442718
 10
195.5672619229
 20
126.2329501698
 10
195.5269821098
 20
126.2632794606
 10
195.486283383
 20
126.290928932
 10
195.4453046338
 20
126.315805617
 10
195.4041845103
 20
126.3378253352
  0
LWPOLYLINE
  5
243
100
AcDbEntity
  8
0
100
AcDbPolyline
 62
7
  6
CONTINUOUS
 90
20
 70
0
 10
200.2478659614
 20
127.1591228666
 10
200.2464945015
 20
127.2179005966
 10
200.2421094651
 20
127.2780118853
 10
200.2347322241
 20
127.3392007174
 10
200.2244325862
 20
127.4012238421
 10
200.2112223794
 20
127.4638001848
 10
200.1950551817
 20
127.5266117065
 10
200.1759889728
 20
127.5893837334
 10
200.1541224323
 20
127.6518559554
 10
200.129488181
 20
127.713731488
 10
200.1021793317
 20
127.7747396938
 10
200.0723285168
 20
127.8346261811
 10
200.0400439996
 20
127.8931233703
 10
200.0054505403
 20
127.9499736282
 10
199.968710074
 20
128.0049401115
 10
199.9300006275
 20
128.0577966228
 10
199.8894731594
 20
128.1083084316
 10
199.8473130736
 20
128.1562658051
 10
199.8037607356
 20
128.2014947957
 10
199.7871181301
 20
128.2177034229
  0
LINE
  5
244
100
AcDbEntity
  8
SMUSSO
100
AcDbLine
 62
7
  6
CONTINUOUS
 10
197.8790582444
 20
126.3556834079
 11
197.8790582444
 21
35.9354880238
  0
LINE
  5
245
100
AcDbEntity
  8
0
100
AcDbLine
 62
7
  6
CONTINUOUS
 10
197.9144135835
 20
36.3420744229
 11
197.9144135835
 21
126.4087164165
  0
LINE
  5
246
100
AcDbEntity
  8
0
100
AcDbLine
 62
7
  6
CONTINUOUS
 10
198.5637357953
 20
36.4207613706
 11
198.5637357953
 21
126.3300294688
  0
LINE
  5
247
100
AcDbEntity
  8
0
100
AcDbLine
 62
7
  6
CONTINUOUS
 10
200.2478659614
 20
37.2180135696
 11
200.2478659614
 21
127.7470422821
  0
LWPOLYLINE
  5
248
100
AcDbEntity
  8
SMUSSO
100
AcDbPolyline
 62
7
  6
CONTINUOUS
 90
15
 70
0
 10
197.8790582444
 20
35.9354880238
 10
197.8775446343
 20
35.8796107808
 10
197.8730101238
 20
35.825484956
 10
197.8654738874
 20
35.7733424303
 10
197.8549679191
 20
35.7234064776
 10
197.8415369875
 20
35.6758912586
 10
197.8252385332
 20
35.631000827
 10
197.8061422023
 20
35.58892756
 10
197.784329626
 20
35.5498517803
 10
197.7598943009
 20
35.5139412918
 10
197.7329408042
 20
35.4813499694
 10
197.7035845048
 20
35.4522174823
 10
197.6719513557
 20
35.4266689007
 10
197.6381768375
 20
35.4048136447
 10
197.6191648825
 20
35.3946141352
  0
LWPOLYLINE
  5
249
100
AcDbEntity
  8
0
100
AcDbPolyline
 62
7
  6
CONTINUOUS
 90
15
 70
0
 10
198.5637357953
 20
36.4207613706
 10
198.5621777205
 20
36.3648635175
 10
198.5575679434
 20
36.3107033237
 10
198.5499272055
 20
36.2585132916
 10
198.5392793922
 20
36.2085138255
 10
198.5256803222
 20
36.1609228238
 10
198.5092168893
 20
36.1159552665
 10
198.489960222
 20
36.0738033757
 10
198.4679909454
 20
36.0346496795
 10
198.4434279877
 20
35.9986762666
 10
198.4163821777
 20
35.9660402584
 10
198.38696385
 20
35.936877992
 10
198.3553076642
 20
35.9113182758
 10
198.3215550581
 20
35.8894733055
 10
198.2937814529
 20
35.8750344867
  0
LWPOLYLINE
  5
24A
100
AcDbEntity
  8
0
100
AcDbPolyline
 62
7
  6
CONTINUOUS
 90
7
 70
0
 10
199.7871181301
 20
128.2177034229
 10
199.7589856745
 20
128.2437931222
 10
199.7131909021
 20
128.282985315
 10
199.6666739976
 20
128.3189562302
 10
199.6196657929
 20
128.3515684166
 10
199.5723297809
 20
128.3806627409
 10
199.5248660105
 20
128.4061133239
  0
LINE
  5
24B
100
AcDbEntity
  8
0
100
AcDbLine
 62
7
  6
CONTINUOUS
 10
200.2253131312
 20
127.7988280364
 11
199.7872283672
 21
128.2175845015
  0
LWPOLYLINE
  5
24C
100
AcDbEntity
  8
0
100
AcDbPolyline
 62
7
  6
CONTINUOUS
 90
15
 70
0
 10
199.976879669
 20
36.6623763804
 10
200.0054505403
 20
36.6772210808
 10
200.0400439996
 20
36.6995956248
 10
200.0723285168
 20
36.7256905513
 10
200.1021793317
 20
36.7554003631
 10
200.129488181
 20
36.7886065836
 10
200.1541224323
 20
36.825159068
 10
200.1759889728
 20
36.8649069125
 10
200.1950551817
 20
36.9077087714
 10
200.2112223794
 20
36.9533732862
 10
200.2244325862
 20
37.0017100465
 10
200.2347322241
 20
37.0525611277
 10
200.2421094651
 20
37.1057244641
 10
200.2464945015
 20
37.1609544427
 10
200.2478659614
 20
37.2180135696
  0
LWPOLYLINE
  5
24D
100
AcDbEntity
  8
SMUSSO
100
AcDbPolyline
 62
7
  6
CONTINUOUS
 90
17
 70
0
 10
195.8513986749
 20
34.5107310314
 10
195.8587044697
 20
34.5144844917
 10
195.8894308624
 20
34.5326109466
 10
195.9185154526
 20
34.5536898831
 10
195.9458597968
 20
34.5776499615
 10
195.9713714454
 20
34.604410146
 10
195.9949640005
 20
34.6338798513
 10
196.0165573786
 20
34.6659592344
 10
196.0360779426
 20
34.7005394629
 10
196.053460211
 20
34.737503813
 10
196.0686468261
 20
34.7767279386
 10
196.0815880733
 20
34.8180799538
 10
196.0922385044
 20
34.8614191068
 10
196.1005585476
 20
34.9065969842
 10
196.1065188755
 20
34.9534601307
 10
196.1101005001
 20
35.0018505662
 10
196.1112912915
 20
35.0516045473
  0
LINE
  5
24E
100
AcDbEntity
  8
SMUSSO
100
AcDbLine
 62
7
  6
CONTINUOUS
 10
196.1112912915
 20
35.0516045473
 11
197.8790582444
 21
35.9354880238
  0
LINE
  5
24F
100
AcDbEntity
  8
RACCORDO
100
AcDbLine
 62
7
  6
CONTINUOUS
 10
195.8513987001
 20
34.510731044
 11
197.6191650588
 21
35.3946142233
  0
LINE
  5
250
100
AcDbEntity
  8
0
100
AcDbLine
 62
7
  6
CONTINUOUS
 10
200.2478659614
 20
37.2180135696
 11
198.5637357953
 21
36.4207613706
  0
LINE
  5
251
100
AcDbEntity
  8
0
100
AcDbLine
 62
7
  6
CONTINUOUS
 10
198.2937811175
 20
35.8750343298
 11
199.9767412746
 21
36.6623116404
  0
LWPOLYLINE
  5
252
100
AcDbEntity
  8
0
100
AcDbPolyline
 62
7
  6
CONTINUOUS
 90
12
 70
0
 10
198.2937814529
 20
35.8750344867
 10
198.2858446472
 20
35.8714338527
 10
198.248320283
 20
35.8572729582
 10
198.2091463084
 20
35.8470533563
 10
198.1684867248
 20
35.8408171073
 10
198.1264957975
 20
35.8385801181
 10
198.0833577443
 20
35.840351804
 10
198.039253195
 20
35.8461224035
 10
197.9943383881
 20
35.8558531455
 10
197.948794291
 20
35.8694977412
 10
197.9028259101
 20
35.8870016744
 10
197.8780540496
 20
35.8984166299
  0
ELLIPSE
  5
253
100
AcDbEntity
  8
0
100
AcDbEllipse
 62
7
  6
CONTINUOUS
 10
200.209564832
 20
127.7625850052
 30
0.0
 11
-0.0224501842
 21
0.0470036844
 31
0.0
 40
0.6601969552
 41
-2.1970943216
 42
-1.0509806798
  0
ELLIPSE
  5
254
100
AcDbEntity
  8
0
100
AcDbEllipse
 62
7
  6
CONTINUOUS
 10
197.5898606251
 20
126.5632097561
 30
0.0
 11
-0.2016574202
 21
0.4073866576
 31
0.0
 40
0.6242247175
 41
4.0419384883
 42
5.5931530709
  0
ELLIPSE
  5
255
100
AcDbEntity
  8
0
100
AcDbEllipse
 62
7
  6
CONTINUOUS
 10
197.5898606251
 20
36.5121340417
 30
0.0
 11
-0.2087502588
 21
0.4136859927
 31
0.0
 40
0.6007248915
 41
3.5438519085
 42
4.0137276896
  0
ENDSEC
  0
SECTION
  2
OBJECTS
  0
DICTIONARY
  5
C
100
AcDbDictionary
280
0
281
1
  3
ACAD_GROUP
350
D
  3
ACAD_MLINESTYLE
350
17
  3
ACAD_LAYOUT
350
1A
  3
ACAD_PLOTSETTINGS
350
19
  3
ACAD_PLOTSTYLENAME
350
E
  0
DICTIONARY
  5
D
102
{ACAD_REACTORS
330
C
102
}
100
AcDbDictionary
280
0
281
1
  0
ACDBDICTIONARYWDFLT
  5
E
102
{ACAD_REACTORS
330
C
102
}
100
AcDbDictionary
281
1
  3
Normal
350
F
100
AcDbDictionaryWithDefault
340
F
  0
DICTIONARY
  5
17
102
{ACAD_REACTORS
330
C
102
}
100
AcDbDictionary
280
0
281
1
  3
Standard
350
18
  0
DICTIONARY
  5
19
102
{ACAD_REACTORS
330
C
102
}
100
AcDbDictionary
281
1
  0
DICTIONARY
  5
1A
102
{ACAD_REACTORS
330
C
102
}
100
AcDbDictionary
281
1
  3
Model
350
256
  3
Layout1
350
257
  0
ACDBPLACEHOLDER
  5
F
102
{ACAD_REACTORS
330
E
102
}
  0
MLINESTYLE
  5
18
102
{ACAD_REACTORS
330
17
102
}
100
AcDbMlineStyle
  2
STANDARD
 70
0
  3

 62
256
 51
90.0
 52
90.0
 71
2
 49
0.5
 62
256
  6
BYLAYER
 49
-0.5
 62
256
  6
BYLAYER
  0
LAYOUT
  5
256
102
{ACAD_REACTORS
330
1A
102
}
100
AcDbPlotSettings
  1

  2
none_device
  4
ISO_A4_(297.00_x_210.00_MM)
  6

 40
0.0
 41
0.0
 42
0.0
 43
0.0
 44
297.0
 45
210.0
 46
0.0
 47
0.0
 48
0.0
 49
0.0
140
0.0
141
0.0
142
1.0
143
1.0
 70
1024
 72
1
 73
0
 74
0
  7

 75
0
147
1.0
148
0.0
149
0.0
100
AcDbLayout
  1
Model
 70
0
 71
0
 10
0.0
 20
0.0
 11
297.0
 21
210.0
 12
0.0
 22
0.0
 32
0.0
 14
0.0
 24
0.0
 34
0.0
 15
0.0
 25
0.0
 35
0.0
146
0.0
 13
0.0
 23
0.0
 33
0.0
 16
1.0
 26
0.0
 36
0.0
 17
0.0
 27
1.0
 37
0.0
 76
0
330
214
345
0
346
0
  0
LAYOUT
  5
257
102
{ACAD_REACTORS
330
1A
102
}
100
AcDbPlotSettings
  1

  2
none_device
  4
ISO_A4_(297.00_x_210.00_MM)
  6

 40
0.0
 41
0.0
 42
0.0
 43
0.0
 44
297.0
 45
210.0
 46
0.0
 47
0.0
 48
0.0
 49
0.0
140
0.0
141
0.0
142
1.0
143
1.0
 70
0
 72
1
 73
0
 74
0
  7

 75
0
147
1.0
148
0.0
149
0.0
100
AcDbLayout
  1
Layout1
 70
0
 71
1
 10
0.0
 20
0.0
 11
297.0
 21
210.0
 12
0.0
 22
0.0
 32
0.0
 14
0.0
 24
0.0
 34
0.0
 15
0.0
 25
0.0
 35
0.0
146
0.0
 13
0.0
 23
0.0
 33
0.0
 16
1.0
 26
0.0
 36
0.0
 17
0.0
 27
1.0
 37
0.0
 76
0
330
215
345
0
346
0
  0
ENDSEC
  0
EOF
