  0
SECTION
  2
HEADER
  9
$ACADVER
  1
AC1015
  9
$DWGCODEPAGE
  3
ANSI_1252
  9
$EXTMAX
 10
297.0
 20
210.0
 30
0.0
  9
$EXTMIN
 10
0.0
 20
0.0
 30
0.0
  9
$LIMMIN
 10
0.0
 20
0.0
  9
$LIMMAX
 10
297.0
 20
210.0
  9
$VIEWCTR
 10
148.5
 20
105.0
  9
$VIEWSIZE
 40
210.0
  9
$CLAYER
  8
0
  9
$LTSCALE
 40
16.335
  9
$CELTYPE
  6
BYLAYER
  9
$DIMSCALE
 40
1.0
  9
$DIMASZ
 40
3.0
  9
$DIMEXO
 40
1.85625
  9
$DIMDLI
 40
11.286
  9
$DIMEXE
 40
5.346
  9
$DIMCEN
 40
2.673
  9
$DIMLFAC
 40
1.0
  9
$DIMBLK
  1
_FILLED
  9
$DIMTXT
 40
3.0
  9
$DIMTOL
 70
1
  9
$DIMLIM
 70
0
  9
$DIMTFAC
 40
1.0
  9
$DIMTP
 40
0.01
  9
$DIMTM
 40
0.01
  9
$PDMODE
 70
3
  9
$PDSIZE
 40
3.0
  9
$HANDSEED
  5
2DC
  9
$TILEMODE
 70
1
  9
$MEASUREMENT
 70
1
  9
$INSUNITS
 70
4
  0
ENDSEC
  0
SECTION
  2
CLASSES
  0
CLASS
  1
ACDBDICTIONARYWDFLT
  2
AcDbDictionaryWithDefault
  3
AutoCAD 2000
 90
0
280
0
281
0
  0
CLASS
  1
ACDBPLACEHOLDER
  2
AcDbPlaceHolder
  3
AutoCAD 2000
 90
0
280
0
281
0
  0
CLASS
  1
LAYOUT
  2
AcDbLayout
  3
AutoCAD 2000
 90
0
280
0
281
0
  0
ENDSEC
  0
SECTION
  2
TABLES
  0
TABLE
  2
VPORT
  5
8
100
AcDbSymbolTable
 70
2
  0
VPORT
  5
1F4
100
AcDbSymbolTableRecord
100
AcDbViewportTableRecord
  2
*ACTIVE
 70
0
 10
0.0
 20
0.0
 11
1.0
 21
1.0
 12
148.5
 22
105.0
 13
0.0
 23
0.0
 14
1.0
 24
1.0
 15
0.0
 25
0.0
 16
0.0
 26
0.0
 36
1.0
 17
0.0
 27
0.0
 37
0.0
 40
210.0
 41
1.4142857143
 42
50.0
 43
0.0
 44
0.0
 50
0.0
 51
0.0
 71
0
 72
100
 73
1
 74
1
 75
0
 76
0
 77
0
 78
0
  0
ENDTAB
  0
TABLE
  2
LTYPE
  5
5
100
AcDbSymbolTable
 70
6
  0
LTYPE
  5
14
100
AcDbSymbolTableRecord
100
AcDbLinetypeTableRecord
  2
BYBLOCK
 70
0
  3

 72
65
 73
0
 40
0.0
  0
LTYPE
  5
15
100
AcDbSymbolTableRecord
100
AcDbLinetypeTableRecord
  2
BYLAYER
 70
0
  3

 72
65
 73
0
 40
0.0
  0
LTYPE
  5
16
100
AcDbSymbolTableRecord
100
AcDbLinetypeTableRecord
  2
CONTINUOUS
 70
64
  3
Solid line
 72
65
 73
0
 40
0.0
  0
LTYPE
  5
1F5
100
AcDbSymbolTableRecord
100
AcDbLinetypeTableRecord
  2
CENTER
 70
64
  3
____ _ ____ _ ____ _ ____ _ ____ _ ____ _ ____
 72
65
 73
4
 40
0.6
 49
0.375
 74
0
 49
-0.075
 74
0
 49
0.075
 74
0
 49
-0.075
 74
0
  0
LTYPE
  5
1F6
100
AcDbSymbolTableRecord
100
AcDbLinetypeTableRecord
  2
HIDDEN
 70
64
  3
- - - - - - - - - - - - - - - - - - - -
 72
65
 73
2
 40
0.2
 49
0.1
 74
0
 49
-0.1
 74
0
  0
LTYPE
  5
1F7
100
AcDbSymbolTableRecord
100
AcDbLinetypeTableRecord
  2
PHANTOM
 70
64
  3
_____ _ _ _____ _ _ _____ _ _ _____
 72
65
 73
6
 40
0.8
 49
0.45
 74
0
 49
-0.05
 74
0
 49
0.1
 74
0
 49
-0.05
 74
0
 49
0.1
 74
0
 49
-0.05
 74
0
  0
LTYPE
  5
1F8
100
AcDbSymbolTableRecord
100
AcDbLinetypeTableRecord
  2
DOT
 70
64
  3
. . . . . . . . . . . . . . . . . . . .
 72
65
 73
2
 40
0.2
 49
0.1
 74
0
 49
-0.1
 74
0
  0
LTYPE
  5
1F9
100
AcDbSymbolTableRecord
100
AcDbLinetypeTableRecord
  2
DASHED
 70
64
  3
- - - - - - - - - - - - - - - - - - - -
 72
65
 73
2
 40
0.2
 49
0.1
 74
0
 49
-0.1
 74
0
  0
ENDTAB
  0
TABLE
  2
LAYER
  5
2
100
AcDbSymbolTable
 70
36
  0
LAYER
  5
10
100
AcDbSymbolTableRecord
100
AcDbLayerTableRecord
  2
0
 70
0
 62
7
  6
CONTINUOUS
370
-3
390
F
  0
LAYER
  5
1FA
100
AcDbSymbolTableRecord
100
AcDbLayerTableRecord
  2
DEFAULT_1
 70
0
 62
7
  6
CENTER
370
-3
390
F
  0
LAYER
  5
1FB
100
AcDbSymbolTableRecord
100
AcDbLayerTableRecord
  2
DEFAULT_2
 70
0
 62
7
  6
HIDDEN
370
-3
390
F
  0
LAYER
  5
1FC
100
AcDbSymbolTableRecord
100
AcDbLayerTableRecord
  2
DEFAULT_3
 70
0
 62
7
  6
PHANTOM
370
-3
390
F
  0
LAYER
  5
1FD
100
AcDbSymbolTableRecord
100
AcDbLayerTableRecord
  2
ASSI
 70
0
 62
7
  6
CONTINUOUS
370
-3
390
F
  0
LAYER
  5
1FE
100
AcDbSymbolTableRecord
100
AcDbLayerTableRecord
  2
COORDINATE
 70
0
 62
7
  6
CONTINUOUS
370
-3
390
F
  0
LAYER
  5
1FF
100
AcDbSymbolTableRecord
100
AcDbLayerTableRecord
  2
COPY_PUBLISH
 70
0
 62
7
  6
CONTINUOUS
370
-3
390
F
  0
LAYER
  5
200
100
AcDbSymbolTableRecord
100
AcDbLayerTableRecord
  2
COSMETICI
 70
0
 62
7
  6
CONTINUOUS
370
-3
390
F
  0
LAYER
  5
201
100
AcDbSymbolTableRecord
100
AcDbLayerTableRecord
  2
CURVE
 70
0
 62
7
  6
CONTINUOUS
370
-3
390
F
  0
LAYER
  5
202
100
AcDbSymbolTableRecord
100
AcDbLayerTableRecord
  2
DRAFT
 70
0
 62
7
  6
CONTINUOUS
370
-3
390
F
  0
LAYER
  5
203
100
AcDbSymbolTableRecord
100
AcDbLayerTableRecord
  2
IMPORT_IGES
 70
0
 62
7
  6
CONTINUOUS
370
-3
390
F
  0
LAYER
  5
204
100
AcDbSymbolTableRecord
100
AcDbLayerTableRecord
  2
NOTE
 70
0
 62
7
  6
CONTINUOUS
370
-3
390
F
  0
LAYER
  5
205
100
AcDbSymbolTableRecord
100
AcDbLayerTableRecord
  2
PIANI
 70
0
 62
7
  6
CONTINUOUS
370
-3
390
F
  0
LAYER
  5
206
100
AcDbSymbolTableRecord
100
AcDbLayerTableRecord
  2
PUNTI
 70
0
 62
7
  6
CONTINUOUS
370
-3
390
F
  0
LAYER
  5
207
100
AcDbSymbolTableRecord
100
AcDbLayerTableRecord
  2
RACCORDO
 70
0
 62
7
  6
CONTINUOUS
370
-3
390
F
  0
LAYER
  5
208
100
AcDbSymbolTableRecord
100
AcDbLayerTableRecord
  2
SIMBOLI
 70
0
 62
7
  6
CONTINUOUS
370
-3
390
F
  0
LAYER
  5
209
100
AcDbSymbolTableRecord
100
AcDbLayerTableRecord
  2
SMUSSO
 70
0
 62
7
  6
CONTINUOUS
370
-3
390
F
  0
LAYER
  5
20A
100
AcDbSymbolTableRecord
100
AcDbLayerTableRecord
  2
SNAPLINE
 70
0
 62
7
  6
CONTINUOUS
370
-3
390
F
  0
LAYER
  5
20B
100
AcDbSymbolTableRecord
100
AcDbLayerTableRecord
  2
SUPERFICI
 70
0
 62
7
  6
CONTINUOUS
370
-3
390
F
  0
LAYER
  5
20C
100
AcDbSymbolTableRecord
100
AcDbLayerTableRecord
  2
TRASH
 70
0
 62
7
  6
CONTINUOUS
370
-3
390
F
  0
LAYER
  5
20D
100
AcDbSymbolTableRecord
100
AcDbLayerTableRecord
  2
XSEC_DATUMS
 70
0
 62
7
  6
CONTINUOUS
370
-3
390
F
  0
ENDTAB
  0
TABLE
  2
STYLE
  5
3
100
AcDbSymbolTable
 70
1
  0
STYLE
  5
11
100
AcDbSymbolTableRecord
100
AcDbTextStyleTableRecord
  2
STANDARD
 70
0
 40
0.0
 41
0.8
 50
0.0
 71
0
 42
0.2
  3
txt
  4

  0
STYLE
  5
20E
100
AcDbSymbolTableRecord
100
AcDbTextStyleTableRecord
  2
TEXTSTYLE_1
 70
0
 40
0.0
 41
0.8
 50
0.0
 71
0
 42
0.2
  3
gdt
  4

  0
ENDTAB
  0
TABLE
  2
VIEW
  5
6
100
AcDbSymbolTable
 70
0
  0
ENDTAB
  0
TABLE
  2
UCS
  5
7
100
AcDbSymbolTable
 70
0
  0
ENDTAB
  0
TABLE
  2
APPID
  5
9
100
AcDbSymbolTable
 70
1
  0
APPID
  5
20F
100
AcDbSymbolTableRecord
100
AcDbRegAppTableRecord
  2
ACAD
 70
0
  0
ENDTAB
  0
TABLE
  2
BLOCK_RECORD
  5
1
100
AcDbSymbolTable
 70
0
  0
BLOCK_RECORD
  5
210
100
AcDbSymbolTableRecord
100
AcDbBlockTableRecord
  2
*Model_Space
  0
BLOCK_RECORD
  5
211
100
AcDbSymbolTableRecord
100
AcDbBlockTableRecord
  2
*Paper_Space
  0
ENDTAB
  0
TABLE
  2
DIMSTYLE
  5
A
100
AcDbSymbolTable
 70
1
100
AcDbDimStyleTable
 71
0
  0
DIMSTYLE
105
212
100
AcDbSymbolTableRecord
100
AcDbDimStyleTableRecord
  2
STANDARD
 70
0
  3

  4

 40
1.0
 41
3.0
 42
0.0625
 43
0.38
 44
0.18
 45
0.0
 46
0.0
 47
0.01
 48
0.01
140
3.0
141
0.09
142
0.0
143
25.4
144
1.0
145
0.0
146
1.0
147
0.09
 71
1.0
 72
0.0
 73
0
 74
0
 75
0
 76
0
 77
1
 78
8
170
0
171
2
172
0
173
0
174
0
175
0
176
0
177
0
178
0
270
2
271
2
272
2
273
2
274
2
275
0
280
0
281
0
282
0
283
1
284
8
285
0
286
0
287
3
288
0
340
11
  0
ENDTAB
  0
ENDSEC
  0
SECTION
  2
BLOCKS
  0
BLOCK
  5
20
100
AcDbEntity
  8
0
100
AcDbBlockBegin
  2
*Model_Space
 70
0
 10
0.0
 20
0.0
 30
0.0
  3
*Model_Space
  1

  0
ENDBLK
  5
21
100
AcDbEntity
  8
0
100
AcDbBlockEnd
  0
BLOCK
  5
1C
100
AcDbEntity
  8
0
100
AcDbBlockBegin
  2
*Paper_Space
 70
0
 10
0.0
 20
0.0
 30
0.0
  3
*Paper_Space
  1

  0
ENDBLK
  5
1D
100
AcDbEntity
  8
0
100
AcDbBlockEnd
  0
ENDSEC
  0
SECTION
  2
ENTITIES
  0
LINE
  5
213
100
AcDbEntity
  8
0
100
AcDbLine
 62
7
  6
CONTINUOUS
 10
-123.3841791562
 20
168.100680819
 11
-123.0306257657
 21
168.3569168256
  0
LINE
  5
214
100
AcDbEntity
  8
0
100
AcDbLine
 62
7
  6
CONTINUOUS
 10
-123.0306257657
 20
168.3569168256
 11
-120.2021986409
 21
169.771130388
  0
LINE
  5
215
100
AcDbEntity
  8
0
100
AcDbLine
 62
7
  6
CONTINUOUS
 10
-123.3841791562
 20
167.7471274284
 11
-123.0306257657
 21
168.3569168256
  0
LINE
  5
216
100
AcDbEntity
  8
0
100
AcDbLine
 62
7
  6
CONTINUOUS
 10
119.8605535719
 20
-169.515564478
 11
120.5676603531
 21
-169.515564478
  0
LINE
  5
217
100
AcDbEntity
  8
RACCORDO
100
AcDbLine
 62
7
  6
CONTINUOUS
 10
-84.8468595816
 20
105.5624534776
 11
-85.2004129722
 21
105.3856767823
  0
LINE
  5
218
100
AcDbEntity
  8
SMUSSO
100
AcDbLine
 62
7
  6
CONTINUOUS
 10
-88.2056167922
 20
103.5295214817
 11
-85.3771896675
 21
104.9437350441
  0
LINE
  5
219
100
AcDbEntity
  8
0
100
AcDbLine
 62
7
  6
CONTINUOUS
 10
-123.3841791562
 20
-47.8931981139
 11
-123.3841791562
 21
168.100680819
  0
LINE
  5
21A
100
AcDbEntity
  8
0
100
AcDbLine
 62
7
  6
CONTINUOUS
 10
-123.3841791562
 20
-47.8931981139
 11
-123.0306257657
 21
-48.1494341205
  0
LINE
  5
21B
100
AcDbEntity
  8
0
100
AcDbLine
 62
7
  6
CONTINUOUS
 10
-123.0306257657
 20
-48.1494341205
 11
120.2141069625
 21
-169.7718004846
  0
LINE
  5
21C
100
AcDbEntity
  8
0
100
AcDbLine
 62
7
  6
CONTINUOUS
 10
-123.3841791562
 20
-47.8931981139
 11
119.8605535719
 21
-169.515564478
  0
LINE
  5
21D
100
AcDbEntity
  8
SMUSSO
100
AcDbLine
 62
7
  6
CONTINUOUS
 10
-88.9127235734
 20
-18.14704775
 11
-88.9127235734
 21
103.5295214817
  0
LINE
  5
21E
100
AcDbEntity
  8
SMUSSO
100
AcDbLine
 62
7
  6
CONTINUOUS
 10
-88.2056167922
 20
-18.14704775
 11
-88.2056167922
 21
103.5295214817
  0
LINE
  5
21F
100
AcDbEntity
  8
SMUSSO
100
AcDbLine
 62
7
  6
CONTINUOUS
 10
-85.3771896675
 20
104.9437350441
 11
-85.3771896675
 21
-16.7328341876
  0
LINE
  5
220
100
AcDbEntity
  8
RACCORDO
100
AcDbLine
 62
7
  6
CONTINUOUS
 10
-85.2004129722
 20
105.3856767823
 11
-85.2004129722
 21
-16.2908924494
  0
LINE
  5
221
100
AcDbEntity
  8
RACCORDO
100
AcDbLine
 62
7
  6
CONTINUOUS
 10
-84.8468595816
 20
105.5624534776
 11
-84.8468595816
 21
-16.1141157541
  0
LINE
  5
222
100
AcDbEntity
  8
0
100
AcDbLine
 62
7
  6
CONTINUOUS
 10
-76.184801512
 20
-25.5618379003
 11
-76.184801512
 21
-25.6591552843
  0
LINE
  5
223
100
AcDbEntity
  8
0
100
AcDbLine
 62
7
  6
CONTINUOUS
 10
-75.8312481215
 20
-25.385061205
 11
-75.8312481215
 21
-25.8359319796
  0
LINE
  5
224
100
AcDbEntity
  8
0
100
AcDbLine
 62
7
  6
CONTINUOUS
 10
-68.700983552
 20
-26.9937678643
 11
-68.8777602473
 21
-26.7071562119
  0
LINE
  5
225
100
AcDbEntity
  8
ASSI
100
AcDbLine
 62
7
  6
CONTINUOUS
 10
-65.4114352115
 20
-28.787210216
 11
-65.4114352115
 21
-28.3541975141
  0
LINE
  5
226
100
AcDbEntity
  8
0
100
AcDbLine
 62
7
  6
CONTINUOUS
 10
-62.7851280086
 20
-27.4740566145
 11
-62.7851280086
 21
-27.0410439126
  0
LINE
  5
227
100
AcDbEntity
  8
0
100
AcDbLine
 62
7
  6
CONTINUOUS
 10
-61.3355591071
 20
-32.9864591027
 11
-61.3355591071
 21
-33.0837764867
  0
LINE
  5
228
100
AcDbEntity
  8
0
100
AcDbLine
 62
7
  6
CONTINUOUS
 10
-58.0121572355
 20
-29.4275292991
 11
-58.0121572355
 21
-29.860542001
  0
LINE
  5
229
100
AcDbEntity
  8
0
100
AcDbLine
 62
7
  6
CONTINUOUS
 10
-64.9423418421
 20
-25.6634445272
 11
-64.8894296447
 21
-24.8962759766
  0
LINE
  5
22A
100
AcDbEntity
  8
ASSI
100
AcDbLine
 62
7
  6
CONTINUOUS
 10
-62.6442448033
 20
-26.8124930467
 11
-62.5913326058
 21
-26.045324496
  0
LINE
  5
22B
100
AcDbEntity
  8
ASSI
100
AcDbLine
 62
7
  6
CONTINUOUS
 10
-62.2920367901
 20
-26.6741285837
 11
-62.2391245926
 21
-25.906960033
  0
LINE
  5
22C
100
AcDbEntity
  8
ASSI
100
AcDbLine
 62
7
  6
CONTINUOUS
 10
-60.1693710691
 20
-28.0499299138
 11
-60.1164588717
 21
-27.2827613631
  0
LINE
  5
22D
100
AcDbEntity
  8
0
100
AcDbLine
 62
7
  6
CONTINUOUS
 10
-57.8712740303
 20
-29.1989784332
 11
-57.8183618328
 21
-28.4318098825
  0
LINE
  5
22E
100
AcDbEntity
  8
0
100
AcDbLine
 62
7
  6
CONTINUOUS
 10
-57.5190660171
 20
-29.0606139702
 11
-57.4661538196
 21
-28.2934454195
  0
LINE
  5
22F
100
AcDbEntity
  8
SMUSSO
100
AcDbLine
 62
7
  6
CONTINUOUS
 10
-85.0236362769
 20
-24.8547311191
 11
-84.6700828863
 21
-24.2449417219
  0
LINE
  5
230
100
AcDbEntity
  8
SMUSSO
100
AcDbLine
 62
7
  6
CONTINUOUS
 10
81.5000106926
 20
-108.1165546038
 11
-85.0236362769
 21
-24.8547311191
  0
LINE
  5
231
100
AcDbEntity
  8
SMUSSO
100
AcDbLine
 62
7
  6
CONTINUOUS
 10
81.8535640831
 20
-107.5067652066
 11
-84.6700828863
 21
-24.2449417219
  0
LINE
  5
232
100
AcDbEntity
  8
SMUSSO
100
AcDbLine
 62
7
  6
CONTINUOUS
 10
-81.8416557615
 20
-22.8307281595
 11
84.6819912079
 21
-106.0925516442
  0
LINE
  5
233
100
AcDbEntity
  8
RACCORDO
100
AcDbLine
 62
7
  6
CONTINUOUS
 10
-81.3113256756
 20
-22.9985758185
 11
-76.184801512
 21
-25.5618379003
  0
LINE
  5
234
100
AcDbEntity
  8
0
100
AcDbLine
 62
7
  6
CONTINUOUS
 10
-61.3355591071
 20
-32.9864591027
 11
65.2365547253
 21
-96.2725160189
  0
LINE
  5
235
100
AcDbEntity
  8
RACCORDO
100
AcDbLine
 62
7
  6
CONTINUOUS
 10
80.0857971302
 20
-103.6971372214
 11
85.1974169911
 21
-106.2529471518
  0
LINE
  5
236
100
AcDbEntity
  8
RACCORDO
100
AcDbLine
 62
7
  6
CONTINUOUS
 10
-80.9577722851
 20
-22.8217991232
 11
-75.8312481215
 21
-25.385061205
  0
LINE
  5
237
100
AcDbEntity
  8
0
100
AcDbLine
 62
7
  6
CONTINUOUS
 10
-60.9820057165
 20
-32.8096824074
 11
65.5901081159
 21
-96.0957393236
  0
LINE
  5
238
100
AcDbEntity
  8
RACCORDO
100
AcDbLine
 62
7
  6
CONTINUOUS
 10
80.4393505208
 20
-103.5203605261
 11
85.2833606052
 21
-105.9423655683
  0
LINE
  5
239
100
AcDbEntity
  8
0
100
AcDbLine
 62
7
  6
CONTINUOUS
 10
83.5037510984
 20
-102.8979118848
 11
81.0288773642
 21
-101.6604750177
  0
LINE
  5
23A
100
AcDbEntity
  8
0
100
AcDbLine
 62
7
  6
CONTINUOUS
 10
72.54359599
 20
-97.4178343306
 11
70.0687222558
 21
-96.1803974635
  0
LINE
  5
23B
100
AcDbEntity
  8
0
100
AcDbLine
 62
7
  6
CONTINUOUS
 10
-57.9176051389
 20
-32.1872337661
 11
-60.3924788731
 21
-30.9497968991
  0
LINE
  5
23C
100
AcDbEntity
  8
0
100
AcDbLine
 62
7
  6
CONTINUOUS
 10
-68.8777602473
 20
-26.7071562119
 11
-71.3526339815
 21
-25.4697193449
  0
LINE
  5
23D
100
AcDbEntity
  8
0
100
AcDbLine
 62
7
  6
CONTINUOUS
 10
119.8605535719
 20
-169.515564478
 11
120.2141069625
 21
-169.7718004846
  0
LINE
  5
23E
100
AcDbEntity
  8
0
100
AcDbLine
 62
7
  6
CONTINUOUS
 10
-57.7408284436
 20
-32.4738454185
 11
-57.9176051389
 21
-32.1872337661
  0
LINE
  5
23F
100
AcDbEntity
  8
0
100
AcDbLine
 62
7
  6
CONTINUOUS
 10
83.4091990018
 20
-100.1382074178
 11
81.1111019629
 21
-98.9891588983
  0
LINE
  5
240
100
AcDbEntity
  8
0
100
AcDbLine
 62
7
  6
CONTINUOUS
 10
78.6362282288
 20
-97.7517220313
 11
76.3381311899
 21
-96.6026735118
  0
LINE
  5
241
100
AcDbEntity
  8
0
100
AcDbLine
 62
7
  6
CONTINUOUS
 10
-58.0121572355
 20
-29.4275292991
 11
-60.3102542744
 21
-28.2784807797
  0
LINE
  5
242
100
AcDbEntity
  8
0
100
AcDbLine
 62
7
  6
CONTINUOUS
 10
-62.7851280086
 20
-27.0410439126
 11
-65.0832250474
 21
-25.8919953932
  0
LINE
  5
243
100
AcDbEntity
  8
0
100
AcDbLine
 62
7
  6
CONTINUOUS
 10
83.550082207
 20
-99.9096565518
 11
81.2519851682
 21
-98.7606080324
  0
LINE
  5
244
100
AcDbEntity
  8
0
100
AcDbLine
 62
7
  6
CONTINUOUS
 10
78.777111434
 20
-97.5231711653
 11
76.4790143952
 21
-96.3741226459
  0
LINE
  5
245
100
AcDbEntity
  8
0
100
AcDbLine
 62
7
  6
CONTINUOUS
 10
-57.8712740303
 20
-29.1989784332
 11
-60.1693710691
 21
-28.0499299138
  0
LINE
  5
246
100
AcDbEntity
  8
0
100
AcDbLine
 62
7
  6
CONTINUOUS
 10
-62.6442448033
 20
-26.8124930467
 11
-64.9423418421
 21
-25.6634445272
  0
LINE
  5
247
100
AcDbEntity
  8
ASSI
100
AcDbLine
 62
7
  6
CONTINUOUS
 10
83.6029944045
 20
-99.1424880011
 11
81.3048973656
 21
-97.9934394817
  0
LINE
  5
248
100
AcDbEntity
  8
ASSI
100
AcDbLine
 62
7
  6
CONTINUOUS
 10
78.8300236315
 20
-96.7560026146
 11
76.5319265926
 21
-95.6069540952
  0
LINE
  5
249
100
AcDbEntity
  8
ASSI
100
AcDbLine
 62
7
  6
CONTINUOUS
 10
-57.8183618328
 20
-28.4318098825
 11
-60.1164588717
 21
-27.2827613631
  0
LINE
  5
24A
100
AcDbEntity
  8
ASSI
100
AcDbLine
 62
7
  6
CONTINUOUS
 10
-62.5913326058
 20
-26.045324496
 11
-64.8894296447
 21
-24.8962759766
  0
LINE
  5
24B
100
AcDbEntity
  8
ASSI
100
AcDbLine
 62
7
  6
CONTINUOUS
 10
83.9552024177
 20
-99.0041235382
 11
81.6571053789
 21
-97.8550750188
  0
LINE
  5
24C
100
AcDbEntity
  8
ASSI
100
AcDbLine
 62
7
  6
CONTINUOUS
 10
79.1822316447
 20
-96.6176381517
 11
76.8841346058
 21
-95.4685896323
  0
LINE
  5
24D
100
AcDbEntity
  8
ASSI
100
AcDbLine
 62
7
  6
CONTINUOUS
 10
-57.4661538196
 20
-28.2934454195
 11
-59.7642508585
 21
-27.1443969001
  0
LINE
  5
24E
100
AcDbEntity
  8
ASSI
100
AcDbLine
 62
7
  6
CONTINUOUS
 10
-62.2391245926
 20
-25.906960033
 11
-64.5372216315
 21
-24.7579115136
  0
LINE
  5
24F
100
AcDbEntity
  8
0
100
AcDbLine
 62
7
  6
CONTINUOUS
 10
-72.8789120874
 20
-27.3120999966
 11
-71.3526339815
 21
-25.4697193449
  0
LINE
  5
250
100
AcDbEntity
  8
0
100
AcDbLine
 62
7
  6
CONTINUOUS
 10
-70.4040383533
 20
-28.5495368636
 11
-68.8777602473
 21
-26.7071562119
  0
LINE
  5
251
100
AcDbEntity
  8
0
100
AcDbLine
 62
7
  6
CONTINUOUS
 10
-69.700983552
 20
-28.2008746455
 11
-68.700983552
 21
-26.9937678643
  0
LINE
  5
252
100
AcDbEntity
  8
0
100
AcDbLine
 62
7
  6
CONTINUOUS
 10
-61.918756979
 20
-32.7921775508
 11
-60.3924788731
 21
-30.9497968991
  0
LINE
  5
253
100
AcDbEntity
  8
0
100
AcDbLine
 62
7
  6
CONTINUOUS
 10
-59.17976926
 20
-33.7108006357
 11
-57.9176051389
 21
-32.1872337661
  0
LINE
  5
254
100
AcDbEntity
  8
0
100
AcDbLine
 62
7
  6
CONTINUOUS
 10
-58.8868760412
 20
-33.8572472451
 11
-57.7408284436
 21
-32.4738454185
  0
LINE
  5
255
100
AcDbEntity
  8
RACCORDO
100
AcDbLine
 62
7
  6
CONTINUOUS
 10
-84.8468595816
 20
-16.1141157541
 11
-85.2004129722
 21
-16.2908924494
  0
LINE
  5
256
100
AcDbEntity
  8
SMUSSO
100
AcDbLine
 62
7
  6
CONTINUOUS
 10
-88.2056167922
 20
-18.14704775
 11
-85.3771896675
 21
-16.7328341876
  0
LINE
  5
257
100
AcDbEntity
  8
SMUSSO
100
AcDbLine
 62
7
  6
CONTINUOUS
 10
-84.6700828863
 20
-24.2449417219
 11
-81.8416557615
 21
-22.8307281595
  0
LINE
  5
258
100
AcDbEntity
  8
RACCORDO
100
AcDbLine
 62
7
  6
CONTINUOUS
 10
-80.9577722851
 20
-22.8217991232
 11
-81.3113256756
 21
-22.9985758185
  0
LINE
  5
259
100
AcDbEntity
  8
SMUSSO
100
AcDbLine
 62
7
  6
CONTINUOUS
 10
-88.9127235734
 20
-18.14704775
 11
-88.2056167922
 21
-18.14704775
  0
LINE
  5
25A
100
AcDbEntity
  8
0
100
AcDbLine
 62
7
  6
CONTINUOUS
 10
-75.8312481215
 20
-25.385061205
 11
-76.184801512
 21
-25.5618379003
  0
LINE
  5
25B
100
AcDbEntity
  8
0
100
AcDbLine
 62
7
  6
CONTINUOUS
 10
-70.4011731708
 20
-28.5509694549
 11
-65.0832250474
 21
-25.8919953932
  0
LINE
  5
25C
100
AcDbEntity
  8
ASSI
100
AcDbLine
 62
7
  6
CONTINUOUS
 10
-62.7851280086
 20
-27.0410439126
 11
-65.4114352115
 21
-28.3541975141
  0
LINE
  5
25D
100
AcDbEntity
  8
ASSI
100
AcDbLine
 62
7
  6
CONTINUOUS
 10
-62.7851280086
 20
-27.4740566145
 11
-65.4114352115
 21
-28.787210216
  0
LINE
  5
25E
100
AcDbEntity
  8
ASSI
100
AcDbLine
 62
7
  6
CONTINUOUS
 10
-60.3102542744
 20
-28.2784807797
 11
-62.9365614773
 21
-29.5916343812
  0
LINE
  5
25F
100
AcDbEntity
  8
0
100
AcDbLine
 62
7
  6
CONTINUOUS
 10
-63.3301053589
 20
-32.0865033608
 11
-58.0121572355
 21
-29.4275292991
  0
LINE
  5
260
100
AcDbEntity
  8
0
100
AcDbLine
 62
7
  6
CONTINUOUS
 10
-62.8970926571
 20
-32.3030097118
 11
-60.5351813947
 21
-31.1220540806
  0
LINE
  5
261
100
AcDbEntity
  8
0
100
AcDbLine
 62
7
  6
CONTINUOUS
 10
-60.2915729524
 20
-31.0002498594
 11
-58.0121572355
 21
-29.860542001
  0
LINE
  5
262
100
AcDbEntity
  8
0
100
AcDbLine
 62
7
  6
CONTINUOUS
 10
-64.5372216315
 20
-24.7579115136
 11
-64.8894296447
 21
-24.8962759766
  0
LINE
  5
263
100
AcDbEntity
  8
ASSI
100
AcDbLine
 62
7
  6
CONTINUOUS
 10
-62.2391245926
 20
-25.906960033
 11
-62.5913326058
 21
-26.045324496
  0
LINE
  5
264
100
AcDbEntity
  8
0
100
AcDbLine
 62
7
  6
CONTINUOUS
 10
-60.9820057165
 20
-32.8096824074
 11
-61.3355591071
 21
-32.9864591027
  0
LINE
  5
265
100
AcDbEntity
  8
0
100
AcDbLine
 62
7
  6
CONTINUOUS
 10
120.2141069625
 20
46.7345504615
 11
123.0425340873
 21
48.1487640239
  0
LINE
  5
266
100
AcDbEntity
  8
0
100
AcDbLine
 62
7
  6
CONTINUOUS
 10
120.5676603531
 20
46.1247610644
 11
123.3960874779
 21
47.5389746267
  0
LINE
  5
267
100
AcDbEntity
  8
0
100
AcDbLine
 62
7
  6
CONTINUOUS
 10
-62.2920367901
 20
-26.6741285837
 11
-62.6442448033
 21
-26.8124930467
  0
LINE
  5
268
100
AcDbEntity
  8
ASSI
100
AcDbLine
 62
7
  6
CONTINUOUS
 10
-59.7642508585
 20
-27.1443969001
 11
-60.1164588717
 21
-27.2827613631
  0
LINE
  5
269
100
AcDbEntity
  8
0
100
AcDbLine
 62
7
  6
CONTINUOUS
 10
-57.4661538196
 20
-28.2934454195
 11
-57.8183618328
 21
-28.4318098825
  0
LINE
  5
26A
100
AcDbEntity
  8
0
100
AcDbLine
 62
7
  6
CONTINUOUS
 10
-57.5190660171
 20
-29.0606139702
 11
-57.8712740303
 21
-29.1989784332
  0
LINE
  5
26B
100
AcDbEntity
  8
0
100
AcDbLine
 62
7
  6
CONTINUOUS
 10
72.7203726853
 20
-97.7044459829
 11
72.54359599
 21
-97.4178343306
  0
LINE
  5
26C
100
AcDbEntity
  8
0
100
AcDbLine
 62
7
  6
CONTINUOUS
 10
83.6805277937
 20
-103.1845235371
 11
83.5037510984
 21
-102.8979118848
  0
LINE
  5
26D
100
AcDbEntity
  8
SMUSSO
100
AcDbLine
 62
7
  6
CONTINUOUS
 10
-85.0236362769
 20
106.3481175543
 11
-84.6700828863
 21
106.0918815477
  0
LINE
  5
26E
100
AcDbEntity
  8
0
100
AcDbLine
 62
7
  6
CONTINUOUS
 10
119.8605535719
 20
46.1247610644
 11
120.5676603531
 21
46.1247610644
  0
LINE
  5
26F
100
AcDbEntity
  8
SMUSSO
100
AcDbLine
 62
7
  6
CONTINUOUS
 10
-84.6700828863
 20
106.0918815477
 11
81.8535640831
 21
22.830058063
  0
LINE
  5
270
100
AcDbEntity
  8
SMUSSO
100
AcDbLine
 62
7
  6
CONTINUOUS
 10
-85.0236362769
 20
106.3481175543
 11
81.5000106926
 21
23.0862940695
  0
LINE
  5
271
100
AcDbEntity
  8
0
100
AcDbLine
 62
7
  6
CONTINUOUS
 10
65.2365547253
 20
-96.2725160189
 11
65.2365547253
 21
-96.3698334029
  0
LINE
  5
272
100
AcDbEntity
  8
0
100
AcDbLine
 62
7
  6
CONTINUOUS
 10
65.5901081159
 20
-96.0957393236
 11
65.5901081159
 21
-96.5466100982
  0
LINE
  5
273
100
AcDbEntity
  8
SMUSSO
100
AcDbLine
 62
7
  6
CONTINUOUS
 10
81.5000106926
 20
23.0862940695
 11
81.8535640831
 21
22.830058063
  0
LINE
  5
274
100
AcDbEntity
  8
ASSI
100
AcDbLine
 62
7
  6
CONTINUOUS
 10
76.0099210258
 20
-99.4978883346
 11
76.0099210258
 21
-99.0648756327
  0
LINE
  5
275
100
AcDbEntity
  8
0
100
AcDbLine
 62
7
  6
CONTINUOUS
 10
78.6362282288
 20
-98.1847347332
 11
78.6362282288
 21
-97.7517220313
  0
LINE
  5
276
100
AcDbEntity
  8
0
100
AcDbLine
 62
7
  6
CONTINUOUS
 10
80.0857971302
 20
-103.6971372214
 11
80.0857971302
 21
-103.7944546054
  0
LINE
  5
277
100
AcDbEntity
  8
0
100
AcDbLine
 62
7
  6
CONTINUOUS
 10
83.4091990018
 20
-100.1382074178
 11
83.4091990018
 21
-100.5712201197
  0
LINE
  5
278
100
AcDbEntity
  8
SMUSSO
100
AcDbLine
 62
7
  6
CONTINUOUS
 10
85.3890979891
 20
16.3786107005
 11
85.3890979891
 21
-105.2979585312
  0
LINE
  5
279
100
AcDbEntity
  8
0
100
AcDbLine
 62
7
  6
CONTINUOUS
 10
76.4790143952
 20
-96.3741226459
 11
76.5319265926
 21
-95.6069540952
  0
LINE
  5
27A
100
AcDbEntity
  8
ASSI
100
AcDbLine
 62
7
  6
CONTINUOUS
 10
78.777111434
 20
-97.5231711653
 11
78.8300236315
 21
-96.7560026146
  0
LINE
  5
27B
100
AcDbEntity
  8
ASSI
100
AcDbLine
 62
7
  6
CONTINUOUS
 10
79.1293194472
 20
-97.3848067024
 11
79.1822316447
 21
-96.6176381517
  0
LINE
  5
27C
100
AcDbEntity
  8
0
100
AcDbLine
 62
7
  6
CONTINUOUS
 10
119.8605535719
 20
46.1247610644
 11
120.2141069625
 21
46.7345504615
  0
LINE
  5
27D
100
AcDbEntity
  8
ASSI
100
AcDbLine
 62
7
  6
CONTINUOUS
 10
81.2519851682
 20
-98.7606080324
 11
81.3048973656
 21
-97.9934394817
  0
LINE
  5
27E
100
AcDbEntity
  8
0
100
AcDbLine
 62
7
  6
CONTINUOUS
 10
83.550082207
 20
-99.9096565518
 11
83.6029944045
 21
-99.1424880011
  0
LINE
  5
27F
100
AcDbEntity
  8
0
100
AcDbLine
 62
7
  6
CONTINUOUS
 10
83.9022902202
 20
-99.7712920889
 11
83.9552024177
 21
-99.0041235382
  0
LINE
  5
280
100
AcDbEntity
  8
0
100
AcDbLine
 62
7
  6
CONTINUOUS
 10
119.8605535719
 20
46.1247610644
 11
-123.3841791562
 21
167.7471274284
  0
LINE
  5
281
100
AcDbEntity
  8
0
100
AcDbLine
 62
7
  6
CONTINUOUS
 10
120.2141069625
 20
46.7345504615
 11
-123.0306257657
 21
168.3569168256
  0
LINE
  5
282
100
AcDbEntity
  8
0
100
AcDbLine
 62
7
  6
CONTINUOUS
 10
-120.2021986409
 20
169.771130388
 11
123.0425340873
 21
48.1487640239
  0
LINE
  5
283
100
AcDbEntity
  8
SMUSSO
100
AcDbLine
 62
7
  6
CONTINUOUS
 10
-88.9127235734
 20
103.5295214817
 11
-88.2056167922
 21
103.5295214817
  0
LINE
  5
284
100
AcDbEntity
  8
0
100
AcDbLine
 62
7
  6
CONTINUOUS
 10
123.3960874779
 20
47.8925280173
 11
123.0425340873
 21
48.1487640239
  0
LINE
  5
285
100
AcDbEntity
  8
0
100
AcDbLine
 62
7
  6
CONTINUOUS
 10
119.8605535719
 20
-169.515564478
 11
119.8605535719
 21
46.1247610644
  0
LINE
  5
286
100
AcDbEntity
  8
0
100
AcDbLine
 62
7
  6
CONTINUOUS
 10
120.5676603531
 20
-169.515564478
 11
120.5676603531
 21
46.1247610644
  0
LINE
  5
287
100
AcDbEntity
  8
0
100
AcDbLine
 62
7
  6
CONTINUOUS
 10
123.3960874779
 20
47.8925280173
 11
123.3960874779
 21
-168.1013509156
  0
LINE
  5
288
100
AcDbEntity
  8
SMUSSO
100
AcDbLine
 62
7
  6
CONTINUOUS
 10
81.5000106926
 20
-108.1165546038
 11
81.8535640831
 21
-107.5067652066
  0
LINE
  5
289
100
AcDbEntity
  8
0
100
AcDbLine
 62
7
  6
CONTINUOUS
 10
68.5424441499
 20
-98.0227781152
 11
70.0687222558
 21
-96.1803974635
  0
LINE
  5
28A
100
AcDbEntity
  8
0
100
AcDbLine
 62
7
  6
CONTINUOUS
 10
71.017317884
 20
-99.2602149823
 11
72.54359599
 21
-97.4178343306
  0
LINE
  5
28B
100
AcDbEntity
  8
0
100
AcDbLine
 62
7
  6
CONTINUOUS
 10
71.7203726853
 20
-98.9115527641
 11
72.7203726853
 21
-97.7044459829
  0
LINE
  5
28C
100
AcDbEntity
  8
0
100
AcDbLine
 62
7
  6
CONTINUOUS
 10
79.5025992583
 20
-103.5028556694
 11
81.0288773642
 21
-101.6604750177
  0
LINE
  5
28D
100
AcDbEntity
  8
0
100
AcDbLine
 62
7
  6
CONTINUOUS
 10
65.5901081159
 20
-96.0957393236
 11
65.2365547253
 21
-96.2725160189
  0
LINE
  5
28E
100
AcDbEntity
  8
0
100
AcDbLine
 62
7
  6
CONTINUOUS
 10
71.0201830665
 20
-99.2616475735
 11
76.3381311899
 21
-96.6026735118
  0
LINE
  5
28F
100
AcDbEntity
  8
ASSI
100
AcDbLine
 62
7
  6
CONTINUOUS
 10
78.6362282288
 20
-97.7517220313
 11
76.0099210258
 21
-99.0648756327
  0
LINE
  5
290
100
AcDbEntity
  8
ASSI
100
AcDbLine
 62
7
  6
CONTINUOUS
 10
78.6362282288
 20
-98.1847347332
 11
76.0099210258
 21
-99.4978883346
  0
LINE
  5
291
100
AcDbEntity
  8
ASSI
100
AcDbLine
 62
7
  6
CONTINUOUS
 10
81.1111019629
 20
-98.9891588983
 11
78.48479476
 21
-100.3023124998
  0
LINE
  5
292
100
AcDbEntity
  8
0
100
AcDbLine
 62
7
  6
CONTINUOUS
 10
78.0912508784
 20
-102.7971814795
 11
83.4091990018
 21
-100.1382074178
  0
LINE
  5
293
100
AcDbEntity
  8
0
100
AcDbLine
 62
7
  6
CONTINUOUS
 10
78.5242635803
 20
-103.0136878304
 11
80.8861748427
 21
-101.8327321992
  0
LINE
  5
294
100
AcDbEntity
  8
0
100
AcDbLine
 62
7
  6
CONTINUOUS
 10
81.1297832849
 20
-101.7109279781
 11
83.4091990018
 21
-100.5712201197
  0
LINE
  5
295
100
AcDbEntity
  8
0
100
AcDbLine
 62
7
  6
CONTINUOUS
 10
76.8841346058
 20
-95.4685896323
 11
76.5319265926
 21
-95.6069540952
  0
LINE
  5
296
100
AcDbEntity
  8
ASSI
100
AcDbLine
 62
7
  6
CONTINUOUS
 10
79.1822316447
 20
-96.6176381517
 11
78.8300236315
 21
-96.7560026146
  0
LINE
  5
297
100
AcDbEntity
  8
0
100
AcDbLine
 62
7
  6
CONTINUOUS
 10
79.1293194472
 20
-97.3848067024
 11
78.777111434
 21
-97.5231711653
  0
LINE
  5
298
100
AcDbEntity
  8
ASSI
100
AcDbLine
 62
7
  6
CONTINUOUS
 10
81.6571053789
 20
-97.8550750188
 11
81.3048973656
 21
-97.9934394817
  0
LINE
  5
299
100
AcDbEntity
  8
0
100
AcDbLine
 62
7
  6
CONTINUOUS
 10
83.9552024177
 20
-99.0041235382
 11
83.6029944045
 21
-99.1424880011
  0
LINE
  5
29A
100
AcDbEntity
  8
0
100
AcDbLine
 62
7
  6
CONTINUOUS
 10
83.9022902202
 20
-99.7712920889
 11
83.550082207
 21
-99.9096565518
  0
LINE
  5
29B
100
AcDbEntity
  8
0
100
AcDbLine
 62
7
  6
CONTINUOUS
 10
120.2141069625
 20
46.7345504615
 11
120.5676603531
 21
46.1247610644
  0
LINE
  5
29C
100
AcDbEntity
  8
0
100
AcDbLine
 62
7
  6
CONTINUOUS
 10
82.2415869773
 20
-104.4214787543
 11
83.5037510984
 21
-102.8979118848
  0
LINE
  5
29D
100
AcDbEntity
  8
0
100
AcDbLine
 62
7
  6
CONTINUOUS
 10
82.5344801961
 20
-104.5679253637
 11
83.6805277937
 21
-103.1845235371
  0
LINE
  5
29E
100
AcDbEntity
  8
0
100
AcDbLine
 62
7
  6
CONTINUOUS
 10
80.4393505208
 20
-103.5203605261
 11
80.0857971302
 21
-103.6971372214
  0
LINE
  5
29F
100
AcDbEntity
  8
SMUSSO
100
AcDbLine
 62
7
  6
CONTINUOUS
 10
81.8535640831
 20
-107.5067652066
 11
84.6819912079
 21
-106.0925516442
  0
LINE
  5
2A0
100
AcDbEntity
  8
0
100
AcDbLine
 62
7
  6
CONTINUOUS
 10
123.0425340873
 20
48.1487640239
 11
123.3960874779
 21
47.5389746267
  0
LINE
  5
2A1
100
AcDbEntity
  8
0
100
AcDbLine
 62
7
  6
CONTINUOUS
 10
120.5676603531
 20
-169.515564478
 11
120.2141069625
 21
-169.7718004846
  0
LINE
  5
2A2
100
AcDbEntity
  8
0
100
AcDbLine
 62
7
  6
CONTINUOUS
 10
123.3960874779
 20
-168.1013509156
 11
123.0425340873
 21
-168.3575869222
  0
LINE
  5
2A3
100
AcDbEntity
  8
0
100
AcDbLine
 62
7
  6
CONTINUOUS
 10
120.5676603531
 20
-169.515564478
 11
123.3960874779
 21
-168.1013509156
  0
LINE
  5
2A4
100
AcDbEntity
  8
0
100
AcDbLine
 62
7
  6
CONTINUOUS
 10
120.2141069625
 20
-169.7718004846
 11
123.0425340873
 21
-168.3575869222
  0
ARC
  5
2A5
100
AcDbEntity
  8
SMUSSO
100
AcDbCircle
 62
7
  6
CONTINUOUS
 10
-78.4291988669
 20
-17.5133341563
 40
6.3731457544
100
AcDbArc
 50
229.5956576767
 51
229.8090200626
  0
ARC
  5
2A6
100
AcDbEntity
  8
SMUSSO
100
AcDbCircle
 62
7
  6
CONTINUOUS
 10
-79.0308592633
 20
-16.3645731329
 40
6.3466069427
100
AcDbArc
 50
183.1792112563
 51
183.319126636
  0
ARC
  5
2A7
100
AcDbEntity
  8
SMUSSO
100
AcDbCircle
 62
7
  6
CONTINUOUS
 10
79.0427675849
 20
16.3639030363
 40
6.3466069426
100
AcDbArc
 50
3.1792112563
 51
3.319126636
  0
ARC
  5
2A8
100
AcDbEntity
  8
SMUSSO
100
AcDbCircle
 62
7
  6
CONTINUOUS
 10
79.2624658563
 20
16.3749685929
 40
6.1266332154
100
AcDbArc
 50
0.0340607273
 51
3.1898329039
  0
ARC
  5
2A9
100
AcDbEntity
  8
SMUSSO
100
AcDbCircle
 62
7
  6
CONTINUOUS
 10
79.0143900007
 20
18.2614234544
 40
5.4298490301
100
AcDbArc
 50
53.0565642462
 51
57.8162256799
  0
ARC
  5
2AA
100
AcDbEntity
  8
RACCORDO
100
AcDbCircle
 62
7
  6
CONTINUOUS
 10
-78.9384406292
 20
-18.3490360734
 40
5.2214126134
100
AcDbArc
 50
237.0799880125
 51
237.4627589518
  0
ARC
  5
2AB
100
AcDbEntity
  8
SMUSSO
100
AcDbCircle
 62
7
  6
CONTINUOUS
 10
79.1815716562
 20
18.5227780464
 40
5.1196065679
100
AcDbArc
 50
57.8418112295
 51
58.1945467787
  0
ARC
  5
2AC
100
AcDbEntity
  8
SMUSSO
100
AcDbCircle
 62
7
  6
CONTINUOUS
 10
-80.3362241767
 20
104.946884851
 40
5.0409664748
100
AcDbArc
 50
176.6497336434
 51
180.0358007654
  0
ARC
  5
2AD
100
AcDbEntity
  8
SMUSSO
100
AcDbCircle
 62
7
  6
CONTINUOUS
 10
79.5689086855
 20
18.4111216999
 40
4.97728484
100
AcDbArc
 50
54.9829113422
 51
56.0910410486
  0
ARC
  5
2AE
100
AcDbEntity
  8
SMUSSO
100
AcDbCircle
 62
7
  6
CONTINUOUS
 10
80.5767306931
 20
-104.9599562527
 40
4.8120343392
100
AcDbArc
 50
355.9797626492
 51
356.6380752879
  0
ARC
  5
2AF
100
AcDbEntity
  8
SMUSSO
100
AcDbCircle
 62
7
  6
CONTINUOUS
 10
79.6839941996
 20
18.5834677741
 40
4.7700472376
100
AcDbArc
 50
56.0834113703
 51
57.8385340175
  0
ARC
  5
2B0
100
AcDbEntity
  8
SMUSSO
100
AcDbCircle
 62
7
  6
CONTINUOUS
 10
80.6922076481
 20
-104.9682223196
 40
4.6962620109
100
AcDbArc
 50
354.8798540608
 51
355.9815899389
  0
ARC
  5
2B1
100
AcDbEntity
  8
SMUSSO
100
AcDbCircle
 62
7
  6
CONTINUOUS
 10
-86.2341013629
 20
103.0359283125
 40
3.4316035232
100
AcDbArc
 50
69.6303292816
 51
69.9046094125
  0
SPLINE
  5
2B2
100
AcDbEntity
  8
0
100
AcDbSpline
 62
7
  6
CONTINUOUS
 70
0
 71
3
 72
11
 73
7
 74
5
 42
0.0000001
 43
0.0000001
 44
0.0000000001
 12
0.2490261158
 22
0.1245130579
 32
0.0
 13
0.0191573042
 23
0.2777597984
 33
0.0
 40
0.0
 40
0.0
 40
0.0
 40
0.0
 40
0.2279224019
 40
0.4839744983
 40
0.7487122973
 40
1.0
 40
1.0
 40
1.0
 40
1.0
 10
76.3381311899
 20
-96.6026735118
 30
0.0
 10
76.3570507334
 20
-96.5932137401
 30
0.0
 10
76.3934047693
 20
-96.5654119186
 30
0.0
 10
76.4363855676
 20
-96.5101087273
 30
0.0
 10
76.4671362784
 20
-96.4447810947
 30
0.0
 10
76.4774097302
 20
-96.3973885198
 30
0.0
 10
76.4790143952
 20
-96.3741226459
 30
0.0
 11
76.3381311899
 21
-96.6026735118
 31
0.0
 11
76.3893909172
 21
-96.5652653841
 31
0.0
 11
76.4336740733
 21
-96.50939717
 31
0.0
 11
76.4649664984
 21
-96.4426612418
 31
0.0
 11
76.4790143952
 21
-96.3741226459
 31
0.0
  0
SPLINE
  5
2B3
100
AcDbEntity
  8
0
100
AcDbSpline
 62
7
  6
CONTINUOUS
 70
0
 71
3
 72
11
 73
7
 74
5
 42
0.0000001
 43
0.0000001
 44
0.0000000001
 12
0.2490261158
 22
0.1245130579
 32
0.0
 13
0.0191573042
 23
0.2777597984
 33
0.0
 40
0.0
 40
0.0
 40
0.0
 40
0.0
 40
0.2279224019
 40
0.4839744983
 40
0.7487122973
 40
1.0
 40
1.0
 40
1.0
 40
1.0
 10
-65.0832250474
 20
-25.8919953932
 30
0.0
 10
-65.0643055039
 20
-25.8825356214
 30
0.0
 10
-65.027951468
 20
-25.8547337999
 30
0.0
 10
-64.9849706698
 20
-25.7994306086
 30
0.0
 10
-64.9542199589
 20
-25.7341029761
 30
0.0
 10
-64.9439465071
 20
-25.6867104011
 30
0.0
 10
-64.9423418421
 20
-25.6634445272
 30
0.0
 11
-65.0832250474
 21
-25.8919953932
 31
0.0
 11
-65.0319653201
 21
-25.8545872654
 31
0.0
 11
-64.987682164
 21
-25.7987190514
 31
0.0
 11
-64.9563897389
 21
-25.7319831232
 31
0.0
 11
-64.9423418421
 21
-25.6634445272
 31
0.0
  0
SPLINE
  5
2B4
100
AcDbEntity
  8
0
100
AcDbSpline
 62
7
  6
CONTINUOUS
 70
0
 71
3
 72
11
 73
7
 74
5
 42
0.0000001
 43
0.0000001
 44
0.0000000001
 12
0.2490261158
 22
0.1245130579
 32
0.0
 13
0.0191573042
 23
0.2777597984
 33
0.0
 40
0.0
 40
0.0
 40
0.0
 40
0.0
 40
0.2279224019
 40
0.4839744983
 40
0.7487122973
 40
1.0
 40
1.0
 40
1.0
 40
1.0
 10
-60.3102542744
 20
-28.2784807797
 30
0.0
 10
-60.2913347309
 20
-28.2690210079
 30
0.0
 10
-60.254980695
 20
-28.2412191864
 30
0.0
 10
-60.2119998967
 20
-28.1859159951
 30
0.0
 10
-60.1812491859
 20
-28.1205883626
 30
0.0
 10
-60.1709757341
 20
-28.0731957876
 30
0.0
 10
-60.1693710691
 20
-28.0499299138
 30
0.0
 11
-60.3102542744
 21
-28.2784807797
 31
0.0
 11
-60.2589945471
 21
-28.2410726519
 31
0.0
 11
-60.214711391
 21
-28.1852044379
 31
0.0
 11
-60.1834189659
 21
-28.1184685097
 31
0.0
 11
-60.1693710691
 21
-28.0499299138
 31
0.0
  0
SPLINE
  5
2B5
100
AcDbEntity
  8
0
100
AcDbSpline
 62
7
  6
CONTINUOUS
 70
0
 71
3
 72
11
 73
7
 74
5
 42
0.0000001
 43
0.0000001
 44
0.0000000001
 12
0.2490261158
 22
0.1245130579
 32
0.0
 13
0.0191573042
 23
0.2777597984
 33
0.0
 40
0.0
 40
0.0
 40
0.0
 40
0.0
 40
0.2279224019
 40
0.4839744983
 40
0.7487122973
 40
1.0
 40
1.0
 40
1.0
 40
1.0
 10
81.1111019629
 20
-98.9891588983
 30
0.0
 10
81.1300215064
 20
-98.9796991266
 30
0.0
 10
81.1663755423
 20
-98.9518973051
 30
0.0
 10
81.2093563406
 20
-98.8965941138
 30
0.0
 10
81.2401070514
 20
-98.8312664812
 30
0.0
 10
81.2503805032
 20
-98.7838739063
 30
0.0
 10
81.2519851682
 20
-98.7606080324
 30
0.0
 11
81.1111019629
 21
-98.9891588983
 31
0.0
 11
81.1623616902
 21
-98.9517507706
 31
0.0
 11
81.2066448463
 21
-98.8958825565
 31
0.0
 11
81.2379372715
 21
-98.8291466283
 31
0.0
 11
81.2519851682
 21
-98.7606080324
 31
0.0
  0
SPLINE
  5
2B6
100
AcDbEntity
  8
ASSI
100
AcDbSpline
 62
7
  6
CONTINUOUS
 70
0
 71
3
 72
18
 73
14
 74
12
 42
0.0000001
 43
0.0000001
 44
0.0000000001
 12
-3.0314855508
 22
-1.5157427754
 32
0.0
 13
0.0001784981
 23
3.3893038775
 33
0.0
 40
0.0
 40
0.0
 40
0.0
 40
0.0
 40
0.1298058462
 40
0.2747397694
 40
0.4261290622
 40
0.5742617599
 40
0.7099392761
 40
0.7708743749
 40
0.8263813014
 40
0.876323813
 40
0.9210823544
 40
0.9617089051
 40
1.0
 40
1.0
 40
1.0
 40
1.0
 10
78.48479476
 20
-100.3023124998
 30
0.0
 10
78.3536265776
 20
-100.367896591
 30
0.0
 10
78.0587393799
 20
-100.4725774101
 30
0.0
 10
77.5827037205
 20
-100.5547905472
 30
0.0
 10
77.0788481816
 20
-100.5667957658
 30
0.0
 10
76.5891108757
 20
-100.5074287864
 30
0.0
 10
76.2124209967
 20
-100.3990912733
 30
0.0
 10
75.9541005172
 20
-100.2777373744
 30
0.0
 10
75.7946477691
 20
-100.1770921932
 30
0.0
 10
75.6657779761
 20
-100.0654774841
 30
0.0
 10
75.5703051073
 20
-99.9446010538
 30
0.0
 10
75.5109901451
 20
-99.8164429709
 30
0.0
 10
75.4973568688
 20
-99.7268082804
 30
0.0
 10
75.4973591471
 20
-99.6835482282
 30
0.0
 11
78.48479476
 21
-100.3023124998
 31
0.0
 11
78.0722916427
 21
-100.4552780647
 31
0.0
 11
77.5887433667
 21
-100.5417833936
 31
0.0
 11
77.0757936669
 21
-100.5543788873
 31
0.0
 11
76.5776196637
 21
-100.4919796758
 31
0.0
 11
76.137125721
 21
-100.3599597768
 31
0.0
 11
75.9506516148
 21
-100.2711845341
 31
0.0
 11
75.7922485528
 21
-100.169689179
 31
0.0
 11
75.6653456322
 21
-100.0576708784
 31
0.0
 11
75.5726900299
 21
-99.9375546021
 31
0.0
 11
75.516287562
 21
-99.8119406117
 31
0.0
 11
75.4973591471
 21
-99.6835482282
 31
0.0
  0
SPLINE
  5
2B7
100
AcDbEntity
  8
ASSI
100
AcDbSpline
 62
7
  6
CONTINUOUS
 70
0
 71
3
 72
18
 73
14
 74
12
 42
0.0000001
 43
0.0000001
 44
0.0000000001
 12
-3.0314855508
 22
-1.5157427754
 32
0.0
 13
0.0001784981
 23
3.3893038775
 33
0.0
 40
0.0
 40
0.0
 40
0.0
 40
0.0
 40
0.1298058462
 40
0.2747397694
 40
0.4261290622
 40
0.5742617599
 40
0.7099392761
 40
0.7708743749
 40
0.8263813014
 40
0.876323813
 40
0.9210823544
 40
0.9617089051
 40
1.0
 40
1.0
 40
1.0
 40
1.0
 10
-62.9365614773
 20
-29.5916343812
 30
0.0
 10
-63.0677296597
 20
-29.6572184724
 30
0.0
 10
-63.3626168574
 20
-29.7618992914
 30
0.0
 10
-63.8386525168
 20
-29.8441124285
 30
0.0
 10
-64.3425080557
 20
-29.8561176472
 30
0.0
 10
-64.8322453616
 20
-29.7967506677
 30
0.0
 10
-65.2089352406
 20
-29.6884131547
 30
0.0
 10
-65.4672557201
 20
-29.5670592557
 30
0.0
 10
-65.6267084682
 20
-29.4664140745
 30
0.0
 10
-65.7555782613
 20
-29.3547993654
 30
0.0
 10
-65.85105113
 20
-29.2339229352
 30
0.0
 10
-65.9103660922
 20
-29.1057648523
 30
0.0
 10
-65.9239993686
 20
-29.0161301617
 30
0.0
 10
-65.9239970903
 20
-28.9728701096
 30
0.0
 11
-62.9365614773
 21
-29.5916343812
 31
0.0
 11
-63.3490645946
 21
-29.744599946
 31
0.0
 11
-63.8326128706
 21
-29.8311052749
 31
0.0
 11
-64.3455625704
 21
-29.8437007686
 31
0.0
 11
-64.8437365736
 21
-29.7813015572
 31
0.0
 11
-65.2842305164
 21
-29.6492816582
 31
0.0
 11
-65.4707046225
 21
-29.5605064155
 31
0.0
 11
-65.6291076845
 21
-29.4590110603
 31
0.0
 11
-65.7560106051
 21
-29.3469927598
 31
0.0
 11
-65.8486662074
 21
-29.2268764834
 31
0.0
 11
-65.9050686754
 21
-29.1012624931
 31
0.0
 11
-65.9239970903
 21
-28.9728701096
 31
0.0
  0
SPLINE
  5
2B8
100
AcDbEntity
  8
0
100
AcDbSpline
 62
7
  6
CONTINUOUS
 70
0
 71
3
 72
11
 73
7
 74
5
 42
0.0000001
 43
0.0000001
 44
0.0000000001
 12
0.2490261158
 22
0.1245130579
 32
0.0
 13
0.0191573042
 23
0.2777597984
 33
0.0
 40
0.0
 40
0.0
 40
0.0
 40
0.0
 40
0.2279224019
 40
0.4839744983
 40
0.7487122973
 40
1.0
 40
1.0
 40
1.0
 40
1.0
 10
78.6362282288
 20
-97.7517220313
 30
0.0
 10
78.6551477722
 20
-97.7422622595
 30
0.0
 10
78.6915018082
 20
-97.714460438
 30
0.0
 10
78.7344826064
 20
-97.6591572467
 30
0.0
 10
78.7652333172
 20
-97.5938296142
 30
0.0
 10
78.775506769
 20
-97.5464370392
 30
0.0
 10
78.777111434
 20
-97.5231711653
 30
0.0
 11
78.6362282288
 21
-97.7517220313
 31
0.0
 11
78.687487956
 21
-97.7143139035
 31
0.0
 11
78.7317711122
 21
-97.6584456895
 31
0.0
 11
78.7630635373
 21
-97.5917097612
 31
0.0
 11
78.777111434
 21
-97.5231711653
 31
0.0
  0
SPLINE
  5
2B9
100
AcDbEntity
  8
ASSI
100
AcDbSpline
 62
7
  6
CONTINUOUS
 70
0
 71
3
 72
11
 73
7
 74
5
 42
0.0000001
 43
0.0000001
 44
0.0000000001
 12
0.0000443555
 22
0.8422174105
 32
0.0
 13
0.7533021537
 23
0.3766510769
 33
0.0
 40
0.0
 40
0.0
 40
0.0
 40
0.0
 40
0.2065674947
 40
0.4345184062
 40
0.6974210671
 40
1.0
 40
1.0
 40
1.0
 40
1.0
 10
75.4973591471
 20
-99.6835482282
 30
0.0
 10
75.4973622012
 20
-99.6255566481
 30
0.0
 10
75.5229900522
 20
-99.502635444
 30
0.0
 10
75.6299467846
 20
-99.3349695165
 30
0.0
 10
75.7966217014
 20
-99.1843380173
 30
0.0
 10
75.9339432385
 20
-99.1028645264
 30
0.0
 10
76.0099210258
 20
-99.0648756327
 30
0.0
 11
75.4973591471
 21
-99.6835482282
 31
0.0
 11
75.5309971117
 21
-99.5128564073
 31
0.0
 11
75.6305896472
 21
-99.3487245391
 31
0.0
 11
75.7922926187
 21
-99.1974648412
 31
0.0
 11
76.0099210258
 21
-99.0648756327
 31
0.0
  0
SPLINE
  5
2BA
100
AcDbEntity
  8
ASSI
100
AcDbSpline
 62
7
  6
CONTINUOUS
 70
0
 71
3
 72
11
 73
7
 74
5
 42
0.0000001
 43
0.0000001
 44
0.0000000001
 12
0.0000443555
 22
0.8422174105
 32
0.0
 13
0.7533021537
 23
0.3766510769
 33
0.0
 40
0.0
 40
0.0
 40
0.0
 40
0.0
 40
0.2065674947
 40
0.4345184062
 40
0.6974210671
 40
1.0
 40
1.0
 40
1.0
 40
1.0
 10
-65.9239970903
 20
-28.9728701096
 30
0.0
 10
-65.9239940361
 20
-28.9148785294
 30
0.0
 10
-65.8983661851
 20
-28.7919573253
 30
0.0
 10
-65.7914094527
 20
-28.6242913979
 30
0.0
 10
-65.6247345359
 20
-28.4736598986
 30
0.0
 10
-65.4874129988
 20
-28.3921864077
 30
0.0
 10
-65.4114352115
 20
-28.3541975141
 30
0.0
 11
-65.9239970903
 21
-28.9728701096
 31
0.0
 11
-65.8903591256
 21
-28.8021782886
 31
0.0
 11
-65.7907665901
 21
-28.6380464205
 31
0.0
 11
-65.6290636186
 21
-28.4867867225
 31
0.0
 11
-65.4114352115
 21
-28.3541975141
 31
0.0
  0
SPLINE
  5
2BB
100
AcDbEntity
  8
RACCORDO
100
AcDbSpline
 62
7
  6
CONTINUOUS
 70
0
 71
3
 72
9
 73
5
 74
3
 42
0.0000001
 43
0.0000001
 44
0.0000000001
 12
0.0
 22
0.9010554653
 32
0.0
 13
0.1579219391
 23
0.8871085688
 33
0.0
 40
0.0
 40
0.0
 40
0.0
 40
0.0
 40
0.2583938923
 40
1.0
 40
1.0
 40
1.0
 40
1.0
 10
-85.2004129722
 20
105.3856767823
 30
0.0
 10
-85.2004129722
 20
105.4632858586
 30
0.0
 10
-85.1944129523
 20
105.7635769632
 30
0.0
 10
-85.163774384
 20
106.0636135342
 30
0.0
 10
-85.1247357592
 20
106.2829085785
 30
0.0
 11
-85.2004129722
 21
105.3856767823
 31
0.0
 11
-85.1956671833
 21
105.6184556388
 31
0.0
 11
-85.1247357592
 21
106.2829085785
 31
0.0
  0
SPLINE
  5
2BC
100
AcDbEntity
  8
RACCORDO
100
AcDbSpline
 62
7
  6
CONTINUOUS
 70
0
 71
3
 72
9
 73
5
 74
3
 42
0.0000001
 43
0.0000001
 44
0.0000000001
 12
-0.4481759283
 22
0.2240879642
 32
0.0
 13
-0.4224296518
 23
0.2695000328
 33
0.0
 40
0.0
 40
0.0
 40
0.0
 40
0.0
 40
0.2449917939
 40
1.0
 40
1.0
 40
1.0
 40
1.0
 10
-81.3113256756
 20
-22.9985758185
 30
0.0
 10
-81.3479254839
 20
-22.9802759144
 30
0.0
 10
-81.4962777619
 20
-22.9035112094
 30
0.0
 10
-81.6404526795
 20
-22.8187312969
 30
0.0
 10
-81.7467652973
 20
-22.7509063848
 30
0.0
 11
-81.3113256756
 21
-22.9985758185
 31
0.0
 11
-81.420364936
 21
-22.9421813882
 31
0.0
 11
-81.7467652973
 21
-22.7509063848
 31
0.0
  0
SPLINE
  5
2BD
100
AcDbEntity
  8
RACCORDO
100
AcDbSpline
 62
7
  6
CONTINUOUS
 70
0
 71
3
 72
15
 73
11
 74
9
 42
0.0000001
 43
0.0000001
 44
0.0000000001
 12
-6.3459531773
 22
4.1084731489
 32
0.0
 13
0.0
 23
7.5598064356
 33
0.0
 40
0.0
 40
0.0
 40
0.0
 40
0.0
 40
0.1145436368
 40
0.2367027442
 40
0.3645180786
 40
0.4955838923
 40
0.6272567395
 40
0.7568501988
 40
0.8818257657
 40
1.0
 40
1.0
 40
1.0
 40
1.0
 10
-81.776109603
 20
-22.7320469649
 30
0.0
 10
-82.0184057884
 20
-22.5751804795
 30
0.0
 10
-82.4930319919
 20
-22.2096790131
 30
0.0
 10
-83.1398574089
 20
-21.5542355193
 30
0.0
 10
-83.7277820315
 20
-20.7922357315
 30
0.0
 10
-84.2378671547
 20
-19.9482001778
 30
0.0
 10
-84.6538943068
 20
-19.0491378134
 30
0.0
 10
-84.9624956954
 20
-18.1237817888
 30
0.0
 10
-85.1537658315
 20
-17.2019648853
 30
0.0
 10
-85.2004129722
 20
-16.5886838951
 30
0.0
 10
-85.2004129722
 20
-16.2908924494
 30
0.0
 11
-81.776109603
 21
-22.7320469649
 31
0.0
 11
-82.464974822
 21
-22.2073608384
 31
0.0
 11
-83.1159993898
 21
-21.5523663384
 31
0.0
 11
-83.707817657
 21
-20.7885548719
 31
0.0
 11
-84.2210127178
 21
-19.9409823128
 31
0.0
 11
-84.6387519703
 21
-19.037457351
 31
0.0
 11
-84.947327643
 21
-18.1076207951
 31
0.0
 11
-85.1366171813
 21
-17.1819860491
 31
0.0
 11
-85.2004129722
 21
-16.2908924494
 31
0.0
  0
SPLINE
  5
2BE
100
AcDbEntity
  8
0
100
AcDbSpline
 62
7
  6
CONTINUOUS
 70
0
 71
3
 72
11
 73
7
 74
5
 42
0.0000001
 43
0.0000001
 44
0.0000000001
 12
0.2490261158
 22
0.1245130579
 32
0.0
 13
0.0191573042
 23
0.2777597984
 33
0.0
 40
0.0
 40
0.0
 40
0.0
 40
0.0
 40
0.2279224019
 40
0.4839744983
 40
0.7487122973
 40
1.0
 40
1.0
 40
1.0
 40
1.0
 10
83.4091990018
 20
-100.1382074178
 30
0.0
 10
83.4281185452
 20
-100.128747646
 30
0.0
 10
83.4644725812
 20
-100.1009458245
 30
0.0
 10
83.5074533794
 20
-100.0456426332
 30
0.0
 10
83.5382040902
 20
-99.9803150007
 30
0.0
 10
83.5484775421
 20
-99.9329224257
 30
0.0
 10
83.550082207
 20
-99.9096565518
 30
0.0
 11
83.4091990018
 21
-100.1382074178
 31
0.0
 11
83.460458729
 21
-100.10079929
 31
0.0
 11
83.5047418852
 21
-100.044931076
 31
0.0
 11
83.5360343103
 21
-99.9781951477
 31
0.0
 11
83.550082207
 21
-99.9096565518
 31
0.0
  0
SPLINE
  5
2BF
100
AcDbEntity
  8
0
100
AcDbSpline
 62
7
  6
CONTINUOUS
 70
0
 71
3
 72
11
 73
7
 74
5
 42
0.0000001
 43
0.0000001
 44
0.0000000001
 12
0.2490261158
 22
0.1245130579
 32
0.0
 13
0.0191573042
 23
0.2777597984
 33
0.0
 40
0.0
 40
0.0
 40
0.0
 40
0.0
 40
0.2279224019
 40
0.4839744983
 40
0.7487122973
 40
1.0
 40
1.0
 40
1.0
 40
1.0
 10
-58.0121572355
 20
-29.4275292991
 30
0.0
 10
-57.9932376921
 20
-29.4180695274
 30
0.0
 10
-57.9568836561
 20
-29.3902677058
 30
0.0
 10
-57.9139028579
 20
-29.3349645145
 30
0.0
 10
-57.8831521471
 20
-29.269636882
 30
0.0
 10
-57.8728786953
 20
-29.2222443071
 30
0.0
 10
-57.8712740303
 20
-29.1989784332
 30
0.0
 11
-58.0121572355
 21
-29.4275292991
 31
0.0
 11
-57.9608975083
 21
-29.3901211714
 31
0.0
 11
-57.9166143521
 21
-29.3342529573
 31
0.0
 11
-57.885321927
 21
-29.2675170291
 31
0.0
 11
-57.8712740303
 21
-29.1989784332
 31
0.0
  0
SPLINE
  5
2C0
100
AcDbEntity
  8
0
100
AcDbSpline
 62
7
  6
CONTINUOUS
 70
0
 71
3
 72
11
 73
7
 74
5
 42
0.0000001
 43
0.0000001
 44
0.0000000001
 12
0.2490261158
 22
0.1245130579
 32
0.0
 13
0.0191573042
 23
0.2777597984
 33
0.0
 40
0.0
 40
0.0
 40
0.0
 40
0.0
 40
0.2279224019
 40
0.4839744983
 40
0.7487122973
 40
1.0
 40
1.0
 40
1.0
 40
1.0
 10
-62.7851280086
 20
-27.0410439126
 30
0.0
 10
-62.7662084651
 20
-27.0315841409
 30
0.0
 10
-62.7298544291
 20
-27.0037823193
 30
0.0
 10
-62.6868736309
 20
-26.948479128
 30
0.0
 10
-62.6561229201
 20
-26.8831514955
 30
0.0
 10
-62.6458494683
 20
-26.8357589206
 30
0.0
 10
-62.6442448033
 20
-26.8124930467
 30
0.0
 11
-62.7851280086
 21
-27.0410439126
 31
0.0
 11
-62.7338682813
 21
-27.0036357849
 31
0.0
 11
-62.6895851251
 21
-26.9477675708
 31
0.0
 11
-62.6582927
 21
-26.8810316426
 31
0.0
 11
-62.6442448033
 21
-26.8124930467
 31
0.0
  0
SPLINE
  5
2C1
100
AcDbEntity
  8
SMUSSO
100
AcDbSpline
 62
7
  6
CONTINUOUS
 70
0
 71
3
 72
9
 73
5
 74
3
 42
0.0000001
 43
0.0000001
 44
0.0000000001
 12
0.6671923359
 22
-0.5003958665
 32
0.0
 13
0.7459445753
 23
-0.372972287
 33
0.0
 40
0.0
 40
0.0
 40
0.0
 40
0.0
 40
0.258615872
 40
1.0
 40
1.0
 40
1.0
 40
1.0
 10
-82.5487624997
 20
-22.3896886183
 30
0.0
 10
-82.4912469904
 20
-22.4328253894
 30
0.0
 10
-82.265505993
 20
-22.595067855
 30
0.0
 10
-82.0259995844
 20
-22.7385562483
 30
0.0
 10
-81.8416557615
 20
-22.8307281595
 30
0.0
 11
-82.5487624997
 21
-22.3896886183
 31
0.0
 11
-82.3735659201
 21
-22.5154880298
 31
0.0
 11
-81.8416557615
 21
-22.8307281595
 31
0.0
  0
SPLINE
  5
2C2
100
AcDbEntity
  8
SMUSSO
100
AcDbSpline
 62
7
  6
CONTINUOUS
 70
0
 71
3
 72
13
 73
9
 74
7
 42
0.0000001
 43
0.0000001
 44
0.0000000001
 12
0.3732323296
 22
-6.4357197907
 32
0.0
 13
4.9089722118
 23
-4.1784905672
 33
0.0
 40
0.0
 40
0.0
 40
0.0
 40
0.0
 40
0.1187924669
 40
0.2428137569
 40
0.4997764212
 40
0.7568581999
 40
0.8810217769
 40
1.0
 40
1.0
 40
1.0
 40
1.0
 10
-85.3668200572
 20
-16.7320244945
 30
0.0
 10
-85.3520409941
 20
-16.9868628379
 30
0.0
 10
-85.2905404506
 20
-17.5063251515
 30
0.0
 10
-85.0521016317
 20
-18.5550231402
 30
0.0
 10
-84.5516523027
 20
-19.8408350497
 30
0.0
 10
-83.8265672321
 20
-21.0150572688
 30
0.0
 10
-83.1327153573
 20
-21.8380055771
 30
0.0
 10
-82.7548162094
 20
-22.2006992665
 30
0.0
 10
-82.5601292791
 20
-22.3664157274
 30
0.0
 11
-85.3668200572
 21
-16.7320244945
 31
0.0
 11
-85.278857721
 21
-17.4927554884
 31
0.0
 11
-85.1031230507
 21
-18.2727102112
 31
0.0
 11
-84.5065559523
 21
-19.8180777457
 31
0.0
 11
-83.632050525
 21
-21.2258554139
 31
0.0
 11
-83.1149245592
 21
-21.836805764
 31
0.0
 11
-82.5601292791
 21
-22.3664157274
 31
0.0
  0
SPLINE
  5
2C3
100
AcDbEntity
  8
SMUSSO
100
AcDbSpline
 62
7
  6
CONTINUOUS
 70
0
 71
3
 72
13
 73
9
 74
7
 42
0.0000001
 43
0.0000001
 44
0.0000000001
 12
-0.2421009222
 22
-2.7004492634
 32
0.0
 13
-2.4250462371
 23
-1.2125138469
 33
0.0
 40
0.0
 40
0.0
 40
0.0
 40
0.0
 40
0.2841944342
 40
0.5416924556
 40
0.6618297776
 40
0.7773300786
 40
0.8895261292
 40
1.0
 40
1.0
 40
1.0
 40
1.0
 10
85.3697303875
 20
-105.3873379325
 30
0.0
 10
85.3467958093
 20
-105.6431554827
 30
0.0
 10
85.2627865003
 20
-106.1286855716
 30
0.0
 10
85.0379947901
 20
-106.689431955
 30
0.0
 10
84.7938652964
 20
-107.0638084974
 30
0.0
 10
84.5862578962
 20
-107.301379122
 30
0.0
 10
84.3519998099
 20
-107.4994671621
 30
0.0
 10
84.1789327488
 20
-107.6041223951
 30
0.0
 10
84.0896313339
 20
-107.6487727611
 30
0.0
 11
85.3697303875
 21
-105.3873379325
 31
0.0
 11
85.2311275358
 21
-106.1453001837
 31
0.0
 11
84.9640542013
 21
-106.7903460569
 31
0.0
 11
84.7853342184
 21
-107.0626630399
 31
0.0
 11
84.5786692197
 21
-107.2979390239
 31
0.0
 11
84.3460291072
 21
-107.4939316722
 31
0.0
 11
84.0896313339
 21
-107.6487727611
 31
0.0
  0
SPLINE
  5
2C4
100
AcDbEntity
  8
SMUSSO
100
AcDbSpline
 62
7
  6
CONTINUOUS
 70
0
 71
3
 72
15
 73
11
 74
9
 42
0.0000001
 43
0.0000001
 44
0.0000000001
 12
5.4611052111
 22
-4.0959224664
 32
0.0
 13
0.3952274979
 23
-6.8149868821
 33
0.0
 40
0.0
 40
0.0
 40
0.0
 40
0.0
 40
0.1165466528
 40
0.2392936769
 40
0.366570512
 40
0.4964271143
 40
0.6267646927
 40
0.7554572033
 40
0.8804727237
 40
1.0
 40
1.0
 40
1.0
 40
1.0
 10
82.2778720251
 20
22.6011176333
 30
0.0
 10
82.4900298693
 20
22.4419956155
 30
0.0
 10
82.9037953463
 20
22.08546459
 30
0.0
 10
83.4691425989
 20
21.4699953968
 30
0.0
 10
83.9836865395
 20
20.7734476732
 30
0.0
 10
84.4341233925
 20
20.0138259376
 30
0.0
 10
84.8089239875
 20
19.2106337364
 30
0.0
 10
85.0984455386
 20
18.3844836938
 30
0.0
 10
85.2952135142
 20
17.5567476817
 30
0.0
 10
85.3629815566
 20
17.0028800046
 30
0.0
 10
85.3787283788
 20
16.7313543979
 30
0.0
 11
82.2778720251
 21
22.6011176333
 31
0.0
 11
82.8824679125
 21
22.0839709232
 31
0.0
 11
83.4508410437
 21
21.468284206
 31
0.0
 11
83.9680972629
 21
20.7701855228
 31
0.0
 11
84.4206851502
 21
20.0079703382
 31
0.0
 11
84.7967433009
 21
19.2016081726
 31
0.0
 11
85.0864202918
 21
18.3722291762
 31
0.0
 11
85.2821245024
 21
17.5415610065
 31
0.0
 11
85.3787283788
 21
16.7313543979
 31
0.0
  0
SPLINE
  5
2C5
100
AcDbEntity
  8
SMUSSO
100
AcDbSpline
 62
7
  6
CONTINUOUS
 70
0
 71
3
 72
9
 73
5
 74
3
 42
0.0000001
 43
0.0000001
 44
0.0000000001
 12
-0.3485472515
 22
-1.0194056429
 32
0.0
 13
-0.0631972678
 23
-1.0754901936
 33
0.0
 40
0.0
 40
0.0
 40
0.0
 40
0.0
 40
0.2377193822
 40
1.0
 40
1.0
 40
1.0
 40
1.0
 10
-85.1707234264
 20
106.2985680882
 30
0.0
 10
-85.1983422388
 20
106.217790595
 30
0.0
 10
-85.3011398972
 20
105.8734371659
 30
0.0
 10
-85.3525172732
 20
105.5147533528
 30
0.0
 10
-85.3685752906
 20
105.2414782431
 30
0.0
 11
-85.1707234264
 21
106.2985680882
 31
0.0
 11
-85.2443104444
 21
106.0532618089
 31
0.0
 11
-85.3685752906
 21
105.2414782431
 31
0.0
  0
SPLINE
  5
2C6
100
AcDbEntity
  8
SMUSSO
100
AcDbSpline
 62
7
  6
CONTINUOUS
 70
0
 71
3
 72
11
 73
7
 74
5
 42
0.0000001
 43
0.0000001
 44
0.0000000001
 12
1.7004394768
 22
0.8502132371
 32
0.0
 13
1.7854097464
 23
-0.6531990511
 33
0.0
 40
0.0
 40
0.0
 40
0.0
 40
0.0
 40
0.2325576695
 40
0.4728094831
 40
0.7271678832
 40
1.0
 40
1.0
 40
1.0
 40
1.0
 10
-86.9061501371
 20
106.2338891021
 30
0.0
 10
-86.7743333898
 20
106.2997969718
 30
0.0
 10
-86.4892655146
 20
106.4021176338
 30
0.0
 10
-86.0279194751
 20
106.4551092491
 30
0.0
 10
-85.5406918888
 20
106.4093781853
 30
0.0
 10
-85.2174291778
 20
106.3180268804
 30
0.0
 10
-85.0550568043
 20
106.2586223205
 30
0.0
 11
-86.9061501371
 21
106.2338891021
 31
0.0
 11
-86.4902991515
 21
106.3840339561
 31
0.0
 11
-86.0368191491
 21
106.4386228463
 31
0.0
 11
-85.555082415
 21
106.3965266113
 31
0.0
 11
-85.0550568043
 21
106.2586223205
 31
0.0
  0
SPLINE
  5
2C7
100
AcDbEntity
  8
SMUSSO
100
AcDbSpline
 62
7
  6
CONTINUOUS
 70
0
 71
3
 72
9
 73
5
 74
3
 42
0.0000001
 43
0.0000001
 44
0.0000000001
 12
0.3780272894
 22
-0.1403582336
 32
0.0
 13
0.3606716681
 23
-0.1803358343
 33
0.0
 40
0.0
 40
0.0
 40
0.0
 40
0.0
 40
0.2451648308
 40
1.0
 40
1.0
 40
1.0
 40
1.0
 10
-85.0396430422
 20
106.252941222
 30
0.0
 10
-85.0087500434
 20
106.2414709212
 30
0.0
 10
-84.8834165584
 20
106.1928770794
 30
0.0
 10
-84.7608321062
 20
106.1372561577
 30
0.0
 10
-84.6700828863
 20
106.0918815477
 30
0.0
 11
-85.0396430422
 21
106.252941222
 31
0.0
 11
-84.9474605509
 21
106.217221551
 31
0.0
 11
-84.6700828863
 21
106.0918815477
 31
0.0
  0
SPLINE
  5
2C8
100
AcDbEntity
  8
SMUSSO
100
AcDbSpline
 62
7
  6
CONTINUOUS
 70
0
 71
3
 72
9
 73
5
 74
3
 42
0.0000001
 43
0.0000001
 44
0.0000000001
 12
0.3796084301
 22
-0.1898042147
 32
0.0
 13
0.3593031448
 23
-0.2258969904
 33
0.0
 40
0.0
 40
0.0
 40
0.0
 40
0.0
 40
0.2453158063
 40
1.0
 40
1.0
 40
1.0
 40
1.0
 10
81.8535640831
 20
22.830058063
 30
0.0
 10
81.8846053992
 20
22.814537405
 30
0.0
 10
82.0103203145
 20
22.7496350316
 30
0.0
 10
82.1327371821
 20
22.6783847048
 30
0.0
 10
82.2231239835
 20
22.6215577421
 30
0.0
 11
81.8535640831
 21
22.830058063
 31
0.0
 11
81.9460866348
 21
22.78231223
 31
0.0
 11
82.2231239835
 21
22.6215577421
 31
0.0
  0
SPLINE
  5
2C9
100
AcDbEntity
  8
SMUSSO
100
AcDbSpline
 62
7
  6
CONTINUOUS
 70
0
 71
3
 72
9
 73
5
 74
3
 42
0.0000001
 43
0.0000001
 44
0.0000000001
 12
0.4844570723
 22
-0.2422285365
 32
0.0
 13
0.5151335959
 23
-0.167363966
 33
0.0
 40
0.0
 40
0.0
 40
0.0
 40
0.0
 40
0.2567587046
 40
1.0
 40
1.0
 40
1.0
 40
1.0
 10
84.6819912079
 20
-106.0925516442
 30
0.0
 10
84.7234540647
 20
-106.1132830726
 30
0.0
 10
84.886311491
 20
-106.1912289453
 30
0.0
 10
85.0547545434
 20
-106.2576934252
 30
0.0
 10
85.1823773971
 20
-106.2991573621
 30
0.0
 11
84.6819912079
 21
-106.0925516442
 31
0.0
 11
84.8074524209
 21
-106.152552724
 31
0.0
 11
85.1823773971
 21
-106.2991573621
 31
0.0
  0
SPLINE
  5
2CA
100
AcDbEntity
  8
SMUSSO
100
AcDbSpline
 62
7
  6
CONTINUOUS
 70
0
 71
3
 72
18
 73
14
 74
12
 42
0.0000001
 43
0.0000001
 44
0.0000000001
 12
-0.0000000039
 22
6.0209164266
 32
0.0
 13
5.385271365
 23
-2.6926356868
 33
0.0
 40
0.0
 40
0.0
 40
0.0
 40
0.0
 40
0.1486494629
 40
0.2837708062
 40
0.4062287353
 40
0.463814009
 40
0.5197192243
 40
0.5747367901
 40
0.6297319372
 40
0.6855718232
 40
0.7430539868
 40
0.8652215364
 40
1.0
 40
1.0
 40
1.0
 40
1.0
 10
-88.9127235734
 20
103.5295214817
 30
0.0
 10
-88.9127235736
 20
103.8278568127
 30
0.0
 10
-88.8692964261
 20
104.3990734303
 30
0.0
 10
-88.6546364081
 20
105.1912158528
 30
0.0
 10
-88.3491003478
 20
105.7540596339
 30
0.0
 10
-88.0384453976
 20
106.1135372818
 30
0.0
 10
-87.7802921203
 20
106.3341412068
 30
0.0
 10
-87.4949161738
 20
106.5084941139
 30
0.0
 10
-87.1853529773
 20
106.6346814352
 30
0.0
 10
-86.8549499929
 20
106.7113891177
 30
0.0
 10
-86.3821201124
 20
106.7476881205
 30
0.0
 10
-85.7495342959
 20
106.658906651
 30
0.0
 10
-85.2655758104
 20
106.4690873212
 30
0.0
 10
-85.0236362769
 20
106.3481175543
 30
0.0
 11
-88.9127235734
 21
103.5295214817
 31
0.0
 11
-88.8379956175
 21
104.421402337
 31
0.0
 11
-88.6166837811
 21
105.2042763342
 31
0.0
 11
-88.2572932769
 21
105.8480643141
 31
0.0
 11
-88.0299404868
 21
106.1098328701
 31
0.0
 11
-87.7736354164
 21
106.3280247452
 31
0.0
 11
-87.4908463895
 21
106.5005385524
 31
0.0
 11
-87.1842968707
 21
106.6257129567
 31
0.0
 11
-86.8569388415
 21
106.7023423261
 31
0.0
 11
-86.5119256274
 21
106.729689012
 31
0.0
 11
-85.7823615066
 21
106.6359574882
 31
0.0
 11
-85.0236362769
 21
106.3481175543
 31
0.0
  0
SPLINE
  5
2CB
100
AcDbEntity
  8
SMUSSO
100
AcDbSpline
 62
7
  6
CONTINUOUS
 70
0
 71
3
 72
11
 73
7
 74
5
 42
0.0000001
 43
0.0000001
 44
0.0000000001
 12
-2.0741679772
 22
-1.0370760584
 32
0.0
 13
-2.0741648057
 23
1.0370824015
 33
0.0
 40
0.0
 40
0.0
 40
0.0
 40
0.0
 40
0.227110976
 40
0.4646742332
 40
0.7207704592
 40
1.0
 40
1.0
 40
1.0
 40
1.0
 10
84.0896313339
 20
-107.6487727611
 30
0.0
 10
83.9326092294
 20
-107.727283213
 30
0.0
 10
83.5865812691
 20
-107.8424326129
 30
0.0
 10
83.024372305
 20
-107.8705505908
 30
0.0
 10
82.4326828868
 20
-107.7593840964
 30
0.0
 10
82.0466201119
 20
-107.6032932209
 30
0.0
 10
81.8535640831
 20
-107.5067652066
 30
0.0
 11
84.0896313339
 21
-107.6487727611
 31
0.0
 11
83.5904416026
 21
-107.8166658925
 31
0.0
 11
83.0404808289
 21
-107.8489245162
 31
0.0
 11
82.4558301618
 21
-107.7446100308
 31
0.0
 11
81.8535640831
 21
-107.5067652066
 31
0.0
  0
SPLINE
  5
2CC
100
AcDbEntity
  8
SMUSSO
100
AcDbSpline
 62
7
  6
CONTINUOUS
 70
0
 71
3
 72
15
 73
11
 74
9
 42
0.0000001
 43
0.0000001
 44
0.0000000001
 12
-7.2397544315
 22
3.6198772087
 32
0.0
 13
0.0000000043
 23
8.0942915215
 33
0.0
 40
0.0
 40
0.0
 40
0.0
 40
0.0
 40
0.1103210633
 40
0.2298810679
 40
0.356764773
 40
0.4883338418
 40
0.6215371046
 40
0.7531869028
 40
0.8802250829
 40
1.0
 40
1.0
 40
1.0
 40
1.0
 10
-85.0236362769
 20
-24.8547311191
 30
0.0
 10
-85.289868746
 20
-24.7216148848
 30
0.0
 10
-85.817560734
 20
-24.388462898
 30
0.0
 10
-86.5422332063
 20
-23.7500883395
 30
0.0
 10
-87.2094975921
 20
-22.9747664826
 30
0.0
 10
-87.7943974137
 20
-22.0915453626
 30
0.0
 10
-88.2753227022
 20
-21.1333550568
 30
0.0
 10
-88.6342582136
 20
-20.13592915
 30
0.0
 10
-88.8577598806
 20
-19.136813521
 30
0.0
 10
-88.9127235736
 20
-18.4702121152
 30
0.0
 10
-88.9127235734
 20
-18.14704775
 30
0.0
 11
-85.0236362769
 21
-24.8547311191
 31
0.0
 11
-85.7823615061
 21
-24.3838458237
 31
0.0
 11
-86.511925627
 21
-23.7480132267
 31
0.0
 11
-87.1842968703
 21
-22.9716659282
 31
0.0
 11
-87.773635416
 21
-22.0846391711
 31
0.0
 11
-88.2572932766
 21
-21.1210208795
 31
0.0
 11
-88.6166837809
 21
-20.1178423955
 31
0.0
 11
-88.8379956174
 21
-19.1136565619
 31
0.0
 11
-88.9127235734
 21
-18.14704775
 31
0.0
  0
SPLINE
  5
2CD
100
AcDbEntity
  8
SMUSSO
100
AcDbSpline
 62
7
  6
CONTINUOUS
 70
0
 71
3
 72
15
 73
11
 74
9
 42
0.0000001
 43
0.0000001
 44
0.0000000001
 12
0.0
 22
-6.5261637411
 32
0.0
 13
5.2209249281
 23
-3.915706331
 33
0.0
 40
0.0
 40
0.0
 40
0.0
 40
0.0
 40
0.1172521276
 40
0.2409892221
 40
0.3693107718
 40
0.5000001172
 40
0.6306894466
 40
0.7590111004
 40
0.8827490387
 40
1.0
 40
1.0
 40
1.0
 40
1.0
 10
-85.3771896675
 20
-16.7328341904
 30
0.0
 10
-85.3771896675
 20
-16.9879030516
 30
0.0
 10
-85.3395624077
 20
-17.5125895096
 30
0.0
 10
-85.1844070487
 20
-18.3025713699
 30
0.0
 10
-84.9333225073
 20
-19.0981859009
 30
0.0
 10
-84.5935097634
 20
-19.8765290023
 30
0.0
 10
-84.174722321
 20
-20.6153848812
 30
0.0
 10
-83.6888809369
 20
-21.2936234771
 30
0.0
 10
-83.149986952
 20
-21.8917347264
 30
0.0
 10
-82.752815322
 20
-22.2366485077
 30
0.0
 10
-82.5487624997
 20
-22.3896886183
 30
0.0
 11
-85.3771896675
 21
-16.7328341904
 31
0.0
 11
-85.3255150306
 21
-17.496293978
 31
0.0
 11
-85.1720047416
 21
-18.2890971909
 31
0.0
 11
-84.9211450212
 21
-19.0880888198
 31
0.0
 11
-84.5802673428
 21
-19.8699078097
 31
0.0
 11
-84.1593385022
 21
-20.6117010813
 31
0.0
 11
-83.6706607047
 21
-21.291784437
 31
0.0
 11
-83.1285194727
 21
-21.8902776455
 31
0.0
 11
-82.5487624997
 21
-22.3896886183
 31
0.0
  0
SPLINE
  5
2CE
100
AcDbEntity
  8
SMUSSO
100
AcDbSpline
 62
7
  6
CONTINUOUS
 70
0
 71
3
 72
14
 73
10
 74
8
 42
0.0000001
 43
0.0000001
 44
0.0000000001
 12
0.000000002
 22
3.1550372613
 32
0.0
 13
2.8219554308
 23
1.4109669262
 33
0.0
 40
0.0
 40
0.0
 40
0.0
 40
0.0
 40
0.2891514069
 40
0.4227191563
 40
0.5489645489
 40
0.6685092756
 40
0.7824374001
 40
0.8922923484
 40
1.0
 40
1.0
 40
1.0
 40
1.0
 10
-88.2056167922
 20
103.5295214817
 30
0.0
 10
-88.205616792
 20
103.8336159694
 30
0.0
 10
-88.1676798014
 20
104.2805853104
 30
0.0
 10
-88.0226796992
 20
104.8405334413
 30
0.0
 10
-87.8754200773
 20
105.2125889961
 30
0.0
 10
-87.6883696763
 20
105.542946267
 30
0.0
 10
-87.4634098303
 20
105.8274048436
 30
0.0
 10
-87.2032074817
 20
106.0619294457
 30
0.0
 10
-87.0074655345
 20
106.1832317908
 30
0.0
 10
-86.9061501371
 20
106.2338891021
 30
0.0
 11
-88.2056167922
 21
103.5295214817
 31
0.0
 11
-88.1192250357
 21
104.4377051532
 31
0.0
 11
-88.0122277674
 21
104.8453066819
 31
0.0
 11
-87.8642719691
 21
105.2151161946
 31
0.0
 11
-87.6771708894
 21
105.5426050293
 31
0.0
 11
-87.4532174983
 21
105.823758667
 31
0.0
 11
-87.1951563933
 21
106.055131891
 31
0.0
 11
-86.9061501371
 21
106.2338891021
 31
0.0
  0
SPLINE
  5
2CF
100
AcDbEntity
  8
SMUSSO
100
AcDbSpline
 62
7
  6
CONTINUOUS
 70
0
 71
3
 72
18
 73
14
 74
12
 42
0.0000001
 43
0.0000001
 44
0.0000000001
 12
-0.0
 22
-6.0209164228
 32
0.0
 13
-5.3852713616
 23
2.6926356851
 33
0.0
 40
0.0
 40
0.0
 40
0.0
 40
0.0
 40
0.1486494629
 40
0.2837708062
 40
0.4062287352
 40
0.4638140089
 40
0.5197192242
 40
0.57473679
 40
0.6297319372
 40
0.6855718231
 40
0.7430539868
 40
0.8652215364
 40
1.0
 40
1.0
 40
1.0
 40
1.0
 10
85.3890979891
 20
-105.297958535
 30
0.0
 10
85.3890979891
 20
-105.5962938658
 30
0.0
 10
85.3456708412
 20
-106.1675104829
 30
0.0
 10
85.1310108229
 20
-106.9596529046
 30
0.0
 10
84.8254747624
 20
-107.522496685
 30
0.0
 10
84.5148198122
 20
-107.8819743324
 30
0.0
 10
84.2566665348
 20
-108.1025782572
 30
0.0
 10
83.9712905884
 20
-108.276931164
 30
0.0
 10
83.661727392
 20
-108.403118485
 30
0.0
 10
83.3313244077
 20
-108.4798261673
 30
0.0
 10
82.8584945274
 20
-108.51612517
 30
0.0
 10
82.2259087113
 20
-108.4273437004
 30
0.0
 10
81.741950226
 20
-108.2375243707
 30
0.0
 10
81.5000106926
 20
-108.1165546038
 30
0.0
 11
85.3890979891
 21
-105.297958535
 31
0.0
 11
85.3143700326
 21
-106.1898393895
 31
0.0
 11
85.0930581959
 21
-106.972713386
 31
0.0
 11
84.7336676915
 21
-107.6165013651
 31
0.0
 11
84.5063149014
 21
-107.8782699208
 31
0.0
 11
84.250009831
 21
-108.0964617955
 31
0.0
 11
83.9672208042
 21
-108.2689756025
 31
0.0
 11
83.6606712854
 21
-108.3941500065
 31
0.0
 11
83.3333132563
 21
-108.4707793757
 31
0.0
 11
82.9883000424
 21
-108.4981260615
 31
0.0
 11
82.2587359219
 21
-108.4043945376
 31
0.0
 11
81.5000106926
 21
-108.1165546038
 31
0.0
  0
SPLINE
  5
2D0
100
AcDbEntity
  8
SMUSSO
100
AcDbSpline
 62
7
  6
CONTINUOUS
 70
0
 71
3
 72
15
 73
11
 74
9
 42
0.0000001
 43
0.0000001
 44
0.0000000001
 12
-6.5815949331
 22
3.2907974718
 32
0.0
 13
-0.0000000039
 23
7.3584468377
 33
0.0
 40
0.0
 40
0.0
 40
0.0
 40
0.0
 40
0.1103210633
 40
0.229881068
 40
0.356764773
 40
0.4883338418
 40
0.6215371046
 40
0.7531869028
 40
0.8802250829
 40
1.0
 40
1.0
 40
1.0
 40
1.0
 10
-84.6700828863
 20
-24.2449417219
 30
0.0
 10
-84.9121124035
 20
-24.1239269631
 30
0.0
 10
-85.3918323929
 20
-23.8210615211
 30
0.0
 10
-86.0506255494
 20
-23.2407210131
 30
0.0
 10
-86.6572295365
 20
-22.5358829614
 30
0.0
 10
-87.1889566471
 20
-21.7329546705
 30
0.0
 10
-87.6261614548
 20
-20.8618725743
 30
0.0
 10
-87.9524664651
 20
-19.9551217499
 30
0.0
 10
-88.155649799
 20
-19.0468348145
 30
0.0
 10
-88.2056167921
 20
-18.4408335366
 30
0.0
 10
-88.2056167922
 20
-18.14704775
 30
0.0
 11
-84.6700828863
 21
-24.2449417219
 31
0.0
 11
-85.3598330947
 21
-23.8168641806
 31
0.0
 11
-86.0230732046
 21
-23.238834547
 31
0.0
 11
-86.6343197894
 21
-22.5330642756
 31
0.0
 11
-87.1700821037
 21
-21.7266763146
 31
0.0
 11
-87.6097710679
 21
-20.8506596859
 31
0.0
 11
-87.9364897082
 21
-19.9386792458
 31
0.0
 11
-88.1376822867
 21
-19.0257830335
 31
0.0
 11
-88.2056167922
 21
-18.14704775
 31
0.0
  0
SPLINE
  5
2D1
100
AcDbEntity
  8
SMUSSO
100
AcDbSpline
 62
7
  6
CONTINUOUS
 70
0
 71
3
 72
9
 73
5
 74
3
 42
0.0000001
 43
0.0000001
 44
0.0000000001
 12
0.3893911326
 22
-0.1946955659
 32
0.0
 13
0.3699821383
 23
-0.2294450586
 33
0.0
 40
0.0
 40
0.0
 40
0.0
 40
0.0
 40
0.2456075066
 40
1.0
 40
1.0
 40
1.0
 40
1.0
 10
81.5000106926
 20
23.0862940695
 30
0.0
 10
81.5318898209
 20
23.0703545054
 30
0.0
 10
81.6609005119
 20
23.0038907936
 30
0.0
 10
81.786754871
 20
22.9313346814
 30
0.0
 10
81.8797921203
 20
22.8736374715
 30
0.0
 11
81.5000106926
 21
23.0862940695
 31
0.0
 11
81.5950714096
 21
23.0373390202
 31
0.0
 11
81.8797921203
 21
22.8736374715
 31
0.0
  0
SPLINE
  5
2D2
100
AcDbEntity
  8
RACCORDO
100
AcDbSpline
 62
7
  6
CONTINUOUS
 70
0
 71
3
 72
9
 73
5
 74
3
 42
0.0000001
 43
0.0000001
 44
0.0000000001
 12
-0.0666991602
 22
-0.5950928005
 32
0.0
 13
0.0
 23
-0.5988190204
 33
0.0
 40
0.0
 40
0.0
 40
0.0
 40
0.0
 40
0.2447299655
 40
1.0
 40
1.0
 40
1.0
 40
1.0
 10
-84.814414003
 20
106.1602156588
 30
0.0
 10
-84.8198550974
 20
106.1116699786
 30
0.0
 10
-84.8391294291
 20
105.9129804813
 30
0.0
 10
-84.8468595816
 20
105.713210165
 30
0.0
 10
-84.8468595816
 20
105.5624534776
 30
0.0
 11
-84.814414003
 21
106.1602156588
 31
0.0
 11
-84.8285976977
 21
106.0143546977
 31
0.0
 11
-84.8468595816
 21
105.5624534776
 31
0.0
  0
SPLINE
  5
2D3
100
AcDbEntity
  8
0
100
AcDbSpline
 62
7
  6
CONTINUOUS
 70
0
 71
3
 72
11
 73
7
 74
5
 42
0.0000001
 43
0.0000001
 44
0.0000000001
 12
0.8715915956
 22
0.4357957978
 32
0.0
 13
0.0670505794
 23
0.9721595068
 33
0.0
 40
0.0
 40
0.0
 40
0.0
 40
0.0
 40
0.2279068587
 40
0.483974521
 40
0.7487288782
 40
1.0
 40
1.0
 40
1.0
 40
1.0
 10
78.6362282288
 20
-98.1847347332
 30
0.0
 10
78.7024421296
 20
-98.1516277827
 30
0.0
 10
78.8296825863
 20
-98.054323631
 30
0.0
 10
78.9801194276
 20
-97.8607581008
 30
0.0
 10
79.0877485607
 20
-97.6321061722
 30
0.0
 10
79.1237034891
 20
-97.4662319057
 30
0.0
 10
79.1293194472
 20
-97.3848067024
 30
0.0
 11
78.6362282288
 21
-98.1847347332
 31
0.0
 11
78.8156265645
 21
-98.0538172223
 31
0.0
 11
78.9706283207
 21
-97.8582675368
 31
0.0
 11
79.0801572819
 21
-97.6246764711
 31
0.0
 11
79.1293194472
 21
-97.3848067024
 31
0.0
  0
SPLINE
  5
2D4
100
AcDbEntity
  8
0
100
AcDbSpline
 62
7
  6
CONTINUOUS
 70
0
 71
3
 72
11
 73
7
 74
5
 42
0.0000001
 43
0.0000001
 44
0.0000000001
 12
0.8715915956
 22
0.4357957978
 32
0.0
 13
0.0670505794
 23
0.9721595068
 33
0.0
 40
0.0
 40
0.0
 40
0.0
 40
0.0
 40
0.2279068587
 40
0.483974521
 40
0.7487288782
 40
1.0
 40
1.0
 40
1.0
 40
1.0
 10
-62.7851280086
 20
-27.4740566145
 30
0.0
 10
-62.7189141077
 20
-27.4409496641
 30
0.0
 10
-62.591673651
 20
-27.3436455124
 30
0.0
 10
-62.4412368097
 20
-27.1500799821
 30
0.0
 10
-62.3336076766
 20
-26.9214280535
 30
0.0
 10
-62.2976527482
 20
-26.755553787
 30
0.0
 10
-62.2920367901
 20
-26.6741285837
 30
0.0
 11
-62.7851280086
 21
-27.4740566145
 31
0.0
 11
-62.6057296728
 21
-27.3431391036
 31
0.0
 11
-62.4507279166
 21
-27.1475894182
 31
0.0
 11
-62.3411989554
 21
-26.9139983525
 31
0.0
 11
-62.2920367901
 21
-26.6741285837
 31
0.0
  0
SPLINE
  5
2D5
100
AcDbEntity
  8
ASSI
100
AcDbSpline
 62
7
  6
CONTINUOUS
 70
0
 71
3
 72
10
 73
6
 74
4
 42
0.0000001
 43
0.0000001
 44
0.0000000001
 12
0.2809824915
 22
0.5500965152
 32
0.0
 13
0.5524906056
 23
0.2762453028
 33
0.0
 40
0.0
 40
0.0
 40
0.0
 40
0.0
 40
0.4506146384
 40
0.7127095244
 40
1.0
 40
1.0
 40
1.0
 40
1.0
 10
75.5517803
 20
-99.9000945515
 30
0.0
 10
75.5939852412
 20
-99.8174673708
 30
0.0
 10
75.6930342955
 20
-99.7031113936
 30
0.0
 10
75.858189781
 20
-99.580245645
 30
0.0
 10
75.9570125962
 20
-99.5243425494
 30
0.0
 10
76.0099210258
 20
-99.4978883346
 30
0.0
 11
75.5517803
 21
-99.9000945515
 31
0.0
 11
75.7266927107
 21
-99.6835715246
 31
0.0
 11
75.8558695646
 21
-99.5859808652
 31
0.0
 11
76.0099210258
 21
-99.4978883346
 31
0.0
  0
SPLINE
  5
2D6
100
AcDbEntity
  8
ASSI
100
AcDbSpline
 62
7
  6
CONTINUOUS
 70
0
 71
3
 72
10
 73
6
 74
4
 42
0.0000001
 43
0.0000001
 44
0.0000000001
 12
0.2809824915
 22
0.5500965152
 32
0.0
 13
0.5524906056
 23
0.2762453028
 33
0.0
 40
0.0
 40
0.0
 40
0.0
 40
0.0
 40
0.4506146384
 40
0.7127095244
 40
1.0
 40
1.0
 40
1.0
 40
1.0
 10
-65.8695759373
 20
-29.1894164329
 30
0.0
 10
-65.8273709961
 20
-29.1067892521
 30
0.0
 10
-65.7283219418
 20
-28.992433275
 30
0.0
 10
-65.5631664563
 20
-28.8695675263
 30
0.0
 10
-65.4643436411
 20
-28.8136644308
 30
0.0
 10
-65.4114352115
 20
-28.787210216
 30
0.0
 11
-65.8695759373
 21
-29.1894164329
 31
0.0
 11
-65.6946635266
 21
-28.972893406
 31
0.0
 11
-65.5654866728
 21
-28.8753027466
 31
0.0
 11
-65.4114352115
 21
-28.787210216
 31
0.0
  0
SPLINE
  5
2D7
100
AcDbEntity
  8
RACCORDO
100
AcDbSpline
 62
7
  6
CONTINUOUS
 70
0
 71
3
 72
15
 73
11
 74
9
 42
0.0000001
 43
0.0000001
 44
0.0000000001
 12
0.0
 22
-8.0942914835
 32
0.0
 13
7.2397543947
 23
-3.6198771973
 33
0.0
 40
0.0
 40
0.0
 40
0.0
 40
0.0
 40
0.1197754353
 40
0.2468131712
 40
0.3784628728
 40
0.5116661724
 40
0.6432352549
 40
0.770118848
 40
0.8896784541
 40
1.0
 40
1.0
 40
1.0
 40
1.0
 10
-84.8468595816
 20
-16.1141157541
 30
0.0
 10
-84.8468595816
 20
-16.4372815161
 30
0.0
 10
-84.79189586
 20
-17.1038831867
 30
0.0
 10
-84.5683926025
 20
-18.102998345
 30
0.0
 10
-84.2094587599
 20
-19.100423289
 30
0.0
 10
-83.7285347109
 20
-20.0586141636
 30
0.0
 10
-83.1436338227
 20
-20.941834484
 30
0.0
 10
-82.4763693674
 20
-21.7171543512
 30
0.0
 10
-81.7516981459
 20
-22.3555301231
 30
0.0
 10
-81.2240059172
 20
-22.6886823071
 30
0.0
 10
-80.9577722851
 20
-22.8217991232
 30
0.0
 11
-84.8468595816
 21
-16.1141157541
 31
0.0
 11
-84.7721309606
 21
-17.0807287173
 31
0.0
 11
-84.5508189509
 21
-18.0849108252
 31
0.0
 11
-84.1914294697
 21
-19.0880888404
 31
0.0
 11
-83.7077722851
 21
-20.0517077987
 31
0.0
 11
-83.1184329191
 21
-20.938734138
 31
0.0
 11
-82.4460616409
 21
-21.7150802011
 31
0.0
 11
-81.7165006329
 21
-22.350911454
 31
0.0
 11
-80.9577722851
 21
-22.8217991232
 31
0.0
  0
SPLINE
  5
2D8
100
AcDbEntity
  8
0
100
AcDbSpline
 62
7
  6
CONTINUOUS
 70
0
 71
3
 72
11
 73
7
 74
5
 42
0.0000001
 43
0.0000001
 44
0.0000000001
 12
0.8715915956
 22
0.4357957978
 32
0.0
 13
0.0670505794
 23
0.9721595068
 33
0.0
 40
0.0
 40
0.0
 40
0.0
 40
0.0
 40
0.2279068587
 40
0.483974521
 40
0.7487288782
 40
1.0
 40
1.0
 40
1.0
 40
1.0
 10
83.4091990018
 20
-100.5712201197
 30
0.0
 10
83.4754129026
 20
-100.5381131692
 30
0.0
 10
83.6026533593
 20
-100.4408090175
 30
0.0
 10
83.7530902006
 20
-100.2472434873
 30
0.0
 10
83.8607193337
 20
-100.0185915587
 30
0.0
 10
83.8966742621
 20
-99.8527172922
 30
0.0
 10
83.9022902202
 20
-99.7712920889
 30
0.0
 11
83.4091990018
 21
-100.5712201197
 31
0.0
 11
83.5885973375
 21
-100.4403026088
 31
0.0
 11
83.7435990937
 21
-100.2447529233
 31
0.0
 11
83.8531280549
 21
-100.0111618576
 31
0.0
 11
83.9022902202
 21
-99.7712920889
 31
0.0
  0
SPLINE
  5
2D9
100
AcDbEntity
  8
0
100
AcDbSpline
 62
7
  6
CONTINUOUS
 70
0
 71
3
 72
11
 73
7
 74
5
 42
0.0000001
 43
0.0000001
 44
0.0000000001
 12
0.8715915956
 22
0.4357957978
 32
0.0
 13
0.0670505794
 23
0.9721595068
 33
0.0
 40
0.0
 40
0.0
 40
0.0
 40
0.0
 40
0.2279068587
 40
0.483974521
 40
0.7487288782
 40
1.0
 40
1.0
 40
1.0
 40
1.0
 10
-58.0121572355
 20
-29.860542001
 30
0.0
 10
-57.9459433347
 20
-29.8274350506
 30
0.0
 10
-57.818702878
 20
-29.7301308989
 30
0.0
 10
-57.6682660367
 20
-29.5365653686
 30
0.0
 10
-57.5606369036
 20
-29.30791344
 30
0.0
 10
-57.5246819752
 20
-29.1420391735
 30
0.0
 10
-57.5190660171
 20
-29.0606139702
 30
0.0
 11
-58.0121572355
 21
-29.860542001
 31
0.0
 11
-57.8327588998
 21
-29.7296244901
 31
0.0
 11
-57.6777571436
 21
-29.5340748047
 31
0.0
 11
-57.5682281824
 21
-29.300483739
 31
0.0
 11
-57.5190660171
 21
-29.0606139702
 31
0.0
  0
ENDSEC
  0
SECTION
  2
OBJECTS
  0
DICTIONARY
  5
C
100
AcDbDictionary
280
0
281
1
  3
ACAD_GROUP
350
D
  3
ACAD_MLINESTYLE
350
17
  3
ACAD_LAYOUT
350
1A
  3
ACAD_PLOTSETTINGS
350
19
  3
ACAD_PLOTSTYLENAME
350
E
  0
DICTIONARY
  5
D
102
{ACAD_REACTORS
330
C
102
}
100
AcDbDictionary
280
0
281
1
  0
ACDBDICTIONARYWDFLT
  5
E
102
{ACAD_REACTORS
330
C
102
}
100
AcDbDictionary
281
1
  3
Normal
350
F
100
AcDbDictionaryWithDefault
340
F
  0
DICTIONARY
  5
17
102
{ACAD_REACTORS
330
C
102
}
100
AcDbDictionary
280
0
281
1
  3
Standard
350
18
  0
DICTIONARY
  5
19
102
{ACAD_REACTORS
330
C
102
}
100
AcDbDictionary
281
1
  0
DICTIONARY
  5
1A
102
{ACAD_REACTORS
330
C
102
}
100
AcDbDictionary
281
1
  3
Model
350
2DA
  3
Layout1
350
2DB
  0
ACDBPLACEHOLDER
  5
F
102
{ACAD_REACTORS
330
E
102
}
  0
MLINESTYLE
  5
18
102
{ACAD_REACTORS
330
17
102
}
100
AcDbMlineStyle
  2
STANDARD
 70
0
  3

 62
256
 51
90.0
 52
90.0
 71
2
 49
0.5
 62
256
  6
BYLAYER
 49
-0.5
 62
256
  6
BYLAYER
  0
LAYOUT
  5
2DA
102
{ACAD_REACTORS
330
1A
102
}
100
AcDbPlotSettings
  1

  2
none_device
  4
ISO_A4_(297.00_x_210.00_MM)
  6

 40
0.0
 41
0.0
 42
0.0
 43
0.0
 44
297.0
 45
210.0
 46
0.0
 47
0.0
 48
0.0
 49
0.0
140
0.0
141
0.0
142
1.0
143
1.0
 70
1024
 72
1
 73
0
 74
0
  7

 75
0
147
1.0
148
0.0
149
0.0
100
AcDbLayout
  1
Model
 70
0
 71
0
 10
0.0
 20
0.0
 11
297.0
 21
210.0
 12
0.0
 22
0.0
 32
0.0
 14
0.0
 24
0.0
 34
0.0
 15
0.0
 25
0.0
 35
0.0
146
0.0
 13
0.0
 23
0.0
 33
0.0
 16
1.0
 26
0.0
 36
0.0
 17
0.0
 27
1.0
 37
0.0
 76
0
330
210
345
0
346
0
  0
LAYOUT
  5
2DB
102
{ACAD_REACTORS
330
1A
102
}
100
AcDbPlotSettings
  1

  2
none_device
  4
ISO_A4_(297.00_x_210.00_MM)
  6

 40
0.0
 41
0.0
 42
0.0
 43
0.0
 44
297.0
 45
210.0
 46
0.0
 47
0.0
 48
0.0
 49
0.0
140
0.0
141
0.0
142
1.0
143
1.0
 70
0
 72
1
 73
0
 74
0
  7

 75
0
147
1.0
148
0.0
149
0.0
100
AcDbLayout
  1
Layout1
 70
0
 71
1
 10
0.0
 20
0.0
 11
297.0
 21
210.0
 12
0.0
 22
0.0
 32
0.0
 14
0.0
 24
0.0
 34
0.0
 15
0.0
 25
0.0
 35
0.0
146
0.0
 13
0.0
 23
0.0
 33
0.0
 16
1.0
 26
0.0
 36
0.0
 17
0.0
 27
1.0
 37
0.0
 76
0
330
211
345
0
346
0
  0
ENDSEC
  0
EOF
