  0
SECTION
  2
HEADER
  9
$ACADVER
  1
AC1021
  9
$DWGCODEPAGE
  3
ANSI_1252
  9
$EXTMAX
 10
297.0
 20
210.0
 30
0.0
  9
$EXTMIN
 10
0.0
 20
0.0
 30
0.0
  9
$LIMMIN
 10
0.0
 20
0.0
  9
$LIMMAX
 10
297.0
 20
210.0
  9
$VIEWCTR
 10
148.5
 20
105.0
  9
$VIEWSIZE
 40
210.0
  9
$CLAYER
  8
0
  9
$LTSCALE
 40
16.335
  9
$CELTYPE
  6
BYLAYER
  9
$DIMSCALE
 40
1.0
  9
$DIMASZ
 40
3.0
  9
$DIMEXO
 40
0.5
  9
$DIMDLI
 40
11.286
  9
$DIMEXE
 40
1.5
  9
$DIMCEN
 40
2.673
  9
$DIMLFAC
 40
1.0
  9
$DIMBLK
  1
_FILLED
  9
$DIMALT
 70
0
  9
$DIMALTF
 40
25.4
  9
$DIMTXT
 40
3.0
  9
$DIMTOL
 70
1
  9
$DIMLIM
 70
0
  9
$DIMTFAC
 40
1.0
  9
$DIMTP
 40
0.01
  9
$DIMTM
 40
0.01
  9
$DIMGAP
 40
0.625
  9
$DIMDSEP
 70
44
  9
$AUNITS
 70
0
  9
$PDMODE
 70
3
  9
$PDSIZE
 40
3.0
  9
$HANDSEED
  5
27B
  9
$TILEMODE
 70
1
  9
$MEASUREMENT
 70
1
  9
$INSUNITS
 70
4
  0
ENDSEC
  0
SECTION
  2
CLASSES
  0
CLASS
  1
ACDBDICTIONARYWDFLT
  2
AcDbDictionaryWithDefault
  3
AutoCAD 2000
 90
0
 91
1
280
0
281
0
  0
CLASS
  1
ACDBPLACEHOLDER
  2
AcDbPlaceHolder
  3
AutoCAD 2000
 90
0
 91
1
280
0
281
0
  0
CLASS
  1
LAYOUT
  2
AcDbLayout
  3
AutoCAD 2000
 90
0
 91
0
280
0
281
0
  0
ENDSEC
  0
SECTION
  2
TABLES
  0
TABLE
  2
VPORT
  5
8
100
AcDbSymbolTable
 70
2
  0
VPORT
  5
1F4
100
AcDbSymbolTableRecord
100
AcDbViewportTableRecord
  2
*ACTIVE
 70
0
 10
0.0
 20
0.0
 11
1.0
 21
1.0
 12
148.5
 22
105.0
 13
0.0
 23
0.0
 14
1.0
 24
1.0
 15
0.0
 25
0.0
 16
0.0
 26
0.0
 36
1.0
 17
0.0
 27
0.0
 37
0.0
 40
210.0
 41
1.4142857143
 42
50.0
 43
0.0
 44
0.0
 50
0.0
 51
0.0
 71
0
 72
100
 73
1
 74
1
 75
0
 76
0
 77
0
 78
0
  0
ENDTAB
  0
TABLE
  2
LTYPE
  5
5
100
AcDbSymbolTable
 70
6
  0
LTYPE
  5
14
100
AcDbSymbolTableRecord
100
AcDbLinetypeTableRecord
  2
BYBLOCK
 70
0
  3

 72
65
 73
0
 40
0.0
  0
LTYPE
  5
15
100
AcDbSymbolTableRecord
100
AcDbLinetypeTableRecord
  2
BYLAYER
 70
0
  3

 72
65
 73
0
 40
0.0
  0
LTYPE
  5
16
100
AcDbSymbolTableRecord
100
AcDbLinetypeTableRecord
  2
CONTINUOUS
 70
64
  3
Solid line
 72
65
 73
0
 40
0.0
  0
LTYPE
  5
1F5
100
AcDbSymbolTableRecord
100
AcDbLinetypeTableRecord
  2
CENTER
 70
64
  3
____ _ ____ _ ____ _ ____ _ ____ _ ____ _ ____
 72
65
 73
4
 40
0.6
 49
0.375
 74
0
 49
-0.075
 74
0
 49
0.075
 74
0
 49
-0.075
 74
0
  0
LTYPE
  5
1F6
100
AcDbSymbolTableRecord
100
AcDbLinetypeTableRecord
  2
HIDDEN
 70
64
  3
- - - - - - - - - - - - - - - - - - - -
 72
65
 73
2
 40
0.2
 49
0.1
 74
0
 49
-0.1
 74
0
  0
LTYPE
  5
1F7
100
AcDbSymbolTableRecord
100
AcDbLinetypeTableRecord
  2
PHANTOM
 70
64
  3
_____ _ _ _____ _ _ _____ _ _ _____
 72
65
 73
6
 40
0.8
 49
0.45
 74
0
 49
-0.05
 74
0
 49
0.1
 74
0
 49
-0.05
 74
0
 49
0.1
 74
0
 49
-0.05
 74
0
  0
LTYPE
  5
1F8
100
AcDbSymbolTableRecord
100
AcDbLinetypeTableRecord
  2
DOT
 70
64
  3
. . . . . . . . . . . . . . . . . . . .
 72
65
 73
2
 40
0.2
 49
0.1
 74
0
 49
-0.1
 74
0
  0
LTYPE
  5
1F9
100
AcDbSymbolTableRecord
100
AcDbLinetypeTableRecord
  2
DASHED
 70
64
  3
- - - - - - - - - - - - - - - - - - - -
 72
65
 73
2
 40
0.2
 49
0.1
 74
0
 49
-0.1
 74
0
  0
ENDTAB
  0
TABLE
  2
LAYER
  5
2
100
AcDbSymbolTable
 70
36
  0
LAYER
  5
10
100
AcDbSymbolTableRecord
100
AcDbLayerTableRecord
  2
0
 70
0
 62
7
  6
CONTINUOUS
370
-3
390
F
  0
LAYER
  5
1FA
100
AcDbSymbolTableRecord
100
AcDbLayerTableRecord
  2
DEFAULT_1
 70
0
 62
7
  6
CENTER
370
-3
390
F
  0
LAYER
  5
1FB
100
AcDbSymbolTableRecord
100
AcDbLayerTableRecord
  2
DEFAULT_2
 70
0
 62
7
  6
HIDDEN
370
-3
390
F
  0
LAYER
  5
1FC
100
AcDbSymbolTableRecord
100
AcDbLayerTableRecord
  2
DEFAULT_3
 70
0
 62
7
  6
PHANTOM
370
-3
390
F
  0
LAYER
  5
1FD
100
AcDbSymbolTableRecord
100
AcDbLayerTableRecord
  2
102A_65000
 70
0
 62
7
  6
CONTINUOUS
370
-3
390
F
  0
LAYER
  5
1FE
100
AcDbSymbolTableRecord
100
AcDbLayerTableRecord
  2
102A_65000_1
 70
0
 62
7
  6
CONTINUOUS
370
-3
390
F
  0
LAYER
  5
1FF
100
AcDbSymbolTableRecord
100
AcDbLayerTableRecord
  2
133A_110000
 70
0
 62
7
  6
CONTINUOUS
370
-3
390
F
  0
LAYER
  5
200
100
AcDbSymbolTableRecord
100
AcDbLayerTableRecord
  2
133A_110000_1
 70
0
 62
7
  6
CONTINUOUS
370
-3
390
F
  0
LAYER
  5
201
100
AcDbSymbolTableRecord
100
AcDbLayerTableRecord
  2
133A_110000_2
 70
0
 62
7
  6
CONTINUOUS
370
-3
390
F
  0
LAYER
  5
202
100
AcDbSymbolTableRecord
100
AcDbLayerTableRecord
  2
133A_110000_3
 70
0
 62
7
  6
CONTINUOUS
370
-3
390
F
  0
LAYER
  5
203
100
AcDbSymbolTableRecord
100
AcDbLayerTableRecord
  2
1608-CC-RF-VIMAR_80000
 70
0
 62
7
  6
CONTINUOUS
370
-3
390
F
  0
LAYER
  5
204
100
AcDbSymbolTableRecord
100
AcDbLayerTableRecord
  2
1608-CC-RF-VIMAR_80000_1
 70
0
 62
7
  6
CONTINUOUS
370
-3
390
F
  0
LAYER
  5
205
100
AcDbSymbolTableRecord
100
AcDbLayerTableRecord
  2
1608-CC-RF-VIMAR_80000_2
 70
0
 62
7
  6
CONTINUOUS
370
-3
390
F
  0
LAYER
  5
206
100
AcDbSymbolTableRecord
100
AcDbLayerTableRecord
  2
1608-CC-RF-VIMAR_80000_3
 70
0
 62
7
  6
CONTINUOUS
370
-3
390
F
  0
LAYER
  5
207
100
AcDbSymbolTableRecord
100
AcDbLayerTableRecord
  2
1608-R-RF-VIMAR_45000
 70
0
 62
7
  6
CONTINUOUS
370
-3
390
F
  0
LAYER
  5
208
100
AcDbSymbolTableRecord
100
AcDbLayerTableRecord
  2
43900634A0
 70
0
 62
7
  6
CONTINUOUS
370
-3
390
F
  0
LAYER
  5
209
100
AcDbSymbolTableRecord
100
AcDbLayerTableRecord
  2
ASSI
 70
0
 62
7
  6
CONTINUOUS
370
-3
390
F
  0
LAYER
  5
20A
100
AcDbSymbolTableRecord
100
AcDbLayerTableRecord
  2
CC-0603-VIMAR_1000
 70
0
 62
7
  6
CONTINUOUS
370
-3
390
F
  0
LAYER
  5
20B
100
AcDbSymbolTableRecord
100
AcDbLayerTableRecord
  2
COLOR6
 70
0
 62
7
  6
CONTINUOUS
370
-3
390
F
  0
LAYER
  5
20C
100
AcDbSymbolTableRecord
100
AcDbLayerTableRecord
  2
COORDINATE
 70
0
 62
7
  6
CONTINUOUS
370
-3
390
F
  0
LAYER
  5
20D
100
AcDbSymbolTableRecord
100
AcDbLayerTableRecord
  2
COPY_PUBLISH
 70
0
 62
7
  6
CONTINUOUS
370
-3
390
F
  0
LAYER
  5
20E
100
AcDbSymbolTableRecord
100
AcDbLayerTableRecord
  2
COSMETIC
 70
0
 62
7
  6
CONTINUOUS
370
-3
390
F
  0
LAYER
  5
20F
100
AcDbSymbolTableRecord
100
AcDbLayerTableRecord
  2
COSMETICI
 70
0
 62
7
  6
CONTINUOUS
370
-3
390
F
  0
LAYER
  5
210
100
AcDbSymbolTableRecord
100
AcDbLayerTableRecord
  2
CURVE
 70
0
 62
7
  6
CONTINUOUS
370
-3
390
F
  0
LAYER
  5
211
100
AcDbSymbolTableRecord
100
AcDbLayerTableRecord
  2
CURVE_INIEZIONE
 70
0
 62
7
  6
CONTINUOUS
370
-3
390
F
  0
LAYER
  5
212
100
AcDbSymbolTableRecord
100
AcDbLayerTableRecord
  2
CURVE_PUNZONI
 70
0
 62
7
  6
CONTINUOUS
370
-3
390
F
  0
LAYER
  5
213
100
AcDbSymbolTableRecord
100
AcDbLayerTableRecord
  2
DRAFT
 70
0
 62
7
  6
CONTINUOUS
370
-3
390
F
  0
LAYER
  5
214
100
AcDbSymbolTableRecord
100
AcDbLayerTableRecord
  2
E4_MARK_10000
 70
0
 62
7
  6
CONTINUOUS
370
-3
390
F
  0
LAYER
  5
215
100
AcDbSymbolTableRecord
100
AcDbLayerTableRecord
  2
IMPORT_IGES
 70
0
 62
7
  6
CONTINUOUS
370
-3
390
F
  0
LAYER
  5
216
100
AcDbSymbolTableRecord
100
AcDbLayerTableRecord
  2
INTF_1
 70
0
 62
7
  6
CONTINUOUS
370
-3
390
F
  0
LAYER
  5
217
100
AcDbSymbolTableRecord
100
AcDbLayerTableRecord
  2
INTF_13
 70
0
 62
7
  6
CONTINUOUS
370
-3
390
F
  0
LAYER
  5
218
100
AcDbSymbolTableRecord
100
AcDbLayerTableRecord
  2
INTF_14
 70
0
 62
7
  6
CONTINUOUS
370
-3
390
F
  0
LAYER
  5
219
100
AcDbSymbolTableRecord
100
AcDbLayerTableRecord
  2
INTF_BLANK
 70
0
 62
7
  6
CONTINUOUS
370
-3
390
F
  0
LAYER
  5
21A
100
AcDbSymbolTableRecord
100
AcDbLayerTableRecord
  2
INTF_RED
 70
0
 62
7
  6
CONTINUOUS
370
-3
390
F
  0
LAYER
  5
21B
100
AcDbSymbolTableRecord
100
AcDbLayerTableRecord
  2
LOGO_RESIST-RESTYLING_10000
 70
0
 62
7
  6
CONTINUOUS
370
-3
390
F
  0
LAYER
  5
21C
100
AcDbSymbolTableRecord
100
AcDbLayerTableRecord
  2
NO-PB_MARK_10000
 70
0
 62
7
  6
CONTINUOUS
370
-3
390
F
  0
LAYER
  5
21D
100
AcDbSymbolTableRecord
100
AcDbLayerTableRecord
  2
NOTE
 70
0
 62
7
  6
CONTINUOUS
370
-3
390
F
  0
LAYER
  5
21E
100
AcDbSymbolTableRecord
100
AcDbLayerTableRecord
  2
PIANI
 70
0
 62
7
  6
CONTINUOUS
370
-3
390
F
  0
LAYER
  5
21F
100
AcDbSymbolTableRecord
100
AcDbLayerTableRecord
  2
PUNTI
 70
0
 62
7
  6
CONTINUOUS
370
-3
390
F
  0
LAYER
  5
220
100
AcDbSymbolTableRecord
100
AcDbLayerTableRecord
  2
RACCORDO
 70
0
 62
7
  6
CONTINUOUS
370
-3
390
F
  0
LAYER
  5
221
100
AcDbSymbolTableRecord
100
AcDbLayerTableRecord
  2
SIMBOLI
 70
0
 62
7
  6
CONTINUOUS
370
-3
390
F
  0
LAYER
  5
222
100
AcDbSymbolTableRecord
100
AcDbLayerTableRecord
  2
SMUSSO
 70
0
 62
7
  6
CONTINUOUS
370
-3
390
F
  0
LAYER
  5
223
100
AcDbSymbolTableRecord
100
AcDbLayerTableRecord
  2
SNAPLINE
 70
0
 62
7
  6
CONTINUOUS
370
-3
390
F
  0
LAYER
  5
224
100
AcDbSymbolTableRecord
100
AcDbLayerTableRecord
  2
SUPERFICI
 70
0
 62
7
  6
CONTINUOUS
370
-3
390
F
  0
LAYER
  5
225
100
AcDbSymbolTableRecord
100
AcDbLayerTableRecord
  2
TP15_SMD_0
 70
0
 62
7
  6
CONTINUOUS
370
-3
390
F
  0
LAYER
  5
226
100
AcDbSymbolTableRecord
100
AcDbLayerTableRecord
  2
TP20_SMD_0
 70
0
 62
7
  6
CONTINUOUS
370
-3
390
F
  0
LAYER
  5
227
100
AcDbSymbolTableRecord
100
AcDbLayerTableRecord
  2
TP20_SMD_0_1
 70
0
 62
7
  6
CONTINUOUS
370
-3
390
F
  0
LAYER
  5
228
100
AcDbSymbolTableRecord
100
AcDbLayerTableRecord
  2
TP20_SMD_0_2
 70
0
 62
7
  6
CONTINUOUS
370
-3
390
F
  0
LAYER
  5
229
100
AcDbSymbolTableRecord
100
AcDbLayerTableRecord
  2
TP20_SMD_0_3
 70
0
 62
7
  6
CONTINUOUS
370
-3
390
F
  0
LAYER
  5
22A
100
AcDbSymbolTableRecord
100
AcDbLayerTableRecord
  2
TP20_SMD_0_4
 70
0
 62
7
  6
CONTINUOUS
370
-3
390
F
  0
LAYER
  5
22B
100
AcDbSymbolTableRecord
100
AcDbLayerTableRecord
  2
TP20_SMD_0_5
 70
0
 62
7
  6
CONTINUOUS
370
-3
390
F
  0
LAYER
  5
22C
100
AcDbSymbolTableRecord
100
AcDbLayerTableRecord
  2
TRASH
 70
0
 62
7
  6
CONTINUOUS
370
-3
390
F
  0
LAYER
  5
22D
100
AcDbSymbolTableRecord
100
AcDbLayerTableRecord
  2
WHITE
 70
0
 62
7
  6
CONTINUOUS
370
-3
390
F
  0
LAYER
  5
22E
100
AcDbSymbolTableRecord
100
AcDbLayerTableRecord
  2
XSEC_DATUMS
 70
0
 62
7
  6
CONTINUOUS
370
-3
390
F
  0
LAYER
  5
22F
100
AcDbSymbolTableRecord
100
AcDbLayerTableRecord
  2
___SHELL
 70
0
 62
7
  6
CONTINUOUS
370
-3
390
F
  0
ENDTAB
  0
TABLE
  2
STYLE
  5
3
100
AcDbSymbolTable
 70
1
  0
STYLE
  5
11
100
AcDbSymbolTableRecord
100
AcDbTextStyleTableRecord
  2
STANDARD
 70
0
 40
0.0
 41
0.8
 50
0.0
 71
0
 42
0.2
  3
txt
  4

  0
STYLE
  5
230
100
AcDbSymbolTableRecord
100
AcDbTextStyleTableRecord
  2
TEXTSTYLE_1
 70
0
 40
0.0
 41
0.8
 50
0.0
 71
0
 42
0.2
  3
gdt
  4

  0
ENDTAB
  0
TABLE
  2
VIEW
  5
6
100
AcDbSymbolTable
 70
0
  0
ENDTAB
  0
TABLE
  2
UCS
  5
7
100
AcDbSymbolTable
 70
0
  0
ENDTAB
  0
TABLE
  2
APPID
  5
9
100
AcDbSymbolTable
 70
1
  0
APPID
  5
231
100
AcDbSymbolTableRecord
100
AcDbRegAppTableRecord
  2
ACAD
 70
0
  0
ENDTAB
  0
TABLE
  2
BLOCK_RECORD
  5
1
100
AcDbSymbolTable
 70
0
  0
BLOCK_RECORD
  5
232
100
AcDbSymbolTableRecord
100
AcDbBlockTableRecord
  2
*Model_Space
  0
BLOCK_RECORD
  5
233
100
AcDbSymbolTableRecord
100
AcDbBlockTableRecord
  2
*Paper_Space
  0
ENDTAB
  0
TABLE
  2
DIMSTYLE
  5
A
100
AcDbSymbolTable
 70
1
100
AcDbDimStyleTable
 71
0
  0
DIMSTYLE
105
234
100
AcDbSymbolTableRecord
100
AcDbDimStyleTableRecord
  2
STANDARD
 70
0
  3

  4

 40
1.0
 41
3.0
 42
0.5
 43
0.38
 44
1.5
 45
0.0
 46
0.0
 47
0.01
 48
0.01
140
3.0
141
0.09
142
0.0
143
25.4
144
1.0
145
0.0
146
1.0
147
0.625
 71
1.0
 72
0.0
 73
0
 74
0
 75
0
 76
0
 77
1
 78
8
170
0
171
1
172
0
173
0
174
0
175
0
176
0
177
0
178
0
270
2
271
2
272
2
273
2
274
2
275
0
280
0
281
0
282
0
283
1
284
8
285
0
286
0
287
3
288
0
340
11
278
44
  0
ENDTAB
  0
ENDSEC
  0
SECTION
  2
BLOCKS
  0
BLOCK
  5
20
100
AcDbEntity
  8
0
100
AcDbBlockBegin
  2
*Model_Space
 70
0
 10
0.0
 20
0.0
 30
0.0
  3
*Model_Space
  1

  0
ENDBLK
  5
21
100
AcDbEntity
  8
0
100
AcDbBlockEnd
  0
BLOCK
  5
1C
100
AcDbEntity
  8
0
100
AcDbBlockBegin
  2
*Paper_Space
 70
0
 10
0.0
 20
0.0
 30
0.0
  3
*Paper_Space
  1

  0
ENDBLK
  5
1D
100
AcDbEntity
  8
0
100
AcDbBlockEnd
  0
ENDSEC
  0
SECTION
  2
ENTITIES
  0
LINE
  5
235
100
AcDbEntity
  8
0
100
AcDbLine
 62
7
  6
CONTINUOUS
 10
-36.6785288834
 20
69.6575176333
 11
-35.0631791491
 21
70.5290358738
  0
LINE
  5
236
100
AcDbEntity
  8
0
100
AcDbLine
 62
250
  6
CONTINUOUS
 10
-36.2208692474
 20
69.6345575362
 11
-34.6039445895
 21
70.5069254842
  0
LINE
  5
237
100
AcDbEntity
  8
RACCORDO
100
AcDbLine
 62
7
  6
CONTINUOUS
 10
-39.3126052975
 20
68.4824050869
 11
-37.5448383446
 21
69.3662885633
  0
LINE
  5
238
100
AcDbEntity
  8
SMUSSO
100
AcDbLine
 62
250
  6
CONTINUOUS
 10
-38.865391702
 20
68.4540032996
 11
-37.0976247491
 21
69.3378867761
  0
LINE
  5
239
100
AcDbEntity
  8
0
100
AcDbLine
 62
250
  6
CONTINUOUS
 10
37.897961979
 20
-68.5936894407
 11
37.1847386883
 21
-68.6263214945
  0
LINE
  5
23A
100
AcDbEntity
  8
SMUSSO
100
AcDbLine
 62
250
  6
CONTINUOUS
 10
33.9666067602
 20
-69.9940749554
 11
35.3808203226
 21
-69.9940749554
  0
LINE
  5
23B
100
AcDbEntity
  8
SMUSSO
100
AcDbLine
 62
250
  6
CONTINUOUS
 10
-39.5724984832
 20
67.2344245053
 11
-38.865391702
 21
68.4540032996
  0
LINE
  5
23C
100
AcDbEntity
  8
0
100
AcDbLine
 62
250
  6
CONTINUOUS
 10
-36.2207615516
 20
69.6345036883
 11
-36.5750022572
 21
69.0765755302
  0
LINE
  5
23D
100
AcDbEntity
  8
SMUSSO
100
AcDbLine
 62
250
  6
CONTINUOUS
 10
-39.5724984832
 20
-33.2245223337
 11
-38.865391702
 21
-33.7369943469
  0
LINE
  5
23E
100
AcDbEntity
  8
SMUSSO
100
AcDbLine
 62
7
  6
CONTINUOUS
 10
-39.5724984832
 20
-33.2245223337
 11
-39.0068130583
 21
-33.6487864024
  0
LINE
  5
23F
100
AcDbEntity
  8
SMUSSO
100
AcDbLine
 62
7
  6
CONTINUOUS
 10
-38.865391702
 20
-33.7369943469
 11
34.6737135414
 21
-70.5065469686
  0
LINE
  5
240
100
AcDbEntity
  8
SMUSSO
100
AcDbLine
 62
7
  6
CONTINUOUS
 10
-39.5724984832
 20
-33.2245223337
 11
33.9666067602
 21
-69.9940749554
  0
LINE
  5
241
100
AcDbEntity
  8
0
100
AcDbLine
 62
7
  6
CONTINUOUS
 10
37.1485872755
 20
-69.0850274927
 11
37.1909628936
 21
-69.1062153018
  0
LINE
  5
242
100
AcDbEntity
  8
SMUSSO
100
AcDbLine
 62
7
  6
CONTINUOUS
 10
-39.5724984832
 20
-33.2245223337
 11
-39.5724984832
 21
67.9415312865
  0
LINE
  5
243
100
AcDbEntity
  8
SMUSSO
100
AcDbLine
 62
250
  6
CONTINUOUS
 10
33.9666067602
 20
-69.9940749554
 11
34.6737135414
 21
-70.5065469686
  0
LINE
  5
244
100
AcDbEntity
  8
0
100
AcDbLine
 62
250
  6
CONTINUOUS
 10
37.1908551979
 20
-69.1061614539
 11
37.1485872755
 21
-69.0736796226
  0
LINE
  5
245
100
AcDbEntity
  8
CURVE
100
AcDbLine
 62
250
  6
CONTINUOUS
 10
38.8495952537
 20
33.780318193
 11
37.1908551979
 21
32.9286953136
  0
LINE
  5
246
100
AcDbEntity
  8
SMUSSO
100
AcDbLine
 62
250
  6
CONTINUOUS
 10
34.6737135414
 20
31.6844506779
 11
36.4414804943
 21
32.5683341544
  0
LINE
  5
247
100
AcDbEntity
  8
SMUSSO
100
AcDbLine
 62
250
  6
CONTINUOUS
 10
35.3808203226
 20
30.4648718836
 11
37.1485872755
 21
31.34875536
  0
LINE
  5
248
100
AcDbEntity
  8
CURVE
100
AcDbLine
 62
250
  6
CONTINUOUS
 10
39.5724984832
 20
32.5334945553
 11
37.897961979
 21
31.7091165192
  0
LINE
  5
249
100
AcDbEntity
  8
SMUSSO
100
AcDbLine
 62
250
  6
CONTINUOUS
 10
33.9666067602
 20
30.4648718836
 11
34.6737135414
 21
31.6844506779
  0
LINE
  5
24A
100
AcDbEntity
  8
CURVE
100
AcDbLine
 62
250
  6
CONTINUOUS
 10
37.1908551979
 20
32.9286953136
 11
36.8665406367
 21
32.2967832359
  0
LINE
  5
24B
100
AcDbEntity
  8
SMUSSO
100
AcDbLine
 62
250
  6
CONTINUOUS
 10
33.9666067602
 20
30.4648718836
 11
35.3808203226
 21
30.4648718836
  0
LINE
  5
24C
100
AcDbEntity
  8
SMUSSO
100
AcDbLine
 62
7
  6
CONTINUOUS
 10
33.9666067602
 20
-69.9940749554
 11
33.9666067602
 21
30.4648718836
  0
LINE
  5
24D
100
AcDbEntity
  8
SMUSSO
100
AcDbLine
 62
7
  6
CONTINUOUS
 10
35.3808203226
 20
-69.9940749554
 11
35.3808203226
 21
30.4648718836
  0
LINE
  5
24E
100
AcDbEntity
  8
SMUSSO
100
AcDbLine
 62
7
  6
CONTINUOUS
 10
37.1485872755
 20
31.7023087506
 11
37.1485872755
 21
-69.1101914789
  0
LINE
  5
24F
100
AcDbEntity
  8
0
100
AcDbLine
 62
7
  6
CONTINUOUS
 10
37.1847386883
 20
-68.6263214945
 11
37.1847386883
 21
31.7479727784
  0
LINE
  5
250
100
AcDbEntity
  8
0
100
AcDbLine
 62
7
  6
CONTINUOUS
 10
37.897961979
 20
-68.5938213405
 11
37.897961979
 21
31.7091165192
  0
LINE
  5
251
100
AcDbEntity
  8
CURVE
100
AcDbLine
 62
250
  6
CONTINUOUS
 10
37.897961979
 20
31.7091165192
 11
37.1847386883
 21
31.7479727784
  0
LINE
  5
252
100
AcDbEntity
  8
CURVE
100
AcDbLine
 62
7
  6
CONTINUOUS
 10
39.5724984832
 20
33.125657666
 11
39.5724984832
 21
32.5334945553
  0
LINE
  5
253
100
AcDbEntity
  8
0
100
AcDbLine
 62
7
  6
CONTINUOUS
 10
39.5724984832
 20
32.5334945553
 11
39.5724984832
 21
-67.8009863717
  0
LINE
  5
254
100
AcDbEntity
  8
SMUSSO
100
AcDbLine
 62
7
  6
CONTINUOUS
 10
33.9666067602
 20
30.4648718836
 11
-39.5724984832
 21
67.2344245053
  0
LINE
  5
255
100
AcDbEntity
  8
SMUSSO
100
AcDbLine
 62
7
  6
CONTINUOUS
 10
34.6737135414
 20
31.6844506779
 11
-38.865391702
 21
68.4540032996
  0
LINE
  5
256
100
AcDbEntity
  8
0
100
AcDbLine
 62
7
  6
CONTINUOUS
 10
36.8665406367
 20
32.2967832359
 11
36.7489961745
 21
32.355555467
  0
LINE
  5
257
100
AcDbEntity
  8
SMUSSO
100
AcDbLine
 62
7
  6
CONTINUOUS
 10
-37.0976247491
 20
69.3378867761
 11
36.4414804943
 21
32.5683341544
  0
LINE
  5
258
100
AcDbEntity
  8
0
100
AcDbLine
 62
7
  6
CONTINUOUS
 10
37.1908551979
 20
32.9286953136
 11
-36.2208692474
 21
69.6345575362
  0
LINE
  5
259
100
AcDbEntity
  8
0
100
AcDbLine
 62
7
  6
CONTINUOUS
 10
-34.5878839982
 20
70.4990578189
 11
38.8495952537
 21
33.780318193
  0
LINE
  5
25A
100
AcDbEntity
  8
SMUSSO
100
AcDbLine
 62
7
  6
CONTINUOUS
 10
36.8657445631
 20
32.2679941756
 11
36.5829018506
 21
32.4801262099
  0
LINE
  5
25B
100
AcDbEntity
  8
CURVE
100
AcDbLine
 62
7
  6
CONTINUOUS
 10
39.5496636069
 20
33.1777044413
 11
39.1063373844
 21
33.5969853216
  0
LINE
  5
25C
100
AcDbEntity
  8
SMUSSO
100
AcDbLine
 62
250
  6
CONTINUOUS
 10
35.3808203226
 20
-69.9940749554
 11
37.1485872755
 21
-69.1101914789
  0
LINE
  5
25D
100
AcDbEntity
  8
RACCORDO
100
AcDbLine
 62
7
  6
CONTINUOUS
 10
35.1209271369
 20
-70.5349487558
 11
36.8886940898
 21
-69.6510652794
  0
LINE
  5
25E
100
AcDbEntity
  8
0
100
AcDbLine
 62
250
  6
CONTINUOUS
 10
37.897961979
 20
-68.5938213405
 11
39.5723364774
 21
-67.8205397103
  0
LINE
  5
25F
100
AcDbEntity
  8
0
100
AcDbLine
 62
7
  6
CONTINUOUS
 10
37.6275138218
 20
-69.1397314765
 11
39.3002285582
 21
-68.3672163794
  0
ARC
  5
260
100
AcDbEntity
  8
0
100
AcDbCircle
 62
7
  6
CONTINUOUS
 10
38.3839406691
 20
-67.8009161236
 40
1.1885578162
100
AcDbArc
 50
359.0539797321
 51
359.9966136113
  0
ARC
  5
261
100
AcDbEntity
  8
0
100
AcDbCircle
 62
7
  6
CONTINUOUS
 10
-35.0839385034
 20
69.5067675955
 40
1.109373679
100
AcDbArc
 50
63.4391343404
 51
64.3628062418
  0
SPLINE
  5
262
100
AcDbEntity
  8
0
100
AcDbSpline
 62
7
  6
CONTINUOUS
 70
0
 71
3
 72
11
 73
7
 74
0
 42
0.0000001
 43
0.0000001
 44
0.0000000001
 40
0.0
 40
0.0
 40
0.0
 40
0.0
 40
0.2262902105
 40
0.4626186688
 40
0.7186378431
 40
1.0
 40
1.0
 40
1.0
 40
1.0
 10
-35.0631784135
 20
70.5290322671
 30
0.0
 10
-35.0315416593
 20
70.5460994539
 30
0.0
 10
-34.9613378967
 20
70.5716049647
 30
0.0
 10
-34.846164135
 20
70.5792570897
 30
0.0
 10
-34.7241987052
 20
70.5575633872
 30
0.0
 10
-34.6442381642
 20
70.5262667102
 30
0.0
 10
-34.6039445895
 20
70.5069254842
 30
0.0
  0
SPLINE
  5
263
100
AcDbEntity
  8
0
100
AcDbSpline
 62
7
  6
CONTINUOUS
 70
0
 71
3
 72
11
 73
7
 74
0
 42
0.0000001
 43
0.0000001
 44
0.0000000001
 40
0.0
 40
0.0
 40
0.0
 40
0.0
 40
0.224598755
 40
0.4613857257
 40
0.7184362535
 40
1.0
 40
1.0
 40
1.0
 40
1.0
 10
-36.6785271854
 20
69.6575145732
 30
0.0
 10
-36.710913101
 20
69.640043211
 30
0.0
 10
-36.7723599722
 20
69.5939079521
 30
0.0
 10
-36.8441233296
 20
69.4990188192
 30
0.0
 10
-36.8950733203
 20
69.3815661598
 30
0.0
 10
-36.9136698771
 20
69.2947354974
 30
0.0
 10
-36.9197474018
 20
69.249006457
 30
0.0
  0
SPLINE
  5
264
100
AcDbEntity
  8
0
100
AcDbSpline
 62
7
  6
CONTINUOUS
 70
0
 71
3
 72
11
 73
7
 74
0
 42
0.0000001
 43
0.0000001
 44
0.0000000001
 40
0.0
 40
0.0
 40
0.0
 40
0.0
 40
0.2915081593
 40
0.5509999955
 40
0.7831022776
 40
1.0
 40
1.0
 40
1.0
 40
1.0
 10
39.5723364774
 20
-67.8205397103
 30
0.0
 10
39.571310076
 20
-67.8829204172
 30
0.0
 10
39.5601738701
 20
-68.0011131759
 30
0.0
 10
39.5085920183
 20
-68.1623429309
 30
0.0
 10
39.422534384
 20
-68.290213243
 30
0.0
 10
39.3423686979
 20
-68.3477481796
 30
0.0
 10
39.300226237
 20
-68.367213813
 30
0.0
  0
SPLINE
  5
265
100
AcDbEntity
  8
0
100
AcDbSpline
 62
7
  6
CONTINUOUS
 70
0
 71
3
 72
11
 73
7
 74
0
 42
0.0000001
 43
0.0000001
 44
0.0000000001
 40
0.0
 40
0.0
 40
0.0
 40
0.0
 40
0.2788027771
 40
0.5351010115
 40
0.7729782488
 40
1.0
 40
1.0
 40
1.0
 40
1.0
 10
37.1909628936
 20
-69.1062153018
 30
0.0
 10
37.2285409944
 20
-69.1250043521
 30
0.0
 10
37.3036790257
 20
-69.1555627269
 30
0.0
 10
37.418782757
 20
-69.1782505901
 30
0.0
 10
37.5284430741
 20
-69.1746636763
 30
0.0
 10
37.596454991
 20
-69.1540739721
 30
0.0
 10
37.6275125081
 20
-69.1397284788
 30
0.0
  0
SPLINE
  5
266
100
AcDbEntity
  8
CURVE
100
AcDbSpline
 62
7
  6
CONTINUOUS
 70
0
 71
3
 72
9
 73
5
 74
0
 42
0.0000001
 43
0.0000001
 44
0.0000000001
 40
0.0
 40
0.0
 40
0.0
 40
0.0
 40
0.2355091536
 40
1.0
 40
1.0
 40
1.0
 40
1.0
 10
38.8495952537
 20
33.780318193
 30
0.0
 10
38.8717921844
 20
33.7692197276
 30
0.0
 10
38.9640153454
 20
33.7180677139
 30
0.0
 10
39.0478068764
 20
33.6523379528
 30
0.0
 10
39.1063371081
 20
33.5969853052
 30
0.0
  0
SPLINE
  5
267
100
AcDbEntity
  8
0
100
AcDbSpline
 62
7
  6
CONTINUOUS
 70
0
 71
3
 72
11
 73
7
 74
0
 42
0.0000001
 43
0.0000001
 44
0.0000000001
 40
0.0
 40
0.0
 40
0.0
 40
0.0
 40
0.2171734574
 40
0.4499895688
 40
0.7097087614
 40
1.0
 40
1.0
 40
1.0
 40
1.0
 10
37.6275125081
 20
-69.1397284788
 30
0.0
 10
37.669652419
 20
-69.1202640185
 30
0.0
 10
37.7498445339
 20
-69.062640639
 30
0.0
 10
37.836101838
 20
-68.9348611097
 30
0.0
 10
37.887759244
 20
-68.7738989315
 30
0.0
 10
37.897961979
 20
-68.6558674094
 30
0.0
 10
37.897961979
 20
-68.5938213405
 30
0.0
  0
SPLINE
  5
268
100
AcDbEntity
  8
CURVE
100
AcDbSpline
 62
7
  6
CONTINUOUS
 70
0
 71
3
 72
11
 73
7
 74
0
 42
0.0000001
 43
0.0000001
 44
0.0000000001
 40
0.0
 40
0.0
 40
0.0
 40
0.0
 40
0.2484259946
 40
0.5071486487
 40
0.7622544224
 40
1.0
 40
1.0
 40
1.0
 40
1.0
 10
39.1063371081
 20
33.5969853052
 30
0.0
 10
39.1778969914
 20
33.5293103808
 30
0.0
 10
39.3085651932
 20
33.3742521168
 30
0.0
 10
39.4557335115
 20
33.1083028364
 30
0.0
 10
39.5490671809
 20
32.8235096085
 30
0.0
 10
39.5724984832
 20
32.6277523387
 30
0.0
 10
39.5724984832
 20
32.5334945553
 30
0.0
  0
SPLINE
  5
269
100
AcDbEntity
  8
0
100
AcDbSpline
 62
7
  6
CONTINUOUS
 70
0
 71
3
 72
11
 73
7
 74
0
 42
0.0000001
 43
0.0000001
 44
0.0000000001
 40
0.0
 40
0.0
 40
0.0
 40
0.0
 40
0.2795722554
 40
0.5355222482
 40
0.7727387993
 40
1.0
 40
1.0
 40
1.0
 40
1.0
 10
-36.2208692474
 20
69.6345575362
 30
0.0
 10
-36.2604995079
 20
69.6543726665
 30
0.0
 10
-36.3397799954
 20
69.6862325084
 30
0.0
 10
-36.4613319746
 20
69.7079682826
 30
0.0
 10
-36.5765181227
 20
69.7001737717
 30
0.0
 10
-36.646828255
 20
69.6746153247
 30
0.0
 10
-36.6785271854
 20
69.6575145732
 30
0.0
  0
SPLINE
  5
26A
100
AcDbEntity
  8
CURVE
100
AcDbSpline
 62
7
  6
CONTINUOUS
 70
0
 71
3
 72
11
 73
7
 74
0
 42
0.0000001
 43
0.0000001
 44
0.0000000001
 40
0.0
 40
0.0
 40
0.0
 40
0.0
 40
0.2467882589
 40
0.5117967297
 40
0.7703427905
 40
1.0
 40
1.0
 40
1.0
 40
1.0
 10
37.897961979
 20
31.7091165192
 30
0.0
 10
37.897961979
 20
31.8298862874
 30
0.0
 10
37.8561471641
 20
32.0807641668
 30
0.0
 10
37.705094027
 20
32.4296083967
 30
0.0
 10
37.4833997452
 20
32.7280416588
 30
0.0
 10
37.2913766642
 20
32.8784345804
 30
0.0
 10
37.1908551979
 20
32.9286953136
 30
0.0
  0
SPLINE
  5
26B
100
AcDbEntity
  8
SMUSSO
100
AcDbSpline
 62
7
  6
CONTINUOUS
 70
0
 71
3
 72
11
 73
7
 74
0
 42
0.0000001
 43
0.0000001
 44
0.0000000001
 40
0.0
 40
0.0
 40
0.0
 40
0.0
 40
0.2409333967
 40
0.5000041349
 40
0.7590598755
 40
1.0
 40
1.0
 40
1.0
 40
1.0
 10
36.8657442901
 20
32.2679926725
 30
0.0
 10
36.9076094925
 20
32.2366042922
 30
0.0
 10
36.9851647894
 20
32.158726273
 30
0.0
 10
37.0740228577
 20
32.018580445
 30
0.0
 10
37.1328337437
 20
31.8634049499
 30
0.0
 10
37.1485872755
 20
31.7546354026
 30
0.0
 10
37.1485872755
 20
31.7023087506
 30
0.0
  0
SPLINE
  5
26C
100
AcDbEntity
  8
SMUSSO
100
AcDbSpline
 62
7
  6
CONTINUOUS
 70
0
 71
3
 72
9
 73
5
 74
0
 42
0.0000001
 43
0.0000001
 44
0.0000000001
 40
0.0
 40
0.0
 40
0.0
 40
0.0
 40
0.2586998871
 40
1.0
 40
1.0
 40
1.0
 40
1.0
 10
-39.006803702
 20
-33.6487822236
 30
0.0
 10
-38.9952969333
 20
-33.6574116104
 30
0.0
 10
-38.9501478351
 20
-33.6898551244
 30
0.0
 10
-38.9022549606
 20
-33.7185627176
 30
0.0
 10
-38.865391702
 20
-33.7369943469
 30
0.0
  0
SPLINE
  5
26D
100
AcDbEntity
  8
SMUSSO
100
AcDbSpline
 62
7
  6
CONTINUOUS
 70
0
 71
3
 72
11
 73
7
 74
0
 42
0.0000001
 43
0.0000001
 44
0.0000000001
 40
0.0
 40
0.0
 40
0.0
 40
0.0
 40
0.2271156224
 40
0.4646633268
 40
0.7207940268
 40
1.0
 40
1.0
 40
1.0
 40
1.0
 10
-37.5448367854
 20
69.3662854451
 30
0.0
 10
-37.5134321097
 20
69.3819882732
 30
0.0
 10
-37.4442271688
 20
69.4050122194
 30
0.0
 10
-37.3317830839
 20
69.4106477336
 30
0.0
 10
-37.2134473495
 20
69.388404617
 30
0.0
 10
-37.1362325194
 20
69.3571906613
 30
0.0
 10
-37.0976247491
 20
69.3378867761
 30
0.0
  0
SPLINE
  5
26E
100
AcDbEntity
  8
SMUSSO
100
AcDbSpline
 62
7
  6
CONTINUOUS
 70
0
 71
3
 72
11
 73
7
 74
0
 42
0.0000001
 43
0.0000001
 44
0.0000000001
 40
0.0
 40
0.0
 40
0.0
 40
0.0
 40
0.2171542898
 40
0.4504213951
 40
0.7102377337
 40
1.0
 40
1.0
 40
1.0
 40
1.0
 10
-39.3126045611
 20
68.4824053229
 30
0.0
 10
-39.353375208
 20
68.4620217305
 30
0.0
 10
-39.4305248343
 20
68.4033266697
 30
0.0
 10
-39.5131879139
 20
68.2765312793
 30
0.0
 10
-39.5626709667
 20
68.1181519369
 30
0.0
 10
-39.5724984832
 20
68.0023544003
 30
0.0
 10
-39.5724984832
 20
67.9415312865
 30
0.0
  0
SPLINE
  5
26F
100
AcDbEntity
  8
SMUSSO
100
AcDbSpline
 62
7
  6
CONTINUOUS
 70
0
 71
3
 72
9
 73
5
 74
0
 42
0.0000001
 43
0.0000001
 44
0.0000000001
 40
0.0
 40
0.0
 40
0.0
 40
0.0
 40
0.2412686866
 40
1.0
 40
1.0
 40
1.0
 40
1.0
 10
36.4414804943
 20
32.5683341544
 30
0.0
 10
36.4534790784
 20
32.5623348624
 30
0.0
 10
36.5025828636
 20
32.5362220777
 30
0.0
 10
36.5491514737
 20
32.5054365261
 30
0.0
 10
36.5829019031
 20
32.480126499
 30
0.0
  0
SPLINE
  5
270
100
AcDbEntity
  8
SMUSSO
100
AcDbSpline
 62
7
  6
CONTINUOUS
 70
0
 71
3
 72
11
 73
7
 74
0
 42
0.0000001
 43
0.0000001
 44
0.0000000001
 40
0.0
 40
0.0
 40
0.0
 40
0.0
 40
0.2897539907
 40
0.5495823939
 40
0.7828478713
 40
1.0
 40
1.0
 40
1.0
 40
1.0
 10
37.1485872755
 20
-69.1101914789
 30
0.0
 10
37.1485872755
 20
-69.171012796
 30
0.0
 10
37.1387750599
 20
-69.2868133474
 30
0.0
 10
37.0892733286
 20
-69.4451876321
 30
0.0
 10
37.0066137533
 20
-69.5719866203
 30
0.0
 10
36.9294617848
 20
-69.6306768975
 30
0.0
 10
36.8886925307
 20
-69.6510621611
 30
0.0
  0
SPLINE
  5
271
100
AcDbEntity
  8
SMUSSO
100
AcDbSpline
 62
7
  6
CONTINUOUS
 70
0
 71
3
 72
11
 73
7
 74
0
 42
0.0000001
 43
0.0000001
 44
0.0000000001
 40
0.0
 40
0.0
 40
0.0
 40
0.0
 40
0.2792430017
 40
0.5353250678
 40
0.7728906288
 40
1.0
 40
1.0
 40
1.0
 40
1.0
 10
34.6737135414
 20
-70.5065469686
 30
0.0
 10
34.712326522
 20
-70.5258534587
 30
0.0
 10
34.7895439933
 20
-70.5570565914
 30
0.0
 10
34.9078776891
 20
-70.5793080307
 30
0.0
 10
35.0203182386
 20
-70.5736783623
 30
0.0
 10
35.0895231536
 20
-70.5506492819
 30
0.0
 10
35.1209277676
 20
-70.5349483083
 30
0.0
  0
SPLINE
  5
272
100
AcDbEntity
  8
SMUSSO
100
AcDbSpline
 62
7
  6
CONTINUOUS
 70
0
 71
3
 72
11
 73
7
 74
0
 42
0.0000001
 43
0.0000001
 44
0.0000000001
 40
0.0
 40
0.0
 40
0.0
 40
0.0
 40
0.2171526606
 40
0.4504138247
 40
0.7102544983
 40
1.0
 40
1.0
 40
1.0
 40
1.0
 10
35.1209277676
 20
-70.5349483083
 30
0.0
 10
35.1616981988
 20
-70.5145648239
 30
0.0
 10
35.238848977
 20
-70.4558713977
 30
0.0
 10
35.3215027079
 20
-70.3290684773
 30
0.0
 10
35.3710218633
 20
-70.1706984466
 30
0.0
 10
35.3808203226
 20
-70.0548946847
 30
0.0
 10
35.3808203226
 20
-69.9940749554
 30
0.0
  0
SPLINE
  5
273
100
AcDbEntity
  8
SMUSSO
100
AcDbSpline
 62
7
  6
CONTINUOUS
 70
0
 71
3
 72
11
 73
7
 74
0
 42
0.0000001
 43
0.0000001
 44
0.0000000001
 40
0.0
 40
0.0
 40
0.0
 40
0.0
 40
0.2792071299
 40
0.5353281238
 40
0.7728865369
 40
1.0
 40
1.0
 40
1.0
 40
1.0
 10
-38.865391702
 20
68.4540032996
 30
0.0
 10
-38.9039998968
 20
68.4733073972
 30
0.0
 10
-38.9812079298
 20
68.5045399401
 30
0.0
 10
-39.0995494201
 20
68.5267575989
 30
0.0
 10
-39.2119942575
 20
68.5211385404
 30
0.0
 10
-39.2811992393
 20
68.4981066504
 30
0.0
 10
-39.3126045611
 20
68.4824053229
 30
0.0
  0
SPLINE
  5
274
100
AcDbEntity
  8
SMUSSO
100
AcDbSpline
 62
7
  6
CONTINUOUS
 70
0
 71
3
 72
11
 73
7
 74
0
 42
0.0000001
 43
0.0000001
 44
0.0000000001
 40
0.0
 40
0.0
 40
0.0
 40
0.0
 40
0.2467918265
 40
0.5117852553
 40
0.770325913
 40
1.0
 40
1.0
 40
1.0
 40
1.0
 10
35.3808203226
 20
30.4648718836
 30
0.0
 10
35.3808203231
 20
30.5856531906
 30
0.0
 10
35.3391355308
 20
30.8365535384
 30
0.0
 10
35.188200466
 20
31.1854957502
 30
0.0
 10
34.9663590397
 20
31.4838819869
 30
0.0
 10
34.7742505468
 20
31.6341821754
 30
0.0
 10
34.6737135414
 20
31.6844506779
 30
0.0
  0
SPLINE
  5
275
100
AcDbEntity
  8
SMUSSO
100
AcDbSpline
 62
7
  6
CONTINUOUS
 70
0
 71
3
 72
11
 73
7
 74
0
 42
0.0000001
 43
0.0000001
 44
0.0000000001
 40
0.0
 40
0.0
 40
0.0
 40
0.0
 40
0.2409273518
 40
0.4999985082
 40
0.7590655032
 40
1.0
 40
1.0
 40
1.0
 40
1.0
 10
36.5829019031
 20
32.480126499
 30
0.0
 10
36.6666235925
 20
32.4173421649
 30
0.0
 10
36.8217472678
 20
32.2616048837
 30
0.0
 10
36.9994510858
 20
31.9812986827
 30
0.0
 10
37.1170823575
 20
31.6709493893
 30
0.0
 10
37.1485872755
 20
31.4534064156
 30
0.0
 10
37.1485872755
 20
31.34875536
 30
0.0
  0
ELLIPSE
  5
276
100
AcDbEntity
  8
CURVE
100
AcDbEllipse
 62
7
  6
CONTINUOUS
 10
39.5343655464
 20
33.1413222858
 30
0.0
 11
-0.0224526501
 21
0.0468722033
 31
0.0
 40
0.6575765081
 41
-2.2003689788
 42
-1.0423751183
  0
ELLIPSE
  5
277
100
AcDbEntity
  8
0
100
AcDbEllipse
 62
7
  6
CONTINUOUS
 10
36.8654715352
 20
-68.4653785413
 30
0.0
 11
-0.2025167702
 21
0.4043747123
 31
0.0
 40
0.6103662547
 41
-2.7370806257
 42
-2.2579217987
  0
ELLIPSE
  5
278
100
AcDbEntity
  8
CURVE
100
AcDbEllipse
 62
7
  6
CONTINUOUS
 10
36.8654715352
 20
31.9062969783
 30
0.0
 11
-0.2013242519
 21
0.4033147226
 31
0.0
 40
0.6143846044
 41
4.0300855831
 42
5.5975332924
  0
ENDSEC
  0
SECTION
  2
OBJECTS
  0
DICTIONARY
  5
C
100
AcDbDictionary
280
0
281
1
  3
ACAD_GROUP
350
D
  3
ACAD_MLINESTYLE
350
17
  3
ACAD_LAYOUT
350
1A
  3
ACAD_PLOTSETTINGS
350
19
  3
ACAD_PLOTSTYLENAME
350
E
  0
DICTIONARY
  5
D
102
{ACAD_REACTORS
330
C
102
}
100
AcDbDictionary
280
0
281
1
  0
ACDBDICTIONARYWDFLT
  5
E
102
{ACAD_REACTORS
330
C
102
}
100
AcDbDictionary
281
1
  3
Normal
350
F
100
AcDbDictionaryWithDefault
340
F
  0
DICTIONARY
  5
17
102
{ACAD_REACTORS
330
C
102
}
100
AcDbDictionary
280
0
281
1
  3
Standard
350
18
  0
DICTIONARY
  5
19
102
{ACAD_REACTORS
330
C
102
}
100
AcDbDictionary
281
1
  0
DICTIONARY
  5
1A
102
{ACAD_REACTORS
330
C
102
}
100
AcDbDictionary
281
1
  3
Model
350
279
  3
Layout1
350
27A
  0
ACDBPLACEHOLDER
  5
F
102
{ACAD_REACTORS
330
E
102
}
  0
MLINESTYLE
  5
18
102
{ACAD_REACTORS
330
17
102
}
100
AcDbMlineStyle
  2
STANDARD
 70
0
  3

 62
256
 51
90.0
 52
90.0
 71
2
 49
0.5
 62
256
  6
BYLAYER
 49
-0.5
 62
256
  6
BYLAYER
  0
LAYOUT
  5
279
102
{ACAD_REACTORS
330
1A
102
}
100
AcDbPlotSettings
  1

  2
none_device
  4
ISO_A4_(297.00_x_210.00_MM)
  6

 40
0.0
 41
0.0
 42
0.0
 43
0.0
 44
297.0
 45
210.0
 46
0.0
 47
0.0
 48
0.0
 49
0.0
140
0.0
141
0.0
142
1.0
143
1.0
 70
1024
 72
1
 73
0
 74
0
  7

 75
0
147
1.0
148
0.0
149
0.0
100
AcDbLayout
  1
Model
 70
0
 71
0
 10
0.0
 20
0.0
 11
297.0
 21
210.0
 12
0.0
 22
0.0
 32
0.0
 14
0.0
 24
0.0
 34
0.0
 15
0.0
 25
0.0
 35
0.0
146
0.0
 13
0.0
 23
0.0
 33
0.0
 16
1.0
 26
0.0
 36
0.0
 17
0.0
 27
1.0
 37
0.0
 76
0
330
232
345
0
346
0
  0
LAYOUT
  5
27A
102
{ACAD_REACTORS
330
1A
102
}
100
AcDbPlotSettings
  1

  2
none_device
  4
ISO_A4_(297.00_x_210.00_MM)
  6

 40
0.0
 41
0.0
 42
0.0
 43
0.0
 44
297.0
 45
210.0
 46
0.0
 47
0.0
 48
0.0
 49
0.0
140
0.0
141
0.0
142
1.0
143
1.0
 70
0
 72
1
 73
0
 74
0
  7

 75
0
147
1.0
148
0.0
149
0.0
100
AcDbLayout
  1
Layout1
 70
0
 71
1
 10
0.0
 20
0.0
 11
297.0
 21
210.0
 12
0.0
 22
0.0
 32
0.0
 14
0.0
 24
0.0
 34
0.0
 15
0.0
 25
0.0
 35
0.0
146
0.0
 13
0.0
 23
0.0
 33
0.0
 16
1.0
 26
0.0
 36
0.0
 17
0.0
 27
1.0
 37
0.0
 76
0
330
233
345
0
346
0
  0
ENDSEC
  0
EOF
