  0
SECTION
  2
HEADER
  9
$ACADVER
  1
AC1015
  9
$DWGCODEPAGE
  3
ANSI_1252
  9
$EXTMAX
 10
297.0
 20
210.0
 30
0.0
  9
$EXTMIN
 10
0.0
 20
0.0
 30
0.0
  9
$LIMMIN
 10
0.0
 20
0.0
  9
$LIMMAX
 10
297.0
 20
210.0
  9
$VIEWCTR
 10
148.5
 20
105.0
  9
$VIEWSIZE
 40
210.0
  9
$CLAYER
  8
0
  9
$LTSCALE
 40
16.335
  9
$CELTYPE
  6
BYLAYER
  9
$DIMSCALE
 40
1.0
  9
$DIMASZ
 40
3.0
  9
$DIMEXO
 40
0.5
  9
$DIMDLI
 40
11.286
  9
$DIMEXE
 40
1.5
  9
$DIMCEN
 40
2.673
  9
$DIMLFAC
 40
1.0
  9
$DIMBLK
  1
_FILLED
  9
$DIMTXT
 40
3.0
  9
$DIMTOL
 70
1
  9
$DIMLIM
 70
0
  9
$DIMTFAC
 40
1.0
  9
$DIMTP
 40
0.01
  9
$DIMTM
 40
0.01
  9
$DIMGAP
 40
0.625
  9
$DIMDSEP
 70
44
  9
$PDMODE
 70
3
  9
$PDSIZE
 40
3.0
  9
$HANDSEED
  5
280
  9
$TILEMODE
 70
1
  9
$MEASUREMENT
 70
1
  9
$INSUNITS
 70
4
  0
ENDSEC
  0
SECTION
  2
CLASSES
  0
CLASS
  1
ACDBDICTIONARYWDFLT
  2
AcDbDictionaryWithDefault
  3
AutoCAD 2000
 90
0
280
0
281
0
  0
CLASS
  1
ACDBPLACEHOLDER
  2
AcDbPlaceHolder
  3
AutoCAD 2000
 90
0
280
0
281
0
  0
CLASS
  1
LAYOUT
  2
AcDbLayout
  3
AutoCAD 2000
 90
0
280
0
281
0
  0
ENDSEC
  0
SECTION
  2
TABLES
  0
TABLE
  2
VPORT
  5
8
100
AcDbSymbolTable
 70
2
  0
VPORT
  5
1F4
100
AcDbSymbolTableRecord
100
AcDbViewportTableRecord
  2
*ACTIVE
 70
0
 10
0.0
 20
0.0
 11
1.0
 21
1.0
 12
148.5
 22
105.0
 13
0.0
 23
0.0
 14
1.0
 24
1.0
 15
0.0
 25
0.0
 16
0.0
 26
0.0
 36
1.0
 17
0.0
 27
0.0
 37
0.0
 40
210.0
 41
1.4142857143
 42
50.0
 43
0.0
 44
0.0
 50
0.0
 51
0.0
 71
0
 72
100
 73
1
 74
1
 75
0
 76
0
 77
0
 78
0
  0
ENDTAB
  0
TABLE
  2
LTYPE
  5
5
100
AcDbSymbolTable
 70
6
  0
LTYPE
  5
14
100
AcDbSymbolTableRecord
100
AcDbLinetypeTableRecord
  2
BYBLOCK
 70
0
  3

 72
65
 73
0
 40
0.0
  0
LTYPE
  5
15
100
AcDbSymbolTableRecord
100
AcDbLinetypeTableRecord
  2
BYLAYER
 70
0
  3

 72
65
 73
0
 40
0.0
  0
LTYPE
  5
16
100
AcDbSymbolTableRecord
100
AcDbLinetypeTableRecord
  2
CONTINUOUS
 70
64
  3
Solid line
 72
65
 73
0
 40
0.0
  0
LTYPE
  5
1F5
100
AcDbSymbolTableRecord
100
AcDbLinetypeTableRecord
  2
CENTER
 70
64
  3
____ _ ____ _ ____ _ ____ _ ____ _ ____ _ ____
 72
65
 73
4
 40
0.6
 49
0.375
 74
0
 49
-0.075
 74
0
 49
0.075
 74
0
 49
-0.075
 74
0
  0
LTYPE
  5
1F6
100
AcDbSymbolTableRecord
100
AcDbLinetypeTableRecord
  2
HIDDEN
 70
64
  3
- - - - - - - - - - - - - - - - - - - -
 72
65
 73
2
 40
0.2
 49
0.1
 74
0
 49
-0.1
 74
0
  0
LTYPE
  5
1F7
100
AcDbSymbolTableRecord
100
AcDbLinetypeTableRecord
  2
PHANTOM
 70
64
  3
_____ _ _ _____ _ _ _____ _ _ _____
 72
65
 73
6
 40
0.8
 49
0.45
 74
0
 49
-0.05
 74
0
 49
0.1
 74
0
 49
-0.05
 74
0
 49
0.1
 74
0
 49
-0.05
 74
0
  0
LTYPE
  5
1F8
100
AcDbSymbolTableRecord
100
AcDbLinetypeTableRecord
  2
DOT
 70
64
  3
. . . . . . . . . . . . . . . . . . . .
 72
65
 73
2
 40
0.2
 49
0.1
 74
0
 49
-0.1
 74
0
  0
LTYPE
  5
1F9
100
AcDbSymbolTableRecord
100
AcDbLinetypeTableRecord
  2
DASHED
 70
64
  3
- - - - - - - - - - - - - - - - - - - -
 72
65
 73
2
 40
0.2
 49
0.1
 74
0
 49
-0.1
 74
0
  0
ENDTAB
  0
TABLE
  2
LAYER
  5
2
100
AcDbSymbolTable
 70
36
  0
LAYER
  5
10
100
AcDbSymbolTableRecord
100
AcDbLayerTableRecord
  2
0
 70
0
 62
7
  6
CONTINUOUS
370
-3
390
F
  0
LAYER
  5
1FA
100
AcDbSymbolTableRecord
100
AcDbLayerTableRecord
  2
DEFAULT_1
 70
0
 62
7
  6
CENTER
370
-3
390
F
  0
LAYER
  5
1FB
100
AcDbSymbolTableRecord
100
AcDbLayerTableRecord
  2
DEFAULT_2
 70
0
 62
7
  6
HIDDEN
370
-3
390
F
  0
LAYER
  5
1FC
100
AcDbSymbolTableRecord
100
AcDbLayerTableRecord
  2
DEFAULT_3
 70
0
 62
7
  6
PHANTOM
370
-3
390
F
  0
LAYER
  5
1FD
100
AcDbSymbolTableRecord
100
AcDbLayerTableRecord
  2
102A_65000
 70
0
 62
7
  6
CONTINUOUS
370
-3
390
F
  0
LAYER
  5
1FE
100
AcDbSymbolTableRecord
100
AcDbLayerTableRecord
  2
102A_65000_1
 70
0
 62
7
  6
CONTINUOUS
370
-3
390
F
  0
LAYER
  5
1FF
100
AcDbSymbolTableRecord
100
AcDbLayerTableRecord
  2
133A_110000
 70
0
 62
7
  6
CONTINUOUS
370
-3
390
F
  0
LAYER
  5
200
100
AcDbSymbolTableRecord
100
AcDbLayerTableRecord
  2
133A_110000_1
 70
0
 62
7
  6
CONTINUOUS
370
-3
390
F
  0
LAYER
  5
201
100
AcDbSymbolTableRecord
100
AcDbLayerTableRecord
  2
133A_110000_2
 70
0
 62
7
  6
CONTINUOUS
370
-3
390
F
  0
LAYER
  5
202
100
AcDbSymbolTableRecord
100
AcDbLayerTableRecord
  2
133A_110000_3
 70
0
 62
7
  6
CONTINUOUS
370
-3
390
F
  0
LAYER
  5
203
100
AcDbSymbolTableRecord
100
AcDbLayerTableRecord
  2
1608-CC-RF-VIMAR_80000
 70
0
 62
7
  6
CONTINUOUS
370
-3
390
F
  0
LAYER
  5
204
100
AcDbSymbolTableRecord
100
AcDbLayerTableRecord
  2
1608-CC-RF-VIMAR_80000_1
 70
0
 62
7
  6
CONTINUOUS
370
-3
390
F
  0
LAYER
  5
205
100
AcDbSymbolTableRecord
100
AcDbLayerTableRecord
  2
1608-CC-RF-VIMAR_80000_2
 70
0
 62
7
  6
CONTINUOUS
370
-3
390
F
  0
LAYER
  5
206
100
AcDbSymbolTableRecord
100
AcDbLayerTableRecord
  2
1608-CC-RF-VIMAR_80000_3
 70
0
 62
7
  6
CONTINUOUS
370
-3
390
F
  0
LAYER
  5
207
100
AcDbSymbolTableRecord
100
AcDbLayerTableRecord
  2
1608-R-RF-VIMAR_45000
 70
0
 62
7
  6
CONTINUOUS
370
-3
390
F
  0
LAYER
  5
208
100
AcDbSymbolTableRecord
100
AcDbLayerTableRecord
  2
43900634A0
 70
0
 62
7
  6
CONTINUOUS
370
-3
390
F
  0
LAYER
  5
209
100
AcDbSymbolTableRecord
100
AcDbLayerTableRecord
  2
ASSI
 70
0
 62
7
  6
CONTINUOUS
370
-3
390
F
  0
LAYER
  5
20A
100
AcDbSymbolTableRecord
100
AcDbLayerTableRecord
  2
CC-0603-VIMAR_1000
 70
0
 62
7
  6
CONTINUOUS
370
-3
390
F
  0
LAYER
  5
20B
100
AcDbSymbolTableRecord
100
AcDbLayerTableRecord
  2
COLOR6
 70
0
 62
7
  6
CONTINUOUS
370
-3
390
F
  0
LAYER
  5
20C
100
AcDbSymbolTableRecord
100
AcDbLayerTableRecord
  2
COORDINATE
 70
0
 62
7
  6
CONTINUOUS
370
-3
390
F
  0
LAYER
  5
20D
100
AcDbSymbolTableRecord
100
AcDbLayerTableRecord
  2
COPY_PUBLISH
 70
0
 62
7
  6
CONTINUOUS
370
-3
390
F
  0
LAYER
  5
20E
100
AcDbSymbolTableRecord
100
AcDbLayerTableRecord
  2
COSMETIC
 70
0
 62
7
  6
CONTINUOUS
370
-3
390
F
  0
LAYER
  5
20F
100
AcDbSymbolTableRecord
100
AcDbLayerTableRecord
  2
COSMETICI
 70
0
 62
7
  6
CONTINUOUS
370
-3
390
F
  0
LAYER
  5
210
100
AcDbSymbolTableRecord
100
AcDbLayerTableRecord
  2
CURVE
 70
0
 62
7
  6
CONTINUOUS
370
-3
390
F
  0
LAYER
  5
211
100
AcDbSymbolTableRecord
100
AcDbLayerTableRecord
  2
CURVE_INIEZIONE
 70
0
 62
7
  6
CONTINUOUS
370
-3
390
F
  0
LAYER
  5
212
100
AcDbSymbolTableRecord
100
AcDbLayerTableRecord
  2
CURVE_PUNZONI
 70
0
 62
7
  6
CONTINUOUS
370
-3
390
F
  0
LAYER
  5
213
100
AcDbSymbolTableRecord
100
AcDbLayerTableRecord
  2
DRAFT
 70
0
 62
7
  6
CONTINUOUS
370
-3
390
F
  0
LAYER
  5
214
100
AcDbSymbolTableRecord
100
AcDbLayerTableRecord
  2
E4_MARK_10000
 70
0
 62
7
  6
CONTINUOUS
370
-3
390
F
  0
LAYER
  5
215
100
AcDbSymbolTableRecord
100
AcDbLayerTableRecord
  2
IMPORT_IGES
 70
0
 62
7
  6
CONTINUOUS
370
-3
390
F
  0
LAYER
  5
216
100
AcDbSymbolTableRecord
100
AcDbLayerTableRecord
  2
INTF_1
 70
0
 62
7
  6
CONTINUOUS
370
-3
390
F
  0
LAYER
  5
217
100
AcDbSymbolTableRecord
100
AcDbLayerTableRecord
  2
INTF_13
 70
0
 62
7
  6
CONTINUOUS
370
-3
390
F
  0
LAYER
  5
218
100
AcDbSymbolTableRecord
100
AcDbLayerTableRecord
  2
INTF_14
 70
0
 62
7
  6
CONTINUOUS
370
-3
390
F
  0
LAYER
  5
219
100
AcDbSymbolTableRecord
100
AcDbLayerTableRecord
  2
INTF_BLANK
 70
0
 62
7
  6
CONTINUOUS
370
-3
390
F
  0
LAYER
  5
21A
100
AcDbSymbolTableRecord
100
AcDbLayerTableRecord
  2
INTF_RED
 70
0
 62
7
  6
CONTINUOUS
370
-3
390
F
  0
LAYER
  5
21B
100
AcDbSymbolTableRecord
100
AcDbLayerTableRecord
  2
LOGO_RESIST-RESTYLING_10000
 70
0
 62
7
  6
CONTINUOUS
370
-3
390
F
  0
LAYER
  5
21C
100
AcDbSymbolTableRecord
100
AcDbLayerTableRecord
  2
NO-PB_MARK_10000
 70
0
 62
7
  6
CONTINUOUS
370
-3
390
F
  0
LAYER
  5
21D
100
AcDbSymbolTableRecord
100
AcDbLayerTableRecord
  2
NOTE
 70
0
 62
7
  6
CONTINUOUS
370
-3
390
F
  0
LAYER
  5
21E
100
AcDbSymbolTableRecord
100
AcDbLayerTableRecord
  2
PIANI
 70
0
 62
7
  6
CONTINUOUS
370
-3
390
F
  0
LAYER
  5
21F
100
AcDbSymbolTableRecord
100
AcDbLayerTableRecord
  2
PUNTI
 70
0
 62
7
  6
CONTINUOUS
370
-3
390
F
  0
LAYER
  5
220
100
AcDbSymbolTableRecord
100
AcDbLayerTableRecord
  2
RACCORDO
 70
0
 62
7
  6
CONTINUOUS
370
-3
390
F
  0
LAYER
  5
221
100
AcDbSymbolTableRecord
100
AcDbLayerTableRecord
  2
SIMBOLI
 70
0
 62
7
  6
CONTINUOUS
370
-3
390
F
  0
LAYER
  5
222
100
AcDbSymbolTableRecord
100
AcDbLayerTableRecord
  2
SMUSSO
 70
0
 62
7
  6
CONTINUOUS
370
-3
390
F
  0
LAYER
  5
223
100
AcDbSymbolTableRecord
100
AcDbLayerTableRecord
  2
SUPERFICI
 70
0
 62
7
  6
CONTINUOUS
370
-3
390
F
  0
LAYER
  5
224
100
AcDbSymbolTableRecord
100
AcDbLayerTableRecord
  2
TP15_SMD_0
 70
0
 62
7
  6
CONTINUOUS
370
-3
390
F
  0
LAYER
  5
225
100
AcDbSymbolTableRecord
100
AcDbLayerTableRecord
  2
TP20_SMD_0
 70
0
 62
7
  6
CONTINUOUS
370
-3
390
F
  0
LAYER
  5
226
100
AcDbSymbolTableRecord
100
AcDbLayerTableRecord
  2
TP20_SMD_0_1
 70
0
 62
7
  6
CONTINUOUS
370
-3
390
F
  0
LAYER
  5
227
100
AcDbSymbolTableRecord
100
AcDbLayerTableRecord
  2
TP20_SMD_0_2
 70
0
 62
7
  6
CONTINUOUS
370
-3
390
F
  0
LAYER
  5
228
100
AcDbSymbolTableRecord
100
AcDbLayerTableRecord
  2
TP20_SMD_0_3
 70
0
 62
7
  6
CONTINUOUS
370
-3
390
F
  0
LAYER
  5
229
100
AcDbSymbolTableRecord
100
AcDbLayerTableRecord
  2
TP20_SMD_0_4
 70
0
 62
7
  6
CONTINUOUS
370
-3
390
F
  0
LAYER
  5
22A
100
AcDbSymbolTableRecord
100
AcDbLayerTableRecord
  2
TP20_SMD_0_5
 70
0
 62
7
  6
CONTINUOUS
370
-3
390
F
  0
LAYER
  5
22B
100
AcDbSymbolTableRecord
100
AcDbLayerTableRecord
  2
TRASH
 70
0
 62
7
  6
CONTINUOUS
370
-3
390
F
  0
LAYER
  5
22C
100
AcDbSymbolTableRecord
100
AcDbLayerTableRecord
  2
WHITE
 70
0
 62
7
  6
CONTINUOUS
370
-3
390
F
  0
LAYER
  5
22D
100
AcDbSymbolTableRecord
100
AcDbLayerTableRecord
  2
XSEC_DATUMS
 70
0
 62
7
  6
CONTINUOUS
370
-3
390
F
  0
LAYER
  5
22E
100
AcDbSymbolTableRecord
100
AcDbLayerTableRecord
  2
___SHELL
 70
0
 62
7
  6
CONTINUOUS
370
-3
390
F
  0
ENDTAB
  0
TABLE
  2
STYLE
  5
3
100
AcDbSymbolTable
 70
1
  0
STYLE
  5
11
100
AcDbSymbolTableRecord
100
AcDbTextStyleTableRecord
  2
STANDARD
 70
0
 40
0.0
 41
0.8
 50
0.0
 71
0
 42
0.2
  3
txt
  4

  0
STYLE
  5
22F
100
AcDbSymbolTableRecord
100
AcDbTextStyleTableRecord
  2
TEXTSTYLE_1
 70
0
 40
0.0
 41
0.8
 50
0.0
 71
0
 42
0.2
  3
gdt
  4

  0
ENDTAB
  0
TABLE
  2
VIEW
  5
6
100
AcDbSymbolTable
 70
0
  0
ENDTAB
  0
TABLE
  2
UCS
  5
7
100
AcDbSymbolTable
 70
0
  0
ENDTAB
  0
TABLE
  2
APPID
  5
9
100
AcDbSymbolTable
 70
1
  0
APPID
  5
230
100
AcDbSymbolTableRecord
100
AcDbRegAppTableRecord
  2
ACAD
 70
0
  0
ENDTAB
  0
TABLE
  2
BLOCK_RECORD
  5
1
100
AcDbSymbolTable
 70
0
  0
BLOCK_RECORD
  5
231
100
AcDbSymbolTableRecord
100
AcDbBlockTableRecord
  2
*Model_Space
  0
BLOCK_RECORD
  5
232
100
AcDbSymbolTableRecord
100
AcDbBlockTableRecord
  2
*Paper_Space
  0
ENDTAB
  0
TABLE
  2
DIMSTYLE
  5
A
100
AcDbSymbolTable
 70
1
100
AcDbDimStyleTable
 71
0
  0
DIMSTYLE
105
233
100
AcDbSymbolTableRecord
100
AcDbDimStyleTableRecord
  2
STANDARD
 70
0
  3

  4

 40
1.0
 41
3.0
 42
0.5
 43
0.38
 44
1.5
 45
0.0
 46
0.0
 47
0.01
 48
0.01
140
3.0
141
0.09
142
0.0
143
25.4
144
1.0
145
0.0
146
1.0
147
0.625
 71
1.0
 72
0.0
 73
0
 74
0
 75
0
 76
0
 77
1
 78
8
170
0
171
2
172
0
173
0
174
0
175
0
176
0
177
0
178
0
270
2
271
2
272
2
273
2
274
2
275
0
280
0
281
0
282
0
283
1
284
8
285
0
286
0
287
3
288
0
340
11
278
44
  0
ENDTAB
  0
ENDSEC
  0
SECTION
  2
BLOCKS
  0
BLOCK
  5
20
100
AcDbEntity
  8
0
100
AcDbBlockBegin
  2
*Model_Space
 70
0
 10
0.0
 20
0.0
 30
0.0
  3
*Model_Space
  1

  0
ENDBLK
  5
21
100
AcDbEntity
  8
0
100
AcDbBlockEnd
  0
BLOCK
  5
1C
100
AcDbEntity
  8
0
100
AcDbBlockBegin
  2
*Paper_Space
 70
0
 10
0.0
 20
0.0
 30
0.0
  3
*Paper_Space
  1

  0
ENDBLK
  5
1D
100
AcDbEntity
  8
0
100
AcDbBlockEnd
  0
ENDSEC
  0
SECTION
  2
ENTITIES
  0
LWPOLYLINE
  5
234
100
AcDbEntity
  8
CURVE
100
AcDbPolyline
 62
7
  6
CONTINUOUS
 90
13
 70
0
 10
106.8986243042
 20
170.0513314181
 10
106.8883924866
 20
170.0456709355
 10
106.8545036674
 20
170.0237471612
 10
106.8227772502
 20
169.9981166295
 10
106.7933393253
 20
169.9688718829
 10
106.7664008518
 20
169.9362392957
 10
106.7421160132
 20
169.9004950493
 10
106.7204803499
 20
169.8617199117
 10
106.7014694958
 20
169.8198524937
 10
106.6851283155
 20
169.774864944
 10
106.6716270826
 20
169.7270623207
 10
106.6611071737
 20
169.6769097626
 10
106.6560545236
 20
169.6417833746
  0
LINE
  5
235
100
AcDbEntity
  8
CURVE
100
AcDbLine
 62
7
  6
CONTINUOUS
 10
106.8985512723
 20
170.0512881876
 11
108.524887755
 21
170.9183191602
  0
LINE
  5
236
100
AcDbEntity
  8
CURVE
100
AcDbLine
 62
7
  6
CONTINUOUS
 10
108.9875875596
 20
170.8920582749
 11
107.3547100062
 21
170.0275041443
  0
LWPOLYLINE
  5
237
100
AcDbEntity
  8
SMUSSO
100
AcDbPolyline
 62
7
  6
CONTINUOUS
 90
17
 70
0
 10
104.2628668293
 20
168.8754058274
 10
104.2555608598
 20
168.8716522797
 10
104.2248339766
 20
168.8535255795
 10
104.1957491292
 20
168.8324465145
 10
104.1684047015
 20
168.8084863943
 10
104.142893293
 20
168.7817263299
 10
104.1193011518
 20
168.7522568315
 10
104.0977078526
 20
168.7201774878
 10
104.0781858884
 20
168.6855965593
 10
104.060801885
 20
168.6486313416
 10
104.0456161228
 20
168.6094076425
 10
104.0326816576
 20
168.5680590183
 10
104.0220405966
 20
168.5247245504
 10
104.013725412
 20
168.4795491022
 10
104.0077630645
 20
168.432684946
 10
104.0041749087
 20
168.3842912449
 10
104.0029730746
 20
168.3345317424
  0
LINE
  5
238
100
AcDbEntity
  8
RACCORDO
100
AcDbLine
 62
7
  6
CONTINUOUS
 10
104.2628668546
 20
168.87540584
 11
106.0306332132
 21
169.7592890193
  0
LINE
  5
239
100
AcDbEntity
  8
SMUSSO
100
AcDbLine
 62
7
  6
CONTINUOUS
 10
104.7100798558
 20
168.8470037556
 11
106.4778468087
 21
169.7308872321
  0
LWPOLYLINE
  5
23A
100
AcDbEntity
  8
CURVE
100
AcDbPolyline
 62
7
  6
CONTINUOUS
 90
12
 70
0
 10
108.5250848406
 20
170.9184163485
 10
108.551227606
 20
170.9310890419
 10
108.5894803928
 20
170.9454697976
 10
108.6291436478
 20
170.9557444378
 10
108.670172761
 20
170.9619428933
 10
108.7126640039
 20
170.9640821383
 10
108.7566188207
 20
170.962117391
 10
108.8017079344
 20
170.9560223109
 10
108.8475338943
 20
170.9458633209
 10
108.8938571085
 20
170.9317496794
 10
108.9405938394
 20
170.9137732878
 10
108.9875875596
 20
170.8920582749
  0
LWPOLYLINE
  5
23B
100
AcDbEntity
  8
SMUSSO
100
AcDbPolyline
 62
7
  6
CONTINUOUS
 90
12
 70
0
 10
106.0306333894
 20
169.7592891074
 10
106.0473926774
 20
169.7671579307
 10
106.0850071182
 20
169.781361854
 10
106.1243036437
 20
169.7916406412
 10
106.1651139013
 20
169.7979503642
 10
106.2072626474
 20
169.8002640998
 10
106.2505692709
 20
169.798572168
 10
106.2948483065
 20
169.7928820429
 10
106.3399097751
 20
169.7832183967
 10
106.3855605691
 20
169.769622951
 10
106.4316052993
 20
169.7521542003
 10
106.4778468087
 20
169.7308872321
  0
LINE
  5
23C
100
AcDbEntity
  8
SMUSSO
100
AcDbLine
 62
7
  6
CONTINUOUS
 10
104.0029730746
 20
167.6274249612
 11
104.7100798558
 21
168.8470037556
  0
LINE
  5
23D
100
AcDbEntity
  8
CURVE
100
AcDbLine
 62
7
  6
CONTINUOUS
 10
107.3547100062
 20
170.0275041443
 11
107.0004693006
 21
169.4695759861
  0
LINE
  5
23E
100
AcDbEntity
  8
0
100
AcDbLine
 62
7
  6
CONTINUOUS
 10
189.9587149111
 20
37.9489751736
 11
189.2454916203
 21
37.9163431197
  0
LINE
  5
23F
100
AcDbEntity
  8
SMUSSO
100
AcDbLine
 62
7
  6
CONTINUOUS
 10
186.0273596922
 20
36.5485896588
 11
187.4415732546
 21
36.5485896588
  0
LINE
  5
240
100
AcDbEntity
  8
SMUSSO
100
AcDbLine
 62
7
  6
CONTINUOUS
 10
104.0029730746
 20
77.5607829676
 11
104.0029730746
 21
168.3345317424
  0
LWPOLYLINE
  5
241
100
AcDbEntity
  8
0
100
AcDbPolyline
 62
7
  6
CONTINUOUS
 90
12
 70
0
 10
189.2517158257
 20
37.4364493125
 10
189.2977723328
 20
37.4152644403
 10
189.3437242647
 20
37.3978062981
 10
189.3893771964
 20
37.3841767553
 10
189.434619888
 20
37.3744478179
 10
189.4791689783
 20
37.3687187422
 10
189.522585189
 20
37.367039634
 10
189.5645324859
 20
37.3693605926
 10
189.6050157889
 20
37.375617676
 10
189.6441092847
 20
37.3858176573
 10
189.6817418429
 20
37.3999948722
 10
189.6882045292
 20
37.4029044071
  0
LWPOLYLINE
  5
242
100
AcDbEntity
  8
SMUSSO
100
AcDbPolyline
 62
7
  6
CONTINUOUS
 90
13
 70
0
 10
186.7344664734
 20
36.0361176456
 10
186.7755870708
 20
36.0170285193
 10
186.8165661553
 20
36.0009331535
 10
186.8572650789
 20
35.987886016
 10
186.8975448672
 20
35.9779306232
 10
186.937270484
 20
35.9711012897
 10
186.9763112921
 20
35.9674230148
 10
187.0145370364
 20
35.9669091678
 10
187.0518165142
 20
35.969560558
 10
187.0880218108
 20
35.9753673276
 10
187.1230296663
 20
35.9843094519
 10
187.1567223797
 20
35.996357051
 10
187.181680638
 20
36.007716143
  0
LINE
  5
243
100
AcDbEntity
  8
SMUSSO
100
AcDbLine
 62
7
  6
CONTINUOUS
 10
104.7100798558
 20
77.0483109545
 11
186.7344664734
 21
36.0361176456
  0
LINE
  5
244
100
AcDbEntity
  8
SMUSSO
100
AcDbLine
 62
7
  6
CONTINUOUS
 10
104.0029730746
 20
77.5607829676
 11
186.0273596922
 21
36.5485896588
  0
LINE
  5
245
100
AcDbEntity
  8
SMUSSO
100
AcDbLine
 62
7
  6
CONTINUOUS
 10
104.0029730746
 20
77.5607829676
 11
104.7100798558
 21
77.0483109545
  0
LWPOLYLINE
  5
246
100
AcDbEntity
  8
SMUSSO
100
AcDbPolyline
 62
7
  6
CONTINUOUS
 90
5
 70
0
 10
104.5686676828
 20
77.1365234904
 10
104.5873018497
 20
77.1228666258
 10
104.6279985569
 20
77.0952161446
 10
104.668970775
 20
77.0703361941
 10
104.7100798558
 20
77.0483109545
  0
LINE
  5
247
100
AcDbEntity
  8
SMUSSO
100
AcDbLine
 62
7
  6
CONTINUOUS
 10
104.0029730746
 20
77.5607829676
 11
104.5686617724
 21
77.1365164443
  0
LINE
  5
248
100
AcDbEntity
  8
0
100
AcDbLine
 62
7
  6
CONTINUOUS
 10
189.2093402075
 20
37.4576371215
 11
189.2517158257
 21
37.4364493125
  0
LINE
  5
249
100
AcDbEntity
  8
SMUSSO
100
AcDbLine
 62
7
  6
CONTINUOUS
 10
186.0273596922
 20
36.5485896588
 11
186.7344664734
 21
36.0361176456
  0
LINE
  5
24A
100
AcDbEntity
  8
0
100
AcDbLine
 62
7
  6
CONTINUOUS
 10
189.2516081299
 20
37.4365031604
 11
189.2093402075
 21
37.4689849917
  0
LINE
  5
24B
100
AcDbEntity
  8
0
100
AcDbLine
 62
7
  6
CONTINUOUS
 10
189.2517158257
 20
129.0790012345
 11
190.926090324
 21
129.9226442622
  0
LINE
  5
24C
100
AcDbEntity
  8
0
100
AcDbLine
 62
7
  6
CONTINUOUS
 10
189.9587149111
 20
127.8596081879
 11
191.6330894094
 21
128.7032512156
  0
LINE
  5
24D
100
AcDbEntity
  8
SMUSSO
100
AcDbLine
 62
7
  6
CONTINUOUS
 10
186.7344664734
 20
127.8348104468
 11
188.5022334264
 21
128.7186939233
  0
LINE
  5
24E
100
AcDbEntity
  8
SMUSSO
100
AcDbLine
 62
7
  6
CONTINUOUS
 10
187.4415732546
 20
126.6152316524
 11
189.2093402075
 21
127.4991151289
  0
LINE
  5
24F
100
AcDbEntity
  8
SMUSSO
100
AcDbLine
 62
7
  6
CONTINUOUS
 10
186.0273596922
 20
126.6152316524
 11
186.7344664734
 21
127.8348104468
  0
LINE
  5
250
100
AcDbEntity
  8
0
100
AcDbLine
 62
7
  6
CONTINUOUS
 10
189.2516081299
 20
129.0790550824
 11
188.9272935688
 21
128.4471430047
  0
LINE
  5
251
100
AcDbEntity
  8
SMUSSO
100
AcDbLine
 62
7
  6
CONTINUOUS
 10
186.0273596922
 20
126.6152316524
 11
187.4415732546
 21
126.6152316524
  0
LINE
  5
252
100
AcDbEntity
  8
0
100
AcDbLine
 62
7
  6
CONTINUOUS
 10
189.9587149111
 20
127.8594762881
 11
189.2454916203
 21
127.8983325473
  0
LINE
  5
253
100
AcDbEntity
  8
SMUSSO
100
AcDbLine
 62
7
  6
CONTINUOUS
 10
186.0273596922
 20
36.5485896588
 11
186.0273596922
 21
126.6152316524
  0
LINE
  5
254
100
AcDbEntity
  8
SMUSSO
100
AcDbLine
 62
7
  6
CONTINUOUS
 10
186.0273596922
 20
126.6152316524
 11
104.0029730746
 21
167.6274249612
  0
LWPOLYLINE
  5
255
100
AcDbEntity
  8
0
100
AcDbPolyline
 62
7
  6
CONTINUOUS
 90
25
 70
0
 10
189.9587149111
 20
127.8596081879
 10
189.9572192265
 20
127.9167623344
 10
189.9527030853
 20
127.9753011411
 10
189.9451689904
 20
128.0349844558
 10
189.9346103959
 20
128.0956784651
 10
189.9210669835
 20
128.1570156594
 10
189.9046781393
 20
128.2183882224
 10
189.8856231746
 20
128.2792947716
 10
189.8639541832
 20
128.3397150512
 10
189.8396364613
 20
128.3997571353
 10
189.8126747962
 20
128.4593310453
 10
189.7832330232
 20
128.5180014994
 10
189.7515044857
 20
128.5753597452
 10
189.7176251935
 20
128.6311582672
 10
189.6817418429
 20
128.6851569852
 10
189.6441092847
 20
128.7369916303
 10
189.6050157889
 20
128.7863177188
 10
189.5645324859
 20
128.8330942902
 10
189.522585189
 20
128.8774010789
 10
189.4791689783
 20
128.9191769774
 10
189.434619888
 20
128.9580345293
 10
189.3893771964
 20
128.993583502
 10
189.3437242647
 20
129.0256342388
 10
189.2977723328
 20
129.0541399823
 10
189.2517158257
 20
129.0790012345
  0
LWPOLYLINE
  5
256
100
AcDbEntity
  8
SMUSSO
100
AcDbPolyline
 62
7
  6
CONTINUOUS
 90
28
 70
0
 10
187.4415732546
 20
126.6152316524
 10
187.4403829363
 20
126.6661877052
 10
187.4368016463
 20
126.7181664646
 10
187.4308415149
 20
126.770992057
 10
187.4225214472
 20
126.8244851065
 10
187.4118708536
 20
126.8784652382
 10
187.3989295538
 20
126.9327516915
 10
187.3837431838
 20
126.9871617017
 10
187.3663612705
 20
127.0415102328
 10
187.3468408561
 20
127.0956125003
 10
187.3252472388
 20
127.1492850631
 10
187.301654239
 20
127.2023466873
 10
187.2761421755
 20
127.2546180728
 10
187.2487975443
 20
127.3059224355
 10
187.2197126969
 20
127.3560860907
 10
187.1889860172
 20
127.4049392854
 10
187.1567215492
 20
127.4523167532
 10
187.1230283912
 20
127.4980581465
 10
187.0880202965
 20
127.542008564
 10
187.0518151496
 20
127.5840190055
 10
187.0145360269
 20
127.6239476059
 10
186.9763105275
 20
127.6616599887
 10
186.9372696662
 20
127.6970293834
 10
186.897543886
 20
127.7299352814
 10
186.857264073
 20
127.7602645722
 10
186.8165653461
 20
127.7879140436
 10
186.7755865969
 20
127.8127907285
 10
186.7344664734
 20
127.8348104468
  0
LINE
  5
257
100
AcDbEntity
  8
SMUSSO
100
AcDbLine
 62
7
  6
CONTINUOUS
 10
187.4415732546
 20
36.5485896588
 11
187.4415732546
 21
126.6152316524
  0
LINE
  5
258
100
AcDbEntity
  8
SMUSSO
100
AcDbLine
 62
7
  6
CONTINUOUS
 10
189.2093402075
 20
127.8526685195
 11
189.2093402075
 21
37.4324731353
  0
LINE
  5
259
100
AcDbEntity
  8
0
100
AcDbLine
 62
7
  6
CONTINUOUS
 10
189.2454916203
 20
37.9163431197
 11
189.2454916203
 21
127.8983325473
  0
LINE
  5
25A
100
AcDbEntity
  8
0
100
AcDbLine
 62
7
  6
CONTINUOUS
 10
189.9587149111
 20
37.9488432737
 11
189.9587149111
 21
127.8596081879
  0
LWPOLYLINE
  5
25B
100
AcDbEntity
  8
SMUSSO
100
AcDbPolyline
 62
7
  6
CONTINUOUS
 90
15
 70
0
 10
189.2093402075
 20
37.4324731353
 10
189.2078265974
 20
37.3765958923
 10
189.2032920869
 20
37.3224700676
 10
189.1957558505
 20
37.2703275418
 10
189.1852498822
 20
37.2203915891
 10
189.1718189506
 20
37.1728763702
 10
189.1555204963
 20
37.1279859386
 10
189.1364241654
 20
37.0859126716
 10
189.1146115891
 20
37.0468368918
 10
189.090176264
 20
37.0109264034
 10
189.0632227673
 20
36.978335081
 10
189.0338664679
 20
36.9492025939
 10
189.0022333188
 20
36.9236540122
 10
188.9684588006
 20
36.9017987563
 10
188.9494468457
 20
36.8915992468
  0
LWPOLYLINE
  5
25C
100
AcDbEntity
  8
CURVE
100
AcDbPolyline
 62
7
  6
CONTINUOUS
 90
12
 70
0
 10
107.3547100062
 20
170.0275041443
 10
107.3086055161
 20
170.0486765697
 10
107.262628415
 20
170.0661309309
 10
107.2169585566
 20
170.0797602016
 10
107.1716815838
 20
170.0894742559
 10
107.1270840059
 20
170.095170064
 10
107.0836304593
 20
170.096821692
 10
107.0416400438
 20
170.0944787527
 10
107.0011007706
 20
170.088192924
 10
106.961970121
 20
170.0779771206
 10
106.9243079338
 20
170.0637907103
 10
106.8986243042
 20
170.0513314181
  0
LWPOLYLINE
  5
25D
100
AcDbEntity
  8
SMUSSO
100
AcDbPolyline
 62
7
  6
CONTINUOUS
 90
13
 70
0
 10
104.7100798558
 20
168.8470037556
 10
104.6689712472
 20
168.8660988764
 10
104.6279993635
 20
168.8821978426
 10
104.5873028527
 20
168.8952461864
 10
104.547018157
 20
168.9051991256
 10
104.5072828447
 20
168.9120236113
 10
104.4682351491
 20
168.9156984425
 10
104.430009042
 20
168.9162121081
 10
104.3927320094
 20
168.9135619405
 10
104.3565284122
 20
168.9077560206
 10
104.3215199994
 20
168.8988136176
 10
104.2878259828
 20
168.8867653669
 10
104.2628668293
 20
168.8754058274
  0
LINE
  5
25E
100
AcDbEntity
  8
SMUSSO
100
AcDbLine
 62
7
  6
CONTINUOUS
 10
186.7344664734
 20
127.8348104468
 11
104.7100798558
 21
168.8470037556
  0
LINE
  5
25F
100
AcDbEntity
  8
0
100
AcDbLine
 62
7
  6
CONTINUOUS
 10
188.9272935688
 20
128.4471430047
 11
188.8097491065
 21
128.5059152359
  0
LINE
  5
260
100
AcDbEntity
  8
SMUSSO
100
AcDbLine
 62
7
  6
CONTINUOUS
 10
106.4778468087
 20
169.7308872321
 11
188.5022334264
 21
128.7186939233
  0
LINE
  5
261
100
AcDbEntity
  8
0
100
AcDbLine
 62
7
  6
CONTINUOUS
 10
189.2517158257
 20
129.0790012345
 11
107.3547100062
 21
170.0275041443
  0
LINE
  5
262
100
AcDbEntity
  8
0
100
AcDbLine
 62
7
  6
CONTINUOUS
 10
190.9138622915
 20
129.9289128962
 11
108.9875875596
 21
170.8920582749
  0
LINE
  5
263
100
AcDbEntity
  8
0
100
AcDbLine
 62
7
  6
CONTINUOUS
 10
190.9191164152
 20
129.9262437056
 11
190.9138622915
 21
129.9289128962
  0
LWPOLYLINE
  5
264
100
AcDbEntity
  8
0
100
AcDbPolyline
 62
7
  6
CONTINUOUS
 90
3
 70
0
 10
190.926090324
 20
129.9226442622
 10
190.9243502234
 20
129.9235484731
 10
190.9191164152
 20
129.9262437056
  0
LWPOLYLINE
  5
265
100
AcDbEntity
  8
SMUSSO
100
AcDbPolyline
 62
7
  6
CONTINUOUS
 90
4
 70
0
 10
188.5022334264
 20
128.7186939233
 10
188.5484749329
 20
128.6937193838
 10
188.59451969
 20
128.6651433867
 10
188.6436546488
 20
128.6304860791
  0
LINE
  5
266
100
AcDbEntity
  8
0
100
AcDbLine
 62
7
  6
CONTINUOUS
 10
191.6308704897
 20
128.7599675213
 11
191.6330894094
 21
128.7032512156
  0
LINE
  5
267
100
AcDbEntity
  8
0
100
AcDbLine
 62
7
  6
CONTINUOUS
 10
191.6331794688
 20
128.6967844803
 11
191.6330894094
 21
128.7032512156
  0
LINE
  5
268
100
AcDbEntity
  8
0
100
AcDbLine
 62
7
  6
CONTINUOUS
 10
191.6332334423
 20
128.6903189355
 11
191.6331794688
 21
128.6967844803
  0
LINE
  5
269
100
AcDbEntity
  8
0
100
AcDbLine
 62
7
  6
CONTINUOUS
 10
191.6332514152
 20
128.6838543242
 11
191.6332334423
 21
128.6903189355
  0
LINE
  5
26A
100
AcDbEntity
  8
0
100
AcDbLine
 62
7
  6
CONTINUOUS
 10
191.6332514152
 20
129.2760174348
 11
191.6332514152
 21
128.7032512156
  0
LINE
  5
26B
100
AcDbEntity
  8
0
100
AcDbLine
 62
7
  6
CONTINUOUS
 10
191.6332434333
 20
38.7373608973
 11
191.6332514152
 21
128.6838543242
  0
LINE
  5
26C
100
AcDbEntity
  8
0
100
AcDbLine
 62
7
  6
CONTINUOUS
 10
191.6332014664
 20
38.7308551557
 11
191.6332434333
 21
38.7373608973
  0
LWPOLYLINE
  5
26D
100
AcDbEntity
  8
0
100
AcDbPolyline
 62
7
  6
CONTINUOUS
 90
3
 70
0
 10
191.6330894094
 20
38.7221249039
 10
191.6331234388
 20
38.7243134764
 10
191.6332014664
 20
38.7308551557
  0
LWPOLYLINE
  5
26E
100
AcDbEntity
  8
0
100
AcDbPolyline
 62
7
  6
CONTINUOUS
 90
15
 70
0
 10
191.6330894094
 20
38.7221249039
 10
191.6308704897
 20
38.6662089489
 10
191.6257967682
 20
38.6119633564
 10
191.6178686505
 20
38.5596333213
 10
191.6071128626
 20
38.5093844994
 10
191.5935316726
 20
38.461534668
 10
191.5771560514
 20
38.4165046516
 10
191.5581477529
 20
38.3746113641
 10
191.5365717507
 20
38.3358368121
 10
191.5123315937
 20
38.3000872098
 10
191.4854176168
 20
38.2674472254
 10
191.4560068059
 20
38.2381987568
 10
191.4242742473
 20
38.2125512411
 10
191.3903418953
 20
38.1906084497
 10
191.3609061642
 20
38.1754134542
  0
LWPOLYLINE
  5
26F
100
AcDbEntity
  8
0
100
AcDbPolyline
 62
7
  6
CONTINUOUS
 90
7
 70
0
 10
190.926090324
 20
129.9226442622
 10
190.9713629674
 20
129.897449738
 10
191.0167019351
 20
129.8686928978
 10
191.0619132213
 20
129.8364704543
 10
191.1069204431
 20
129.8008446972
 10
191.151405435
 20
129.7619846353
 10
191.1655730141
 20
129.7487935326
  0
LINE
  5
270
100
AcDbEntity
  8
SMUSSO
100
AcDbLine
 62
7
  6
CONTINUOUS
 10
188.9264974951
 20
128.4183539444
 11
188.6436547826
 21
128.6304859788
  0
LWPOLYLINE
  5
271
100
AcDbEntity
  8
SMUSSO
100
AcDbPolyline
 62
7
  6
CONTINUOUS
 90
20
 70
0
 10
188.9265626076
 20
128.4183038908
 10
188.9344530791
 20
128.4122701451
 10
188.9599416836
 20
128.3911426542
 10
188.98499374
 20
128.3678807766
 10
189.0091904081
 20
128.3428728943
 10
189.0325168038
 20
128.3160897008
 10
189.0549878112
 20
128.2875605026
 10
189.0762292427
 20
128.2577616001
 10
189.0962194082
 20
128.2266740394
 10
189.1149799978
 20
128.1943167744
 10
189.1322018942
 20
128.1612229677
 10
189.1478607609
 20
128.1273782478
 10
189.1619809345
 20
128.0927969861
 10
189.1743263068
 20
128.0580554586
 10
189.1848668895
 20
128.0231503774
 10
189.1936326709
 20
127.9880850304
 10
189.2004775077
 20
127.9534455572
 10
189.2053526856
 20
127.9194273375
 10
189.2083069188
 20
127.8858349916
 10
189.2093402075
 20
127.8526685195
  0
LWPOLYLINE
  5
272
100
AcDbEntity
  8
SMUSSO
100
AcDbPolyline
 62
7
  6
CONTINUOUS
 90
22
 70
0
 10
188.6436546488
 20
128.6304860791
 10
188.6852321178
 20
128.5976900751
 10
188.7295112865
 20
128.5591010262
 10
188.7728179865
 20
128.5174862279
 10
188.8149667096
 20
128.473023733
 10
188.8557768972
 20
128.4259037983
 10
188.8950733679
 20
128.3763285237
 10
188.9326877902
 20
128.3245101558
 10
188.9684590253
 20
128.2706705611
 10
189.0022335339
 20
128.2150407696
 10
189.033866665
 20
128.1578590361
 10
189.0632229457
 20
128.0993702495
 10
189.0901764317
 20
128.0398254131
 10
189.1146117657
 20
127.979479528
 10
189.1364243508
 20
127.9185910818
 10
189.1555206615
 20
127.8574214658
 10
189.17181906
 20
127.7962327014
 10
189.1852499329
 20
127.7352867434
 10
189.1957558664
 20
127.6748449739
 10
189.2032920901
 20
127.6151662863
 10
189.2078265973
 20
127.5565059855
 10
189.2093402075
 20
127.4991151289
  0
LINE
  5
273
100
AcDbEntity
  8
0
100
AcDbLine
 62
7
  6
CONTINUOUS
 10
191.6104372854
 20
129.3280445889
 11
191.1657164044
 21
129.7486444836
  0
LWPOLYLINE
  5
274
100
AcDbEntity
  8
0
100
AcDbPolyline
 62
7
  6
CONTINUOUS
 90
19
 70
0
 10
191.1655730141
 20
129.7487935326
 10
191.1948243402
 20
129.7202233409
 10
191.2368288229
 20
129.6759360013
 10
191.2774340859
 20
129.6291912463
 10
191.3166436841
 20
129.5798830767
 10
191.3543712408
 20
129.5280454654
 10
191.3903418953
 20
129.4740291951
 10
191.4242742473
 20
129.4181942173
 10
191.4560068059
 20
129.3607739774
 10
191.4854176168
 20
129.3020239005
 10
191.5123315937
 20
129.2423713582
 10
191.5365717507
 20
129.1822448879
 10
191.5581477529
 20
129.1217428247
 10
191.5771560514
 20
129.0607986827
 10
191.5935316726
 20
128.9994296746
 10
191.6071128626
 20
128.9381403869
 10
191.6178686505
 20
128.877589179
 10
191.6257967682
 20
128.8181597082
 10
191.6308704897
 20
128.7599675213
  0
LWPOLYLINE
  5
275
100
AcDbEntity
  8
0
100
AcDbPolyline
 62
7
  6
CONTINUOUS
 90
15
 70
0
 10
189.6882045292
 20
37.4029044071
 10
189.7176251935
 20
37.4180958423
 10
189.7515044857
 20
37.4400107315
 10
189.7832330232
 20
37.4656447804
 10
189.8126747962
 20
37.4948878586
 10
189.8396364613
 20
37.5275249757
 10
189.8639541832
 20
37.5632819492
 10
189.8856231746
 20
37.6020694225
 10
189.9046781393
 20
37.6439595401
 10
189.9210669835
 20
37.6889820551
 10
189.9346103959
 20
37.7368133743
 10
189.9451689904
 20
37.7869840076
 10
189.9527030853
 20
37.8391605751
 10
189.9572192265
 20
37.8931951945
 10
189.9587149111
 20
37.9488432737
  0
LWPOLYLINE
  5
276
100
AcDbEntity
  8
SMUSSO
100
AcDbPolyline
 62
7
  6
CONTINUOUS
 90
17
 70
0
 10
187.181680638
 20
36.007716143
 10
187.1889864328
 20
36.0114696033
 10
187.2197128255
 20
36.0295960582
 10
187.2487974157
 20
36.0506749946
 10
187.27614176
 20
36.0746350731
 10
187.3016534085
 20
36.1013952575
 10
187.3252459636
 20
36.1308649629
 10
187.3468393417
 20
36.162944346
 10
187.3663599058
 20
36.1975245745
 10
187.3837421741
 20
36.2344889246
 10
187.3989287892
 20
36.2737130502
 10
187.4118700364
 20
36.3150650654
 10
187.4225204675
 20
36.3584042184
 10
187.4308405107
 20
36.4035820958
 10
187.4368008386
 20
36.4504452422
 10
187.4403824632
 20
36.4988356777
 10
187.4415732546
 20
36.5485896588
  0
LINE
  5
277
100
AcDbEntity
  8
SMUSSO
100
AcDbLine
 62
7
  6
CONTINUOUS
 10
187.4415732546
 20
36.5485896588
 11
189.2093402075
 21
37.4324731353
  0
LINE
  5
278
100
AcDbEntity
  8
RACCORDO
100
AcDbLine
 62
7
  6
CONTINUOUS
 10
187.1816806632
 20
36.0077161556
 11
188.9494470219
 21
36.8915993349
  0
LINE
  5
279
100
AcDbEntity
  8
0
100
AcDbLine
 62
7
  6
CONTINUOUS
 10
189.9587149111
 20
37.9488432737
 11
191.6330894094
 21
38.7221249039
  0
LINE
  5
27A
100
AcDbEntity
  8
0
100
AcDbLine
 62
7
  6
CONTINUOUS
 10
189.6881903863
 20
37.4028978687
 11
191.3608755627
 21
38.175399314
  0
ELLIPSE
  5
27B
100
AcDbEntity
  8
0
100
AcDbEllipse
 62
7
  6
CONTINUOUS
 10
191.5951184784
 20
129.2916820547
 30
0.0
 11
-0.0224526501
 21
0.0468722033
 31
0.0
 40
0.6575765081
 41
-2.2003689788
 42
-1.0441075105
  0
ELLIPSE
  5
27C
100
AcDbEntity
  8
0
100
AcDbEllipse
 62
7
  6
CONTINUOUS
 10
188.9262244672
 20
128.0566567471
 30
0.0
 11
-0.2013242519
 21
0.4033147226
 31
0.0
 40
0.6143846044
 41
4.0300855831
 42
5.5975332924
  0
ELLIPSE
  5
27D
100
AcDbEntity
  8
0
100
AcDbEllipse
 62
7
  6
CONTINUOUS
 10
188.9262244672
 20
38.077286073
 30
0.0
 11
-0.2025167702
 21
0.4043747123
 31
0.0
 40
0.6103662547
 41
-2.7370806257
 42
-2.2579217987
  0
ENDSEC
  0
SECTION
  2
OBJECTS
  0
DICTIONARY
  5
C
100
AcDbDictionary
280
0
281
1
  3
ACAD_GROUP
350
D
  3
ACAD_MLINESTYLE
350
17
  3
ACAD_LAYOUT
350
1A
  3
ACAD_PLOTSETTINGS
350
19
  3
ACAD_PLOTSTYLENAME
350
E
  0
DICTIONARY
  5
D
102
{ACAD_REACTORS
330
C
102
}
100
AcDbDictionary
280
0
281
1
  0
ACDBDICTIONARYWDFLT
  5
E
102
{ACAD_REACTORS
330
C
102
}
100
AcDbDictionary
281
1
  3
Normal
350
F
100
AcDbDictionaryWithDefault
340
F
  0
DICTIONARY
  5
17
102
{ACAD_REACTORS
330
C
102
}
100
AcDbDictionary
280
0
281
1
  3
Standard
350
18
  0
DICTIONARY
  5
19
102
{ACAD_REACTORS
330
C
102
}
100
AcDbDictionary
281
1
  0
DICTIONARY
  5
1A
102
{ACAD_REACTORS
330
C
102
}
100
AcDbDictionary
281
1
  3
Model
350
27E
  3
Layout1
350
27F
  0
ACDBPLACEHOLDER
  5
F
102
{ACAD_REACTORS
330
E
102
}
  0
MLINESTYLE
  5
18
102
{ACAD_REACTORS
330
17
102
}
100
AcDbMlineStyle
  2
STANDARD
 70
0
  3

 62
256
 51
90.0
 52
90.0
 71
2
 49
0.5
 62
256
  6
BYLAYER
 49
-0.5
 62
256
  6
BYLAYER
  0
LAYOUT
  5
27E
102
{ACAD_REACTORS
330
1A
102
}
100
AcDbPlotSettings
  1

  2
none_device
  4
ISO_A4_(297.00_x_210.00_MM)
  6

 40
0.0
 41
0.0
 42
0.0
 43
0.0
 44
297.0
 45
210.0
 46
0.0
 47
0.0
 48
0.0
 49
0.0
140
0.0
141
0.0
142
1.0
143
1.0
 70
1024
 72
1
 73
0
 74
0
  7

 75
0
147
1.0
148
0.0
149
0.0
100
AcDbLayout
  1
Model
 70
0
 71
0
 10
0.0
 20
0.0
 11
297.0
 21
210.0
 12
0.0
 22
0.0
 32
0.0
 14
0.0
 24
0.0
 34
0.0
 15
0.0
 25
0.0
 35
0.0
146
0.0
 13
0.0
 23
0.0
 33
0.0
 16
1.0
 26
0.0
 36
0.0
 17
0.0
 27
1.0
 37
0.0
 76
0
330
231
345
0
346
0
  0
LAYOUT
  5
27F
102
{ACAD_REACTORS
330
1A
102
}
100
AcDbPlotSettings
  1

  2
none_device
  4
ISO_A4_(297.00_x_210.00_MM)
  6

 40
0.0
 41
0.0
 42
0.0
 43
0.0
 44
297.0
 45
210.0
 46
0.0
 47
0.0
 48
0.0
 49
0.0
140
0.0
141
0.0
142
1.0
143
1.0
 70
0
 72
1
 73
0
 74
0
  7

 75
0
147
1.0
148
0.0
149
0.0
100
AcDbLayout
  1
Layout1
 70
0
 71
1
 10
0.0
 20
0.0
 11
297.0
 21
210.0
 12
0.0
 22
0.0
 32
0.0
 14
0.0
 24
0.0
 34
0.0
 15
0.0
 25
0.0
 35
0.0
146
0.0
 13
0.0
 23
0.0
 33
0.0
 16
1.0
 26
0.0
 36
0.0
 17
0.0
 27
1.0
 37
0.0
 76
0
330
232
345
0
346
0
  0
ENDSEC
  0
EOF
