  0
SECTION
  2
HEADER
  9
$ACADVER
  1
AC1021
  9
$DWGCODEPAGE
  3
ANSI_1252
  9
$EXTMAX
 10
297.0
 20
210.0
 30
0.0
  9
$EXTMIN
 10
0.0
 20
0.0
 30
0.0
  9
$LIMMIN
 10
0.0
 20
0.0
  9
$LIMMAX
 10
297.0
 20
210.0
  9
$VIEWCTR
 10
148.5
 20
105.0
  9
$VIEWSIZE
 40
210.0
  9
$CLAYER
  8
0
  9
$LTSCALE
 40
16.335
  9
$CELTYPE
  6
BYLAYER
  9
$DIMSCALE
 40
1.0
  9
$DIMASZ
 40
3.0
  9
$DIMEXO
 40
0.5
  9
$DIMDLI
 40
11.286
  9
$DIMEXE
 40
1.5
  9
$DIMCEN
 40
2.673
  9
$DIMLFAC
 40
1.0
  9
$DIMBLK
  1
_FILLED
  9
$DIMALT
 70
0
  9
$DIMALTF
 40
0.0393700787
  9
$DIMTXT
 40
3.0
  9
$DIMTOL
 70
1
  9
$DIMLIM
 70
0
  9
$DIMTFAC
 40
1.0
  9
$DIMTP
 40
0.01
  9
$DIMTM
 40
0.01
  9
$DIMGAP
 40
0.625
  9
$DIMDSEP
 70
44
  9
$AUNITS
 70
0
  9
$PDMODE
 70
3
  9
$PDSIZE
 40
3.0
  9
$HANDSEED
  5
267
  9
$TILEMODE
 70
1
  9
$MEASUREMENT
 70
1
  9
$INSUNITS
 70
4
  0
ENDSEC
  0
SECTION
  2
CLASSES
  0
CLASS
  1
ACDBDICTIONARYWDFLT
  2
AcDbDictionaryWithDefault
  3
AutoCAD 2000
 90
0
 91
1
280
0
281
0
  0
CLASS
  1
ACDBPLACEHOLDER
  2
AcDbPlaceHolder
  3
AutoCAD 2000
 90
0
 91
1
280
0
281
0
  0
CLASS
  1
LAYOUT
  2
AcDbLayout
  3
AutoCAD 2000
 90
0
 91
0
280
0
281
0
  0
ENDSEC
  0
SECTION
  2
TABLES
  0
TABLE
  2
VPORT
  5
8
100
AcDbSymbolTable
 70
2
  0
VPORT
  5
1F4
100
AcDbSymbolTableRecord
100
AcDbViewportTableRecord
  2
*ACTIVE
 70
0
 10
0.0
 20
0.0
 11
1.0
 21
1.0
 12
148.5
 22
105.0
 13
0.0
 23
0.0
 14
1.0
 24
1.0
 15
0.0
 25
0.0
 16
0.0
 26
0.0
 36
1.0
 17
0.0
 27
0.0
 37
0.0
 40
210.0
 41
1.4142857143
 42
50.0
 43
0.0
 44
0.0
 50
0.0
 51
0.0
 71
0
 72
100
 73
1
 74
1
 75
0
 76
0
 77
0
 78
0
  0
ENDTAB
  0
TABLE
  2
LTYPE
  5
5
100
AcDbSymbolTable
 70
6
  0
LTYPE
  5
14
100
AcDbSymbolTableRecord
100
AcDbLinetypeTableRecord
  2
BYBLOCK
 70
0
  3

 72
65
 73
0
 40
0.0
  0
LTYPE
  5
15
100
AcDbSymbolTableRecord
100
AcDbLinetypeTableRecord
  2
BYLAYER
 70
0
  3

 72
65
 73
0
 40
0.0
  0
LTYPE
  5
16
100
AcDbSymbolTableRecord
100
AcDbLinetypeTableRecord
  2
CONTINUOUS
 70
64
  3
Solid line
 72
65
 73
0
 40
0.0
  0
LTYPE
  5
1F5
100
AcDbSymbolTableRecord
100
AcDbLinetypeTableRecord
  2
CENTER
 70
64
  3
____ _ ____ _ ____ _ ____ _ ____ _ ____ _ ____
 72
65
 73
4
 40
0.6
 49
0.375
 74
0
 49
-0.075
 74
0
 49
0.075
 74
0
 49
-0.075
 74
0
  0
LTYPE
  5
1F6
100
AcDbSymbolTableRecord
100
AcDbLinetypeTableRecord
  2
HIDDEN
 70
64
  3
- - - - - - - - - - - - - - - - - - - -
 72
65
 73
2
 40
0.2
 49
0.1
 74
0
 49
-0.1
 74
0
  0
LTYPE
  5
1F7
100
AcDbSymbolTableRecord
100
AcDbLinetypeTableRecord
  2
PHANTOM
 70
64
  3
_____ _ _ _____ _ _ _____ _ _ _____
 72
65
 73
6
 40
0.8
 49
0.45
 74
0
 49
-0.05
 74
0
 49
0.1
 74
0
 49
-0.05
 74
0
 49
0.1
 74
0
 49
-0.05
 74
0
  0
LTYPE
  5
1F8
100
AcDbSymbolTableRecord
100
AcDbLinetypeTableRecord
  2
DOT
 70
64
  3
. . . . . . . . . . . . . . . . . . . .
 72
65
 73
2
 40
0.2
 49
0.1
 74
0
 49
-0.1
 74
0
  0
LTYPE
  5
1F9
100
AcDbSymbolTableRecord
100
AcDbLinetypeTableRecord
  2
DASHED
 70
64
  3
- - - - - - - - - - - - - - - - - - - -
 72
65
 73
2
 40
0.2
 49
0.1
 74
0
 49
-0.1
 74
0
  0
ENDTAB
  0
TABLE
  2
LAYER
  5
2
100
AcDbSymbolTable
 70
36
  0
LAYER
  5
10
100
AcDbSymbolTableRecord
100
AcDbLayerTableRecord
  2
0
 70
0
 62
7
  6
CONTINUOUS
370
-3
390
F
  0
LAYER
  5
1FA
100
AcDbSymbolTableRecord
100
AcDbLayerTableRecord
  2
DEFAULT_1
 70
0
 62
7
  6
CENTER
370
-3
390
F
  0
LAYER
  5
1FB
100
AcDbSymbolTableRecord
100
AcDbLayerTableRecord
  2
DEFAULT_2
 70
0
 62
7
  6
HIDDEN
370
-3
390
F
  0
LAYER
  5
1FC
100
AcDbSymbolTableRecord
100
AcDbLayerTableRecord
  2
DEFAULT_3
 70
0
 62
7
  6
PHANTOM
370
-3
390
F
  0
LAYER
  5
1FD
100
AcDbSymbolTableRecord
100
AcDbLayerTableRecord
  2
02___PRT_ALL_AXES
 70
0
 62
7
  6
CONTINUOUS
370
-3
390
F
  0
LAYER
  5
1FE
100
AcDbSymbolTableRecord
100
AcDbLayerTableRecord
  2
ASSI
 70
0
 62
7
  6
CONTINUOUS
370
-3
390
F
  0
LAYER
  5
1FF
100
AcDbSymbolTableRecord
100
AcDbLayerTableRecord
  2
COORDINATE
 70
0
 62
7
  6
CONTINUOUS
370
-3
390
F
  0
LAYER
  5
200
100
AcDbSymbolTableRecord
100
AcDbLayerTableRecord
  2
COPY_PUBLISH
 70
0
 62
7
  6
CONTINUOUS
370
-3
390
F
  0
LAYER
  5
201
100
AcDbSymbolTableRecord
100
AcDbLayerTableRecord
  2
COSMETIC
 70
0
 62
7
  6
CONTINUOUS
370
-3
390
F
  0
LAYER
  5
202
100
AcDbSymbolTableRecord
100
AcDbLayerTableRecord
  2
COSMETICI
 70
0
 62
7
  6
CONTINUOUS
370
-3
390
F
  0
LAYER
  5
203
100
AcDbSymbolTableRecord
100
AcDbLayerTableRecord
  2
CURVE
 70
0
 62
7
  6
CONTINUOUS
370
-3
390
F
  0
LAYER
  5
204
100
AcDbSymbolTableRecord
100
AcDbLayerTableRecord
  2
CURVE_PUNTI_INIEZIONE
 70
0
 62
7
  6
CONTINUOUS
370
-3
390
F
  0
LAYER
  5
205
100
AcDbSymbolTableRecord
100
AcDbLayerTableRecord
  2
CURVE_PUNZONI
 70
0
 62
7
  6
CONTINUOUS
370
-3
390
F
  0
LAYER
  5
206
100
AcDbSymbolTableRecord
100
AcDbLayerTableRecord
  2
DRAFT
 70
0
 62
7
  6
CONTINUOUS
370
-3
390
F
  0
LAYER
  5
207
100
AcDbSymbolTableRecord
100
AcDbLayerTableRecord
  2
IMPORT_IGES
 70
0
 62
7
  6
CONTINUOUS
370
-3
390
F
  0
LAYER
  5
208
100
AcDbSymbolTableRecord
100
AcDbLayerTableRecord
  2
INTF_1
 70
0
 62
7
  6
CONTINUOUS
370
-3
390
F
  0
LAYER
  5
209
100
AcDbSymbolTableRecord
100
AcDbLayerTableRecord
  2
INTF_14
 70
0
 62
7
  6
CONTINUOUS
370
-3
390
F
  0
LAYER
  5
20A
100
AcDbSymbolTableRecord
100
AcDbLayerTableRecord
  2
INTF_7
 70
0
 62
7
  6
CONTINUOUS
370
-3
390
F
  0
LAYER
  5
20B
100
AcDbSymbolTableRecord
100
AcDbLayerTableRecord
  2
INTF_YELLOW
 70
0
 62
7
  6
CONTINUOUS
370
-3
390
F
  0
LAYER
  5
20C
100
AcDbSymbolTableRecord
100
AcDbLayerTableRecord
  2
NOTE
 70
0
 62
7
  6
CONTINUOUS
370
-3
390
F
  0
LAYER
  5
20D
100
AcDbSymbolTableRecord
100
AcDbLayerTableRecord
  2
PIANI
 70
0
 62
7
  6
CONTINUOUS
370
-3
390
F
  0
LAYER
  5
20E
100
AcDbSymbolTableRecord
100
AcDbLayerTableRecord
  2
PUNTI
 70
0
 62
7
  6
CONTINUOUS
370
-3
390
F
  0
LAYER
  5
20F
100
AcDbSymbolTableRecord
100
AcDbLayerTableRecord
  2
RACCORDO
 70
0
 62
7
  6
CONTINUOUS
370
-3
390
F
  0
LAYER
  5
210
100
AcDbSymbolTableRecord
100
AcDbLayerTableRecord
  2
RGB__255__255__255__
 70
0
 62
7
  6
CONTINUOUS
370
-3
390
F
  0
LAYER
  5
211
100
AcDbSymbolTableRecord
100
AcDbLayerTableRecord
  2
RGB____0____0____0__
 70
0
 62
7
  6
CONTINUOUS
370
-3
390
F
  0
LAYER
  5
212
100
AcDbSymbolTableRecord
100
AcDbLayerTableRecord
  2
SIMBOLI
 70
0
 62
7
  6
CONTINUOUS
370
-3
390
F
  0
LAYER
  5
213
100
AcDbSymbolTableRecord
100
AcDbLayerTableRecord
  2
SMUSSO
 70
0
 62
7
  6
CONTINUOUS
370
-3
390
F
  0
LAYER
  5
214
100
AcDbSymbolTableRecord
100
AcDbLayerTableRecord
  2
SNAPLINE
 70
0
 62
7
  6
CONTINUOUS
370
-3
390
F
  0
LAYER
  5
215
100
AcDbSymbolTableRecord
100
AcDbLayerTableRecord
  2
SUPERFICI
 70
0
 62
7
  6
CONTINUOUS
370
-3
390
F
  0
LAYER
  5
216
100
AcDbSymbolTableRecord
100
AcDbLayerTableRecord
  2
TRASH
 70
0
 62
7
  6
CONTINUOUS
370
-3
390
F
  0
LAYER
  5
217
100
AcDbSymbolTableRecord
100
AcDbLayerTableRecord
  2
XSEC_DATUMS
 70
0
 62
7
  6
CONTINUOUS
370
-3
390
F
  0
LAYER
  5
218
100
AcDbSymbolTableRecord
100
AcDbLayerTableRecord
  2
___SHELL
 70
0
 62
7
  6
CONTINUOUS
370
-3
390
F
  0
ENDTAB
  0
TABLE
  2
STYLE
  5
3
100
AcDbSymbolTable
 70
1
  0
STYLE
  5
11
100
AcDbSymbolTableRecord
100
AcDbTextStyleTableRecord
  2
STANDARD
 70
0
 40
0.0
 41
0.8
 50
0.0
 71
0
 42
0.2
  3
txt
  4

  0
STYLE
  5
219
100
AcDbSymbolTableRecord
100
AcDbTextStyleTableRecord
  2
TEXTSTYLE_1
 70
0
 40
0.0
 41
0.8
 50
0.0
 71
0
 42
0.2
  3
gdt
  4

  0
ENDTAB
  0
TABLE
  2
VIEW
  5
6
100
AcDbSymbolTable
 70
0
  0
ENDTAB
  0
TABLE
  2
UCS
  5
7
100
AcDbSymbolTable
 70
0
  0
ENDTAB
  0
TABLE
  2
APPID
  5
9
100
AcDbSymbolTable
 70
1
  0
APPID
  5
21A
100
AcDbSymbolTableRecord
100
AcDbRegAppTableRecord
  2
ACAD
 70
0
  0
ENDTAB
  0
TABLE
  2
BLOCK_RECORD
  5
1
100
AcDbSymbolTable
 70
0
  0
BLOCK_RECORD
  5
21B
100
AcDbSymbolTableRecord
100
AcDbBlockTableRecord
  2
*Model_Space
  0
BLOCK_RECORD
  5
21C
100
AcDbSymbolTableRecord
100
AcDbBlockTableRecord
  2
*Paper_Space
  0
ENDTAB
  0
TABLE
  2
DIMSTYLE
  5
A
100
AcDbSymbolTable
 70
1
100
AcDbDimStyleTable
 71
0
  0
DIMSTYLE
105
21D
100
AcDbSymbolTableRecord
100
AcDbDimStyleTableRecord
  2
STANDARD
 70
0
  3

  4

 40
1.0
 41
3.0
 42
0.5
 43
0.38
 44
1.5
 45
0.0
 46
0.0
 47
0.01
 48
0.01
140
3.0
141
0.09
142
0.0
143
25.4
144
1.0
145
0.0
146
1.0
147
0.625
 71
1.0
 72
0.0
 73
0
 74
0
 75
0
 76
0
 77
1
 78
8
170
0
171
2
172
0
173
0
174
0
175
0
176
0
177
0
178
0
270
2
271
2
272
2
273
2
274
2
275
0
280
0
281
0
282
0
283
1
284
8
285
0
286
0
287
3
288
0
340
11
278
44
  0
ENDTAB
  0
ENDSEC
  0
SECTION
  2
BLOCKS
  0
BLOCK
  5
20
100
AcDbEntity
  8
0
100
AcDbBlockBegin
  2
*Model_Space
 70
0
 10
0.0
 20
0.0
 30
0.0
  3
*Model_Space
  1

  0
ENDBLK
  5
21
100
AcDbEntity
  8
0
100
AcDbBlockEnd
  0
BLOCK
  5
1C
100
AcDbEntity
  8
0
100
AcDbBlockBegin
  2
*Paper_Space
 70
0
 10
0.0
 20
0.0
 30
0.0
  3
*Paper_Space
  1

  0
ENDBLK
  5
1D
100
AcDbEntity
  8
0
100
AcDbBlockEnd
  0
ENDSEC
  0
SECTION
  2
ENTITIES
  0
LINE
  5
21E
100
AcDbEntity
  8
0
100
AcDbLine
 62
7
  6
CONTINUOUS
 10
-56.1230652249
 20
70.1043469693
 11
-56.5029849354
 21
69.5887132586
  0
LINE
  5
21F
100
AcDbEntity
  8
0
100
AcDbLine
 62
7
  6
CONTINUOUS
 10
-56.5802479626
 20
70.1275850942
 11
-54.9433093791
 21
71.0002641579
  0
LINE
  5
220
100
AcDbEntity
  8
0
100
AcDbLine
 62
7
  6
CONTINUOUS
 10
-56.1230652249
 20
70.1043469693
 11
-54.4808264584
 21
70.973851145
  0
LWPOLYLINE
  5
221
100
AcDbEntity
  8
SMUSSO
100
AcDbPolyline
 62
7
  6
CONTINUOUS
 90
17
 70
0
 10
-59.1865733417
 20
68.9675360673
 10
-59.1938793112
 20
68.9637825197
 10
-59.2246061945
 20
68.9456558195
 10
-59.2536910418
 20
68.9245767545
 10
-59.2810354696
 20
68.9006166343
 10
-59.306546878
 20
68.8738565699
 10
-59.3301390192
 20
68.8443870715
 10
-59.3517323184
 20
68.8123077278
 10
-59.3712542826
 20
68.7777267993
 10
-59.3886382861
 20
68.7407615816
 10
-59.4038240482
 20
68.7015378824
 10
-59.4167585134
 20
68.6601892583
 10
-59.4273995744
 20
68.6168547903
 10
-59.435714759
 20
68.5716793422
 10
-59.4416771065
 20
68.5248151859
 10
-59.4452652624
 20
68.4764214849
 10
-59.4464670965
 20
68.4266619824
  0
LINE
  5
222
100
AcDbEntity
  8
RACCORDO
100
AcDbLine
 62
7
  6
CONTINUOUS
 10
-59.1865739108
 20
68.9675357828
 11
-57.4188069578
 21
69.8514192593
  0
LINE
  5
223
100
AcDbEntity
  8
SMUSSO
100
AcDbLine
 62
7
  6
CONTINUOUS
 10
-58.7393603153
 20
68.9391339956
 11
-56.9715933623
 21
69.8230174721
  0
LWPOLYLINE
  5
224
100
AcDbEntity
  8
0
100
AcDbPolyline
 62
7
  6
CONTINUOUS
 90
12
 70
0
 10
-56.5802448859
 20
70.1275867345
 10
-56.5547245321
 20
70.1399806371
 10
-56.5170193466
 20
70.1542319421
 10
-56.4775965639
 20
70.1645759481
 10
-56.4366306818
 20
70.1709653464
 10
-56.3943232673
 20
70.1733605792
 10
-56.3508560399
 20
70.1717534804
 10
-56.3064155275
 20
70.1661508624
 10
-56.2612182672
 20
70.1565613471
 10
-56.2154669538
 20
70.1430203595
 10
-56.1693497526
 20
70.1255908365
 10
-56.1230652249
 20
70.1043469693
  0
LWPOLYLINE
  5
225
100
AcDbEntity
  8
SMUSSO
100
AcDbPolyline
 62
7
  6
CONTINUOUS
 90
12
 70
0
 10
-57.4188069578
 20
69.8514192593
 10
-57.4020474936
 20
69.8592881707
 10
-57.3644330529
 20
69.873492094
 10
-57.3251365273
 20
69.8837708812
 10
-57.2843262697
 20
69.8900806042
 10
-57.2421775237
 20
69.8923943398
 10
-57.1988709001
 20
69.890702408
 10
-57.1545918646
 20
69.8850122828
 10
-57.1095303959
 20
69.8753486366
 10
-57.0638796019
 20
69.861753191
 10
-57.0178348717
 20
69.8442844403
 10
-56.9715933623
 20
69.8230174721
  0
LINE
  5
226
100
AcDbEntity
  8
SMUSSO
100
AcDbLine
 62
7
  6
CONTINUOUS
 10
-59.4464670965
 20
67.7195552012
 11
-58.7393603153
 21
68.9391339956
  0
LINE
  5
227
100
AcDbEntity
  8
0
100
AcDbLine
 62
7
  6
CONTINUOUS
 10
58.2997380798
 20
-68.7024789049
 11
57.650415868
 21
-68.7811658526
  0
LINE
  5
228
100
AcDbEntity
  8
SMUSSO
100
AcDbLine
 62
7
  6
CONTINUOUS
 10
54.3977246746
 20
-70.0893133978
 11
55.8119382369
 21
-70.0893133978
  0
LWPOLYLINE
  5
229
100
AcDbEntity
  8
0
100
AcDbPolyline
 62
7
  6
CONTINUOUS
 90
13
 70
0
 10
-56.8179096431
 20
69.7461756125
 10
-56.8168070846
 20
69.753901201
 10
-56.8064417247
 20
69.8037594404
 10
-56.7931786178
 20
69.8511824606
 10
-56.7770443591
 20
69.8959854307
 10
-56.758104179
 20
69.937979078
 10
-56.736441201
 20
69.9769796249
 10
-56.7121270513
 20
70.0128286337
 10
-56.6852620626
 20
70.0453742313
 10
-56.6559653557
 20
70.0744756873
 10
-56.6243536494
 20
70.1000131637
 10
-56.5905565638
 20
70.1218803738
 10
-56.5802448859
 20
70.1275867345
  0
LINE
  5
22A
100
AcDbEntity
  8
SMUSSO
100
AcDbLine
 62
7
  6
CONTINUOUS
 10
-59.4464670965
 20
-13.1672175123
 11
-59.4464670965
 21
68.4266619824
  0
LINE
  5
22B
100
AcDbEntity
  8
SMUSSO
100
AcDbLine
 62
7
  6
CONTINUOUS
 10
-59.4464670965
 20
-13.1672175123
 11
-58.7393603153
 21
-13.6796895254
  0
LWPOLYLINE
  5
22C
100
AcDbEntity
  8
SMUSSO
100
AcDbPolyline
 62
7
  6
CONTINUOUS
 90
5
 70
0
 10
-58.8807724889
 20
-13.591476989
 10
-58.8621383213
 20
-13.6051338541
 10
-58.8214416141
 20
-13.6327843353
 10
-58.7804693961
 20
-13.6576642858
 10
-58.7393603153
 20
-13.6796895254
  0
LINE
  5
22D
100
AcDbEntity
  8
SMUSSO
100
AcDbLine
 62
7
  6
CONTINUOUS
 10
-59.4464670965
 20
-13.1672175123
 11
-58.8807816715
 21
-13.591481581
  0
LWPOLYLINE
  5
22E
100
AcDbEntity
  8
SMUSSO
100
AcDbPolyline
 62
7
  6
CONTINUOUS
 90
13
 70
0
 10
55.1048314558
 20
-70.601785411
 10
55.1459520532
 20
-70.6208745373
 10
55.1869311377
 20
-70.6369699031
 10
55.2276300612
 20
-70.6500170406
 10
55.2679098496
 20
-70.6599724334
 10
55.3076354663
 20
-70.6668017669
 10
55.3466762744
 20
-70.6704800418
 10
55.3849020188
 20
-70.6709938888
 10
55.4221814966
 20
-70.6683424986
 10
55.4583867932
 20
-70.662535729
 10
55.4933946486
 20
-70.6535936047
 10
55.527087362
 20
-70.6415460056
 10
55.5520456204
 20
-70.6301869136
  0
LINE
  5
22F
100
AcDbEntity
  8
SMUSSO
100
AcDbLine
 62
7
  6
CONTINUOUS
 10
-58.7393603153
 20
-13.6796895254
 11
55.1048314558
 21
-70.601785411
  0
LINE
  5
230
100
AcDbEntity
  8
SMUSSO
100
AcDbLine
 62
7
  6
CONTINUOUS
 10
-59.4464670965
 20
-13.1672175123
 11
54.3977246746
 21
-70.0893133978
  0
LINE
  5
231
100
AcDbEntity
  8
0
100
AcDbLine
 62
7
  6
CONTINUOUS
 10
57.5784820129
 20
-69.2078762752
 11
57.5926312986
 21
-69.2149509181
  0
LINE
  5
232
100
AcDbEntity
  8
SMUSSO
100
AcDbLine
 62
7
  6
CONTINUOUS
 10
54.3977246746
 20
-70.0893133978
 11
55.1048314558
 21
-70.601785411
  0
LINE
  5
233
100
AcDbEntity
  8
0
100
AcDbLine
 62
7
  6
CONTINUOUS
 10
57.5926312986
 20
-69.2149509181
 11
57.579978651
 21
-69.2050794166
  0
LINE
  5
234
100
AcDbEntity
  8
SMUSSO
100
AcDbLine
 62
7
  6
CONTINUOUS
 10
54.3977246746
 20
10.7974593157
 11
55.8119382369
 21
10.7974593157
  0
LINE
  5
235
100
AcDbEntity
  8
0
100
AcDbLine
 62
7
  6
CONTINUOUS
 10
57.5926312986
 20
13.2464987076
 11
59.2608639318
 21
14.1030015281
  0
LINE
  5
236
100
AcDbEntity
  8
SMUSSO
100
AcDbLine
 62
7
  6
CONTINUOUS
 10
55.1048314558
 20
12.0170381101
 11
56.8725984087
 21
12.9009215866
  0
LINE
  5
237
100
AcDbEntity
  8
SMUSSO
100
AcDbLine
 62
7
  6
CONTINUOUS
 10
55.8119382369
 20
10.7974593157
 11
57.5797051899
 21
11.6813427922
  0
LINE
  5
238
100
AcDbEntity
  8
0
100
AcDbLine
 62
7
  6
CONTINUOUS
 10
58.2997380798
 20
12.0269199132
 11
59.9838674998
 21
12.8560129436
  0
LINE
  5
239
100
AcDbEntity
  8
0
100
AcDbLine
 62
7
  6
CONTINUOUS
 10
58.2997380798
 20
12.0269199132
 11
57.650415868
 21
12.1056068609
  0
LWPOLYLINE
  5
23A
100
AcDbEntity
  8
SMUSSO
100
AcDbPolyline
 62
7
  6
CONTINUOUS
 90
13
 70
0
 10
-58.7393603153
 20
68.9391339956
 10
-58.7804689238
 20
68.9582291164
 10
-58.8214408075
 20
68.9743280826
 10
-58.8621373184
 20
68.9873764264
 10
-58.9024220141
 20
68.9973293656
 10
-58.9421573263
 20
69.0041538513
 10
-58.9812050219
 20
69.0078286825
 10
-59.019431129
 20
69.0083423481
 10
-59.0567081617
 20
69.0056921805
 10
-59.0929117588
 20
68.9998862606
 10
-59.1279201717
 20
68.9909438576
 10
-59.1616141882
 20
68.9788956069
 10
-59.1865733417
 20
68.9675360673
  0
LINE
  5
23B
100
AcDbEntity
  8
SMUSSO
100
AcDbLine
 62
7
  6
CONTINUOUS
 10
54.3977246746
 20
10.7974593157
 11
-59.4464670965
 21
67.7195552012
  0
LINE
  5
23C
100
AcDbEntity
  8
SMUSSO
100
AcDbLine
 62
7
  6
CONTINUOUS
 10
55.1048314558
 20
12.0170381101
 11
-58.7393603153
 21
68.9391339956
  0
LINE
  5
23D
100
AcDbEntity
  8
0
100
AcDbLine
 62
7
  6
CONTINUOUS
 10
57.3322178165
 20
12.6544173184
 11
57.0143408458
 21
12.8133558037
  0
LINE
  5
23E
100
AcDbEntity
  8
SMUSSO
100
AcDbLine
 62
7
  6
CONTINUOUS
 10
-56.9715933623
 20
69.8230174721
 11
56.8725984087
 21
12.9009215866
  0
LINE
  5
23F
100
AcDbEntity
  8
0
100
AcDbLine
 62
7
  6
CONTINUOUS
 10
57.5926312986
 20
13.2464987076
 11
-56.1230652249
 21
70.1043469693
  0
LINE
  5
240
100
AcDbEntity
  8
SMUSSO
100
AcDbLine
 62
7
  6
CONTINUOUS
 10
54.3977246746
 20
10.7974593157
 11
55.1048314558
 21
12.0170381101
  0
LWPOLYLINE
  5
241
100
AcDbEntity
  8
0
100
AcDbPolyline
 62
7
  6
CONTINUOUS
 90
12
 70
0
 10
-54.4808264584
 20
70.973851145
 10
-54.5279442311
 20
70.9956902928
 10
-54.574786151
 20
71.0136827471
 10
-54.6211493166
 20
71.027752927
 10
-54.6667983924
 20
71.0378602043
 10
-54.7115694025
 20
71.04394501
 10
-54.755370322
 20
71.0459287714
 10
-54.7980244727
 20
71.0437970732
 10
-54.8393325382
 20
71.0375677839
 10
-54.8791759283
 20
71.0272365246
 10
-54.9173956197
 20
71.0128410711
 10
-54.9433166289
 20
71.0002602929
  0
LINE
  5
242
100
AcDbEntity
  8
0
100
AcDbLine
 62
7
  6
CONTINUOUS
 10
-54.4808264584
 20
70.973851145
 11
59.2608639318
 21
14.1030015281
  0
LINE
  5
243
100
AcDbEntity
  8
0
100
AcDbLine
 62
7
  6
CONTINUOUS
 10
59.2907348857
 20
14.0874139842
 11
59.260868295
 21
14.1030037683
  0
LWPOLYLINE
  5
244
100
AcDbEntity
  8
SMUSSO
100
AcDbPolyline
 62
7
  6
CONTINUOUS
 90
4
 70
0
 10
56.8725984087
 20
12.9009215866
 10
56.9188399153
 20
12.875947047
 10
56.9648846723
 20
12.84737105
 10
57.014019765
 20
12.8127136421
  0
LWPOLYLINE
  5
245
100
AcDbEntity
  8
0
100
AcDbPolyline
 62
7
  6
CONTINUOUS
 90
25
 70
0
 10
57.5926312986
 20
13.2464987076
 10
57.6388281946
 20
13.2215018629
 10
57.6847965755
 20
13.1928885949
 10
57.7303406726
 20
13.1607818772
 10
57.7752554795
 20
13.1253153589
 10
57.8193600289
 20
13.086645446
 10
57.862498082
 20
13.0449499045
 10
57.9044890093
 20
13.0004055008
 10
57.9451485929
 20
12.9532033697
 10
57.9843225675
 20
12.903560985
 10
58.0218469317
 20
12.8516949052
 10
58.0575573426
 20
12.7978234206
 10
58.0913099488
 20
12.7421813646
 10
58.1229661345
 20
12.6850099422
 10
58.1523844622
 20
12.6265509689
 10
58.1794302722
 20
12.567049972
 10
58.2039932299
 20
12.5067624095
 10
58.2259625065
 20
12.4459457352
 10
58.2452191738
 20
12.3848536642
 10
58.2616826067
 20
12.3237518483
 10
58.2752816767
 20
12.2628977397
 10
58.28592949
 20
12.2025329137
 10
58.293570228
 20
12.14290936
 10
58.2981800051
 20
12.0842882094
 10
58.2997380798
 20
12.0269199132
  0
LINE
  5
246
100
AcDbEntity
  8
0
100
AcDbLine
 62
7
  6
CONTINUOUS
 10
60.1621359226
 20
13.6101516361
 11
59.2906539424
 21
14.0873714985
  0
LWPOLYLINE
  5
247
100
AcDbEntity
  8
0
100
AcDbPolyline
 62
7
  6
CONTINUOUS
 90
13
 70
0
 10
60.16213635
 20
13.6101611888
 10
60.1655734284
 20
13.6080470904
 10
60.1701647337
 20
13.604637875
 10
60.1744820337
 20
13.6007136754
 10
60.1785743795
 20
13.596204538
 10
60.1823927198
 20
13.5911804164
 10
60.1857899018
 20
13.5858511717
 10
60.1887551742
 20
13.5802085703
 10
60.1912992881
 20
13.5742608458
 10
60.1933073435
 20
13.56824256
 10
60.1947410402
 20
13.5622319
 10
60.1956386783
 20
13.5561506787
 10
60.1960002578
 20
13.5499988961
  0
LINE
  5
248
100
AcDbEntity
  8
0
100
AcDbLine
 62
7
  6
CONTINUOUS
 10
57.5926312986
 20
13.2464987076
 11
57.3322178165
 21
12.6544173184
  0
LINE
  5
249
100
AcDbEntity
  8
SMUSSO
100
AcDbLine
 62
7
  6
CONTINUOUS
 10
57.2968624774
 20
12.6005816077
 11
57.014019765
 21
12.8127136421
  0
LWPOLYLINE
  5
24A
100
AcDbEntity
  8
SMUSSO
100
AcDbPolyline
 62
7
  6
CONTINUOUS
 90
20
 70
0
 10
57.2968622804
 20
12.6005805223
 10
57.3048180614
 20
12.5944978084
 10
57.330306666
 20
12.5733703175
 10
57.3553587223
 20
12.5501084399
 10
57.3795553905
 20
12.5251005576
 10
57.4028817862
 20
12.4983173641
 10
57.4253527936
 20
12.4697881659
 10
57.4465942251
 20
12.4399892633
 10
57.4665843906
 20
12.4089017027
 10
57.4853449802
 20
12.3765444377
 10
57.5025668765
 20
12.3434506309
 10
57.5182257433
 20
12.3096059111
 10
57.5323459169
 20
12.2750246494
 10
57.5446912891
 20
12.2402831219
 10
57.5552318718
 20
12.2053780407
 10
57.5639976532
 20
12.1703126937
 10
57.5708424901
 20
12.1356732205
 10
57.5757176679
 20
12.1016550008
 10
57.5786719012
 20
12.0680626549
 10
57.5797051899
 20
12.0348961828
  0
LWPOLYLINE
  5
24B
100
AcDbEntity
  8
SMUSSO
100
AcDbPolyline
 62
7
  6
CONTINUOUS
 90
22
 70
0
 10
57.014019765
 20
12.8127136421
 10
57.0555971002
 20
12.7799177384
 10
57.0998762689
 20
12.7413286895
 10
57.1431829689
 20
12.6997138912
 10
57.185331692
 20
12.6552513963
 10
57.2261418795
 20
12.6081314616
 10
57.2654383503
 20
12.558556187
 10
57.3030527725
 20
12.5067378191
 10
57.3388240077
 20
12.4528982244
 10
57.3725985163
 20
12.3972684329
 10
57.4042316474
 20
12.3400866994
 10
57.4335879281
 20
12.2815979128
 10
57.4605414141
 20
12.2220530764
 10
57.4849767481
 20
12.1617071913
 10
57.5067893331
 20
12.1008187451
 10
57.5258856439
 20
12.0396491291
 10
57.5421840424
 20
11.9784603647
 10
57.5556149152
 20
11.9175144066
 10
57.5661208487
 20
11.8570726372
 10
57.5736570724
 20
11.7973939496
 10
57.5781915796
 20
11.7387336488
 10
57.5797051899
 20
11.6813427922
  0
LWPOLYLINE
  5
24C
100
AcDbEntity
  8
SMUSSO
100
AcDbPolyline
 62
7
  6
CONTINUOUS
 90
28
 70
0
 10
55.8119382369
 20
10.7974593157
 10
55.8107479186
 20
10.8484153684
 10
55.8071666287
 20
10.9003941278
 10
55.8012064972
 20
10.9532197203
 10
55.7928864296
 20
11.0067127697
 10
55.782235836
 20
11.0606929015
 10
55.7692945362
 20
11.1149793548
 10
55.7541081662
 20
11.1693893649
 10
55.7367262529
 20
11.2237378961
 10
55.7172058385
 20
11.2778401636
 10
55.6956122211
 20
11.3315127264
 10
55.6720192214
 20
11.3845743506
 10
55.6465071579
 20
11.4368457361
 10
55.6191625267
 20
11.4881500988
 10
55.5900776793
 20
11.538313754
 10
55.5593509996
 20
11.5871669487
 10
55.5270865316
 20
11.6345444165
 10
55.4933933736
 20
11.6802858098
 10
55.4583852789
 20
11.7242362273
 10
55.422180132
 20
11.7662466688
 10
55.3849010092
 20
11.8061752692
 10
55.3466755098
 20
11.843887652
 10
55.3076346485
 20
11.8792570467
 10
55.2679088684
 20
11.9121629446
 10
55.2276290553
 20
11.9424922355
 10
55.1869303285
 20
11.9701417068
 10
55.1459515793
 20
11.9950183918
 10
55.1048314558
 20
12.0170381101
  0
LINE
  5
24D
100
AcDbEntity
  8
SMUSSO
100
AcDbLine
 62
7
  6
CONTINUOUS
 10
54.3977246746
 20
-70.0893133978
 11
54.3977246746
 21
10.7974593157
  0
LINE
  5
24E
100
AcDbEntity
  8
SMUSSO
100
AcDbLine
 62
7
  6
CONTINUOUS
 10
55.8119382369
 20
-70.0893133978
 11
55.8119382369
 21
10.7974593157
  0
LINE
  5
24F
100
AcDbEntity
  8
0
100
AcDbLine
 62
7
  6
CONTINUOUS
 10
59.9838681284
 20
12.8560129264
 11
60.1960002845
 21
13.5499987575
  0
LWPOLYLINE
  5
250
100
AcDbEntity
  8
0
100
AcDbPolyline
 62
7
  6
CONTINUOUS
 90
25
 70
0
 10
59.9838682459
 20
12.8560133109
 10
59.9824933915
 20
12.9147897117
 10
59.9781043012
 20
12.9748992282
 10
59.9707223683
 20
13.036085833
 10
59.9604172547
 20
13.098106106
 10
59.9472009829
 20
13.1606791266
 10
59.9310276326
 20
13.2234873384
 10
59.9119549484
 20
13.2862560904
 10
59.8900818158
 20
13.3487250518
 10
59.8654420031
 20
13.4105977637
 10
59.8381288813
 20
13.4716036454
 10
59.808274841
 20
13.5314882613
 10
59.7759885499
 20
13.5899843119
 10
59.7413950534
 20
13.6468343216
 10
59.7046559936
 20
13.7018012993
 10
59.665948925
 20
13.7546588615
 10
59.6254249758
 20
13.8051724446
 10
59.5832693641
 20
13.8531321385
 10
59.5397214613
 20
13.8983633054
 10
59.4949498182
 20
13.9406629662
 10
59.449158443
 20
13.9798564044
 10
59.4026468703
 20
14.0158299191
 10
59.3556465652
 20
14.0484464758
 10
59.308320358
 20
14.0775464051
 10
59.2907348857
 20
14.0874139842
  0
LINE
  5
251
100
AcDbEntity
  8
SMUSSO
100
AcDbLine
 62
7
  6
CONTINUOUS
 10
57.5797051899
 20
12.0348961828
 11
57.5797051899
 21
-69.2054299213
  0
LINE
  5
252
100
AcDbEntity
  8
0
100
AcDbLine
 62
7
  6
CONTINUOUS
 10
57.650415868
 20
-68.7811658526
 11
57.650415868
 21
12.1056068609
  0
LINE
  5
253
100
AcDbEntity
  8
0
100
AcDbLine
 62
7
  6
CONTINUOUS
 10
58.2997380798
 20
-68.7024789049
 11
58.2997380798
 21
12.0269199132
  0
LINE
  5
254
100
AcDbEntity
  8
0
100
AcDbLine
 62
7
  6
CONTINUOUS
 10
59.9838674998
 20
12.8560129436
 11
59.9838682459
 21
-67.9052267059
  0
LINE
  5
255
100
AcDbEntity
  8
0
100
AcDbLine
 62
7
  6
CONTINUOUS
 10
60.1960002578
 20
13.5499988961
 11
60.1960002803
 21
-66.1243384045
  0
LWPOLYLINE
  5
256
100
AcDbEntity
  8
SMUSSO
100
AcDbPolyline
 62
7
  6
CONTINUOUS
 90
15
 70
0
 10
57.5797051899
 20
-69.2054299213
 10
57.5781915798
 20
-69.2613071643
 10
57.5736570693
 20
-69.315432989
 10
57.5661208329
 20
-69.3675755148
 10
57.5556148645
 20
-69.4175114675
 10
57.542183933
 20
-69.4650266864
 10
57.5258854787
 20
-69.509917118
 10
57.5067891478
 20
-69.551990385
 10
57.4849765715
 20
-69.5910661648
 10
57.4605412463
 20
-69.6269766532
 10
57.4335877497
 20
-69.6595679756
 10
57.4042314503
 20
-69.6887004627
 10
57.3725983011
 20
-69.7142490444
 10
57.3388237829
 20
-69.7361043003
 10
57.3198120042
 20
-69.7463037217
  0
LWPOLYLINE
  5
257
100
AcDbEntity
  8
0
100
AcDbPolyline
 62
7
  6
CONTINUOUS
 90
15
 70
0
 10
58.2997380798
 20
-68.7024789049
 10
58.2981800051
 20
-68.758376758
 10
58.293570228
 20
-68.8125369518
 10
58.28592949
 20
-68.864726984
 10
58.2752816767
 20
-68.9147264501
 10
58.2616826067
 20
-68.9623174517
 10
58.2452191738
 20
-69.007285009
 10
58.2259625065
 20
-69.0494368998
 10
58.2039932299
 20
-69.0885905961
 10
58.1794302722
 20
-69.1245640089
 10
58.1523844622
 20
-69.1572000171
 10
58.1229661345
 20
-69.1863622835
 10
58.0913099488
 20
-69.2119219997
 10
58.0575573426
 20
-69.23376697
 10
58.0297836029
 20
-69.2482058517
  0
LINE
  5
258
100
AcDbEntity
  8
0
100
AcDbLine
 62
7
  6
CONTINUOUS
 10
60.1960002803
 20
-66.1243384045
 11
60.1956344601
 21
-66.1301689985
  0
LWPOLYLINE
  5
259
100
AcDbEntity
  8
0
100
AcDbPolyline
 62
7
  6
CONTINUOUS
 90
4
 70
0
 10
59.9773336321
 20
-68.0244141088
 10
59.9781085406
 20
-68.0175175794
 10
59.9824957514
 20
-67.962286492
 10
59.9838682459
 20
-67.9052267059
  0
LINE
  5
25A
100
AcDbEntity
  8
0
100
AcDbLine
 62
7
  6
CONTINUOUS
 10
60.1956749665
 20
-66.1301958819
 11
59.990931969
 21
-67.9060411056
  0
LINE
  5
25B
100
AcDbEntity
  8
0
100
AcDbLine
 62
7
  6
CONTINUOUS
 10
59.9838682459
 20
-67.9052267059
 11
60.1960002803
 21
-66.1243384045
  0
LWPOLYLINE
  5
25C
100
AcDbEntity
  8
0
100
AcDbPolyline
 62
7
  6
CONTINUOUS
 90
13
 70
0
 10
59.7128385091
 20
-68.4608842181
 10
59.7414072441
 20
-68.4460405136
 10
59.7759997347
 20
-68.4236664309
 10
59.8082851043
 20
-68.3975711274
 10
59.8381383052
 20
-68.3678602339
 10
59.8654506583
 20
-68.3346524046
 10
59.8900897679
 20
-68.2980976403
 10
59.9119622714
 20
-68.2583469653
 10
59.9310344094
 20
-68.2155423115
 10
59.9472074948
 20
-68.1698751077
 10
59.9604235797
 20
-68.121535718
 10
59.9707279977
 20
-68.0706824782
 10
59.9773336321
 20
-68.0244141088
  0
LWPOLYLINE
  5
25D
100
AcDbEntity
  8
SMUSSO
100
AcDbPolyline
 62
7
  6
CONTINUOUS
 90
17
 70
0
 10
55.5520456204
 20
-70.6301869136
 10
55.5593514151
 20
-70.6264334533
 10
55.5900778079
 20
-70.6083069984
 10
55.619162398
 20
-70.587228062
 10
55.6465067423
 20
-70.5632679835
 10
55.6720183909
 20
-70.5365077991
 10
55.695610946
 20
-70.5070380937
 10
55.717204324
 20
-70.4749587106
 10
55.7367248881
 20
-70.4403784821
 10
55.7541071564
 20
-70.403414132
 10
55.7692937716
 20
-70.3641900064
 10
55.7822350188
 20
-70.3228379912
 10
55.7928854498
 20
-70.2794988382
 10
55.801205493
 20
-70.2343209608
 10
55.8071658209
 20
-70.1874578144
 10
55.8107474456
 20
-70.1390673789
 10
55.8119382369
 20
-70.0893133978
  0
LINE
  5
25E
100
AcDbEntity
  8
SMUSSO
100
AcDbLine
 62
7
  6
CONTINUOUS
 10
55.8119382369
 20
-70.0893133978
 11
57.5797051899
 21
-69.2054299213
  0
LINE
  5
25F
100
AcDbEntity
  8
RACCORDO
100
AcDbLine
 62
7
  6
CONTINUOUS
 10
55.5520450513
 20
-70.6301871982
 11
57.3198120042
 21
-69.7463037217
  0
LINE
  5
260
100
AcDbEntity
  8
0
100
AcDbLine
 62
7
  6
CONTINUOUS
 10
59.9838682459
 20
-67.9052267059
 11
58.2997380798
 21
-68.7024789049
  0
LINE
  5
261
100
AcDbEntity
  8
0
100
AcDbLine
 62
7
  6
CONTINUOUS
 10
58.0297794752
 20
-69.2482077826
 11
59.712848179
 21
-68.4608796946
  0
LWPOLYLINE
  5
262
100
AcDbEntity
  8
0
100
AcDbPolyline
 62
7
  6
CONTINUOUS
 90
12
 70
0
 10
58.0297836029
 20
-69.2482058517
 10
58.0218469317
 20
-69.2518064229
 10
57.9843225675
 20
-69.2659673173
 10
57.9451485929
 20
-69.2761869192
 10
57.9044890093
 20
-69.2824231682
 10
57.862498082
 20
-69.2846601575
 10
57.8193600289
 20
-69.2828884715
 10
57.7752554795
 20
-69.277117872
 10
57.7303406726
 20
-69.26738713
 10
57.6847965755
 20
-69.2537425343
 10
57.6388281946
 20
-69.2362386011
 10
57.5926312986
 20
-69.2149509181
  0
ELLIPSE
  5
263
100
AcDbEntity
  8
0
100
AcDbEllipse
 62
7
  6
CONTINUOUS
 10
57.3258629097
 20
12.2601002005
 30
0.0
 11
-0.2016574202
 21
0.4073866576
 31
0.0
 40
0.6242247175
 41
4.0419384883
 42
5.5931530709
  0
ELLIPSE
  5
264
100
AcDbEntity
  8
0
100
AcDbEllipse
 62
7
  6
CONTINUOUS
 10
57.3258629097
 20
-68.6111062338
 30
0.0
 11
-0.2087502588
 21
0.4136859927
 31
0.0
 40
0.6007248915
 41
3.341308441
 42
4.0137276895
  0
ENDSEC
  0
SECTION
  2
OBJECTS
  0
DICTIONARY
  5
C
100
AcDbDictionary
280
0
281
1
  3
ACAD_GROUP
350
D
  3
ACAD_MLINESTYLE
350
17
  3
ACAD_LAYOUT
350
1A
  3
ACAD_PLOTSETTINGS
350
19
  3
ACAD_PLOTSTYLENAME
350
E
  0
DICTIONARY
  5
D
102
{ACAD_REACTORS
330
C
102
}
100
AcDbDictionary
280
0
281
1
  0
ACDBDICTIONARYWDFLT
  5
E
102
{ACAD_REACTORS
330
C
102
}
100
AcDbDictionary
281
1
  3
Normal
350
F
100
AcDbDictionaryWithDefault
340
F
  0
DICTIONARY
  5
17
102
{ACAD_REACTORS
330
C
102
}
100
AcDbDictionary
280
0
281
1
  3
Standard
350
18
  0
DICTIONARY
  5
19
102
{ACAD_REACTORS
330
C
102
}
100
AcDbDictionary
281
1
  0
DICTIONARY
  5
1A
102
{ACAD_REACTORS
330
C
102
}
100
AcDbDictionary
281
1
  3
Model
350
265
  3
Layout1
350
266
  0
ACDBPLACEHOLDER
  5
F
102
{ACAD_REACTORS
330
E
102
}
  0
MLINESTYLE
  5
18
102
{ACAD_REACTORS
330
17
102
}
100
AcDbMlineStyle
  2
STANDARD
 70
0
  3

 62
256
 51
90.0
 52
90.0
 71
2
 49
0.5
 62
256
  6
BYLAYER
 49
-0.5
 62
256
  6
BYLAYER
  0
LAYOUT
  5
265
102
{ACAD_REACTORS
330
1A
102
}
100
AcDbPlotSettings
  1

  2
none_device
  4
ISO_A4_(297.00_x_210.00_MM)
  6

 40
0.0
 41
0.0
 42
0.0
 43
0.0
 44
297.0
 45
210.0
 46
0.0
 47
0.0
 48
0.0
 49
0.0
140
0.0
141
0.0
142
1.0
143
1.0
 70
1024
 72
1
 73
0
 74
0
  7

 75
0
147
1.0
148
0.0
149
0.0
100
AcDbLayout
  1
Model
 70
0
 71
0
 10
0.0
 20
0.0
 11
297.0
 21
210.0
 12
0.0
 22
0.0
 32
0.0
 14
0.0
 24
0.0
 34
0.0
 15
0.0
 25
0.0
 35
0.0
146
0.0
 13
0.0
 23
0.0
 33
0.0
 16
1.0
 26
0.0
 36
0.0
 17
0.0
 27
1.0
 37
0.0
 76
0
330
21B
345
0
346
0
  0
LAYOUT
  5
266
102
{ACAD_REACTORS
330
1A
102
}
100
AcDbPlotSettings
  1

  2
none_device
  4
ISO_A4_(297.00_x_210.00_MM)
  6

 40
0.0
 41
0.0
 42
0.0
 43
0.0
 44
297.0
 45
210.0
 46
0.0
 47
0.0
 48
0.0
 49
0.0
140
0.0
141
0.0
142
1.0
143
1.0
 70
0
 72
1
 73
0
 74
0
  7

 75
0
147
1.0
148
0.0
149
0.0
100
AcDbLayout
  1
Layout1
 70
0
 71
1
 10
0.0
 20
0.0
 11
297.0
 21
210.0
 12
0.0
 22
0.0
 32
0.0
 14
0.0
 24
0.0
 34
0.0
 15
0.0
 25
0.0
 35
0.0
146
0.0
 13
0.0
 23
0.0
 33
0.0
 16
1.0
 26
0.0
 36
0.0
 17
0.0
 27
1.0
 37
0.0
 76
0
330
21C
345
0
346
0
  0
ENDSEC
  0
EOF
