  0
SECTION
  2
HEADER
  9
$ACADVER
  1
AC1015
  9
$DWGCODEPAGE
  3
ANSI_1252
  9
$EXTMAX
 10
297.0
 20
210.0
 30
0.0
  9
$EXTMIN
 10
0.0
 20
0.0
 30
0.0
  9
$LIMMIN
 10
0.0
 20
0.0
  9
$LIMMAX
 10
297.0
 20
210.0
  9
$VIEWCTR
 10
148.5
 20
105.0
  9
$VIEWSIZE
 40
210.0
  9
$CLAYER
  8
0
  9
$LTSCALE
 40
16.335
  9
$CELTYPE
  6
BYLAYER
  9
$DIMSCALE
 40
1.0
  9
$DIMASZ
 40
3.0
  9
$DIMEXO
 40
1.85625
  9
$DIMDLI
 40
11.286
  9
$DIMEXE
 40
5.346
  9
$DIMCEN
 40
2.673
  9
$DIMLFAC
 40
1.0
  9
$DIMBLK
  1
_FILLED
  9
$DIMTXT
 40
3.0
  9
$DIMTOL
 70
1
  9
$DIMLIM
 70
0
  9
$DIMTFAC
 40
1.0
  9
$DIMTP
 40
0.01
  9
$DIMTM
 40
0.01
  9
$PDMODE
 70
3
  9
$PDSIZE
 40
3.0
  9
$HANDSEED
  5
3E2
  9
$TILEMODE
 70
1
  9
$MEASUREMENT
 70
1
  9
$INSUNITS
 70
4
  0
ENDSEC
  0
SECTION
  2
CLASSES
  0
CLASS
  1
ACDBDICTIONARYWDFLT
  2
AcDbDictionaryWithDefault
  3
AutoCAD 2000
 90
0
280
0
281
0
  0
CLASS
  1
ACDBPLACEHOLDER
  2
AcDbPlaceHolder
  3
AutoCAD 2000
 90
0
280
0
281
0
  0
CLASS
  1
LAYOUT
  2
AcDbLayout
  3
AutoCAD 2000
 90
0
280
0
281
0
  0
ENDSEC
  0
SECTION
  2
TABLES
  0
TABLE
  2
VPORT
  5
8
100
AcDbSymbolTable
 70
2
  0
VPORT
  5
1F4
100
AcDbSymbolTableRecord
100
AcDbViewportTableRecord
  2
*ACTIVE
 70
0
 10
0.0
 20
0.0
 11
1.0
 21
1.0
 12
148.5
 22
105.0
 13
0.0
 23
0.0
 14
1.0
 24
1.0
 15
0.0
 25
0.0
 16
0.0
 26
0.0
 36
1.0
 17
0.0
 27
0.0
 37
0.0
 40
210.0
 41
1.4142857143
 42
50.0
 43
0.0
 44
0.0
 50
0.0
 51
0.0
 71
0
 72
100
 73
1
 74
1
 75
0
 76
0
 77
0
 78
0
  0
ENDTAB
  0
TABLE
  2
LTYPE
  5
5
100
AcDbSymbolTable
 70
6
  0
LTYPE
  5
14
100
AcDbSymbolTableRecord
100
AcDbLinetypeTableRecord
  2
BYBLOCK
 70
0
  3

 72
65
 73
0
 40
0.0
  0
LTYPE
  5
15
100
AcDbSymbolTableRecord
100
AcDbLinetypeTableRecord
  2
BYLAYER
 70
0
  3

 72
65
 73
0
 40
0.0
  0
LTYPE
  5
16
100
AcDbSymbolTableRecord
100
AcDbLinetypeTableRecord
  2
CONTINUOUS
 70
64
  3
Solid line
 72
65
 73
0
 40
0.0
  0
LTYPE
  5
1F5
100
AcDbSymbolTableRecord
100
AcDbLinetypeTableRecord
  2
CENTER
 70
64
  3
____ _ ____ _ ____ _ ____ _ ____ _ ____ _ ____
 72
65
 73
4
 40
0.6
 49
0.375
 74
0
 49
-0.075
 74
0
 49
0.075
 74
0
 49
-0.075
 74
0
  0
LTYPE
  5
1F6
100
AcDbSymbolTableRecord
100
AcDbLinetypeTableRecord
  2
HIDDEN
 70
64
  3
- - - - - - - - - - - - - - - - - - - -
 72
65
 73
2
 40
0.2
 49
0.1
 74
0
 49
-0.1
 74
0
  0
LTYPE
  5
1F7
100
AcDbSymbolTableRecord
100
AcDbLinetypeTableRecord
  2
PHANTOM
 70
64
  3
_____ _ _ _____ _ _ _____ _ _ _____
 72
65
 73
6
 40
0.8
 49
0.45
 74
0
 49
-0.05
 74
0
 49
0.1
 74
0
 49
-0.05
 74
0
 49
0.1
 74
0
 49
-0.05
 74
0
  0
LTYPE
  5
1F8
100
AcDbSymbolTableRecord
100
AcDbLinetypeTableRecord
  2
DOT
 70
64
  3
. . . . . . . . . . . . . . . . . . . .
 72
65
 73
2
 40
0.2
 49
0.1
 74
0
 49
-0.1
 74
0
  0
LTYPE
  5
1F9
100
AcDbSymbolTableRecord
100
AcDbLinetypeTableRecord
  2
DASHED
 70
64
  3
- - - - - - - - - - - - - - - - - - - -
 72
65
 73
2
 40
0.2
 49
0.1
 74
0
 49
-0.1
 74
0
  0
ENDTAB
  0
TABLE
  2
LAYER
  5
2
100
AcDbSymbolTable
 70
36
  0
LAYER
  5
10
100
AcDbSymbolTableRecord
100
AcDbLayerTableRecord
  2
0
 70
0
 62
7
  6
CONTINUOUS
370
-3
390
F
  0
LAYER
  5
1FA
100
AcDbSymbolTableRecord
100
AcDbLayerTableRecord
  2
DEFAULT_1
 70
0
 62
7
  6
CENTER
370
-3
390
F
  0
LAYER
  5
1FB
100
AcDbSymbolTableRecord
100
AcDbLayerTableRecord
  2
DEFAULT_2
 70
0
 62
7
  6
HIDDEN
370
-3
390
F
  0
LAYER
  5
1FC
100
AcDbSymbolTableRecord
100
AcDbLayerTableRecord
  2
DEFAULT_3
 70
0
 62
7
  6
PHANTOM
370
-3
390
F
  0
LAYER
  5
1FD
100
AcDbSymbolTableRecord
100
AcDbLayerTableRecord
  2
ASSI
 70
0
 62
7
  6
CONTINUOUS
370
-3
390
F
  0
LAYER
  5
1FE
100
AcDbSymbolTableRecord
100
AcDbLayerTableRecord
  2
COORDINATE
 70
0
 62
7
  6
CONTINUOUS
370
-3
390
F
  0
LAYER
  5
1FF
100
AcDbSymbolTableRecord
100
AcDbLayerTableRecord
  2
COORD_ORIGINE
 70
0
 62
7
  6
CONTINUOUS
370
-3
390
F
  0
LAYER
  5
200
100
AcDbSymbolTableRecord
100
AcDbLayerTableRecord
  2
COPY_PUBLISH
 70
0
 62
7
  6
CONTINUOUS
370
-3
390
F
  0
LAYER
  5
201
100
AcDbSymbolTableRecord
100
AcDbLayerTableRecord
  2
COSMETIC
 70
0
 62
7
  6
CONTINUOUS
370
-3
390
F
  0
LAYER
  5
202
100
AcDbSymbolTableRecord
100
AcDbLayerTableRecord
  2
COSMETICI
 70
0
 62
7
  6
CONTINUOUS
370
-3
390
F
  0
LAYER
  5
203
100
AcDbSymbolTableRecord
100
AcDbLayerTableRecord
  2
CURVE
 70
0
 62
7
  6
CONTINUOUS
370
-3
390
F
  0
LAYER
  5
204
100
AcDbSymbolTableRecord
100
AcDbLayerTableRecord
  2
CURVE_TASSELLI
 70
0
 62
7
  6
CONTINUOUS
370
-3
390
F
  0
LAYER
  5
205
100
AcDbSymbolTableRecord
100
AcDbLayerTableRecord
  2
DRAFT
 70
0
 62
7
  6
CONTINUOUS
370
-3
390
F
  0
LAYER
  5
206
100
AcDbSymbolTableRecord
100
AcDbLayerTableRecord
  2
IGES
 70
0
 62
7
  6
CONTINUOUS
370
-3
390
F
  0
LAYER
  5
207
100
AcDbSymbolTableRecord
100
AcDbLayerTableRecord
  2
IMPORT_IGES
 70
0
 62
7
  6
CONTINUOUS
370
-3
390
F
  0
LAYER
  5
208
100
AcDbSymbolTableRecord
100
AcDbLayerTableRecord
  2
INTFCLR_2
 70
0
 62
7
  6
CONTINUOUS
370
-3
390
F
  0
LAYER
  5
209
100
AcDbSymbolTableRecord
100
AcDbLayerTableRecord
  2
NOTE
 70
0
 62
7
  6
CONTINUOUS
370
-3
390
F
  0
LAYER
  5
20A
100
AcDbSymbolTableRecord
100
AcDbLayerTableRecord
  2
PIANI
 70
0
 62
7
  6
CONTINUOUS
370
-3
390
F
  0
LAYER
  5
20B
100
AcDbSymbolTableRecord
100
AcDbLayerTableRecord
  2
PIANI_ORIGINE
 70
0
 62
7
  6
CONTINUOUS
370
-3
390
F
  0
LAYER
  5
20C
100
AcDbSymbolTableRecord
100
AcDbLayerTableRecord
  2
PUNTI
 70
0
 62
7
  6
CONTINUOUS
370
-3
390
F
  0
LAYER
  5
20D
100
AcDbSymbolTableRecord
100
AcDbLayerTableRecord
  2
RACCORDO
 70
0
 62
7
  6
CONTINUOUS
370
-3
390
F
  0
LAYER
  5
20E
100
AcDbSymbolTableRecord
100
AcDbLayerTableRecord
  2
SIMBOLI
 70
0
 62
7
  6
CONTINUOUS
370
-3
390
F
  0
LAYER
  5
20F
100
AcDbSymbolTableRecord
100
AcDbLayerTableRecord
  2
SMUSSO
 70
0
 62
7
  6
CONTINUOUS
370
-3
390
F
  0
LAYER
  5
210
100
AcDbSymbolTableRecord
100
AcDbLayerTableRecord
  2
SNAPLINE
 70
0
 62
7
  6
CONTINUOUS
370
-3
390
F
  0
LAYER
  5
211
100
AcDbSymbolTableRecord
100
AcDbLayerTableRecord
  2
SUPERFICI
 70
0
 62
7
  6
CONTINUOUS
370
-3
390
F
  0
LAYER
  5
212
100
AcDbSymbolTableRecord
100
AcDbLayerTableRecord
  2
TRASH
 70
0
 62
7
  6
CONTINUOUS
370
-3
390
F
  0
LAYER
  5
213
100
AcDbSymbolTableRecord
100
AcDbLayerTableRecord
  2
XSEC_DATUMS
 70
0
 62
7
  6
CONTINUOUS
370
-3
390
F
  0
ENDTAB
  0
TABLE
  2
STYLE
  5
3
100
AcDbSymbolTable
 70
1
  0
STYLE
  5
11
100
AcDbSymbolTableRecord
100
AcDbTextStyleTableRecord
  2
STANDARD
 70
0
 40
0.0
 41
0.8
 50
0.0
 71
0
 42
0.2
  3
txt
  4

  0
STYLE
  5
214
100
AcDbSymbolTableRecord
100
AcDbTextStyleTableRecord
  2
TEXTSTYLE_1
 70
0
 40
0.0
 41
0.8
 50
0.0
 71
0
 42
0.2
  3
gdt
  4

  0
ENDTAB
  0
TABLE
  2
VIEW
  5
6
100
AcDbSymbolTable
 70
0
  0
ENDTAB
  0
TABLE
  2
UCS
  5
7
100
AcDbSymbolTable
 70
0
  0
ENDTAB
  0
TABLE
  2
APPID
  5
9
100
AcDbSymbolTable
 70
1
  0
APPID
  5
215
100
AcDbSymbolTableRecord
100
AcDbRegAppTableRecord
  2
ACAD
 70
0
  0
ENDTAB
  0
TABLE
  2
BLOCK_RECORD
  5
1
100
AcDbSymbolTable
 70
0
  0
BLOCK_RECORD
  5
216
100
AcDbSymbolTableRecord
100
AcDbBlockTableRecord
  2
*Model_Space
  0
BLOCK_RECORD
  5
217
100
AcDbSymbolTableRecord
100
AcDbBlockTableRecord
  2
*Paper_Space
  0
ENDTAB
  0
TABLE
  2
DIMSTYLE
  5
A
100
AcDbSymbolTable
 70
1
100
AcDbDimStyleTable
 71
0
  0
DIMSTYLE
105
218
100
AcDbSymbolTableRecord
100
AcDbDimStyleTableRecord
  2
STANDARD
 70
0
  3

  4

 40
1.0
 41
3.0
 42
0.0625
 43
0.38
 44
0.18
 45
0.0
 46
0.0
 47
0.01
 48
0.01
140
3.0
141
0.09
142
0.0
143
25.4
144
1.0
145
0.0
146
1.0
147
0.09
 71
1.0
 72
0.0
 73
0
 74
0
 75
0
 76
0
 77
1
 78
8
170
0
171
2
172
0
173
0
174
0
175
0
176
0
177
0
178
0
270
2
271
2
272
2
273
2
274
2
275
0
280
0
281
0
282
0
283
1
284
8
285
0
286
0
287
3
288
0
340
11
  0
ENDTAB
  0
ENDSEC
  0
SECTION
  2
BLOCKS
  0
BLOCK
  5
20
100
AcDbEntity
  8
0
100
AcDbBlockBegin
  2
*Model_Space
 70
0
 10
0.0
 20
0.0
 30
0.0
  3
*Model_Space
  1

  0
ENDBLK
  5
21
100
AcDbEntity
  8
0
100
AcDbBlockEnd
  0
BLOCK
  5
1C
100
AcDbEntity
  8
0
100
AcDbBlockBegin
  2
*Paper_Space
 70
0
 10
0.0
 20
0.0
 30
0.0
  3
*Paper_Space
  1

  0
ENDBLK
  5
1D
100
AcDbEntity
  8
0
100
AcDbBlockEnd
  0
ENDSEC
  0
SECTION
  2
ENTITIES
  0
LINE
  5
219
100
AcDbEntity
  8
SMUSSO
100
AcDbLine
 62
7
  6
CONTINUOUS
 10
-55.9192744471
 20
93.0883882234
 11
-56.6263812283
 21
92.5759162102
  0
LINE
  5
21A
100
AcDbEntity
  8
SMUSSO
100
AcDbLine
 62
7
  6
CONTINUOUS
 10
-56.3334880095
 20
91.7223628196
 11
-56.6263812283
 21
91.5100899614
  0
LINE
  5
21B
100
AcDbEntity
  8
SMUSSO
100
AcDbLine
 62
7
  6
CONTINUOUS
 10
-55.9192744471
 20
93.0883882234
 11
-52.4544512193
 21
94.8207998373
  0
LINE
  5
21C
100
AcDbEntity
  8
SMUSSO
100
AcDbLine
 62
7
  6
CONTINUOUS
 10
-55.9192744471
 20
93.0883882234
 11
-56.3334880095
 21
91.7223628196
  0
LWPOLYLINE
  5
21D
100
AcDbEntity
  8
RACCORDO
100
AcDbPolyline
 62
7
  6
CONTINUOUS
 90
15
 70
0
 10
-38.9597407483
 20
68.3454093489
 10
-38.9860684612
 20
68.3300293559
 10
-39.0174963091
 20
68.308306408
 10
-39.0471947208
 20
68.2838342699
 10
-39.0749453851
 20
68.2567587423
 10
-39.1006882951
 20
68.2270778495
 10
-39.1242340963
 20
68.1949061636
 10
-39.1453931959
 20
68.1603997435
 10
-39.1641014348
 20
68.1235448678
 10
-39.1802127479
 20
68.0844366131
 10
-39.1935657418
 20
68.0432187423
 10
-39.2040645712
 20
67.9998545242
 10
-39.2115739922
 20
67.9543613457
 10
-39.2159215026
 20
67.9068673731
 10
-39.2170206185
 20
67.8672725679
  0
LINE
  5
21E
100
AcDbEntity
  8
RACCORDO
100
AcDbLine
 62
7
  6
CONTINUOUS
 10
-38.9597254652
 20
68.3454220591
 11
-37.0439899995
 21
69.3790052982
  0
LINE
  5
21F
100
AcDbEntity
  8
RACCORDO
100
AcDbLine
 62
7
  6
CONTINUOUS
 10
-38.6379294047
 20
68.3301238423
 11
-36.7236902999
 21
69.3628997552
  0
LINE
  5
220
100
AcDbEntity
  8
SMUSSO
100
AcDbLine
 62
7
  6
CONTINUOUS
 10
52.7630378213
 20
-94.3608724725
 11
51.3488242589
 21
-94.0021530049
  0
LINE
  5
221
100
AcDbEntity
  8
SMUSSO
100
AcDbLine
 62
7
  6
CONTINUOUS
 10
-55.9192744471
 20
-40.8857417421
 11
-56.3334880095
 21
-40.5197163383
  0
LINE
  5
222
100
AcDbEntity
  8
SMUSSO
100
AcDbLine
 62
7
  6
CONTINUOUS
 10
-56.6263812283
 20
-40.0145502613
 11
-56.3334880095
 21
-40.5197163383
  0
LINE
  5
223
100
AcDbEntity
  8
RACCORDO
100
AcDbLine
 62
7
  6
CONTINUOUS
 10
-33.5868664755
 20
53.491107796
 11
-33.3365349206
 21
53.6261674129
  0
LINE
  5
224
100
AcDbEntity
  8
DRAFT
100
AcDbLine
 62
7
  6
CONTINUOUS
 10
-34.1689524985
 20
53.1737109391
 11
-33.8507544469
 21
53.3453860879
  0
LINE
  5
225
100
AcDbEntity
  8
DRAFT
100
AcDbLine
 62
7
  6
CONTINUOUS
 10
-33.0250601099
 20
53.2102046132
 11
-33.9282535522
 21
52.7229110302
  0
LINE
  5
226
100
AcDbEntity
  8
DRAFT
100
AcDbLine
 62
7
  6
CONTINUOUS
 10
-32.6875618728
 20
53.9936684031
 11
-33.5747001616
 21
53.5376502204
  0
LINE
  5
227
100
AcDbEntity
  8
SMUSSO
100
AcDbLine
 62
7
  6
CONTINUOUS
 10
-55.9192744471
 20
-40.8857417421
 11
52.0559310401
 21
-94.8733444857
  0
LINE
  5
228
100
AcDbEntity
  8
SMUSSO
100
AcDbLine
 62
7
  6
CONTINUOUS
 10
-56.3334880095
 20
-40.5197163383
 11
51.0559310401
 21
-94.2144258631
  0
LINE
  5
229
100
AcDbEntity
  8
SMUSSO
100
AcDbLine
 62
7
  6
CONTINUOUS
 10
-56.6263812283
 20
92.5759162102
 11
-56.6263812283
 21
-40.0145502613
  0
LINE
  5
22A
100
AcDbEntity
  8
0
100
AcDbLine
 62
7
  6
CONTINUOUS
 10
-30.8390214416
 20
41.5465905465
 11
-33.3365349206
 21
39.9810991267
  0
LINE
  5
22B
100
AcDbEntity
  8
RACCORDO
100
AcDbLine
 62
7
  6
CONTINUOUS
 10
-30.8847503375
 20
41.441529262
 11
-33.2538785534
 21
39.9565122939
  0
LINE
  5
22C
100
AcDbEntity
  8
DRAFT
100
AcDbLine
 62
7
  6
CONTINUOUS
 10
-33.5747001616
 20
46.2388503812
 11
-32.6875618728
 21
46.7341715409
  0
LINE
  5
22D
100
AcDbEntity
  8
DRAFT
100
AcDbLine
 62
7
  6
CONTINUOUS
 10
-32.6875618728
 20
45.6007802512
 11
-33.5747001616
 21
45.1054590915
  0
LINE
  5
22E
100
AcDbEntity
  8
DRAFT
100
AcDbLine
 62
7
  6
CONTINUOUS
 10
-33.0250601099
 20
47.1480267867
 11
-33.9282535522
 21
46.7000361808
  0
LINE
  5
22F
100
AcDbEntity
  8
DRAFT
100
AcDbLine
 62
7
  6
CONTINUOUS
 10
-34.1689524985
 20
45.9129441167
 11
-33.8507544469
 21
46.0707726961
  0
LINE
  5
230
100
AcDbEntity
  8
0
100
AcDbLine
 62
7
  6
CONTINUOUS
 10
-32.6875618728
 20
46.1347137773
 11
-30.9802491947
 21
46.8325100634
  0
LINE
  5
231
100
AcDbEntity
  8
0
100
AcDbLine
 62
7
  6
CONTINUOUS
 10
-32.6875618728
 20
45.8327764314
 11
-30.8390214416
 21
46.5882939556
  0
LINE
  5
232
100
AcDbEntity
  8
RACCORDO
100
AcDbLine
 62
7
  6
CONTINUOUS
 10
-31.6362544428
 20
47.1282865815
 11
-32.6866411289
 21
46.7317326867
  0
LINE
  5
233
100
AcDbEntity
  8
0
100
AcDbLine
 62
7
  6
CONTINUOUS
 10
-31.5542642147
 20
47.1195175734
 11
-32.6875618728
 21
46.6916621882
  0
LWPOLYLINE
  5
234
100
AcDbEntity
  8
RACCORDO
100
AcDbPolyline
 62
7
  6
CONTINUOUS
 90
13
 70
0
 10
29.3334659756
 20
-72.7771577562
 10
29.3480326994
 20
-72.7842031035
 10
29.3879054443
 20
-72.8011228055
 10
29.4282285684
 20
-72.8148042004
 10
29.4688440762
 20
-72.8251953702
 10
29.5094928655
 20
-72.8322482398
 10
29.5499852332
 20
-72.8359517975
 10
29.5901213104
 20
-72.8363119458
 10
29.6295461291
 20
-72.8333805329
 10
29.6680003727
 20
-72.827255593
 10
29.70528294
 20
-72.8180523047
 10
29.7411019326
 20
-72.8059447155
 10
29.7682376263
 20
-72.7944568276
  0
LINE
  5
235
100
AcDbEntity
  8
RACCORDO
100
AcDbLine
 62
7
  6
CONTINUOUS
 10
-38.7683912653
 20
-38.726236692
 11
29.333418843
 21
-72.7771417461
  0
LINE
  5
236
100
AcDbEntity
  8
RACCORDO
100
AcDbLine
 62
7
  6
CONTINUOUS
 10
-38.8463592239
 20
-38.5639745505
 11
29.2554508899
 21
-72.6148796073
  0
LWPOLYLINE
  5
237
100
AcDbEntity
  8
RACCORDO
100
AcDbPolyline
 62
7
  6
CONTINUOUS
 90
5
 70
0
 10
-38.902461973
 20
-38.6374881633
 10
-38.862898831
 20
-38.6684649653
 10
-38.8220272175
 20
-38.6961070655
 10
-38.7800439058
 20
-38.7202498761
 10
-38.7683610765
 20
-38.7262439741
  0
LINE
  5
238
100
AcDbEntity
  8
RACCORDO
100
AcDbLine
 62
7
  6
CONTINUOUS
 10
-38.9403244142
 20
-38.6035461196
 11
-38.902461973
 21
-38.6374881633
  0
LINE
  5
239
100
AcDbEntity
  8
RACCORDO
100
AcDbLine
 62
7
  6
CONTINUOUS
 10
-33.5868664755
 20
36.1705997203
 11
-33.3365349206
 21
36.3056593372
  0
LINE
  5
23A
100
AcDbEntity
  8
DRAFT
100
AcDbLine
 62
7
  6
CONTINUOUS
 10
-34.1689524985
 20
35.8532028634
 11
-33.8507544469
 21
36.0248780122
  0
LINE
  5
23B
100
AcDbEntity
  8
DRAFT
100
AcDbLine
 62
7
  6
CONTINUOUS
 10
-33.0250601099
 20
35.8896965375
 11
-33.9282535522
 21
35.4024029545
  0
LINE
  5
23C
100
AcDbEntity
  8
DRAFT
100
AcDbLine
 62
7
  6
CONTINUOUS
 10
-32.6875618728
 20
37.8065516171
 11
-33.5747001616
 21
37.3505334345
  0
LINE
  5
23D
100
AcDbEntity
  8
DRAFT
100
AcDbLine
 62
7
  6
CONTINUOUS
 10
-33.5747001616
 20
36.2171421448
 11
-32.6875618728
 21
36.6731603274
  0
LINE
  5
23E
100
AcDbEntity
  8
DRAFT
100
AcDbLine
 62
7
  6
CONTINUOUS
 10
-33.4332788054
 20
38.1794100834
 11
-33.8507544469
 21
37.9723390875
  0
LINE
  5
23F
100
AcDbEntity
  8
RACCORDO
100
AcDbLine
 62
7
  6
CONTINUOUS
 10
-37.0073430856
 20
-37.3867094157
 11
27.416434751
 21
-69.598598334
  0
LINE
  5
240
100
AcDbEntity
  8
RACCORDO
100
AcDbLine
 62
7
  6
CONTINUOUS
 10
-36.8501148618
 20
-37.0571404126
 11
27.5736629748
 21
-69.2690293309
  0
LINE
  5
241
100
AcDbEntity
  8
RACCORDO
100
AcDbLine
 62
7
  6
CONTINUOUS
 10
-34.3937240123
 20
-35.7323811972
 11
27.7383744065
 21
-66.7984304066
  0
LINE
  5
242
100
AcDbEntity
  8
RACCORDO
100
AcDbLine
 62
7
  6
CONTINUOUS
 10
-34.3083880189
 20
-35.6750246004
 11
27.7383744065
 21
-66.698405813
  0
LINE
  5
243
100
AcDbEntity
  8
RACCORDO
100
AcDbLine
 62
7
  6
CONTINUOUS
 10
27.7383744065
 20
-66.3455151751
 11
-33.9568527729
 21
-35.4979015854
  0
LINE
  5
244
100
AcDbEntity
  8
DRAFT
100
AcDbLine
 62
7
  6
CONTINUOUS
 10
-20.3357579802
 20
-42.0851675619
 11
-15.4181012583
 21
-44.5439959229
  0
LINE
  5
245
100
AcDbEntity
  8
DRAFT
100
AcDbLine
 62
7
  6
CONTINUOUS
 10
-4.4258554035
 20
-50.0401188503
 11
0.4918013184
 21
-52.4989472112
  0
LINE
  5
246
100
AcDbEntity
  8
DRAFT
100
AcDbLine
 62
7
  6
CONTINUOUS
 10
11.4840471732
 20
-57.9950701386
 11
16.4017038951
 21
-60.4538984995
  0
LINE
  5
247
100
AcDbEntity
  8
RACCORDO
100
AcDbLine
 62
7
  6
CONTINUOUS
 10
27.7383744065
 20
-66.0352630547
 11
16.9480793542
 21
-60.6401155285
  0
LINE
  5
248
100
AcDbEntity
  8
DRAFT
100
AcDbLine
 62
7
  6
CONTINUOUS
 10
11.0083823922
 20
-57.6702670476
 11
1.0381767775
 21
-52.6851642402
  0
LINE
  5
249
100
AcDbEntity
  8
DRAFT
100
AcDbLine
 62
7
  6
CONTINUOUS
 10
-4.9015201845
 20
-49.7153157592
 11
-14.8717257992
 21
-44.7302129518
  0
LINE
  5
24A
100
AcDbEntity
  8
RACCORDO
100
AcDbLine
 62
7
  6
CONTINUOUS
 10
-20.8114227612
 20
-41.7603644709
 11
-33.6386547213
 21
-35.3467484908
  0
LINE
  5
24B
100
AcDbEntity
  8
DRAFT
100
AcDbLine
 62
7
  6
CONTINUOUS
 10
-22.2609916626
 20
-40.9753840216
 11
-26.0409272933
 21
-39.0854162063
  0
LINE
  5
24C
100
AcDbEntity
  8
DRAFT
100
AcDbLine
 62
7
  6
CONTINUOUS
 10
20.5189685992
 20
-62.3653641525
 11
23.5434823851
 21
-63.8776210454
  0
LINE
  5
24D
100
AcDbEntity
  8
RACCORDO
100
AcDbLine
 62
7
  6
CONTINUOUS
 10
17.3369880838
 20
-60.7044692037
 11
17.6952422051
 21
-60.8835962643
  0
LINE
  5
24E
100
AcDbEntity
  8
0
100
AcDbLine
 62
7
  6
CONTINUOUS
 10
4.2555126319
 20
-54.1472411464
 11
4.770376761
 21
-54.4046732109
  0
LINE
  5
24F
100
AcDbEntity
  8
RACCORDO
100
AcDbLine
 62
7
  6
CONTINUOUS
 10
4.2555126319
 20
-54.1098486367
 11
5.4512601753
 21
-54.7077224084
  0
LINE
  5
250
100
AcDbEntity
  8
RACCORDO
100
AcDbLine
 62
7
  6
CONTINUOUS
 10
17.7512631912
 20
-60.8577239164
 11
18.1299376282
 21
-61.0470611349
  0
LINE
  5
251
100
AcDbEntity
  8
RACCORDO
100
AcDbLine
 62
7
  6
CONTINUOUS
 10
20.6802793377
 20
-62.3222319896
 11
21.361162752
 21
-62.6626736968
  0
LINE
  5
252
100
AcDbEntity
  8
RACCORDO
100
AcDbLine
 62
7
  6
CONTINUOUS
 10
17.3369880838
 20
-60.6325292727
 11
17.7713045018
 21
-60.8496874817
  0
LINE
  5
253
100
AcDbEntity
  8
DRAFT
100
AcDbLine
 62
7
  6
CONTINUOUS
 10
20.6802793377
 20
-62.2730219589
 11
18.1793449239
 21
-61.022554752
  0
LINE
  5
254
100
AcDbEntity
  8
DRAFT
100
AcDbLine
 62
7
  6
CONTINUOUS
 10
-20.0143102972
 20
-41.9257271414
 11
-22.0687490105
 21
-40.8985077848
  0
LINE
  5
255
100
AcDbEntity
  8
RACCORDO
100
AcDbLine
 62
7
  6
CONTINUOUS
 10
-21.1155226555
 20
-41.3523910621
 11
-19.9914892812
 21
-41.9144077492
  0
LINE
  5
256
100
AcDbEntity
  8
RACCORDO
100
AcDbLine
 62
7
  6
CONTINUOUS
 10
4.2555126319
 20
-54.0379087058
 11
5.5704028038
 21
-54.6953537917
  0
LINE
  5
257
100
AcDbEntity
  8
RACCORDO
100
AcDbLine
 62
7
  6
CONTINUOUS
 10
17.8839834617
 20
-60.8521441207
 11
18.5886217261
 21
-61.2044632529
  0
LINE
  5
258
100
AcDbEntity
  8
RACCORDO
100
AcDbLine
 62
7
  6
CONTINUOUS
 10
19.0406883674
 20
-61.4304965735
 11
21.4803053805
 21
-62.6503050801
  0
LINE
  5
259
100
AcDbEntity
  8
DRAFT
100
AcDbLine
 62
7
  6
CONTINUOUS
 10
27.7383744065
 20
-65.7686803647
 11
23.5434823851
 21
-63.6712343539
  0
LINE
  5
25A
100
AcDbEntity
  8
0
100
AcDbLine
 62
7
  6
CONTINUOUS
 10
11.3167063679
 20
-57.5578463454
 11
6.8718077223
 21
-55.3353970225
  0
LINE
  5
25B
100
AcDbEntity
  8
0
100
AcDbLine
 62
7
  6
CONTINUOUS
 10
3.3362738163
 20
-53.5676300696
 11
1.3662489048
 21
-52.5826176138
  0
LINE
  5
25C
100
AcDbEntity
  8
DRAFT
100
AcDbLine
 62
7
  6
CONTINUOUS
 10
-4.5931962088
 20
-49.602895057
 11
-14.5436536719
 21
-44.6276663255
  0
LINE
  5
25D
100
AcDbEntity
  8
DRAFT
100
AcDbLine
 62
7
  6
CONTINUOUS
 10
-26.770429689
 20
-38.5142783169
 11
-33.5747001616
 21
-35.1121430806
  0
LINE
  5
25E
100
AcDbEntity
  8
DRAFT
100
AcDbLine
 62
7
  6
CONTINUOUS
 10
-19.4325645379
 20
-41.6371769561
 11
-14.4828170696
 21
-44.1120506902
  0
LINE
  5
25F
100
AcDbEntity
  8
DRAFT
100
AcDbLine
 62
7
  6
CONTINUOUS
 10
-3.5226619612
 20
-49.5921282444
 11
1.4270855071
 21
-52.0670019786
  0
LINE
  5
260
100
AcDbEntity
  8
DRAFT
100
AcDbLine
 62
7
  6
CONTINUOUS
 10
12.3872406155
 20
-57.5470795328
 11
17.3369880838
 21
-60.0219532669
  0
LINE
  5
261
100
AcDbEntity
  8
DRAFT
100
AcDbLine
 62
7
  6
CONTINUOUS
 10
25.4687160675
 20
-63.9231434621
 11
24.2989042298
 21
-63.3382375433
  0
LINE
  5
262
100
AcDbEntity
  8
0
100
AcDbLine
 62
7
  6
CONTINUOUS
 10
9.5588134908
 20
-55.9681921737
 11
7.6142698425
 21
-54.9959203496
  0
LINE
  5
263
100
AcDbEntity
  8
DRAFT
100
AcDbLine
 62
7
  6
CONTINUOUS
 10
-6.3510890859
 20
-48.0132408854
 11
-11.3008365542
 21
-45.5383671512
  0
LINE
  5
264
100
AcDbEntity
  8
DRAFT
100
AcDbLine
 62
7
  6
CONTINUOUS
 10
-26.0409272933
 20
-38.1683217817
 11
-27.2107391309
 21
-37.5834158629
  0
LINE
  5
265
100
AcDbEntity
  8
DRAFT
100
AcDbLine
 62
7
  6
CONTINUOUS
 10
27.7383744065
 20
-64.8887565047
 11
25.6609587196
 21
-63.8500486612
  0
LINE
  5
266
100
AcDbEntity
  8
DRAFT
100
AcDbLine
 62
7
  6
CONTINUOUS
 10
10.1244989157
 20
-56.0818187593
 11
9.7510561429
 21
-55.8950973729
  0
LINE
  5
267
100
AcDbEntity
  8
0
100
AcDbLine
 62
7
  6
CONTINUOUS
 10
4.2555126319
 20
-53.1473256174
 11
2.2694423472
 21
-52.154290475
  0
LINE
  5
268
100
AcDbEntity
  8
DRAFT
100
AcDbLine
 62
7
  6
CONTINUOUS
 10
-3.65791202
 20
-49.1906132914
 11
-6.1588464338
 21
-47.9401460845
  0
LINE
  5
269
100
AcDbEntity
  8
DRAFT
100
AcDbLine
 62
7
  6
CONTINUOUS
 10
-11.1395258157
 20
-45.4498063936
 11
-11.5129685886
 21
-45.2630850071
  0
LINE
  5
26A
100
AcDbEntity
  8
DRAFT
100
AcDbLine
 62
7
  6
CONTINUOUS
 10
-27.0494283924
 20
-37.4948551052
 11
-32.4786846508
 21
-34.780226976
  0
LINE
  5
26B
100
AcDbEntity
  8
DRAFT
100
AcDbLine
 62
7
  6
CONTINUOUS
 10
12.8275500575
 20
-56.891852724
 11
10.7000584165
 21
-55.8281069035
  0
LINE
  5
26C
100
AcDbEntity
  8
DRAFT
100
AcDbLine
 62
7
  6
CONTINUOUS
 10
-10.9472831636
 20
-45.0044361135
 11
-13.0846488804
 21
-43.9357532551
  0
LINE
  5
26D
100
AcDbEntity
  8
DRAFT
100
AcDbLine
 62
7
  6
CONTINUOUS
 10
-31.9228733016
 20
-34.5166410445
 11
-32.1416306182
 21
-34.4072623862
  0
LINE
  5
26E
100
AcDbEntity
  8
DRAFT
100
AcDbLine
 62
7
  6
CONTINUOUS
 10
-32.6875618728
 20
-33.8663748573
 11
-32.1416306182
 21
-34.1393404846
  0
LINE
  5
26F
100
AcDbEntity
  8
0
100
AcDbLine
 62
7
  6
CONTINUOUS
 10
-21.4554759966
 20
-39.3080783629
 11
-17.338942401
 21
-41.3663451607
  0
LINE
  5
270
100
AcDbEntity
  8
0
100
AcDbLine
 62
7
  6
CONTINUOUS
 10
22.5265657932
 20
-61.2990992578
 11
26.6430993888
 21
-63.3573660556
  0
LINE
  5
271
100
AcDbEntity
  8
SMUSSO
100
AcDbLine
 62
7
  6
CONTINUOUS
 10
52.0559310401
 20
-94.8733444857
 11
51.0559310401
 21
-94.2144258631
  0
LWPOLYLINE
  5
272
100
AcDbEntity
  8
RACCORDO
100
AcDbPolyline
 62
7
  6
CONTINUOUS
 90
14
 70
0
 10
-39.216429086
 20
-37.999628057
 10
-39.212685696
 20
-38.0506004808
 10
-39.2056132241
 20
-38.1015217502
 10
-39.1953447277
 20
-38.1522545883
 10
-39.1820024956
 20
-38.2025730693
 10
-39.1656856022
 20
-38.2523407835
 10
-39.1464736914
 20
-38.301399319
 10
-39.1244965599
 20
-38.3494313496
 10
-39.099799013
 20
-38.3963394695
 10
-39.0724614467
 20
-38.4418782409
 10
-39.0427537569
 20
-38.4855535194
 10
-39.0107166903
 20
-38.5272530748
 10
-38.9764369958
 20
-38.5667573878
 10
-38.9403244142
 20
-38.6035461196
  0
LINE
  5
273
100
AcDbEntity
  8
RACCORDO
100
AcDbLine
 62
7
  6
CONTINUOUS
 10
-39.2170207513
 20
-37.9700455343
 11
-39.216429086
 21
-37.999628057
  0
LINE
  5
274
100
AcDbEntity
  8
RACCORDO
100
AcDbLine
 62
7
  6
CONTINUOUS
 10
-39.2170268243
 20
67.8672493095
 11
-39.2170268243
 21
-37.9701513109
  0
LINE
  5
275
100
AcDbEntity
  8
RACCORDO
100
AcDbLine
 62
7
  6
CONTINUOUS
 10
-39.1291588587
 20
67.7650863477
 11
-39.1291588587
 21
-38.0762173314
  0
LINE
  5
276
100
AcDbEntity
  8
RACCORDO
100
AcDbLine
 62
7
  6
CONTINUOUS
 10
-37.4171507067
 20
-36.6798958228
 11
-37.4171507067
 21
64.6528536362
  0
LINE
  5
277
100
AcDbEntity
  8
RACCORDO
100
AcDbLine
 62
7
  6
CONTINUOUS
 10
-37.0550186724
 20
-36.7037336162
 11
-37.0550186724
 21
64.6290158428
  0
LINE
  5
278
100
AcDbEntity
  8
DRAFT
100
AcDbLine
 62
7
  6
CONTINUOUS
 10
-32.6875618728
 20
29.4136634652
 11
-33.5747001616
 21
28.9183423055
  0
LINE
  5
279
100
AcDbEntity
  8
DRAFT
100
AcDbLine
 62
7
  6
CONTINUOUS
 10
-32.6875618728
 20
23.0841197528
 11
-32.1416306182
 21
23.3889327741
  0
LINE
  5
27A
100
AcDbEntity
  8
DRAFT
100
AcDbLine
 62
7
  6
CONTINUOUS
 10
-32.6875618728
 20
25.6821959641
 11
-32.1416306182
 21
25.9628225381
  0
LINE
  5
27B
100
AcDbEntity
  8
DRAFT
100
AcDbLine
 62
7
  6
CONTINUOUS
 10
-33.0250601099
 20
29.827518711
 11
-33.9282535522
 21
29.3795281051
  0
LINE
  5
27C
100
AcDbEntity
  8
DRAFT
100
AcDbLine
 62
7
  6
CONTINUOUS
 10
-34.1689524985
 20
28.592436041
 11
-33.8507544469
 21
28.7502646204
  0
LINE
  5
27D
100
AcDbEntity
  8
RACCORDO
100
AcDbLine
 62
7
  6
CONTINUOUS
 10
-34.6178169297
 20
63.6318183677
 11
-34.6178169297
 21
-35.3458780872
  0
LINE
  5
27E
100
AcDbEntity
  8
RACCORDO
100
AcDbLine
 62
7
  6
CONTINUOUS
 10
-34.5204877445
 20
63.5831537751
 11
-34.5204877445
 21
-35.3092066864
  0
LINE
  5
27F
100
AcDbEntity
  8
RACCORDO
100
AcDbLine
 62
7
  6
CONTINUOUS
 10
-34.1689524985
 20
-35.1320836714
 11
-34.1689524985
 21
63.4073861521
  0
LINE
  5
280
100
AcDbEntity
  8
DRAFT
100
AcDbLine
 62
7
  6
CONTINUOUS
 10
-33.9282535522
 20
52.7229110302
 11
-33.9282535522
 21
46.7000361808
  0
LINE
  5
281
100
AcDbEntity
  8
DRAFT
100
AcDbLine
 62
7
  6
CONTINUOUS
 10
-33.9282535522
 20
35.4024029545
 11
-33.9282535522
 21
29.3795281051
  0
LINE
  5
282
100
AcDbEntity
  8
DRAFT
100
AcDbLine
 62
7
  6
CONTINUOUS
 10
-33.9282535522
 20
18.0818948789
 11
-33.9282535522
 21
12.0590200295
  0
LINE
  5
283
100
AcDbEntity
  8
DRAFT
100
AcDbLine
 62
7
  6
CONTINUOUS
 10
-33.9282535522
 20
0.7613868032
 11
-33.9282535522
 21
-5.2614880462
  0
LINE
  5
284
100
AcDbEntity
  8
DRAFT
100
AcDbLine
 62
7
  6
CONTINUOUS
 10
-33.9282535522
 20
-16.5591212725
 11
-33.9282535522
 21
-22.5819961219
  0
LINE
  5
285
100
AcDbEntity
  8
RACCORDO
100
AcDbLine
 62
7
  6
CONTINUOUS
 10
-33.8507544469
 20
-34.9809305768
 11
-33.8507544469
 21
-23.2112596067
  0
LINE
  5
286
100
AcDbEntity
  8
DRAFT
100
AcDbLine
 62
7
  6
CONTINUOUS
 10
-33.8507544469
 20
-15.9366462149
 11
-33.8507544469
 21
-5.890751531
  0
LINE
  5
287
100
AcDbEntity
  8
DRAFT
100
AcDbLine
 62
7
  6
CONTINUOUS
 10
-33.8507544469
 20
1.3838618608
 11
-33.8507544469
 21
11.4297565447
  0
LINE
  5
288
100
AcDbEntity
  8
DRAFT
100
AcDbLine
 62
7
  6
CONTINUOUS
 10
-33.8507544469
 20
18.7043699365
 11
-33.8507544469
 21
28.7502646204
  0
LINE
  5
289
100
AcDbEntity
  8
DRAFT
100
AcDbLine
 62
7
  6
CONTINUOUS
 10
-33.8507544469
 20
36.0248780122
 11
-33.8507544469
 21
46.0707726961
  0
LINE
  5
28A
100
AcDbEntity
  8
RACCORDO
100
AcDbLine
 62
7
  6
CONTINUOUS
 10
-33.8507544469
 20
53.3453860879
 11
-33.8507544469
 21
63.2482871263
  0
LINE
  5
28B
100
AcDbEntity
  8
DRAFT
100
AcDbLine
 62
7
  6
CONTINUOUS
 10
-33.5747001616
 20
-35.1121430806
 11
-33.5747001616
 21
-23.0431819215
  0
LINE
  5
28C
100
AcDbEntity
  8
DRAFT
100
AcDbLine
 62
7
  6
CONTINUOUS
 10
-33.5747001616
 20
-15.7443820823
 11
-33.5747001616
 21
-14.6109907926
  0
LINE
  5
28D
100
AcDbEntity
  8
DRAFT
100
AcDbLine
 62
7
  6
CONTINUOUS
 10
-33.5747001616
 20
-6.8560651356
 11
-33.5747001616
 21
-5.7226738459
  0
LINE
  5
28E
100
AcDbEntity
  8
0
100
AcDbLine
 62
7
  6
CONTINUOUS
 10
-33.5747001616
 20
1.5761259934
 11
-33.5747001616
 21
7.9293194875
  0
LINE
  5
28F
100
AcDbEntity
  8
DRAFT
100
AcDbLine
 62
7
  6
CONTINUOUS
 10
-33.5747001616
 20
18.8966340691
 11
-33.5747001616
 21
28.9183423055
  0
LINE
  5
290
100
AcDbEntity
  8
DRAFT
100
AcDbLine
 62
7
  6
CONTINUOUS
 10
-33.5747001616
 20
36.2171421448
 11
-33.5747001616
 21
37.3505334345
  0
LINE
  5
291
100
AcDbEntity
  8
DRAFT
100
AcDbLine
 62
7
  6
CONTINUOUS
 10
-33.5747001616
 20
45.1054590915
 11
-33.5747001616
 21
46.2388503812
  0
LINE
  5
292
100
AcDbEntity
  8
DRAFT
100
AcDbLine
 62
7
  6
CONTINUOUS
 10
-33.5747001616
 20
53.5376502204
 11
-33.5747001616
 21
63.1102599836
  0
LINE
  5
293
100
AcDbEntity
  8
0
100
AcDbLine
 62
7
  6
CONTINUOUS
 10
-33.5039894835
 20
12.2694581353
 11
-33.5039894835
 21
8.813202964
  0
LINE
  5
294
100
AcDbEntity
  8
DRAFT
100
AcDbLine
 62
7
  6
CONTINUOUS
 10
-33.4332788054
 20
-13.7821141437
 11
-33.4332788054
 21
-6.7771045146
  0
LINE
  5
295
100
AcDbEntity
  8
DRAFT
100
AcDbLine
 62
7
  6
CONTINUOUS
 10
-33.4332788054
 20
38.1794100834
 11
-33.4332788054
 21
45.1844197125
  0
LINE
  5
296
100
AcDbEntity
  8
RACCORDO
100
AcDbLine
 62
7
  6
CONTINUOUS
 10
-33.380530076
 20
53.6024310172
 11
-33.380530076
 21
53.3879395962
  0
LINE
  5
297
100
AcDbEntity
  8
RACCORDO
100
AcDbLine
 62
7
  6
CONTINUOUS
 10
-33.380530076
 20
36.2819229416
 11
-33.380530076
 21
36.0674315205
  0
LINE
  5
298
100
AcDbEntity
  8
RACCORDO
100
AcDbLine
 62
7
  6
CONTINUOUS
 10
-33.380530076
 20
18.9614148659
 11
-33.380530076
 21
18.7469234449
  0
LINE
  5
299
100
AcDbEntity
  8
RACCORDO
100
AcDbLine
 62
7
  6
CONTINUOUS
 10
-33.380530076
 20
1.6409067902
 11
-33.380530076
 21
1.4264153692
  0
LINE
  5
29A
100
AcDbEntity
  8
RACCORDO
100
AcDbLine
 62
7
  6
CONTINUOUS
 10
-33.380530076
 20
-15.6796012855
 11
-33.380530076
 21
-15.8940927065
  0
LINE
  5
29B
100
AcDbEntity
  8
RACCORDO
100
AcDbLine
 62
7
  6
CONTINUOUS
 10
-33.3365349206
 20
53.6600749672
 11
-33.3365349206
 21
53.6261674129
  0
LINE
  5
29C
100
AcDbEntity
  8
RACCORDO
100
AcDbLine
 62
7
  6
CONTINUOUS
 10
-33.3365349206
 20
36.3395668915
 11
-33.3365349206
 21
36.3056593372
  0
LINE
  5
29D
100
AcDbEntity
  8
RACCORDO
100
AcDbLine
 62
7
  6
CONTINUOUS
 10
-33.3365349206
 20
19.0190588158
 11
-33.3365349206
 21
18.9851512615
  0
LINE
  5
29E
100
AcDbEntity
  8
RACCORDO
100
AcDbLine
 62
7
  6
CONTINUOUS
 10
-33.3365349206
 20
12.3525168329
 11
-33.3365349206
 21
9.2397666136
  0
LINE
  5
29F
100
AcDbEntity
  8
RACCORDO
100
AcDbLine
 62
7
  6
CONTINUOUS
 10
-33.3365349206
 20
1.6985507402
 11
-33.3365349206
 21
1.6646431858
  0
LINE
  5
2A0
100
AcDbEntity
  8
RACCORDO
100
AcDbLine
 62
7
  6
CONTINUOUS
 10
-33.3365349206
 20
-15.6219573355
 11
-33.3365349206
 21
-15.6558648899
  0
LINE
  5
2A1
100
AcDbEntity
  8
RACCORDO
100
AcDbLine
 62
7
  6
CONTINUOUS
 10
-33.3365349206
 20
-13.8304860861
 11
-33.3365349206
 21
-11.9804251003
  0
LINE
  5
2A2
100
AcDbEntity
  8
RACCORDO
100
AcDbLine
 62
7
  6
CONTINUOUS
 10
-33.3365349206
 20
38.131038141
 11
-33.3365349206
 21
39.9810991267
  0
LINE
  5
2A3
100
AcDbEntity
  8
RACCORDO
100
AcDbLine
 62
7
  6
CONTINUOUS
 10
-33.2963320161
 20
53.6534225995
 11
-33.2963320161
 21
53.3458405663
  0
LINE
  5
2A4
100
AcDbEntity
  8
RACCORDO
100
AcDbLine
 62
7
  6
CONTINUOUS
 10
-33.2963320161
 20
36.3329145238
 11
-33.2963320161
 21
36.0253324906
  0
LINE
  5
2A5
100
AcDbEntity
  8
RACCORDO
100
AcDbLine
 62
7
  6
CONTINUOUS
 10
-33.2963320161
 20
19.0124064481
 11
-33.2963320161
 21
18.7048244149
  0
LINE
  5
2A6
100
AcDbEntity
  8
RACCORDO
100
AcDbLine
 62
7
  6
CONTINUOUS
 10
-33.2963320161
 20
1.6918983724
 11
-33.2963320161
 21
1.3843163392
  0
LINE
  5
2A7
100
AcDbEntity
  8
RACCORDO
100
AcDbLine
 62
7
  6
CONTINUOUS
 10
-33.2963320161
 20
-15.6286097033
 11
-33.2963320161
 21
-15.9361917365
  0
LINE
  5
2A8
100
AcDbEntity
  8
RACCORDO
100
AcDbLine
 62
7
  6
CONTINUOUS
 10
-33.2523368607
 20
47.0352958427
 11
-33.2523368607
 21
47.0165590349
  0
LINE
  5
2A9
100
AcDbEntity
  8
RACCORDO
100
AcDbLine
 62
7
  6
CONTINUOUS
 10
-33.2523368607
 20
39.9603056333
 11
-33.2523368607
 21
38.0889391111
  0
LINE
  5
2AA
100
AcDbEntity
  8
RACCORDO
100
AcDbLine
 62
7
  6
CONTINUOUS
 10
-33.2523368607
 20
29.714787767
 11
-33.2523368607
 21
29.6960509592
  0
LINE
  5
2AB
100
AcDbEntity
  8
RACCORDO
100
AcDbLine
 62
7
  6
CONTINUOUS
 10
-33.2523368607
 20
12.3942796914
 11
-33.2523368607
 21
9.1976675836
  0
LINE
  5
2AC
100
AcDbEntity
  8
RACCORDO
100
AcDbLine
 62
7
  6
CONTINUOUS
 10
-33.2523368607
 20
-4.9262283843
 11
-33.2523368607
 21
-4.9449651922
  0
LINE
  5
2AD
100
AcDbEntity
  8
RACCORDO
100
AcDbLine
 62
7
  6
CONTINUOUS
 10
-33.2523368607
 20
-12.0012185938
 11
-33.2523368607
 21
-13.872585116
  0
LINE
  5
2AE
100
AcDbEntity
  8
RACCORDO
100
AcDbLine
 62
7
  6
CONTINUOUS
 10
-33.2523368607
 20
-22.24673646
 11
-33.2523368607
 21
-22.2654732679
  0
LINE
  5
2AF
100
AcDbEntity
  8
DRAFT
100
AcDbLine
 62
7
  6
CONTINUOUS
 10
-33.0250601099
 20
53.2102046132
 11
-33.0250601099
 21
47.1480267867
  0
LINE
  5
2B0
100
AcDbEntity
  8
DRAFT
100
AcDbLine
 62
7
  6
CONTINUOUS
 10
-33.0250601099
 20
35.8896965375
 11
-33.0250601099
 21
29.827518711
  0
LINE
  5
2B1
100
AcDbEntity
  8
DRAFT
100
AcDbLine
 62
7
  6
CONTINUOUS
 10
-33.0250601099
 20
18.5691884618
 11
-33.0250601099
 21
12.5070106353
  0
LINE
  5
2B2
100
AcDbEntity
  8
DRAFT
100
AcDbLine
 62
7
  6
CONTINUOUS
 10
-33.0250601099
 20
1.2486803861
 11
-33.0250601099
 21
-4.8134974404
  0
LINE
  5
2B3
100
AcDbEntity
  8
DRAFT
100
AcDbLine
 62
7
  6
CONTINUOUS
 10
-33.0250601099
 20
-16.0718276896
 11
-33.0250601099
 21
-22.1340055161
  0
LINE
  5
2B4
100
AcDbEntity
  8
DRAFT
100
AcDbLine
 62
7
  6
CONTINUOUS
 10
-32.6875618728
 20
-34.4199670585
 11
-32.6875618728
 21
-22.5478607618
  0
LINE
  5
2B5
100
AcDbEntity
  8
DRAFT
100
AcDbLine
 62
7
  6
CONTINUOUS
 10
-32.6875618728
 20
-15.2883638997
 11
-32.6875618728
 21
-14.1549726099
  0
LINE
  5
2B6
100
AcDbEntity
  8
DRAFT
100
AcDbLine
 62
7
  6
CONTINUOUS
 10
-32.6875618728
 20
-6.3607439759
 11
-32.6875618728
 21
-5.2273526861
  0
LINE
  5
2B7
100
AcDbEntity
  8
DRAFT
100
AcDbLine
 62
7
  6
CONTINUOUS
 10
-32.6875618728
 20
2.032144176
 11
-32.6875618728
 21
5.7636116771
  0
LINE
  5
2B8
100
AcDbEntity
  8
0
100
AcDbLine
 62
7
  6
CONTINUOUS
 10
-32.6875618728
 20
8.3616878884
 11
-32.6875618728
 21
8.4049891586
  0
LINE
  5
2B9
100
AcDbEntity
  8
DRAFT
100
AcDbLine
 62
7
  6
CONTINUOUS
 10
-32.6875618728
 20
19.3526522517
 11
-32.6875618728
 21
23.0841197528
  0
LINE
  5
2BA
100
AcDbEntity
  8
DRAFT
100
AcDbLine
 62
7
  6
CONTINUOUS
 10
-32.6875618728
 20
25.6821959641
 11
-32.6875618728
 21
29.4136634652
  0
LINE
  5
2BB
100
AcDbEntity
  8
DRAFT
100
AcDbLine
 62
7
  6
CONTINUOUS
 10
-32.6875618728
 20
36.6731603274
 11
-32.6875618728
 21
37.8065516171
  0
LINE
  5
2BC
100
AcDbEntity
  8
DRAFT
100
AcDbLine
 62
7
  6
CONTINUOUS
 10
-32.6875618728
 20
45.6007802512
 11
-32.6875618728
 21
46.7341715409
  0
LINE
  5
2BD
100
AcDbEntity
  8
DRAFT
100
AcDbLine
 62
7
  6
CONTINUOUS
 10
-32.6875618728
 20
53.9936684031
 11
-32.6875618728
 21
62.6666908392
  0
LINE
  5
2BE
100
AcDbEntity
  8
DRAFT
100
AcDbLine
 62
7
  6
CONTINUOUS
 10
-32.1416306182
 20
-34.4072623862
 11
-32.1416306182
 21
-34.1393404846
  0
LINE
  5
2BF
100
AcDbEntity
  8
DRAFT
100
AcDbLine
 62
7
  6
CONTINUOUS
 10
-32.1416306182
 20
6.0684246985
 11
-32.1416306182
 21
8.6423144624
  0
LINE
  5
2C0
100
AcDbEntity
  8
DRAFT
100
AcDbLine
 62
7
  6
CONTINUOUS
 10
-32.1416306182
 20
23.3889327741
 11
-32.1416306182
 21
25.9628225381
  0
LINE
  5
2C1
100
AcDbEntity
  8
DRAFT
100
AcDbLine
 62
7
  6
CONTINUOUS
 10
-31.9228733016
 20
-34.5166410445
 11
-31.9228733016
 21
-35.0581326506
  0
LINE
  5
2C2
100
AcDbEntity
  8
0
100
AcDbLine
 62
7
  6
CONTINUOUS
 10
-30.8390214416
 20
-10.4149336805
 11
-30.8390214416
 21
-5.3732302715
  0
LINE
  5
2C3
100
AcDbEntity
  8
0
100
AcDbLine
 62
7
  6
CONTINUOUS
 10
-30.8390214416
 20
41.5465905465
 11
-30.8390214416
 21
46.5882939556
  0
LINE
  5
2C4
100
AcDbEntity
  8
RACCORDO
100
AcDbLine
 62
7
  6
CONTINUOUS
 10
-33.5868664755
 20
18.8500916446
 11
-33.3365349206
 21
18.9851512615
  0
LINE
  5
2C5
100
AcDbEntity
  8
DRAFT
100
AcDbLine
 62
7
  6
CONTINUOUS
 10
-34.1689524985
 20
18.5326947877
 11
-33.8507544469
 21
18.7043699365
  0
LINE
  5
2C6
100
AcDbEntity
  8
DRAFT
100
AcDbLine
 62
7
  6
CONTINUOUS
 10
-33.0250601099
 20
18.5691884618
 11
-33.9282535522
 21
18.0818948789
  0
LINE
  5
2C7
100
AcDbEntity
  8
DRAFT
100
AcDbLine
 62
7
  6
CONTINUOUS
 10
-32.6875618728
 20
19.3526522517
 11
-33.5747001616
 21
18.8966340691
  0
LINE
  5
2C8
100
AcDbEntity
  8
DRAFT
100
AcDbLine
 62
7
  6
CONTINUOUS
 10
-34.1689524985
 20
-23.0521605809
 11
-33.8507544469
 21
-23.2112596067
  0
LINE
  5
2C9
100
AcDbEntity
  8
RACCORDO
100
AcDbLine
 62
7
  6
CONTINUOUS
 10
-33.5747001616
 20
-23.0431819215
 11
-34.1689524985
 21
-22.7460557531
  0
LINE
  5
2CA
100
AcDbEntity
  8
SMUSSO
100
AcDbLine
 62
7
  6
CONTINUOUS
 10
-33.9282535522
 20
-22.5819961219
 11
-34.1689524985
 21
-22.4616466488
  0
LINE
  5
2CB
100
AcDbEntity
  8
DRAFT
100
AcDbLine
 62
7
  6
CONTINUOUS
 10
-32.6875618728
 20
-22.5478607618
 11
-33.2711487776
 21
-22.2560673095
  0
LINE
  5
2CC
100
AcDbEntity
  8
SMUSSO
100
AcDbLine
 62
7
  6
CONTINUOUS
 10
-33.9282535522
 20
-16.5591212725
 11
-34.1689524985
 21
-16.4387717994
  0
LINE
  5
2CD
100
AcDbEntity
  8
SMUSSO
100
AcDbLine
 62
7
  6
CONTINUOUS
 10
-33.8507544469
 20
-15.6589805211
 11
-33.0250601099
 21
-16.0718276896
  0
LINE
  5
2CE
100
AcDbEntity
  8
RACCORDO
100
AcDbLine
 62
7
  6
CONTINUOUS
 10
-33.8507544469
 20
-15.6063549396
 11
-33.5747001616
 21
-15.7443820823
  0
LINE
  5
2CF
100
AcDbEntity
  8
DRAFT
100
AcDbLine
 62
7
  6
CONTINUOUS
 10
-27.0494283924
 20
-37.6640712321
 11
-27.0494283924
 21
-37.4948551052
  0
LINE
  5
2D0
100
AcDbEntity
  8
DRAFT
100
AcDbLine
 62
7
  6
CONTINUOUS
 10
-26.770429689
 20
-38.780861007
 11
-26.770429689
 21
-38.5142783169
  0
LINE
  5
2D1
100
AcDbEntity
  8
DRAFT
100
AcDbLine
 62
7
  6
CONTINUOUS
 10
-26.0409272933
 20
-39.0854162063
 11
-26.0409272933
 21
-38.1683217817
  0
LINE
  5
2D2
100
AcDbEntity
  8
0
100
AcDbLine
 62
7
  6
CONTINUOUS
 10
-32.6875618728
 20
8.4049891586
 11
-33.5747001616
 21
7.9293194875
  0
LINE
  5
2D3
100
AcDbEntity
  8
0
100
AcDbLine
 62
7
  6
CONTINUOUS
 10
-34.1689524985
 20
12.1546721072
 11
-34.1447720331
 21
12.1672792699
  0
LINE
  5
2D4
100
AcDbEntity
  8
DRAFT
100
AcDbLine
 62
7
  6
CONTINUOUS
 10
-32.6875618728
 20
8.3616878884
 11
-32.1416306182
 21
8.6423144624
  0
LINE
  5
2D5
100
AcDbEntity
  8
0
100
AcDbLine
 62
7
  6
CONTINUOUS
 10
-33.5039894835
 20
8.813202964
 11
-33.8507544469
 21
8.6398204822
  0
LINE
  5
2D6
100
AcDbEntity
  8
DRAFT
100
AcDbLine
 62
7
  6
CONTINUOUS
 10
-33.0250601099
 20
12.5070106353
 11
-33.9282535522
 21
12.0590200295
  0
LINE
  5
2D7
100
AcDbEntity
  8
DRAFT
100
AcDbLine
 62
7
  6
CONTINUOUS
 10
-34.1689524985
 20
11.2719279653
 11
-33.8507544469
 21
11.4297565447
  0
LINE
  5
2D8
100
AcDbEntity
  8
DRAFT
100
AcDbLine
 62
7
  6
CONTINUOUS
 10
-33.5747001616
 20
-14.6109907926
 11
-33.8507544469
 21
-14.4729636499
  0
LINE
  5
2D9
100
AcDbEntity
  8
DRAFT
100
AcDbLine
 62
7
  6
CONTINUOUS
 10
-32.6875618728
 20
-14.1549726099
 11
-33.4332788054
 21
-13.7821141437
  0
LINE
  5
2DA
100
AcDbEntity
  8
DRAFT
100
AcDbLine
 62
7
  6
CONTINUOUS
 10
-20.8114227612
 20
-42.0706165913
 11
-20.8114227612
 21
-41.7603644709
  0
LINE
  5
2DB
100
AcDbEntity
  8
SMUSSO
100
AcDbLine
 62
7
  6
CONTINUOUS
 10
-20.3357579802
 20
-42.0851675619
 11
-20.3357579802
 21
-42.3084489818
  0
LINE
  5
2DC
100
AcDbEntity
  8
0
100
AcDbLine
 62
7
  6
CONTINUOUS
 10
-17.1971967727
 20
-41.6101859411
 11
-17.1971967727
 21
-42.3132078929
  0
LINE
  5
2DD
100
AcDbEntity
  8
SMUSSO
100
AcDbLine
 62
7
  6
CONTINUOUS
 10
-15.4181012583
 20
-44.5439959229
 11
-15.4181012583
 21
-44.7672773427
  0
LINE
  5
2DE
100
AcDbEntity
  8
RACCORDO
100
AcDbLine
 62
7
  6
CONTINUOUS
 10
-14.5436536719
 20
-44.6276663255
 11
-14.5436536719
 21
-44.8942490155
  0
LINE
  5
2DF
100
AcDbEntity
  8
SMUSSO
100
AcDbLine
 62
7
  6
CONTINUOUS
 10
-14.4828170696
 20
-44.5988153988
 11
-14.4828170696
 21
-44.1120506902
  0
LINE
  5
2E0
100
AcDbEntity
  8
DRAFT
100
AcDbLine
 62
7
  6
CONTINUOUS
 10
-32.6875618728
 20
5.7636116771
 11
-32.1416306182
 21
6.0684246985
  0
LINE
  5
2E1
100
AcDbEntity
  8
RACCORDO
100
AcDbLine
 62
7
  6
CONTINUOUS
 10
-33.5868664755
 20
1.5295835689
 11
-33.3365349206
 21
1.6646431858
  0
LINE
  5
2E2
100
AcDbEntity
  8
DRAFT
100
AcDbLine
 62
7
  6
CONTINUOUS
 10
-34.1689524985
 20
1.212186712
 11
-33.8507544469
 21
1.3838618608
  0
LINE
  5
2E3
100
AcDbEntity
  8
DRAFT
100
AcDbLine
 62
7
  6
CONTINUOUS
 10
-33.0250601099
 20
1.2486803861
 11
-33.9282535522
 21
0.7613868032
  0
LINE
  5
2E4
100
AcDbEntity
  8
DRAFT
100
AcDbLine
 62
7
  6
CONTINUOUS
 10
-32.6875618728
 20
2.032144176
 11
-33.5747001616
 21
1.5761259934
  0
LINE
  5
2E5
100
AcDbEntity
  8
RACCORDO
100
AcDbLine
 62
7
  6
CONTINUOUS
 10
29.4634924084
 20
34.2790231373
 11
31.4461333306
 21
35.27798794
  0
LINE
  5
2E6
100
AcDbEntity
  8
RACCORDO
100
AcDbLine
 62
7
  6
CONTINUOUS
 10
29.9587800696
 20
33.4256436525
 11
31.9410326903
 21
34.4244128073
  0
LINE
  5
2E7
100
AcDbEntity
  8
DRAFT
100
AcDbLine
 62
7
  6
CONTINUOUS
 10
-33.8507544469
 20
-6.7180379929
 11
-33.5747001616
 21
-6.8560651356
  0
LINE
  5
2E8
100
AcDbEntity
  8
DRAFT
100
AcDbLine
 62
7
  6
CONTINUOUS
 10
-34.1689524985
 20
-5.7316525052
 11
-33.8507544469
 21
-5.890751531
  0
LINE
  5
2E9
100
AcDbEntity
  8
RACCORDO
100
AcDbLine
 62
7
  6
CONTINUOUS
 10
-33.5747001616
 20
-5.7226738459
 11
-34.1689524985
 21
-5.4255476774
  0
LINE
  5
2EA
100
AcDbEntity
  8
SMUSSO
100
AcDbLine
 62
7
  6
CONTINUOUS
 10
-33.9282535522
 20
-5.2614880462
 11
-34.1689524985
 21
-5.1411385731
  0
LINE
  5
2EB
100
AcDbEntity
  8
DRAFT
100
AcDbLine
 62
7
  6
CONTINUOUS
 10
-32.6875618728
 20
-5.2273526861
 11
-33.2711487776
 21
-4.9355592338
  0
LINE
  5
2EC
100
AcDbEntity
  8
0
100
AcDbLine
 62
7
  6
CONTINUOUS
 10
-31.5542642147
 20
-4.8420066536
 11
-30.9802491947
 21
-5.1290141636
  0
LINE
  5
2ED
100
AcDbEntity
  8
SMUSSO
100
AcDbLine
 62
7
  6
CONTINUOUS
 10
-33.9282535522
 20
0.7613868032
 11
-34.1689524985
 21
0.8817362763
  0
LINE
  5
2EE
100
AcDbEntity
  8
DRAFT
100
AcDbLine
 62
7
  6
CONTINUOUS
 10
-11.1395258157
 20
-45.6190225205
 11
-11.1395258157
 21
-45.4498063936
  0
LINE
  5
2EF
100
AcDbEntity
  8
DRAFT
100
AcDbLine
 62
7
  6
CONTINUOUS
 10
-10.9472831636
 20
-45.0044361135
 11
-10.9472831636
 21
-45.7151438465
  0
LINE
  5
2F0
100
AcDbEntity
  8
0
100
AcDbLine
 62
7
  6
CONTINUOUS
 10
-30.8390214416
 20
-10.4149336805
 11
-33.3365349206
 21
-11.9804251003
  0
LINE
  5
2F1
100
AcDbEntity
  8
RACCORDO
100
AcDbLine
 62
7
  6
CONTINUOUS
 10
-30.8847503375
 20
-10.5199949651
 11
-33.2538785534
 21
-12.0050119332
  0
LINE
  5
2F2
100
AcDbEntity
  8
DRAFT
100
AcDbLine
 62
7
  6
CONTINUOUS
 10
-33.5747001616
 20
-5.7226738459
 11
-32.6875618728
 21
-5.2273526861
  0
LINE
  5
2F3
100
AcDbEntity
  8
DRAFT
100
AcDbLine
 62
7
  6
CONTINUOUS
 10
-32.6875618728
 20
-6.3607439759
 11
-33.5747001616
 21
-6.8560651356
  0
LINE
  5
2F4
100
AcDbEntity
  8
SMUSSO
100
AcDbLine
 62
7
  6
CONTINUOUS
 10
52.0559310401
 20
39.1007854798
 11
55.5207542679
 21
40.8331970937
  0
LINE
  5
2F5
100
AcDbEntity
  8
SMUSSO
100
AcDbLine
 62
7
  6
CONTINUOUS
 10
52.7630378213
 20
37.8812066854
 11
56.2278610491
 21
39.6136182993
  0
LINE
  5
2F6
100
AcDbEntity
  8
DRAFT
100
AcDbLine
 62
7
  6
CONTINUOUS
 10
-33.0250601099
 20
-4.8134974404
 11
-33.9282535522
 21
-5.2614880462
  0
LINE
  5
2F7
100
AcDbEntity
  8
DRAFT
100
AcDbLine
 62
7
  6
CONTINUOUS
 10
-34.1689524985
 20
-6.0485801103
 11
-33.8507544469
 21
-5.890751531
  0
LINE
  5
2F8
100
AcDbEntity
  8
0
100
AcDbLine
 62
7
  6
CONTINUOUS
 10
-32.6875618728
 20
-5.8268104498
 11
-30.9802491947
 21
-5.1290141636
  0
LINE
  5
2F9
100
AcDbEntity
  8
0
100
AcDbLine
 62
7
  6
CONTINUOUS
 10
-32.6875618728
 20
-6.1287477957
 11
-30.8390214416
 21
-5.3732302715
  0
LINE
  5
2FA
100
AcDbEntity
  8
RACCORDO
100
AcDbLine
 62
7
  6
CONTINUOUS
 10
-31.6362544428
 20
-4.8332376456
 11
-32.6866411289
 21
-5.2297915403
  0
LINE
  5
2FB
100
AcDbEntity
  8
0
100
AcDbLine
 62
7
  6
CONTINUOUS
 10
-31.5542642147
 20
-4.8420066536
 11
-32.6875618728
 21
-5.2698620388
  0
LINE
  5
2FC
100
AcDbEntity
  8
SMUSSO
100
AcDbLine
 62
7
  6
CONTINUOUS
 10
-33.8507544469
 20
1.6615275546
 11
-33.0250601099
 21
1.2486803861
  0
LINE
  5
2FD
100
AcDbEntity
  8
RACCORDO
100
AcDbLine
 62
7
  6
CONTINUOUS
 10
-33.8507544469
 20
1.7141531361
 11
-33.5747001616
 21
1.5761259934
  0
LINE
  5
2FE
100
AcDbEntity
  8
0
100
AcDbLine
 62
7
  6
CONTINUOUS
 10
-33.8507544469
 20
8.0673466301
 11
-33.5747001616
 21
7.9293194875
  0
LINE
  5
2FF
100
AcDbEntity
  8
0
100
AcDbLine
 62
7
  6
CONTINUOUS
 10
-33.5039894835
 20
8.813202964
 11
-32.6875618728
 21
8.4049891586
  0
LINE
  5
300
100
AcDbEntity
  8
DRAFT
100
AcDbLine
 62
7
  6
CONTINUOUS
 10
-33.5039894835
 20
9.323493895
 11
-32.1416306182
 21
8.6423144624
  0
LINE
  5
301
100
AcDbEntity
  8
DRAFT
100
AcDbLine
 62
7
  6
CONTINUOUS
 10
-4.9015201845
 20
-50.0255678796
 11
-4.9015201845
 21
-49.7153157592
  0
LINE
  5
302
100
AcDbEntity
  8
RACCORDO
100
AcDbLine
 62
7
  6
CONTINUOUS
 10
-4.5931962088
 20
-50.1797298675
 11
-4.5931962088
 21
-49.602895057
  0
LINE
  5
303
100
AcDbEntity
  8
SMUSSO
100
AcDbLine
 62
7
  6
CONTINUOUS
 10
-4.4258554035
 20
-50.0401188503
 11
-4.4258554035
 21
-50.2634002701
  0
LINE
  5
304
100
AcDbEntity
  8
DRAFT
100
AcDbLine
 62
7
  6
CONTINUOUS
 10
-3.65791202
 20
-49.6592132707
 11
-3.65791202
 21
-49.1906132914
  0
LINE
  5
305
100
AcDbEntity
  8
SMUSSO
100
AcDbLine
 62
7
  6
CONTINUOUS
 10
0.4918013184
 20
-52.4989472112
 11
0.4918013184
 21
-52.722228631
  0
LINE
  5
306
100
AcDbEntity
  8
RACCORDO
100
AcDbLine
 62
7
  6
CONTINUOUS
 10
-33.5868664755
 20
-15.7909245068
 11
-33.3365349206
 21
-15.6558648899
  0
LINE
  5
307
100
AcDbEntity
  8
DRAFT
100
AcDbLine
 62
7
  6
CONTINUOUS
 10
-34.1689524985
 20
-16.1083213637
 11
-33.8507544469
 21
-15.9366462149
  0
LINE
  5
308
100
AcDbEntity
  8
DRAFT
100
AcDbLine
 62
7
  6
CONTINUOUS
 10
-33.0250601099
 20
-16.0718276896
 11
-33.9282535522
 21
-16.5591212725
  0
LINE
  5
309
100
AcDbEntity
  8
DRAFT
100
AcDbLine
 62
7
  6
CONTINUOUS
 10
-32.6875618728
 20
-14.1549726099
 11
-33.5747001616
 21
-14.6109907926
  0
LINE
  5
30A
100
AcDbEntity
  8
DRAFT
100
AcDbLine
 62
7
  6
CONTINUOUS
 10
-33.5747001616
 20
-15.7443820823
 11
-32.6875618728
 21
-15.2883638997
  0
LINE
  5
30B
100
AcDbEntity
  8
DRAFT
100
AcDbLine
 62
7
  6
CONTINUOUS
 10
-33.4332788054
 20
-13.7821141437
 11
-33.8507544469
 21
-13.9891851396
  0
LINE
  5
30C
100
AcDbEntity
  8
DRAFT
100
AcDbLine
 62
7
  6
CONTINUOUS
 10
-34.1689524985
 20
11.5888555705
 11
-33.8507544469
 21
11.4297565447
  0
LINE
  5
30D
100
AcDbEntity
  8
SMUSSO
100
AcDbLine
 62
7
  6
CONTINUOUS
 10
-33.9282535522
 20
12.0590200295
 11
-34.1689524985
 21
12.1793695026
  0
LINE
  5
30E
100
AcDbEntity
  8
RACCORDO
100
AcDbLine
 62
7
  6
CONTINUOUS
 10
1.3662489048
 20
-52.5826176138
 11
1.3662489048
 21
-52.8492003039
  0
LINE
  5
30F
100
AcDbEntity
  8
SMUSSO
100
AcDbLine
 62
7
  6
CONTINUOUS
 10
1.4270855071
 20
-52.5537666871
 11
1.4270855071
 21
-52.0670019786
  0
LINE
  5
310
100
AcDbEntity
  8
0
100
AcDbLine
 62
7
  6
CONTINUOUS
 10
3.3362738163
 20
-53.5676300696
 11
3.3362738163
 21
-53.8342127596
  0
LINE
  5
311
100
AcDbEntity
  8
0
100
AcDbLine
 62
7
  6
CONTINUOUS
 10
4.2555126319
 20
-53.1473256174
 11
4.2555126319
 21
-54.1472411464
  0
LINE
  5
312
100
AcDbEntity
  8
0
100
AcDbLine
 62
7
  6
CONTINUOUS
 10
4.770376761
 20
-54.5512642319
 11
4.770376761
 21
-54.4046732109
  0
LINE
  5
313
100
AcDbEntity
  8
RACCORDO
100
AcDbLine
 62
7
  6
CONTINUOUS
 10
5.6414547488
 20
-54.9868032258
 11
5.6414547488
 21
-54.8541579265
  0
LINE
  5
314
100
AcDbEntity
  8
0
100
AcDbLine
 62
7
  6
CONTINUOUS
 10
6.8718077223
 20
-55.6019797126
 11
6.8718077223
 21
-55.3353970225
  0
LINE
  5
315
100
AcDbEntity
  8
DRAFT
100
AcDbLine
 62
7
  6
CONTINUOUS
 10
-32.6875618728
 20
-22.5478607618
 11
-33.5747001616
 21
-23.0431819215
  0
LINE
  5
316
100
AcDbEntity
  8
DRAFT
100
AcDbLine
 62
7
  6
CONTINUOUS
 10
-33.0250601099
 20
-22.1340055161
 11
-33.9282535522
 21
-22.5819961219
  0
LINE
  5
317
100
AcDbEntity
  8
DRAFT
100
AcDbLine
 62
7
  6
CONTINUOUS
 10
-34.1689524985
 20
-23.369088186
 11
-33.8507544469
 21
-23.2112596067
  0
LINE
  5
318
100
AcDbEntity
  8
SMUSSO
100
AcDbLine
 62
7
  6
CONTINUOUS
 10
-33.9282535522
 20
18.0818948789
 11
-34.1689524985
 21
18.202244352
  0
LINE
  5
319
100
AcDbEntity
  8
SMUSSO
100
AcDbLine
 62
7
  6
CONTINUOUS
 10
-33.8507544469
 20
18.9820356303
 11
-33.0250601099
 21
18.5691884618
  0
LINE
  5
31A
100
AcDbEntity
  8
RACCORDO
100
AcDbLine
 62
7
  6
CONTINUOUS
 10
-33.8507544469
 20
19.0346612117
 11
-33.5747001616
 21
18.8966340691
  0
LINE
  5
31B
100
AcDbEntity
  8
DRAFT
100
AcDbLine
 62
7
  6
CONTINUOUS
 10
11.0083823922
 20
-57.980519168
 11
11.0083823922
 21
-57.6702670476
  0
LINE
  5
31C
100
AcDbEntity
  8
RACCORDO
100
AcDbLine
 62
7
  6
CONTINUOUS
 10
11.3167063679
 20
-58.1346811558
 11
11.3167063679
 21
-57.5578463454
  0
LINE
  5
31D
100
AcDbEntity
  8
SMUSSO
100
AcDbLine
 62
7
  6
CONTINUOUS
 10
11.4840471732
 20
-57.9950701386
 11
11.4840471732
 21
-58.2183515585
  0
LINE
  5
31E
100
AcDbEntity
  8
DRAFT
100
AcDbLine
 62
7
  6
CONTINUOUS
 10
12.8275500575
 20
-56.891852724
 11
12.8275500575
 21
-57.7672342537
  0
LINE
  5
31F
100
AcDbEntity
  8
SMUSSO
100
AcDbLine
 62
7
  6
CONTINUOUS
 10
52.0559310401
 20
39.1007854798
 11
51.0559310401
 21
38.0276532948
  0
LINE
  5
320
100
AcDbEntity
  8
RACCORDO
100
AcDbLine
 62
7
  6
CONTINUOUS
 10
-37.0550186724
 20
-36.7037336162
 11
-34.6162220177
 21
-35.3685155819
  0
LINE
  5
321
100
AcDbEntity
  8
RACCORDO
100
AcDbLine
 62
7
  6
CONTINUOUS
 10
-36.8501148618
 20
-37.0571404126
 11
-34.4113376643
 21
-35.7219019431
  0
LINE
  5
322
100
AcDbEntity
  8
DRAFT
100
AcDbLine
 62
7
  6
CONTINUOUS
 10
-32.6875618728
 20
26.2357881654
 11
-32.1416306182
 21
25.9628225381
  0
LINE
  5
323
100
AcDbEntity
  8
DRAFT
100
AcDbLine
 62
7
  6
CONTINUOUS
 10
-34.1689524985
 20
28.9093636462
 11
-33.8507544469
 21
28.7502646204
  0
LINE
  5
324
100
AcDbEntity
  8
RACCORDO
100
AcDbLine
 62
7
  6
CONTINUOUS
 10
-33.5747001616
 20
28.9183423055
 11
-34.1689524985
 21
29.215468474
  0
LINE
  5
325
100
AcDbEntity
  8
SMUSSO
100
AcDbLine
 62
7
  6
CONTINUOUS
 10
-33.9282535522
 20
29.3795281051
 11
-34.1689524985
 21
29.4998775783
  0
LINE
  5
326
100
AcDbEntity
  8
DRAFT
100
AcDbLine
 62
7
  6
CONTINUOUS
 10
-32.6875618728
 20
29.4136634652
 11
-33.2711487776
 21
29.7054569176
  0
LINE
  5
327
100
AcDbEntity
  8
SMUSSO
100
AcDbLine
 62
7
  6
CONTINUOUS
 10
16.4017038951
 20
-60.4538984995
 11
16.4017038951
 21
-60.6771799194
  0
LINE
  5
328
100
AcDbEntity
  8
SMUSSO
100
AcDbLine
 62
7
  6
CONTINUOUS
 10
17.3369880838
 20
-60.8345698934
 11
17.3369880838
 21
-60.0219532669
  0
LINE
  5
329
100
AcDbEntity
  8
DRAFT
100
AcDbLine
 62
7
  6
CONTINUOUS
 10
20.6802793377
 20
-62.4460195217
 11
20.6802793377
 21
-62.2730219589
  0
LINE
  5
32A
100
AcDbEntity
  8
DRAFT
100
AcDbLine
 62
7
  6
CONTINUOUS
 10
21.5513573255
 20
-62.8815585156
 11
21.5513573255
 21
-62.8091092148
  0
LINE
  5
32B
100
AcDbEntity
  8
DRAFT
100
AcDbLine
 62
7
  6
CONTINUOUS
 10
-27.2107391309
 20
-37.5834158629
 11
-27.0494283924
 21
-37.4948551052
  0
LINE
  5
32C
100
AcDbEntity
  8
DRAFT
100
AcDbLine
 62
7
  6
CONTINUOUS
 10
-32.6875618728
 20
-34.4199670585
 11
-32.1416306182
 21
-34.1393404846
  0
LINE
  5
32D
100
AcDbEntity
  8
RACCORDO
100
AcDbLine
 62
7
  6
CONTINUOUS
 10
-34.5204877445
 20
-35.3092066864
 11
-34.1689524985
 21
-35.1320836714
  0
LINE
  5
32E
100
AcDbEntity
  8
RACCORDO
100
AcDbLine
 62
7
  6
CONTINUOUS
 10
-34.3083880189
 20
-35.6750246004
 11
-33.9568527729
 21
-35.4979015854
  0
LINE
  5
32F
100
AcDbEntity
  8
RACCORDO
100
AcDbLine
 62
7
  6
CONTINUOUS
 10
-33.8507544469
 20
-34.9809305768
 11
-34.1662951729
 21
-35.1374411031
  0
LINE
  5
330
100
AcDbEntity
  8
RACCORDO
100
AcDbLine
 62
7
  6
CONTINUOUS
 10
-33.6386547213
 20
-35.3467484908
 11
-33.9501505286
 21
-35.5012527076
  0
LINE
  5
331
100
AcDbEntity
  8
DRAFT
100
AcDbLine
 62
7
  6
CONTINUOUS
 10
-33.5747001616
 20
-35.1121430806
 11
-32.1416306182
 21
-34.4072623862
  0
LINE
  5
332
100
AcDbEntity
  8
DRAFT
100
AcDbLine
 62
7
  6
CONTINUOUS
 10
-32.4786846508
 20
-34.780226976
 11
-31.9228733016
 21
-34.5166410445
  0
LINE
  5
333
100
AcDbEntity
  8
SMUSSO
100
AcDbLine
 62
7
  6
CONTINUOUS
 10
-33.9282535522
 20
35.4024029545
 11
-34.1689524985
 21
35.5227524277
  0
LINE
  5
334
100
AcDbEntity
  8
SMUSSO
100
AcDbLine
 62
7
  6
CONTINUOUS
 10
-33.8507544469
 20
36.302543706
 11
-33.0250601099
 21
35.8896965375
  0
LINE
  5
335
100
AcDbEntity
  8
RACCORDO
100
AcDbLine
 62
7
  6
CONTINUOUS
 10
-33.8507544469
 20
36.3551692874
 11
-33.5747001616
 21
36.2171421448
  0
LINE
  5
336
100
AcDbEntity
  8
DRAFT
100
AcDbLine
 62
7
  6
CONTINUOUS
 10
-33.5747001616
 20
37.3505334345
 11
-33.8507544469
 21
37.4885605772
  0
LINE
  5
337
100
AcDbEntity
  8
DRAFT
100
AcDbLine
 62
7
  6
CONTINUOUS
 10
-32.6875618728
 20
37.8065516171
 11
-33.4332788054
 21
38.1794100834
  0
LINE
  5
338
100
AcDbEntity
  8
DRAFT
100
AcDbLine
 62
7
  6
CONTINUOUS
 10
23.5434823851
 20
-63.6712343539
 11
23.5434823851
 21
-63.937817044
  0
LINE
  5
339
100
AcDbEntity
  8
0
100
AcDbLine
 62
7
  6
CONTINUOUS
 10
26.7848450171
 20
-63.601206836
 11
26.7848450171
 21
-64.3042287878
  0
LINE
  5
33A
100
AcDbEntity
  8
RACCORDO
100
AcDbLine
 62
7
  6
CONTINUOUS
 10
27.7383744065
 20
32.1372231404
 11
27.7383744065
 21
-69.1955264233
  0
LINE
  5
33B
100
AcDbEntity
  8
RACCORDO
100
AcDbLine
 62
7
  6
CONTINUOUS
 10
27.8262423721
 20
32.0311570968
 11
27.8262423721
 21
-69.3015923623
  0
LINE
  5
33C
100
AcDbEntity
  8
RACCORDO
100
AcDbLine
 62
7
  6
CONTINUOUS
 10
29.5382505241
 20
-72.4099220221
 11
29.5382505241
 21
33.4274786054
  0
LINE
  5
33D
100
AcDbEntity
  8
RACCORDO
100
AcDbLine
 62
7
  6
CONTINUOUS
 10
29.9583917676
 20
-72.4119363064
 11
29.9587800696
 21
33.4256436525
  0
LWPOLYLINE
  5
33E
100
AcDbEntity
  8
RACCORDO
100
AcDbPolyline
 62
7
  6
CONTINUOUS
 90
8
 70
0
 10
27.7383745269
 20
-69.1955235101
 10
27.7380468088
 20
-69.2104263999
 10
27.7370679551
 20
-69.2244908247
 10
27.7355729376
 20
-69.2367530991
 10
27.7337250128
 20
-69.2470885286
 10
27.7317202356
 20
-69.2553928198
 10
27.7298605545
 20
-69.2613851373
 10
27.7284579085
 20
-69.2650259942
  0
LINE
  5
33F
100
AcDbEntity
  8
0
100
AcDbLine
 62
7
  6
CONTINUOUS
 10
-17.1971967727
 20
-42.3132078929
 11
-17.5917748029
 21
-42.5575718236
  0
LINE
  5
340
100
AcDbEntity
  8
RACCORDO
100
AcDbLine
 62
7
  6
CONTINUOUS
 10
-17.2430689163
 20
-42.4177027925
 11
-17.5237985907
 21
-42.5915599296
  0
LINE
  5
341
100
AcDbEntity
  8
0
100
AcDbLine
 62
7
  6
CONTINUOUS
 10
-18.5675720989
 20
-42.0696731755
 11
-17.338942401
 21
-41.3663451607
  0
LINE
  5
342
100
AcDbEntity
  8
0
100
AcDbLine
 62
7
  6
CONTINUOUS
 10
-18.2645433293
 20
-42.2211875603
 11
-17.1971967727
 21
-41.6101859411
  0
LINE
  5
343
100
AcDbEntity
  8
DRAFT
100
AcDbLine
 62
7
  6
CONTINUOUS
 10
-26.0409272933
 20
-39.0854162063
 11
-26.1013645955
 21
-39.1153935537
  0
LINE
  5
344
100
AcDbEntity
  8
DRAFT
100
AcDbLine
 62
7
  6
CONTINUOUS
 10
-21.1229185684
 20
-41.9148686876
 11
-20.8114227612
 21
-41.7603644709
  0
LINE
  5
345
100
AcDbEntity
  8
DRAFT
100
AcDbLine
 62
7
  6
CONTINUOUS
 10
-19.4325645379
 20
-41.6371769561
 11
-20.3357579802
 21
-42.0851675619
  0
LINE
  5
346
100
AcDbEntity
  8
DRAFT
100
AcDbLine
 62
7
  6
CONTINUOUS
 10
-26.0409272933
 20
-38.1683217817
 11
-26.770429689
 21
-38.5142783169
  0
LINE
  5
347
100
AcDbEntity
  8
RACCORDO
100
AcDbLine
 62
7
  6
CONTINUOUS
 10
-23.8024654256
 20
-40.2046471401
 11
-21.5395439017
 21
-39.2997236537
  0
LINE
  5
348
100
AcDbEntity
  8
0
100
AcDbLine
 62
7
  6
CONTINUOUS
 10
-23.7558234064
 20
-40.2279681497
 11
-21.4554759966
 21
-39.3080783629
  0
LINE
  5
349
100
AcDbEntity
  8
DRAFT
100
AcDbLine
 62
7
  6
CONTINUOUS
 10
-22.2609916626
 20
-40.9753840216
 11
-22.0687490105
 21
-40.8985077848
  0
LINE
  5
34A
100
AcDbEntity
  8
SMUSSO
100
AcDbLine
 62
7
  6
CONTINUOUS
 10
52.7630378213
 20
37.8812066854
 11
51.3488242589
 21
37.5224872178
  0
LINE
  5
34B
100
AcDbEntity
  8
DRAFT
100
AcDbLine
 62
7
  6
CONTINUOUS
 10
-33.8507544469
 20
45.2434862341
 11
-33.5747001616
 21
45.1054590915
  0
LINE
  5
34C
100
AcDbEntity
  8
DRAFT
100
AcDbLine
 62
7
  6
CONTINUOUS
 10
-34.1689524985
 20
46.2298717218
 11
-33.8507544469
 21
46.0707726961
  0
LINE
  5
34D
100
AcDbEntity
  8
RACCORDO
100
AcDbLine
 62
7
  6
CONTINUOUS
 10
-33.5747001616
 20
46.2388503812
 11
-34.1689524985
 21
46.5359765497
  0
LINE
  5
34E
100
AcDbEntity
  8
SMUSSO
100
AcDbLine
 62
7
  6
CONTINUOUS
 10
-33.9282535522
 20
46.7000361808
 11
-34.1689524985
 21
46.820385654
  0
LINE
  5
34F
100
AcDbEntity
  8
DRAFT
100
AcDbLine
 62
7
  6
CONTINUOUS
 10
-32.6875618728
 20
46.7341715409
 11
-33.2711487776
 21
47.0259649933
  0
LINE
  5
350
100
AcDbEntity
  8
0
100
AcDbLine
 62
7
  6
CONTINUOUS
 10
-31.5542642147
 20
47.1195175734
 11
-30.9802491947
 21
46.8325100634
  0
LINE
  5
351
100
AcDbEntity
  8
RACCORDO
100
AcDbLine
 62
7
  6
CONTINUOUS
 10
31.9410326903
 20
-71.4962870258
 11
31.9410326903
 21
34.4244128073
  0
LINE
  5
352
100
AcDbEntity
  8
DRAFT
100
AcDbLine
 62
7
  6
CONTINUOUS
 10
-11.3008365542
 20
-45.5383671512
 11
-11.1395258157
 21
-45.4498063936
  0
LINE
  5
353
100
AcDbEntity
  8
DRAFT
100
AcDbLine
 62
7
  6
CONTINUOUS
 10
-13.0846488804
 20
-43.9357532551
 11
-14.5436536719
 21
-44.6276663255
  0
LINE
  5
354
100
AcDbEntity
  8
DRAFT
100
AcDbLine
 62
7
  6
CONTINUOUS
 10
-14.4828170696
 20
-44.1120506902
 11
-15.4181012583
 21
-44.5439959229
  0
LINE
  5
355
100
AcDbEntity
  8
DRAFT
100
AcDbLine
 62
7
  6
CONTINUOUS
 10
-15.1942891502
 20
-44.8791833967
 11
-14.8717257992
 21
-44.7302129518
  0
LINE
  5
356
100
AcDbEntity
  8
DRAFT
100
AcDbLine
 62
7
  6
CONTINUOUS
 10
-11.5129685886
 20
-45.2630850071
 11
-10.9472831636
 21
-45.0044361135
  0
LINE
  5
357
100
AcDbEntity
  8
SMUSSO
100
AcDbLine
 62
7
  6
CONTINUOUS
 10
-33.9282535522
 20
52.7229110302
 11
-34.1689524985
 21
52.8432605034
  0
LINE
  5
358
100
AcDbEntity
  8
SMUSSO
100
AcDbLine
 62
7
  6
CONTINUOUS
 10
-33.8507544469
 20
53.6230517817
 11
-33.0250601099
 21
53.2102046132
  0
LINE
  5
359
100
AcDbEntity
  8
RACCORDO
100
AcDbLine
 62
7
  6
CONTINUOUS
 10
-33.8507544469
 20
53.6756773631
 11
-33.5747001616
 21
53.5376502204
  0
LINE
  5
35A
100
AcDbEntity
  8
DRAFT
100
AcDbLine
 62
7
  6
CONTINUOUS
 10
-5.2130159917
 20
-49.869819976
 11
-4.9015201845
 21
-49.7153157592
  0
LINE
  5
35B
100
AcDbEntity
  8
DRAFT
100
AcDbLine
 62
7
  6
CONTINUOUS
 10
-3.5226619612
 20
-49.5921282444
 11
-4.4258554035
 21
-50.0401188503
  0
LINE
  5
35C
100
AcDbEntity
  8
DRAFT
100
AcDbLine
 62
7
  6
CONTINUOUS
 10
-3.65791202
 20
-49.1906132914
 11
-4.5931962088
 21
-49.602895057
  0
LINE
  5
35D
100
AcDbEntity
  8
DRAFT
100
AcDbLine
 62
7
  6
CONTINUOUS
 10
-6.3510890859
 20
-48.0132408854
 11
-6.1588464338
 21
-47.9401460845
  0
LINE
  5
35E
100
AcDbEntity
  8
RACCORDO
100
AcDbLine
 62
7
  6
CONTINUOUS
 10
27.4944550689
 20
32.5756823854
 11
-36.9293751838
 21
64.7875974947
  0
LINE
  5
35F
100
AcDbEntity
  8
RACCORDO
100
AcDbLine
 62
7
  6
CONTINUOUS
 10
27.416434751
 20
32.7379706896
 11
-37.0073430856
 21
64.9498596079
  0
LINE
  5
360
100
AcDbEntity
  8
RACCORDO
100
AcDbLine
 62
7
  6
CONTINUOUS
 10
29.2586377169
 20
33.9136424106
 11
-38.8463592245
 21
67.9661408812
  0
LINE
  5
361
100
AcDbEntity
  8
RACCORDO
100
AcDbLine
 62
7
  6
CONTINUOUS
 10
29.4634924084
 20
34.2790231373
 11
-38.6379294047
 21
68.3301238423
  0
LWPOLYLINE
  5
362
100
AcDbEntity
  8
RACCORDO
100
AcDbPolyline
 62
7
  6
CONTINUOUS
 90
24
 70
0
 10
27.4944551016
 20
32.5756824504
 10
27.5020726414
 20
32.5716714441
 10
27.5155026734
 20
32.5636782791
 10
27.5300378517
 20
32.5537768406
 10
27.5453099186
 20
32.5420202744
 10
27.5610609354
 20
32.5284502246
 10
27.5770864048
 20
32.513103052
 10
27.5931615057
 20
32.4960687129
 10
27.6090697773
 20
32.477470198
 10
27.6246228999
 20
32.4574380062
 10
27.6396910556
 20
32.4360575532
 10
27.654106996
 20
32.4134891838
 10
27.667702234
 20
32.3899343035
 10
27.6803723633
 20
32.365526356
 10
27.6919933074
 20
32.3404674775
 10
27.7024422264
 20
32.3150041082
 10
27.7116350404
 20
32.2893557233
 10
27.7195025832
 20
32.2637697317
 10
27.7259991763
 20
32.2384947162
 10
27.7311014968
 20
32.2137963401
 10
27.7348209497
 20
32.1899066545
 10
27.737192095
 20
32.1670730897
 10
27.7382770425
 20
32.1456263122
 10
27.7383745344
 20
32.1372515665
  0
LINE
  5
363
100
AcDbEntity
  8
SMUSSO
100
AcDbLine
 62
7
  6
CONTINUOUS
 10
51.3488242589
 20
-94.0021530049
 11
51.3488242589
 21
37.5224872178
  0
LINE
  5
364
100
AcDbEntity
  8
0
100
AcDbLine
 62
7
  6
CONTINUOUS
 10
4.6366107924
 20
-54.4843812477
 11
4.770376761
 21
-54.4046732109
  0
LINE
  5
365
100
AcDbEntity
  8
RACCORDO
100
AcDbLine
 62
7
  6
CONTINUOUS
 10
5.2797056244
 20
-54.8059286637
 11
5.4512601753
 21
-54.7077224084
  0
LINE
  5
366
100
AcDbEntity
  8
0
100
AcDbLine
 62
7
  6
CONTINUOUS
 10
4.2555126319
 20
-54.1472411464
 11
4.1089216108
 21
-54.2205366569
  0
LINE
  5
367
100
AcDbEntity
  8
DRAFT
100
AcDbLine
 62
7
  6
CONTINUOUS
 10
2.2694423472
 20
-52.154290475
 11
1.3662489048
 21
-52.5826176138
  0
LINE
  5
368
100
AcDbEntity
  8
DRAFT
100
AcDbLine
 62
7
  6
CONTINUOUS
 10
1.4270855071
 20
-52.0670019786
 11
0.4918013184
 21
-52.4989472112
  0
LINE
  5
369
100
AcDbEntity
  8
DRAFT
100
AcDbLine
 62
7
  6
CONTINUOUS
 10
0.7156134265
 20
-52.8341346851
 11
1.0381767775
 21
-52.6851642402
  0
LINE
  5
36A
100
AcDbEntity
  8
0
100
AcDbLine
 62
7
  6
CONTINUOUS
 10
4.2555126319
 20
-53.1473256174
 11
3.3362738163
 21
-53.5676300696
  0
LINE
  5
36B
100
AcDbEntity
  8
RACCORDO
100
AcDbLine
 62
7
  6
CONTINUOUS
 10
31.4461333306
 20
35.27798794
 11
-36.7236902999
 21
69.3628997552
  0
LINE
  5
36C
100
AcDbEntity
  8
SMUSSO
100
AcDbLine
 62
7
  6
CONTINUOUS
 10
52.7630378213
 20
-94.3608724725
 11
52.7630378213
 21
37.8812066854
  0
LINE
  5
36D
100
AcDbEntity
  8
SMUSSO
100
AcDbLine
 62
7
  6
CONTINUOUS
 10
56.2278610491
 20
-92.6284608586
 11
56.2278610491
 21
39.7878119561
  0
LINE
  5
36E
100
AcDbEntity
  8
DRAFT
100
AcDbLine
 62
7
  6
CONTINUOUS
 10
10.696886585
 20
-57.8247712643
 11
11.0083823922
 21
-57.6702670476
  0
LINE
  5
36F
100
AcDbEntity
  8
DRAFT
100
AcDbLine
 62
7
  6
CONTINUOUS
 10
12.3872406155
 20
-57.5470795328
 11
11.4840471732
 21
-57.9950701386
  0
LINE
  5
370
100
AcDbEntity
  8
0
100
AcDbLine
 62
7
  6
CONTINUOUS
 10
7.6142698425
 20
-54.9959203496
 11
6.8718077223
 21
-55.3353970225
  0
LINE
  5
371
100
AcDbEntity
  8
DRAFT
100
AcDbLine
 62
7
  6
CONTINUOUS
 10
10.1244989157
 20
-56.0818187593
 11
10.7000584165
 21
-55.8281069035
  0
LINE
  5
372
100
AcDbEntity
  8
DRAFT
100
AcDbLine
 62
7
  6
CONTINUOUS
 10
12.8275500575
 20
-56.891852724
 11
11.3167063679
 21
-57.5578463454
  0
LINE
  5
373
100
AcDbEntity
  8
DRAFT
100
AcDbLine
 62
7
  6
CONTINUOUS
 10
9.5588134908
 20
-55.9681921737
 11
9.7510561429
 21
-55.8950973729
  0
LWPOLYLINE
  5
374
100
AcDbEntity
  8
RACCORDO
100
AcDbPolyline
 62
7
  6
CONTINUOUS
 90
6
 70
0
 10
-36.9565898151
 20
64.7978265531
 10
-36.9563688728
 20
64.7977897461
 10
-36.953555488
 20
64.7971758831
 10
-36.9478709386
 20
64.7954752692
 10
-36.9396911002
 20
64.7923572373
 10
-36.9293776681
 20
64.787598817
  0
LINE
  5
375
100
AcDbEntity
  8
SMUSSO
100
AcDbLine
 62
7
  6
CONTINUOUS
 10
51.0559310401
 20
38.0276532948
 11
-56.3334880095
 21
91.7223628196
  0
LINE
  5
376
100
AcDbEntity
  8
SMUSSO
100
AcDbLine
 62
7
  6
CONTINUOUS
 10
52.0559310401
 20
39.1007854798
 11
-55.9192744471
 21
93.0883882234
  0
LINE
  5
377
100
AcDbEntity
  8
RACCORDO
100
AcDbLine
 62
7
  6
CONTINUOUS
 10
27.5736629748
 20
-69.2690293309
 11
27.7383744065
 21
-69.0525484811
  0
LINE
  5
378
100
AcDbEntity
  8
RACCORDO
100
AcDbLine
 62
7
  6
CONTINUOUS
 10
27.7295880027
 20
-69.2638782093
 11
27.729560717
 21
-69.2639140442
  0
LINE
  5
379
100
AcDbEntity
  8
DRAFT
100
AcDbLine
 62
7
  6
CONTINUOUS
 10
20.5189685992
 20
-62.3653641525
 11
20.6802793377
 21
-62.2730219589
  0
LINE
  5
37A
100
AcDbEntity
  8
RACCORDO
100
AcDbLine
 62
7
  6
CONTINUOUS
 10
21.245737668
 20
-62.7287486869
 11
21.361162752
 21
-62.6626736968
  0
LINE
  5
37B
100
AcDbEntity
  8
DRAFT
100
AcDbLine
 62
7
  6
CONTINUOUS
 10
17.9452165751
 20
-61.138684139
 11
18.1793449239
 21
-61.022554752
  0
LINE
  5
37C
100
AcDbEntity
  8
DRAFT
100
AcDbLine
 62
7
  6
CONTINUOUS
 10
17.3369880838
 20
-60.0219532669
 11
16.4017038951
 21
-60.4538984995
  0
LINE
  5
37D
100
AcDbEntity
  8
DRAFT
100
AcDbLine
 62
7
  6
CONTINUOUS
 10
16.6255160032
 20
-60.7890859734
 11
16.9480793542
 21
-60.6401155285
  0
LINE
  5
37E
100
AcDbEntity
  8
RACCORDO
100
AcDbLine
 62
7
  6
CONTINUOUS
 10
17.5599789412
 20
-60.946065322
 11
17.7512631912
 21
-60.8577239164
  0
LINE
  5
37F
100
AcDbEntity
  8
RACCORDO
100
AcDbLine
 62
7
  6
CONTINUOUS
 10
20.3970775011
 20
-62.1086911404
 11
22.4424978881
 21
-61.2907445486
  0
LINE
  5
380
100
AcDbEntity
  8
0
100
AcDbLine
 62
7
  6
CONTINUOUS
 10
20.4437195202
 20
-62.1320121499
 11
22.5265657932
 21
-61.2990992578
  0
LINE
  5
381
100
AcDbEntity
  8
RACCORDO
100
AcDbLine
 62
7
  6
CONTINUOUS
 10
-36.9535448221
 20
64.7977969025
 11
-36.9535101352
 21
64.7977979444
  0
LINE
  5
382
100
AcDbEntity
  8
RACCORDO
100
AcDbLine
 62
7
  6
CONTINUOUS
 10
-36.6371658698
 20
64.6414928377
 11
-37.0550186724
 21
64.6290158428
  0
LINE
  5
383
100
AcDbEntity
  8
SMUSSO
100
AcDbLine
 62
7
  6
CONTINUOUS
 10
-52.4544512193
 20
94.8207998373
 11
55.5207542679
 21
40.8331970937
  0
LINE
  5
384
100
AcDbEntity
  8
SMUSSO
100
AcDbLine
 62
7
  6
CONTINUOUS
 10
51.3488242589
 20
37.5224872178
 11
51.0559310401
 21
38.0276532948
  0
LINE
  5
385
100
AcDbEntity
  8
SMUSSO
100
AcDbLine
 62
7
  6
CONTINUOUS
 10
52.7630378213
 20
37.8812066854
 11
52.0559310401
 21
39.1007854798
  0
LINE
  5
386
100
AcDbEntity
  8
0
100
AcDbLine
 62
7
  6
CONTINUOUS
 10
26.6885682427
 20
-64.3638534228
 11
26.7848450171
 21
-64.3042287878
  0
LINE
  5
387
100
AcDbEntity
  8
0
100
AcDbLine
 62
7
  6
CONTINUOUS
 10
26.6430993888
 20
-63.3573660556
 11
25.7258037308
 21
-63.8824711668
  0
LINE
  5
388
100
AcDbEntity
  8
0
100
AcDbLine
 62
7
  6
CONTINUOUS
 10
26.7848450171
 20
-63.601206836
 11
26.0288325004
 21
-64.0339855516
  0
LINE
  5
389
100
AcDbEntity
  8
DRAFT
100
AcDbLine
 62
7
  6
CONTINUOUS
 10
24.2989042298
 20
-63.3382375433
 11
23.5434823851
 21
-63.6712343539
  0
LINE
  5
38A
100
AcDbEntity
  8
DRAFT
100
AcDbLine
 62
7
  6
CONTINUOUS
 10
25.4687160675
 20
-63.9231434621
 11
25.6609587196
 21
-63.8500486612
  0
LINE
  5
38B
100
AcDbEntity
  8
SMUSSO
100
AcDbLine
 62
7
  6
CONTINUOUS
 10
55.5207542679
 20
40.8331970937
 11
55.7278610491
 21
40.6501843918
  0
LINE
  5
38C
100
AcDbEntity
  8
SMUSSO
100
AcDbLine
 62
7
  6
CONTINUOUS
 10
55.5207542679
 20
40.8331970937
 11
56.2278610491
 21
39.6136182993
  0
LINE
  5
38D
100
AcDbEntity
  8
SMUSSO
100
AcDbLine
 62
7
  6
CONTINUOUS
 10
55.7278610491
 20
40.6501843918
 11
56.2278610491
 21
39.7878119561
  0
LINE
  5
38E
100
AcDbEntity
  8
RACCORDO
100
AcDbLine
 62
7
  6
CONTINUOUS
 10
29.9583917676
 20
-72.4119363064
 11
31.9410326903
 21
-71.4962870258
  0
LINE
  5
38F
100
AcDbEntity
  8
RACCORDO
100
AcDbLine
 62
7
  6
CONTINUOUS
 10
29.7680428209
 20
-72.7945515082
 11
31.7518069969
 21
-71.878383472
  0
LINE
  5
390
100
AcDbEntity
  8
SMUSSO
100
AcDbLine
 62
7
  6
CONTINUOUS
 10
51.0559310401
 20
-94.2144258631
 11
51.3488242589
 21
-94.0021530049
  0
LINE
  5
391
100
AcDbEntity
  8
SMUSSO
100
AcDbLine
 62
7
  6
CONTINUOUS
 10
52.0559310401
 20
-94.8733444857
 11
52.7630378213
 21
-94.3608724725
  0
LINE
  5
392
100
AcDbEntity
  8
SMUSSO
100
AcDbLine
 62
7
  6
CONTINUOUS
 10
56.2278610491
 20
-92.6284608586
 11
55.5207542679
 21
-93.1409328717
  0
LINE
  5
393
100
AcDbEntity
  8
SMUSSO
100
AcDbLine
 62
7
  6
CONTINUOUS
 10
52.7630378213
 20
-94.3608724725
 11
56.2278610491
 21
-92.6284608586
  0
LINE
  5
394
100
AcDbEntity
  8
SMUSSO
100
AcDbLine
 62
7
  6
CONTINUOUS
 10
52.0559310401
 20
-94.8733444857
 11
55.5207542679
 21
-93.1409328717
  0
ARC
  5
395
100
AcDbEntity
  8
RACCORDO
100
AcDbCircle
 62
7
  6
CONTINUOUS
 10
27.8143481827
 20
-69.1954463369
 40
0.0759738184
100
AcDbArc
 50
180.0603972716
 51
189.9696736027
  0
SPLINE
  5
396
100
AcDbEntity
  8
RACCORDO
100
AcDbSpline
 62
7
  6
CONTINUOUS
 70
0
 71
3
 72
11
 73
7
 74
5
 42
0.0000001
 43
0.0000001
 44
0.0000000001
 12
-0.3862036933
 22
-0.2022094724
 32
0.0
 13
0.0000000146
 23
-0.4359380271
 33
0.0
 40
0.0
 40
0.0
 40
0.0
 40
0.0
 40
0.2308407489
 40
0.4894506684
 40
0.7538191198
 40
1.0
 40
1.0
 40
1.0
 40
1.0
 10
29.4634990752
 20
34.2790193887
 30
0.0
 10
29.433781892
 20
34.2634599933
 30
0.0
 10
29.3772137242
 20
34.2180655456
 30
0.0
 10
29.311938236
 20
34.1289490047
 30
0.0
 10
29.2676474612
 20
34.0253258522
 30
0.0
 10
29.2554508887
 20
33.9510090265
 30
0.0
 10
29.2554508899
 20
33.9152358241
 30
0.0
 11
29.4634990752
 21
34.2790193887
 31
0.0
 11
29.3835784428
 21
34.2178675743
 31
0.0
 11
29.3161466766
 21
34.1275194113
 31
0.0
 11
29.2712126691
 21
34.0213916737
 31
0.0
 11
29.2554508899
 21
33.9152358241
 31
0.0
  0
SPLINE
  5
397
100
AcDbEntity
  8
RACCORDO
100
AcDbSpline
 62
7
  6
CONTINUOUS
 70
0
 71
3
 72
11
 73
7
 74
5
 42
0.0000001
 43
0.0000001
 44
0.0000000001
 12
-0.3869302045
 22
-0.2017369093
 32
0.0
 13
-0.0000000106
 23
-0.43636311
 33
0.0
 40
0.0
 40
0.0
 40
0.0
 40
0.0
 40
0.2307390512
 40
0.4893391875
 40
0.7537623063
 40
1.0
 40
1.0
 40
1.0
 40
1.0
 10
-38.6379294044
 20
68.3301238422
 30
0.0
 10
-38.6676893738
 20
68.3146076479
 30
0.0
 10
-38.7243573878
 20
68.2692398607
 30
0.0
 10
-38.7897515127
 20
68.1800844892
 30
0.0
 10
-38.8341340662
 20
68.076362768
 30
0.0
 10
-38.8463592237
 20
68.0019572298
 30
0.0
 10
-38.8463592245
 20
67.9661408812
 30
0.0
 11
-38.6379294044
 21
68.3301238422
 31
0.0
 11
-38.7179704588
 21
68.2690410933
 31
0.0
 11
-38.7855304582
 21
68.1786568278
 31
0.0
 11
-38.8305615224
 21
68.0724222533
 31
0.0
 11
-38.8463592245
 21
67.9661408812
 31
0.0
  0
SPLINE
  5
398
100
AcDbEntity
  8
RACCORDO
100
AcDbSpline
 62
7
  6
CONTINUOUS
 70
0
 71
3
 72
11
 73
7
 74
5
 42
0.0000001
 43
0.0000001
 44
0.0000000001
 12
-0.3888888757
 22
-0.1877728259
 32
0.0
 13
-0.3862571023
 23
0.1931285652
 33
0.0
 40
0.0
 40
0.0
 40
0.0
 40
0.0
 40
0.236631889
 40
0.5012536727
 40
0.7652017156
 40
1.0
 40
1.0
 40
1.0
 40
1.0
 10
29.9587800696
 20
33.4256436522
 30
0.0
 10
29.9281055665
 20
33.4108326393
 30
0.0
 10
29.8581466244
 20
33.3897793728
 30
0.0
 10
29.7478463928
 20
33.3800170469
 30
0.0
 10
29.6378987292
 20
33.3906869837
 30
0.0
 10
29.5684813591
 20
33.4123631868
 30
0.0
 10
29.5382505241
 20
33.4274786054
 30
0.0
 11
29.9587800696
 21
33.4256436522
 31
0.0
 11
29.8615417828
 21
33.3942217369
 31
0.0
 11
29.7477645938
 21
33.3835503308
 31
0.0
 11
29.6343772179
 21
33.3952129563
 31
0.0
 11
29.5382505241
 21
33.4274786054
 31
0.0
  0
SPLINE
  5
399
100
AcDbEntity
  8
RACCORDO
100
AcDbSpline
 62
7
  6
CONTINUOUS
 70
0
 71
3
 72
11
 73
7
 74
5
 42
0.0000001
 43
0.0000001
 44
0.0000000001
 12
-0.3887675409
 22
-0.187039439
 32
0.0
 13
-0.3858745497
 23
0.1929372552
 33
0.0
 40
0.0
 40
0.0
 40
0.0
 40
0.0
 40
0.2367532795
 40
0.5013779556
 40
0.7652599985
 40
1.0
 40
1.0
 40
1.0
 40
1.0
 10
29.9583914295
 20
-72.4119442907
 30
0.0
 10
29.9277107661
 20
-72.4267050242
 30
0.0
 10
29.8577898784
 20
-72.4476797091
 30
0.0
 10
29.747586278
 20
-72.4573748993
 30
0.0
 10
29.6377696699
 20
-72.4466800288
 30
0.0
 10
29.5684439216
 20
-72.42501872
 30
0.0
 10
29.5382505241
 20
-72.4099220228
 30
0.0
 11
29.9583914295
 21
-72.4119442907
 31
0.0
 11
29.8611680118
 21
-72.4432532082
 31
0.0
 11
29.747496183
 21
-72.4538490578
 31
0.0
 11
29.6342534725
 21
-72.442161712
 31
0.0
 11
29.5382505241
 21
-72.4099220228
 31
0.0
  0
SPLINE
  5
39A
100
AcDbEntity
  8
RACCORDO
100
AcDbSpline
 62
7
  6
CONTINUOUS
 70
0
 71
3
 72
8
 73
4
 74
2
 42
0.0000001
 43
0.0000001
 44
0.0000000001
 12
0.0000288376
 22
-0.0226935911
 32
0.0
 13
0.0032141231
 23
-0.0224648464
 33
0.0
 40
0.0
 40
0.0
 40
0.0
 40
0.0
 40
1.0
 40
1.0
 40
1.0
 40
1.0
 10
-34.6178169297
 20
-35.3458780872
 30
0.0
 10
-34.6178073172
 20
-35.3534426176
 30
0.0
 10
-34.617293392
 20
-35.3610272998
 30
0.0
 10
-34.6162220177
 20
-35.3685155819
 30
0.0
 11
-34.6178169297
 21
-35.3458780872
 31
0.0
 11
-34.6162220177
 21
-35.3685155819
 31
0.0
  0
SPLINE
  5
39B
100
AcDbEntity
  8
RACCORDO
100
AcDbSpline
 62
7
  6
CONTINUOUS
 70
0
 71
3
 72
11
 73
7
 74
5
 42
0.0000001
 43
0.0000001
 44
0.0000000001
 12
-0.1080069137
 22
-0.1418945729
 32
0.0
 13
-0.1342256889
 23
0.11740114
 33
0.0
 40
0.0
 40
0.0
 40
0.0
 40
0.0
 40
0.2603119456
 40
0.4907623459
 40
0.729164318
 40
1.0
 40
1.0
 40
1.0
 40
1.0
 10
27.7295589301
 20
-69.2639092173
 30
0.0
 10
27.7201871001
 20
-69.2762215014
 30
0.0
 10
27.6985524191
 20
-69.2973429893
 30
0.0
 10
27.6547230545
 20
-69.3091793329
 30
0.0
 10
27.6108133044
 20
-69.2973556205
 30
0.0
 10
27.5857793506
 20
-69.2796271184
 30
0.0
 10
27.5736616486
 20
-69.2690283125
 30
0.0
 11
27.7295589301
 21
-69.2639092173
 31
0.0
 11
27.6950233171
 21
-69.2949270068
 31
0.0
 11
27.655285574
 21
-69.3054009501
 31
0.0
 11
27.6138773818
 21
-69.2957725699
 31
0.0
 11
27.5736616486
 21
-69.2690283125
 31
0.0
  0
SPLINE
  5
39C
100
AcDbEntity
  8
RACCORDO
100
AcDbSpline
 62
7
  6
CONTINUOUS
 70
0
 71
3
 72
11
 73
7
 74
5
 42
0.0000001
 43
0.0000001
 44
0.0000000001
 12
-0.168967103
 22
0.0844844986
 32
0.0
 13
0.000000178
 23
0.1889113877
 33
0.0
 40
0.0
 40
0.0
 40
0.0
 40
0.0
 40
0.2171405963
 40
0.4503764138
 40
0.7102994001
 40
1.0
 40
1.0
 40
1.0
 40
1.0
 10
-36.9293778722
 20
64.787598409
 30
0.0
 10
-36.9416077447
 20
64.7937134138
 30
0.0
 10
-36.9647413346
 20
64.8113291243
 30
0.0
 10
-36.9895563611
 20
64.8493586044
 30
0.0
 10
-37.0043927737
 20
64.8968771615
 30
0.0
 10
-37.0073431028
 20
64.9316170271
 30
0.0
 10
-37.0073430856
 20
64.9498596079
 30
0.0
 11
-36.9293778722
 21
64.787598409
 31
0.0
 11
-36.9621946463
 21
64.8122099292
 31
0.0
 11
-36.9868608195
 21
64.8487194208
 31
0.0
 11
-37.0021587323
 21
64.8953779755
 31
0.0
 11
-37.0073430856
 21
64.9498596079
 31
0.0
  0
SPLINE
  5
39D
100
AcDbEntity
  8
RACCORDO
100
AcDbSpline
 62
7
  6
CONTINUOUS
 70
0
 71
3
 72
15
 73
11
 74
9
 42
0.0000001
 43
0.0000001
 44
0.0000000001
 12
-0.0000005386
 22
0.4335126856
 32
0.0
 13
0.3877520927
 23
-0.1938596481
 33
0.0
 40
0.0
 40
0.0
 40
0.0
 40
0.0
 40
0.1483180443
 40
0.283179123
 40
0.405526508
 40
0.5187913025
 40
0.6287511694
 40
0.7421810923
 40
0.8648057613
 40
1.0
 40
1.0
 40
1.0
 40
1.0
 10
-39.1291588587
 20
67.7650863477
 30
0.0
 10
-39.1291588854
 20
67.7865189322
 30
0.0
 10
-39.1253520372
 20
67.827523989
 30
0.0
 10
-39.1094484768
 20
67.8843236475
 30
0.0
 10
-39.083145976
 20
67.9316432159
 30
0.0
 10
-39.0471362598
 20
67.9673466418
 30
0.0
 10
-39.0027578759
 20
67.9893086816
 30
0.0
 10
-38.9524676154
 20
67.9963172297
 30
0.0
 10
-38.8988039963
 20
67.9886057906
 30
0.0
 10
-38.8638331742
 20
67.9748771171
 30
0.0
 10
-38.8463592245
 20
67.9661408812
 30
0.0
 11
-39.1291588587
 21
67.7650863477
 31
0.0
 11
-39.123168941
 21
67.8291044858
 31
0.0
 11
-39.1067105282
 21
67.8852040277
 31
0.0
 11
-39.0803914883
 21
67.9312524682
 31
0.0
 11
-39.0452046165
 21
67.9654995626
 31
0.0
 11
-39.0024835341
 21
67.986647669
 31
0.0
 11
-38.9538471936
 21
67.9938947963
 31
0.0
 11
-38.9011404505
 21
67.986972681
 31
0.0
 11
-38.8463592245
 21
67.9661408812
 31
0.0
  0
SPLINE
  5
39E
100
AcDbEntity
  8
RACCORDO
100
AcDbSpline
 62
7
  6
CONTINUOUS
 70
0
 71
3
 72
11
 73
7
 74
5
 42
0.0000001
 43
0.0000001
 44
0.0000000001
 12
0.0000403501
 22
-0.1443858036
 32
0.0
 13
0.1291425697
 23
-0.064571345
 33
0.0
 40
0.0
 40
0.0
 40
0.0
 40
0.0
 40
0.2065783418
 40
0.4344754237
 40
0.6975324297
 40
1.0
 40
1.0
 40
1.0
 40
1.0
 10
27.7383744065
 20
32.1372231404
 30
0.0
 10
27.738377185
 20
32.1272808138
 30
0.0
 10
27.7427716968
 20
32.1062117793
 30
0.0
 10
27.7610991463
 20
32.0774553374
 30
0.0
 10
27.7896836655
 20
32.0516424643
 30
0.0
 10
27.8132218924
 20
32.0376673427
 30
0.0
 10
27.8262423721
 20
32.0311570968
 30
0.0
 11
27.7383744065
 21
32.1372231404
 31
0.0
 11
27.7441433358
 21
32.1079593701
 31
0.0
 11
27.7612069968
 21
32.0798243851
 31
0.0
 11
27.788948448
 21
32.0538817306
 31
0.0
 11
27.8262423721
 21
32.0311570968
 31
0.0
  0
SPLINE
  5
39F
100
AcDbEntity
  8
RACCORDO
100
AcDbSpline
 62
7
  6
CONTINUOUS
 70
0
 71
3
 72
12
 73
8
 74
6
 42
0.0000001
 43
0.0000001
 44
0.0000000001
 12
0.5224462519
 22
-0.2612221522
 32
0.0
 13
0.0000164681
 23
-0.5841122312
 33
0.0
 40
0.0
 40
0.0
 40
0.0
 40
0.0
 40
0.1109174718
 40
0.2309231354
 40
0.4893221349
 40
0.7537633763
 40
1.0
 40
1.0
 40
1.0
 40
1.0
 10
29.2586377169
 20
33.9136424106
 30
0.0
 10
29.2779538561
 20
33.903984377
 30
0.0
 10
29.3158085735
 20
33.8791527646
 30
0.0
 10
29.3871581052
 20
33.815681253
 30
0.0
 10
29.4623017548
 20
33.7136505663
 30
0.0
 10
29.5218074433
 20
33.5750530564
 30
0.0
 10
29.5382491724
 20
33.4754218799
 30
0.0
 10
29.5382505241
 20
33.4274786054
 30
0.0
 11
29.2586377169
 21
33.9136424106
 31
0.0
 11
29.3133536817
 21
33.8789483073
 31
0.0
 11
29.3658778847
 21
33.8325288492
 31
0.0
 11
29.456548598
 21
33.7118644428
 31
0.0
 11
29.5170297212
 21
33.5697343459
 31
0.0
 11
29.5382505241
 21
33.4274786054
 31
0.0
  0
SPLINE
  5
3A0
100
AcDbEntity
  8
RACCORDO
100
AcDbSpline
 62
7
  6
CONTINUOUS
 70
0
 71
3
 72
11
 73
7
 74
5
 42
0.0000001
 43
0.0000001
 44
0.0000000001
 12
0.4079950368
 22
0.1888863769
 32
0.0
 13
0.0027810966
 23
0.4495890112
 33
0.0
 40
0.0
 40
0.0
 40
0.0
 40
0.0
 40
0.2166761523
 40
0.4494780108
 40
0.7094272567
 40
1.0
 40
1.0
 40
1.0
 40
1.0
 10
29.7682496654
 20
-72.794453488
 30
0.0
 10
29.7977172636
 20
-72.7808110969
 30
0.0
 10
29.8538254845
 20
-72.7403888463
 30
0.0
 10
29.9143190389
 20
-72.6508859267
 30
0.0
 10
29.9508979813
 20
-72.5380865016
 30
0.0
 10
29.9585106993
 20
-72.4553030798
 30
0.0
 10
29.9587800696
 20
-72.4117569757
 30
0.0
 11
29.7682496654
 21
-72.794453488
 31
0.0
 11
29.8476805537
 21
-72.7380547149
 31
0.0
 11
29.9077614901
 21
-72.6523488491
 31
0.0
 11
29.9454334719
 21
-72.541714238
 31
0.0
 11
29.9587800696
 21
-72.4117569757
 31
0.0
  0
SPLINE
  5
3A1
100
AcDbEntity
  8
RACCORDO
100
AcDbSpline
 62
7
  6
CONTINUOUS
 70
0
 71
3
 72
15
 73
11
 74
9
 42
0.0000001
 43
0.0000001
 44
0.0000000001
 12
0.0000005433
 22
-0.4373931379
 32
0.0
 13
-0.3912229335
 23
0.1955949217
 33
0.0
 40
0.0
 40
0.0
 40
0.0
 40
0.0
 40
0.1487956607
 40
0.2840505564
 40
0.4066337084
 40
0.5199163178
 40
0.6296853472
 40
0.7427992355
 40
0.8650888082
 40
1.0
 40
1.0
 40
1.0
 40
1.0
 10
29.5382505241
 20
-72.4099220221
 30
0.0
 10
29.5382505511
 20
-72.431616089
 30
0.0
 10
29.5350999281
 20
-72.4731495811
 30
0.0
 10
29.5194676073
 20
-72.530768498
 30
0.0
 10
29.4934071996
 20
-72.5788670851
 30
0.0
 10
29.4574239106
 20
-72.6152647773
 30
0.0
 10
29.412888821
 20
-72.6377684646
 30
0.0
 10
29.3622947475
 20
-72.6450971354
 30
0.0
 10
29.3082563858
 20
-72.6374748288
 30
0.0
 10
29.2730443407
 20
-72.6236755886
 30
0.0
 10
29.2554508899
 20
-72.6148796073
 30
0.0
 11
29.5382505241
 21
-72.4099220221
 31
0.0
 11
29.5328178425
 21
-72.4747770824
 31
0.0
 11
29.5167258094
 21
-72.5317059889
 31
0.0
 11
29.4905952222
 21
-72.5785245564
 31
0.0
 11
29.4554257887
 21
-72.613427535
 31
0.0
 11
29.4125698748
 21
-72.6350734105
 31
0.0
 11
29.3636750503
 21
-72.6426295583
 31
0.0
 11
29.3106226997
 21
-72.6358118926
 31
0.0
 11
29.2554508899
 21
-72.6148796073
 31
0.0
  0
SPLINE
  5
3A2
100
AcDbEntity
  8
RACCORDO
100
AcDbSpline
 62
7
  6
CONTINUOUS
 70
0
 71
3
 72
8
 73
4
 74
2
 42
0.0000001
 43
0.0000001
 44
0.0000000001
 12
0.0167615597
 22
-0.0117943045
 32
0.0
 13
0.0183203012
 23
-0.0091881483
 33
0.0
 40
0.0
 40
0.0
 40
0.0
 40
0.0
 40
1.0
 40
1.0
 40
1.0
 40
1.0
 10
-34.4113376643
 20
-35.7219019431
 30
0.0
 10
-34.4057504777
 20
-35.7258333779
 30
0.0
 10
-34.3998307794
 20
-35.7293184811
 30
0.0
 10
-34.3937240123
 20
-35.7323811972
 30
0.0
 11
-34.4113376643
 21
-35.7219019431
 31
0.0
 11
-34.3937240123
 21
-35.7323811972
 31
0.0
  0
SPLINE
  5
3A3
100
AcDbEntity
  8
RACCORDO
100
AcDbSpline
 62
7
  6
CONTINUOUS
 70
0
 71
3
 72
11
 73
7
 74
5
 42
0.0000001
 43
0.0000001
 44
0.0000000001
 12
-0.5252088232
 22
0.262603433
 32
0.0
 13
-0.0000165552
 23
0.5872008777
 33
0.0
 40
0.0
 40
0.0
 40
0.0
 40
0.0
 40
0.2296735233
 40
0.4882132692
 40
0.7532075793
 40
1.0
 40
1.0
 40
1.0
 40
1.0
 10
-38.8463592239
 20
-38.5639745505
 30
0.0
 10
-38.8865680775
 20
-38.5438701986
 30
0.0
 10
-38.9634019638
 20
-38.4837623874
 30
0.0
 10
-39.0521300206
 20
-38.3644280686
 30
0.0
 10
-39.1124912699
 20
-38.2248687196
 30
0.0
 10
-39.1291574968
 20
-38.1245229068
 30
0.0
 10
-39.1291588587
 20
-38.0762173314
 30
0.0
 11
-38.8463592239
 21
-38.5639745505
 31
0.0
 11
-38.9545828444
 21
-38.4835004562
 31
0.0
 11
-39.046333836
 21
-38.3625480745
 31
0.0
 11
-39.1076342703
 21
-38.219526611
 31
0.0
 11
-39.1291588587
 21
-38.0762173314
 31
0.0
  0
SPLINE
  5
3A4
100
AcDbEntity
  8
RACCORDO
100
AcDbSpline
 62
7
  6
CONTINUOUS
 70
0
 71
3
 72
11
 73
7
 74
5
 42
0.0000001
 43
0.0000001
 44
0.0000000001
 12
-0.0000148491
 22
-0.1443860475
 32
0.0
 13
0.1291428057
 23
-0.0645714076
 33
0.0
 40
0.0
 40
0.0
 40
0.0
 40
0.0
 40
0.206582017
 40
0.4344785876
 40
0.6975252505
 40
1.0
 40
1.0
 40
1.0
 40
1.0
 10
-39.2170267547
 20
-37.9701513109
 30
0.0
 10
-39.2170277772
 20
-37.9800938312
 30
0.0
 10
-39.212629444
 20
-38.0011636959
 30
0.0
 10
-39.1943013198
 20
-38.0299179317
 30
0.0
 10
-39.1657184784
 20
-38.0557328166
 30
0.0
 10
-39.1421796713
 20
-38.0697069247
 30
0.0
 10
-39.1291588587
 20
-38.0762173314
 30
0.0
 11
-39.2170267547
 21
-37.9701513109
 31
0.0
 11
-39.2112586387
 21
-37.9994158328
 31
0.0
 11
-39.1941935732
 21
-38.0275499433
 31
0.0
 11
-39.166453908
 21
-38.0534924132
 31
0.0
 11
-39.1291588587
 21
-38.0762173314
 31
0.0
  0
SPLINE
  5
3A5
100
AcDbEntity
  8
RACCORDO
100
AcDbSpline
 62
7
  6
CONTINUOUS
 70
0
 71
3
 72
11
 73
7
 74
5
 42
0.0000001
 43
0.0000001
 44
0.0000000001
 12
-0.0000143701
 22
-0.1443860401
 32
0.0
 13
0.1291428035
 23
-0.0645713953
 33
0.0
 40
0.0
 40
0.0
 40
0.0
 40
0.0
 40
0.2065819985
 40
0.434478562
 40
0.6975252468
 40
1.0
 40
1.0
 40
1.0
 40
1.0
 10
-39.2170267589
 20
67.8672493095
 30
0.0
 10
-39.2170277484
 20
67.8573067906
 30
0.0
 10
-39.2126294367
 20
67.8362369364
 30
0.0
 10
-39.1943013297
 20
67.8074826821
 30
0.0
 10
-39.1657184751
 20
67.7816678139
 30
0.0
 10
-39.1421796713
 20
67.7676937024
 30
0.0
 10
-39.1291588587
 20
67.7611832968
 30
0.0
 11
-39.2170267589
 21
67.8672493095
 31
0.0
 11
-39.2112586283
 21
67.8379847948
 31
0.0
 11
-39.1941935789
 21
67.8098506777
 31
0.0
 11
-39.1664539075
 21
67.7839082127
 31
0.0
 11
-39.1291588587
 21
67.7611832968
 31
0.0
  0
SPLINE
  5
3A6
100
AcDbEntity
  8
RACCORDO
100
AcDbSpline
 62
7
  6
CONTINUOUS
 70
0
 71
3
 72
11
 73
7
 74
5
 42
0.0000001
 43
0.0000001
 44
0.0000000001
 12
-0.1689815347
 22
0.0844616437
 32
0.0
 13
0.0000000046
 23
0.1889140766
 33
0.0
 40
0.0
 40
0.0
 40
0.0
 40
0.0
 40
0.2171654761
 40
0.450392866
 40
0.7103024545
 40
1.0
 40
1.0
 40
1.0
 40
1.0
 10
29.333420723
 20
-72.7771379853
 30
0.0
 10
29.3211884045
 20
-72.7710239343
 30
0.0
 10
29.2980475042
 20
-72.7534138004
 30
0.0
 10
29.2732396256
 20
-72.7153776188
 30
0.0
 10
29.2583997127
 20
-72.6678622082
 30
0.0
 10
29.2554508895
 20
-72.6331222554
 30
0.0
 10
29.2554508899
 20
-72.6148796073
 30
0.0
 11
29.333420723
 21
-72.7771379853
 31
0.0
 11
29.3005956161
 21
-72.7525287701
 31
0.0
 11
29.2759329854
 21
-72.7160180498
 31
0.0
 11
29.2606349198
 21
-72.6693614733
 31
0.0
 11
29.2554508899
 21
-72.6148796073
 31
0.0
  0
SPLINE
  5
3A7
100
AcDbEntity
  8
RACCORDO
100
AcDbSpline
 62
7
  6
CONTINUOUS
 70
0
 71
3
 72
11
 73
7
 74
5
 42
0.0000001
 43
0.0000001
 44
0.0000000001
 12
-0.1689813847
 22
0.0844619638
 32
0.0
 13
-0.0000000064
 23
0.1889140855
 33
0.0
 40
0.0
 40
0.0
 40
0.0
 40
0.0
 40
0.2171653099
 40
0.4503927528
 40
0.7103023951
 40
1.0
 40
1.0
 40
1.0
 40
1.0
 10
-38.76838941
 20
-38.7262329809
 30
0.0
 10
-38.7806217083
 20
-38.7201189113
 30
0.0
 10
-38.8037625473
 20
-38.7025087246
 30
0.0
 10
-38.828570497
 20
-38.6644726003
 30
0.0
 10
-38.8434103887
 20
-38.6169571593
 30
0.0
 10
-38.8463592239
 20
-38.5822172029
 30
0.0
 10
-38.8463592245
 20
-38.5639745502
 30
0.0
 11
-38.76838941
 21
-38.7262329809
 31
0.0
 11
-38.801214452
 21
-38.7016237281
 31
0.0
 11
-38.8258771192
 21
-38.6651130179
 31
0.0
 11
-38.8411751885
 21
-38.6184564294
 31
0.0
 11
-38.8463592245
 21
-38.5639745502
 31
0.0
  0
SPLINE
  5
3A8
100
AcDbEntity
  8
RACCORDO
100
AcDbSpline
 62
7
  6
CONTINUOUS
 70
0
 71
3
 72
15
 73
11
 74
9
 42
0.0000001
 43
0.0000001
 44
0.0000000001
 12
-0.5701695407
 22
0.2850660234
 32
0.0
 13
-0.0000145285
 23
-0.637460542
 33
0.0
 40
0.0
 40
0.0
 40
0.0
 40
0.0
 40
0.1348561254
 40
0.2573957507
 40
0.3704723954
 40
0.4799257848
 40
0.5930000782
 40
0.7157264728
 40
0.8513022774
 40
1.0
 40
1.0
 40
1.0
 40
1.0
 10
-37.0073430856
 20
64.9498596079
 30
0.0
 10
-37.0329733706
 20
64.9626739077
 30
0.0
 10
-37.0841810418
 20
64.9830465458
 30
0.0
 10
-37.1627710896
 20
64.9952641845
 30
0.0
 10
-37.2366665895
 20
64.9856827257
 30
0.0
 10
-37.3017552541
 20
64.9533071695
 30
0.0
 10
-37.3538486327
 20
64.8999212308
 30
0.0
 10
-37.3909789494
 20
64.8292915927
 30
0.0
 10
-37.4128220369
 20
64.7450127848
 30
0.0
 10
-37.4171499866
 20
64.6844499465
 30
0.0
 10
-37.4171507067
 20
64.6528536362
 30
0.0
 11
-37.0073430856
 21
64.9498596079
 31
0.0
 11
-37.0875632427
 21
64.9807592276
 31
0.0
 11
-37.1649067371
 21
64.9917049284
 31
0.0
 11
-37.236281715
 21
64.98163454
 31
0.0
 11
-37.2987347871
 21
64.9505254407
 31
0.0
 11
-37.3496321252
 21
64.8994857984
 31
0.0
 11
-37.3869937955
 21
64.8307504763
 31
0.0
 11
-37.4096320624
 21
64.7473439077
 31
0.0
 11
-37.4171507067
 21
64.6528536362
 31
0.0
  0
SPLINE
  5
3A9
100
AcDbEntity
  8
RACCORDO
100
AcDbSpline
 62
7
  6
CONTINUOUS
 70
0
 71
3
 72
11
 73
7
 74
5
 42
0.0000001
 43
0.0000001
 44
0.0000000001
 12
0.0000197937
 22
-0.8520140845
 32
0.0
 13
0.7620422334
 23
-0.3810769412
 33
0.0
 40
0.0
 40
0.0
 40
0.0
 40
0.0
 40
0.2467424519
 40
0.5119749011
 40
0.7705534111
 40
1.0
 40
1.0
 40
1.0
 40
1.0
 10
-37.4171507067
 20
-36.6798958228
 30
0.0
 10
-37.4171490788
 20
-36.7499718376
 30
0.0
 10
-37.3942321526
 20
-36.8957239131
 30
0.0
 10
-37.3074744599
 20
-37.0988225113
 30
0.0
 10
-37.1778475734
 20
-37.271602796
 30
0.0
 10
-37.0656257493
 20
-37.3575638142
 30
0.0
 10
-37.0073430856
 20
-37.3867094157
 30
0.0
 11
-37.4171507067
 21
-36.6798958228
 31
0.0
 11
-37.3869937972
 21
-36.8879496415
 31
0.0
 11
-37.2987347873
 21
-37.0959835645
 31
0.0
 11
-37.1649067375
 21
-37.2709911789
 31
0.0
 11
-37.0073430856
 21
-37.3867094157
 31
0.0
  0
SPLINE
  5
3AA
100
AcDbEntity
  8
RACCORDO
100
AcDbSpline
 62
7
  6
CONTINUOUS
 70
0
 71
3
 72
15
 73
11
 74
9
 42
0.0000001
 43
0.0000001
 44
0.0000000001
 12
0.5701695391
 22
-0.2850667643
 32
0.0
 13
0.0000119423
 23
0.637460872
 33
0.0
 40
0.0
 40
0.0
 40
0.0
 40
0.0
 40
0.1348577594
 40
0.2573968016
 40
0.3704735614
 40
0.4799266635
 40
0.5930014688
 40
0.7157277627
 40
0.8513039798
 40
1.0
 40
1.0
 40
1.0
 40
1.0
 10
27.416434751
 20
-69.598598334
 30
0.0
 10
27.4420653465
 20
-69.6114128223
 30
0.0
 10
27.4932722596
 20
-69.6317881611
 30
0.0
 10
27.5718629842
 20
-69.6440048016
 30
0.0
 10
27.6457582871
 20
-69.6344230039
 30
0.0
 10
27.7108465209
 20
-69.602046133
 30
0.0
 10
27.7629390049
 20
-69.5486593663
 30
0.0
 10
27.8000691081
 20
-69.4780293415
 30
0.0
 10
27.8219111782
 20
-69.3937507269
 30
0.0
 10
27.8262417802
 20
-69.3331883272
 30
0.0
 10
27.8262423721
 20
-69.3015923623
 30
0.0
 11
27.416434751
 21
-69.598598334
 31
0.0
 11
27.4966552215
 21
-69.6295001617
 31
0.0
 11
27.5739984132
 21
-69.6404456371
 31
0.0
 11
27.645373416
 21
-69.6303746326
 31
0.0
 11
27.707825856
 21
-69.5992645944
 31
0.0
 11
27.7587226954
 21
-69.5482239412
 31
0.0
 11
27.7960838322
 21
-69.4794883561
 31
0.0
 11
27.8187220787
 21
-69.3960814631
 31
0.0
 11
27.8262423721
 21
-69.3015923623
 31
0.0
  0
SPLINE
  5
3AB
100
AcDbEntity
  8
RACCORDO
100
AcDbSpline
 62
7
  6
CONTINUOUS
 70
0
 71
3
 72
9
 73
5
 74
3
 42
0.0000001
 43
0.0000001
 44
0.0000000001
 12
-0.0912696516
 22
-0.0475859885
 32
0.0
 13
-0.0792739398
 23
-0.0656522511
 33
0.0
 40
0.0
 40
0.0
 40
0.0
 40
0.0
 40
0.240045773
 40
1.0
 40
1.0
 40
1.0
 40
1.0
 10
-34.3083880189
 20
-35.6750246004
 30
0.0
 10
-34.3156909836
 20
-35.6788322055
 30
0.0
 10
-34.3456384942
 20
-35.6956016287
 30
0.0
 10
-34.3736424905
 20
-35.7157502953
 30
0.0
 10
-34.3937240124
 20
-35.7323811972
 30
0.0
 11
-34.3083880189
 21
-35.6750246004
 31
0.0
 11
-34.3299565411
 21
-35.6870777825
 31
0.0
 11
-34.3937240124
 21
-35.7323811972
 31
0.0
  0
SPLINE
  5
3AC
100
AcDbEntity
  8
RACCORDO
100
AcDbSpline
 62
7
  6
CONTINUOUS
 70
0
 71
3
 72
9
 73
5
 74
3
 42
0.0000001
 43
0.0000001
 44
0.0000000001
 12
-0.1019693292
 22
-0.0404250948
 32
0.0
 13
-0.0914706908
 23
-0.060539616
 33
0.0
 40
0.0
 40
0.0
 40
0.0
 40
0.0
 40
0.2423598346
 40
1.0
 40
1.0
 40
1.0
 40
1.0
 10
-34.3143926087
 20
-35.670800301
 30
0.0
 10
-34.3226303652
 20
-35.6740661075
 30
0.0
 10
-34.356233191
 20
-35.6885086844
 30
0.0
 10
-34.3882184694
 20
-35.7066248463
 30
0.0
 10
-34.4113190925
 20
-35.7219139279
 30
0.0
 11
-34.3143926087
 21
-35.670800301
 31
0.0
 11
-34.3388233039
 21
-35.6812824887
 31
0.0
 11
-34.4113190925
 21
-35.7219139279
 31
0.0
  0
SPLINE
  5
3AD
100
AcDbEntity
  8
RACCORDO
100
AcDbSpline
 62
7
  6
CONTINUOUS
 70
0
 71
3
 72
9
 73
5
 74
3
 42
0.0000001
 43
0.0000001
 44
0.0000000001
 12
-0.091998554
 22
-0.0596700142
 32
0.0
 13
-0.1008480191
 23
-0.0430571896
 33
0.0
 40
0.0
 40
0.0
 40
0.0
 40
0.0
 40
0.2407744537
 40
1.0
 40
1.0
 40
1.0
 40
1.0
 10
-34.5192967549
 20
-35.3173933451
 30
0.0
 10
-34.5266803888
 20
-35.3221823501
 30
0.0
 10
-34.5578252889
 20
-35.3413306634
 30
0.0
 10
-34.590701005
 20
-35.3576102208
 30
0.0
 10
-34.6162231358
 20
-35.3685069269
 30
0.0
 11
-34.5192967549
 21
-35.3173933451
 31
0.0
 11
-34.5417785208
 21
-35.331236891
 31
0.0
 11
-34.6162231358
 21
-35.3685069269
 31
0.0
  0
SPLINE
  5
3AE
100
AcDbEntity
  8
RACCORDO
100
AcDbSpline
 62
7
  6
CONTINUOUS
 70
0
 71
3
 72
9
 73
5
 74
3
 42
0.0000001
 43
0.0000001
 44
0.0000000001
 12
-0.093726083
 22
-0.0452541881
 32
0.0
 13
-0.0999960285
 23
-0.0288671864
 33
0.0
 40
0.0
 40
0.0
 40
0.0
 40
0.0
 40
0.2385351266
 40
1.0
 40
1.0
 40
1.0
 40
1.0
 10
-34.5204877445
 20
-35.3092066864
 30
0.0
 10
-34.5279400655
 20
-35.3128049242
 30
0.0
 10
-34.5595486713
 20
-35.3271272444
 30
0.0
 10
-34.5924357753
 20
-35.3385509708
 30
0.0
 10
-34.6178169297
 20
-35.3458780869
 30
0.0
 11
-34.5204877445
 21
-35.3092066864
 31
0.0
 11
-34.5430923364
 21
-35.31947275
 31
0.0
 11
-34.6178169297
 21
-35.3458780869
 31
0.0
  0
SPLINE
  5
3AF
100
AcDbEntity
  8
RACCORDO
100
AcDbSpline
 62
7
  6
CONTINUOUS
 70
0
 71
3
 72
9
 73
5
 74
3
 42
0.0000001
 43
0.0000001
 44
0.0000000001
 12
0.0000001055
 22
0.204790318
 32
0.0
 13
-0.0542844535
 23
0.1974646106
 33
0.0
 40
0.0
 40
0.0
 40
0.0
 40
0.0
 40
0.2389456905
 40
1.0
 40
1.0
 40
1.0
 40
1.0
 10
27.8262423721
 20
32.0311570968
 30
0.0
 10
27.8262423805
 20
32.0474683514
 30
0.0
 10
27.8236824863
 20
32.1157211802
 30
0.0
 10
27.8114218608
 20
32.1834973862
 30
0.0
 10
27.7976507217
 20
32.2335911504
 30
0.0
 11
27.8262423721
 21
32.0311570968
 31
0.0
 11
27.8244651655
 21
32.0800585772
 31
0.0
 11
27.7976507217
 21
32.2335911504
 31
0.0
  0
SPLINE
  5
3B0
100
AcDbEntity
  8
RACCORDO
100
AcDbSpline
 62
7
  6
CONTINUOUS
 70
0
 71
3
 72
9
 73
5
 74
3
 42
0.0000001
 43
0.0000001
 44
0.0000000001
 12
-0.1212913385
 22
0.4412082163
 32
0.0
 13
-0.3271261585
 23
0.3199449255
 33
0.0
 40
0.0
 40
0.0
 40
0.0
 40
0.0
 40
0.5065165856
 40
1.0
 40
1.0
 40
1.0
 40
1.0
 10
27.7976507217
 20
32.2335911504
 30
0.0
 10
27.7771720302
 20
32.3080842435
 30
0.0
 10
27.7171374158
 20
32.4502347282
 30
0.0
 10
27.6238561822
 20
32.5735180793
 30
0.0
 10
27.5700457376
 20
32.6261472508
 30
0.0
 11
27.7976507217
 21
32.2335911504
 31
0.0
 11
27.7078252533
 21
32.4472468659
 31
0.0
 11
27.5700457376
 21
32.6261472508
 31
0.0
  0
SPLINE
  5
3B1
100
AcDbEntity
  8
RACCORDO
100
AcDbSpline
 62
7
  6
CONTINUOUS
 70
0
 71
3
 72
9
 73
5
 74
3
 42
0.0000001
 43
0.0000001
 44
0.0000000001
 12
-0.1361306887
 22
0.1331422815
 32
0.0
 13
-0.1703114421
 23
0.0851612837
 33
0.0
 40
0.0
 40
0.0
 40
0.0
 40
0.0
 40
0.2645539582
 40
1.0
 40
1.0
 40
1.0
 40
1.0
 10
27.5700457376
 20
32.6261472508
 30
0.0
 10
27.5580411001
 20
32.6378883566
 30
0.0
 10
27.5111930153
 20
32.6806968936
 30
0.0
 10
27.4581863763
 20
32.7170935133
 30
0.0
 10
27.416434751
 20
32.7379706896
 30
0.0
 11
27.5700457376
 21
32.6261472508
 31
0.0
 11
27.5328223778
 21
32.6600899301
 31
0.0
 11
27.416434751
 21
32.7379706896
 31
0.0
  0
SPLINE
  5
3B2
100
AcDbEntity
  8
RACCORDO
100
AcDbSpline
 62
7
  6
CONTINUOUS
 70
0
 71
3
 72
11
 73
7
 74
5
 42
0.0000001
 43
0.0000001
 44
0.0000000001
 12
-0.2889262463
 22
-0.2392800289
 32
0.0
 13
-0.0000001166
 23
-0.3751443829
 33
0.0
 40
0.0
 40
0.0
 40
0.0
 40
0.0
 40
0.2439343447
 40
0.5030007007
 40
0.7604735585
 40
1.0
 40
1.0
 40
1.0
 40
1.0
 10
27.5736629513
 20
-69.2690293504
 30
0.0
 10
27.5501699398
 20
-69.2884855561
 30
0.0
 10
27.5069188783
 20
-69.3350496893
 30
0.0
 10
27.4575182308
 20
-69.4169824776
 30
0.0
 10
27.4250473943
 20
-69.5063938261
 30
0.0
 10
27.4164347603
 20
-69.5686460009
 30
0.0
 10
27.416434751
 20
-69.598598334
 30
0.0
 11
27.5736629513
 21
-69.2690293504
 31
0.0
 11
27.5107073198
 21
-69.3354430405
 31
0.0
 11
27.4602749611
 21
-69.418520993
 31
0.0
 11
27.4276936848
 21
-69.5094494882
 31
0.0
 11
27.416434751
 21
-69.598598334
 31
0.0
  0
SPLINE
  5
3B3
100
AcDbEntity
  8
RACCORDO
100
AcDbSpline
 62
7
  6
CONTINUOUS
 70
0
 71
3
 72
11
 73
7
 74
5
 42
0.0000001
 43
0.0000001
 44
0.0000000001
 12
-0.4342348114
 22
0.1130007242
 32
0.0
 13
0.0937808854
 23
0.4387871701
 33
0.0
 40
0.0
 40
0.0
 40
0.0
 40
0.0
 40
0.2363673836
 40
0.4908126188
 40
0.7509288198
 40
1.0
 40
1.0
 40
1.0
 40
1.0
 10
-36.850103726
 20
-37.0571438546
 30
0.0
 10
-36.8843167081
 20
-37.0482406261
 30
0.0
 10
-36.9524715586
 20
-37.01558636
 30
0.0
 10
-37.0286847513
 20
-36.9289532984
 30
0.0
 10
-37.0660685322
 20
-36.8180341184
 30
0.0
 10
-37.0628043717
 20
-36.7401613125
 30
0.0
 10
-37.0550183331
 20
-36.7037315664
 30
0.0
 11
-36.850103726
 21
-37.0571438546
 31
0.0
 11
-36.9457074674
 21
-37.0112299656
 31
0.0
 11
-37.0214989992
 21
-36.9258475075
 31
0.0
 11
-37.0592522878
 21
-36.8154088371
 31
0.0
 11
-37.0550183331
 21
-36.7037315664
 31
0.0
  0
SPLINE
  5
3B4
100
AcDbEntity
  8
RACCORDO
100
AcDbSpline
 62
7
  6
CONTINUOUS
 70
0
 71
3
 72
11
 73
7
 74
5
 42
0.0000001
 43
0.0000001
 44
0.0000000001
 12
-0.3552592169
 22
-0.1025545731
 32
0.0
 13
-0.3307282881
 23
0.1653642982
 33
0.0
 40
0.0
 40
0.0
 40
0.0
 40
0.0
 40
0.2517443989
 40
0.5159369745
 40
0.7717524209
 40
1.0
 40
1.0
 40
1.0
 40
1.0
 10
-37.0550187022
 20
-36.7037336248
 30
0.0
 10
-37.0848302082
 20
-36.7123394713
 30
0.0
 10
-37.1478157038
 20
-36.7236885523
 30
0.0
 10
-37.243308566
 20
-36.725172833
 30
0.0
 10
-37.334949407
 20
-36.7118627223
 30
0.0
 10
-37.391988063
 20
-36.6924771564
 30
0.0
 10
-37.4171507067
 20
-36.6798958228
 30
0.0
 11
-37.0550187022
 21
-36.7037336248
 31
0.0
 11
-37.1464993585
 21
-36.7209489631
 31
0.0
 11
-37.2441756586
 21
-36.722543189
 31
0.0
 11
-37.3376984892
 21
-36.7083630401
 31
0.0
 11
-37.4171507067
 21
-36.6798958228
 31
0.0
  0
SPLINE
  5
3B5
100
AcDbEntity
  8
RACCORDO
100
AcDbSpline
 62
7
  6
CONTINUOUS
 70
0
 71
3
 72
12
 73
8
 74
6
 42
0.0000001
 43
0.0000001
 44
0.0000000001
 12
-0.0549483499
 22
0.2253710436
 32
0.0
 13
0.231867989
 23
0.0069759662
 33
0.0
 40
0.0
 40
0.0
 40
0.0
 40
0.0
 40
0.2804594286
 40
0.5222262149
 40
0.6353198152
 40
0.7495660118
 40
1.0
 40
1.0
 40
1.0
 40
1.0
 10
-37.0550183489
 20
64.6290140751
 30
0.0
 10
-37.0601552765
 20
64.6500832198
 30
0.0
 10
-37.0659096826
 20
64.6905532259
 30
0.0
 10
-37.0546487917
 20
64.7403987627
 30
0.0
 10
-37.032359463
 20
64.7697044589
 30
0.0
 10
-37.0019133014
 20
64.7914903661
 30
0.0
 10
-36.9728982807
 20
64.7972151587
 30
0.0
 10
-36.9535424056
 20
64.7977974984
 30
0.0
 11
-37.0550183489
 21
64.6290140751
 31
0.0
 11
-37.062006665
 21
64.6936966492
 31
0.0
 11
-37.0474612566
 21
64.7478609596
 31
0.0
 11
-37.0315022159
 21
64.7686832057
 31
0.0
 11
-37.0100250265
 21
64.7842101985
 31
0.0
 11
-36.9535424056
 21
64.7977974984
 31
0.0
  0
SPLINE
  5
3B6
100
AcDbEntity
  8
RACCORDO
100
AcDbSpline
 62
7
  6
CONTINUOUS
 70
0
 71
3
 72
11
 73
7
 74
5
 42
0.0000001
 43
0.0000001
 44
0.0000000001
 12
0.3307283888
 22
-0.1653640404
 32
0.0
 13
0.355259245
 23
0.1025543848
 33
0.0
 40
0.0
 40
0.0
 40
0.0
 40
0.0
 40
0.2282475519
 40
0.484063011
 40
0.7482556034
 40
1.0
 40
1.0
 40
1.0
 40
1.0
 10
-37.4171507067
 20
64.6528536362
 30
0.0
 10
-37.3919880584
 20
64.6402723237
 30
0.0
 10
-37.3349494003
 20
64.6208867895
 30
0.0
 10
-37.2433085658
 20
64.6075766885
 30
0.0
 10
-37.1478157075
 20
64.6090609484
 30
0.0
 10
-37.0848302107
 20
64.6204100035
 30
0.0
 10
-37.0550187026
 20
64.6290158341
 30
0.0
 11
-37.4171507067
 21
64.6528536362
 31
0.0
 11
-37.3376984893
 21
64.6243864655
 31
0.0
 11
-37.2441756589
 21
64.6102063275
 31
0.0
 11
-37.1464993589
 21
64.6118005344
 31
0.0
 11
-37.0550187026
 21
64.6290158341
 31
0.0
  0
SPLINE
  5
3B7
100
AcDbEntity
  8
RACCORDO
100
AcDbSpline
 62
7
  6
CONTINUOUS
 70
0
 71
3
 72
11
 73
7
 74
5
 42
0.0000001
 43
0.0000001
 44
0.0000000001
 12
0.0000001779
 22
-0.1889142318
 32
0.0
 13
0.1689717606
 23
-0.0844815429
 33
0.0
 40
0.0
 40
0.0
 40
0.0
 40
0.0
 40
0.2897012584
 40
0.5496242293
 40
0.7828596155
 40
1.0
 40
1.0
 40
1.0
 40
1.0
 10
27.416434751
 20
32.7379706896
 30
0.0
 10
27.4164347682
 20
32.7197277927
 30
0.0
 10
27.4193852452
 20
32.6849873645
 30
0.0
 10
27.4342222027
 20
32.6374681588
 30
0.0
 10
27.4590380844
 20
32.599438428
 30
0.0
 10
27.4821723979
 20
32.58182296
 30
0.0
 10
27.4944025956
 20
32.5757081751
 30
0.0
 11
27.416434751
 21
32.7379706896
 31
0.0
 11
27.4216193704
 21
32.68348813
 31
0.0
 11
27.436917847
 21
32.6368289852
 31
0.0
 11
27.4615848341
 21
32.6003193411
 31
0.0
 11
27.4944025956
 21
32.5757081751
 31
0.0
  0
SPLINE
  5
3B8
100
AcDbEntity
  8
RACCORDO
100
AcDbSpline
 62
7
  6
CONTINUOUS
 70
0
 71
3
 72
10
 73
6
 74
4
 42
0.0000001
 43
0.0000001
 44
0.0000000001
 12
-0.1169948136
 22
0.0584972416
 32
0.0
 13
-0.0225877217
 23
0.1288390799
 33
0.0
 40
0.0
 40
0.0
 40
0.0
 40
0.0
 40
0.2989747133
 40
0.563607985
 40
1.0
 40
1.0
 40
1.0
 40
1.0
 10
27.8262423721
 20
-69.3015923623
 30
0.0
 10
27.8145828752
 20
-69.2957626303
 30
0.0
 10
27.7932458431
 20
-69.2832375092
 30
0.0
 10
27.7598229582
 20
-69.2553176638
 30
0.0
 10
27.7428073054
 20
-69.2273408971
 30
0.0
 10
27.739521605
 20
-69.2085994485
 30
0.0
 11
27.8262423721
 21
-69.3015923623
 31
0.0
 11
27.792649127
 21
-69.2815708568
 31
0.0
 11
27.7664777304
 21
-69.2589155175
 31
0.0
 11
27.739521605
 21
-69.2085994485
 31
0.0
  0
SPLINE
  5
3B9
100
AcDbEntity
  8
RACCORDO
100
AcDbSpline
 62
7
  6
CONTINUOUS
 70
0
 71
3
 72
11
 73
7
 74
5
 42
0.0000001
 43
0.0000001
 44
0.0000000001
 12
-0.0000003533
 22
0.3751444731
 32
0.0
 13
0.2889265506
 23
0.2392798028
 33
0.0
 40
0.0
 40
0.0
 40
0.0
 40
0.0
 40
0.2395264869
 40
0.4969993185
 40
0.7560656446
 40
1.0
 40
1.0
 40
1.0
 40
1.0
 10
-37.0073430856
 20
-37.3867094157
 30
0.0
 10
-37.0073431138
 20
-37.3567570698
 30
0.0
 10
-36.9987305318
 20
-37.2945048655
 30
0.0
 10
-36.9662596985
 20
-37.2050934885
 30
0.0
 10
-36.916859003
 20
-37.1231607058
 30
0.0
 10
-36.8736078941
 20
-37.0765965966
 30
0.0
 10
-36.8501148568
 20
-37.0571404085
 30
0.0
 11
-37.0073430856
 21
-37.3867094157
 31
0.0
 11
-36.9960842254
 21
-37.2975605217
 31
0.0
 11
-36.9635029593
 21
-37.2066320086
 31
0.0
 11
-36.9130705596
 21
-37.1235540668
 31
0.0
 11
-36.8501148568
 21
-37.0571404085
 31
0.0
  0
SPLINE
  5
3BA
100
AcDbEntity
  8
RACCORDO
100
AcDbSpline
 62
7
  6
CONTINUOUS
 70
0
 71
3
 72
10
 73
6
 74
4
 42
0.0000001
 43
0.0000001
 44
0.0000000001
 12
-0.0195716357
 22
-0.4268926841
 32
0.0
 13
0.3907363717
 23
-0.1730476827
 33
0.0
 40
0.0
 40
0.0
 40
0.0
 40
0.0
 40
0.2487081936
 40
0.5144055266
 40
1.0
 40
1.0
 40
1.0
 40
1.0
 10
-34.6162229524
 20
-35.3685160938
 30
0.0
 10
-34.6178454944
 20
-35.4039066632
 30
0.0
 10
-34.6091616165
 20
-35.4780732034
 30
0.0
 10
-34.5553453799
 20
-35.6104612173
 30
0.0
 10
-34.4745868543
 20
-35.693893096
 30
0.0
 10
-34.4113403801
 20
-35.7219034288
 30
0.0
 11
-34.6162229524
 21
-35.3685160938
 31
0.0
 11
-34.6050071085
 21
-35.474205877
 31
0.0
 11
-34.5621356943
 21
-35.5793445624
 31
0.0
 11
-34.4113403801
 21
-35.7219034288
 31
0.0
  0
SPLINE
  5
3BB
100
AcDbEntity
  8
RACCORDO
100
AcDbSpline
 62
7
  6
CONTINUOUS
 70
0
 71
3
 72
11
 73
7
 74
5
 42
0.0000001
 43
0.0000001
 44
0.0000000001
 12
0.132042495
 22
-0.3889136643
 32
0.0
 13
0.2820548704
 23
-0.2985533601
 33
0.0
 40
0.0
 40
0.0
 40
0.0
 40
0.0
 40
0.2415272739
 40
0.5166749618
 40
0.7829133103
 40
1.0
 40
1.0
 40
1.0
 40
1.0
 10
-34.5192964192
 20
-35.3173935051
 30
0.0
 10
-34.5086657979
 20
-35.3487045908
 30
0.0
 10
-34.4811927351
 20
-35.4140632562
 30
0.0
 10
-34.4313928699
 20
-35.5091064072
 30
0.0
 10
-34.3755687099
 20
-35.5967646017
 30
0.0
 10
-34.334802728
 20
-35.6491963146
 30
0.0
 10
-34.3143926087
 20
-35.6708003015
 30
0.0
 11
-34.5192964192
 21
-35.3173935051
 31
0.0
 11
-34.4818021925
 21
-35.4092342953
 31
0.0
 11
-34.4294288531
 21
-35.5093734455
 31
0.0
 11
-34.3703754152
 21
-35.6014052558
 31
0.0
 11
-34.3143926087
 21
-35.6708003015
 31
0.0
  0
SPLINE
  5
3BC
100
AcDbEntity
  8
RACCORDO
100
AcDbSpline
 62
7
  6
CONTINUOUS
 70
0
 71
3
 72
8
 73
4
 74
2
 42
0.0000001
 43
0.0000001
 44
0.0000000001
 12
0.0050630357
 22
-0.0053165279
 32
0.0
 13
0.0066390485
 23
-0.0031341401
 33
0.0
 40
0.0
 40
0.0
 40
0.0
 40
0.0
 40
1.0
 40
1.0
 40
1.0
 40
1.0
 10
-34.3143926087
 20
-35.6708003015
 30
0.0
 10
-34.3127049301
 20
-35.6725724775
 30
0.0
 10
-34.310601035
 20
-35.673979887
 30
0.0
 10
-34.3083880189
 20
-35.6750246004
 30
0.0
 11
-34.3143926087
 21
-35.6708003015
 31
0.0
 11
-34.3083880189
 21
-35.6750246004
 31
0.0
  0
SPLINE
  5
3BD
100
AcDbEntity
  8
RACCORDO
100
AcDbSpline
 62
7
  6
CONTINUOUS
 70
0
 71
3
 72
8
 73
4
 74
2
 42
0.0000001
 43
0.0000001
 44
0.0000000001
 12
-0.0001898919
 22
-0.0082708644
 32
0.0
 13
0.0026371872
 23
-0.0078414604
 33
0.0
 40
0.0
 40
0.0
 40
0.0
 40
0.0
 40
1.0
 40
1.0
 40
1.0
 40
1.0
 10
-34.5204877445
 20
-35.3092066864
 30
0.0
 10
-34.5205510418
 20
-35.3119636412
 30
0.0
 10
-34.5201754816
 20
-35.314779685
 30
0.0
 10
-34.5192964192
 20
-35.3173935051
 30
0.0
 11
-34.5204877445
 21
-35.3092066864
 31
0.0
 11
-34.5192964192
 21
-35.3173935051
 31
0.0
  0
SPLINE
  5
3BE
100
AcDbEntity
  8
RACCORDO
100
AcDbSpline
 62
7
  6
CONTINUOUS
 70
0
 71
3
 72
11
 73
7
 74
5
 42
0.0000001
 43
0.0000001
 44
0.0000000001
 12
-0.0064027649
 22
1.0264962597
 32
0.0
 13
-0.9153126615
 23
0.4646916164
 33
0.0
 40
0.0
 40
0.0
 40
0.0
 40
0.0
 40
0.246670931
 40
0.5119111179
 40
0.7706382137
 40
1.0
 40
1.0
 40
1.0
 40
1.0
 10
29.9587800696
 20
33.4256436525
 30
0.0
 10
29.9582536109
 20
33.5100459152
 30
0.0
 10
29.9282416711
 20
33.6853047334
 30
0.0
 10
29.8222932307
 20
33.929135092
 30
0.0
 10
29.6675500674
 20
34.1379822466
 30
0.0
 10
29.5338599588
 20
34.2436912854
 30
0.0
 10
29.4638807098
 20
34.2792187851
 30
0.0
 11
29.9587800696
 21
33.4256436525
 31
0.0
 11
29.9199576057
 21
33.675861534
 31
0.0
 11
29.8122767989
 21
33.9259367714
 31
0.0
 11
29.6521245142
 21
34.1378046525
 31
0.0
 11
29.4638807098
 21
34.2792187851
 31
0.0
  0
SPLINE
  5
3BF
100
AcDbEntity
  8
RACCORDO
100
AcDbSpline
 62
7
  6
CONTINUOUS
 70
0
 71
3
 72
11
 73
7
 74
5
 42
0.0000001
 43
0.0000001
 44
0.0000000001
 12
-0.299681524
 22
0.1475650771
 32
0.0
 13
-0.2939897456
 23
-0.1586016938
 33
0.0
 40
0.0
 40
0.0
 40
0.0
 40
0.0
 40
0.2798231701
 40
0.5359571054
 40
0.7731397735
 40
1.0
 40
1.0
 40
1.0
 40
1.0
 10
-38.6379294047
 20
68.3301238423
 30
0.0
 10
-38.665882016
 20
68.3438878849
 30
0.0
 10
-38.7217422929
 20
68.3659821977
 30
0.0
 10
-38.8072248443
 20
68.3809670463
 30
0.0
 10
-38.8881028585
 20
68.3753748269
 30
0.0
 10
-38.9374500179
 20
68.3574365556
 30
0.0
 10
-38.9596815447
 20
68.3454430835
 30
0.0
 11
-38.6379294047
 21
68.3301238423
 31
0.0
 11
-38.7251375827
 21
68.3637677097
 31
0.0
 11
-38.8095512694
 21
68.3777241804
 31
0.0
 11
-38.8885394286
 21
68.3715497246
 31
0.0
 11
-38.9596815447
 21
68.3454430835
 31
0.0
  0
SPLINE
  5
3C0
100
AcDbEntity
  8
RACCORDO
100
AcDbSpline
 62
7
  6
CONTINUOUS
 70
0
 71
3
 72
11
 73
7
 74
5
 42
0.0000001
 43
0.0000001
 44
0.0000000001
 12
-0.0340990352
 22
-0.0214753361
 32
0.0
 13
-0.0380465059
 23
0.0132814778
 33
0.0
 40
0.0
 40
0.0
 40
0.0
 40
0.0
 40
0.1278811211
 40
0.3380002508
 40
0.6303306266
 40
1.0
 40
1.0
 40
1.0
 40
1.0
 10
-33.253789851
 20
39.9565676702
 30
0.0
 10
-33.2552433919
 20
39.9556522402
 30
0.0
 10
-33.2601153722
 20
39.9554698468
 30
0.0
 10
-33.2683076103
 20
39.9569385908
 30
0.0
 10
-33.2796729856
 20
39.9601000437
 30
0.0
 10
-33.2880849869
 20
39.9629236478
 30
0.0
 10
-33.2927731963
 20
39.964560233
 30
0.0
 11
-33.253789851
 21
39.9565676702
 31
0.0
 11
-33.2588614041
 21
39.9556530722
 31
0.0
 11
-33.267242224
 21
39.9568608121
 31
0.0
 11
-33.2786231625
 21
39.9599023359
 31
0.0
 11
-33.2927731963
 21
39.964560233
 31
0.0
  0
SPLINE
  5
3C1
100
AcDbEntity
  8
RACCORDO
100
AcDbSpline
 62
7
  6
CONTINUOUS
 70
0
 71
3
 72
9
 73
5
 74
3
 42
0.0000001
 43
0.0000001
 44
0.0000000001
 12
-0.0441707059
 22
0.0154193464
 32
0.0
 13
-0.0435133037
 23
0.0171872019
 33
0.0
 40
0.0
 40
0.0
 40
0.0
 40
0.0
 40
0.2195340247
 40
1.0
 40
1.0
 40
1.0
 40
1.0
 10
-33.2927731963
 20
39.964560233
 30
0.0
 10
-33.2960055205
 20
39.96568859
 30
0.0
 10
-33.3106806986
 20
39.9709670401
 30
0.0
 10
-33.3252147029
 20
39.9766277846
 30
0.0
 10
-33.3365349206
 20
39.9810991267
 30
0.0
 11
-33.2927731963
 21
39.964560233
 31
0.0
 11
-33.3024421185
 21
39.9680246136
 31
0.0
 11
-33.3365349206
 21
39.9810991267
 31
0.0
  0
SPLINE
  5
3C2
100
AcDbEntity
  8
RACCORDO
100
AcDbSpline
 62
7
  6
CONTINUOUS
 70
0
 71
3
 72
11
 73
7
 74
5
 42
0.0000001
 43
0.0000001
 44
0.0000000001
 12
-0.0340990352
 22
-0.0214753361
 32
0.0
 13
-0.0380465058
 23
0.0132814778
 33
0.0
 40
0.0
 40
0.0
 40
0.0
 40
0.0
 40
0.1278811212
 40
0.3380002509
 40
0.6303306266
 40
1.0
 40
1.0
 40
1.0
 40
1.0
 10
-33.253789851
 20
-12.0049565568
 30
0.0
 10
-33.2552433919
 20
-12.0058719868
 30
0.0
 10
-33.2601153722
 20
-12.0060543803
 30
0.0
 10
-33.2683076103
 20
-12.0045856363
 30
0.0
 10
-33.2796729856
 20
-12.0014241834
 30
0.0
 10
-33.2880849869
 20
-11.9986005793
 30
0.0
 10
-33.2927731962
 20
-11.9969639941
 30
0.0
 11
-33.253789851
 21
-12.0049565568
 31
0.0
 11
-33.2588614041
 21
-12.0058711549
 31
0.0
 11
-33.2672422239
 21
-12.004663415
 31
0.0
 11
-33.2786231625
 21
-12.0016218912
 31
0.0
 11
-33.2927731962
 21
-11.9969639941
 31
0.0
  0
SPLINE
  5
3C3
100
AcDbEntity
  8
RACCORDO
100
AcDbSpline
 62
7
  6
CONTINUOUS
 70
0
 71
3
 72
9
 73
5
 74
3
 42
0.0000001
 43
0.0000001
 44
0.0000000001
 12
-0.044170706
 22
0.0154193464
 32
0.0
 13
-0.0435133037
 23
0.0171872019
 33
0.0
 40
0.0
 40
0.0
 40
0.0
 40
0.0
 40
0.2195340246
 40
1.0
 40
1.0
 40
1.0
 40
1.0
 10
-33.2927731962
 20
-11.9969639941
 30
0.0
 10
-33.2960055205
 20
-11.9958356371
 30
0.0
 10
-33.3106806986
 20
-11.9905571869
 30
0.0
 10
-33.3252147029
 20
-11.9848964424
 30
0.0
 10
-33.3365349206
 20
-11.9804251003
 30
0.0
 11
-33.2927731962
 21
-11.9969639941
 31
0.0
 11
-33.3024421184
 21
-11.9934996135
 31
0.0
 11
-33.3365349206
 21
-11.9804251003
 31
0.0
  0
ELLIPSE
  5
3C4
100
AcDbEntity
  8
RACCORDO
100
AcDbEllipse
 62
7
  6
CONTINUOUS
 10
-36.7235395143
 20
68.7565142358
 30
0.0
 11
-0.313181275
 21
0.626269159
 31
0.0
 40
0.6121897086
 41
-0.6846338794
 42
0.0188552051
  0
ELLIPSE
  5
3C5
100
AcDbEntity
  8
RACCORDO
100
AcDbEllipse
 62
7
  6
CONTINUOUS
 10
-33.6385900989
 20
-35.0869336049
 30
0.0
 11
-0.1341484654
 21
0.2683369961
 31
0.0
 40
0.6125552124
 41
0.8862964655
 42
2.4567882058
  0
ELLIPSE
  5
3C6
100
AcDbEntity
  8
RACCORDO
100
AcDbEllipse
 62
7
  6
CONTINUOUS
 10
-33.9567881505
 20
-35.2380866995
 30
0.0
 11
-0.1341484654
 21
0.2683369961
 31
0.0
 40
0.6125552124
 41
0.8862964655
 42
2.4567882058
  0
ELLIPSE
  5
3C7
100
AcDbEntity
  8
RACCORDO
100
AcDbEllipse
 62
7
  6
CONTINUOUS
 10
31.445982545
 20
-71.2485772793
 30
0.0
 11
-0.313181275
 21
0.626269159
 31
0.0
 40
0.6121897086
 41
-3.1605525579
 42
-2.2557347926
  0
ELLIPSE
  5
3C8
100
AcDbEntity
  8
RACCORDO
100
AcDbEllipse
 62
7
  6
CONTINUOUS
 10
31.445982545
 20
34.6717532061
 30
0.0
 11
-0.3130130858
 21
0.6261196575
 31
0.0
 40
0.6125552124
 41
-2.255296188
 42
-0.6848044477
  0
ELLIPSE
  5
3C9
100
AcDbEntity
  8
0
100
AcDbEllipse
 62
7
  6
CONTINUOUS
 10
-30.9804643403
 20
-10.3439477665
 30
0.0
 11
-0.0891456483
 21
0.1797268471
 31
0.0
 40
0.6110058077
 41
-3.080440706
 42
-2.2526829854
  0
ELLIPSE
  5
3CA
100
AcDbEntity
  8
0
100
AcDbEllipse
 62
7
  6
CONTINUOUS
 10
-30.9804643403
 20
41.6175764606
 30
0.0
 11
-0.0891456483
 21
0.1797268471
 31
0.0
 40
0.6110058077
 41
-3.080440706
 42
-2.2526829854
  0
ELLIPSE
  5
3CB
100
AcDbEntity
  8
0
100
AcDbEllipse
 62
7
  6
CONTINUOUS
 10
-21.4552600621
 20
-39.4814177949
 30
0.0
 11
-0.0903365947
 21
0.1789673014
 31
0.0
 40
0.6118980814
 41
-0.6882303478
 42
-0.0534222123
  0
ELLIPSE
  5
3CC
100
AcDbEntity
  8
0
100
AcDbEllipse
 62
7
  6
CONTINUOUS
 10
-17.3391583356
 20
-42.241963613
 30
0.0
 11
-0.0903365947
 21
0.1789673014
 31
0.0
 40
0.6118980814
 41
-3.0879513311
 42
-2.2605477526
  0
ELLIPSE
  5
3CD
100
AcDbEntity
  8
0
100
AcDbEllipse
 62
7
  6
CONTINUOUS
 10
22.5267817278
 20
-61.4724386898
 30
0.0
 11
-0.0903365947
 21
0.1789673014
 31
0.0
 40
0.6118980814
 41
-0.6882303478
 42
-0.0534222123
  0
ELLIPSE
  5
3CE
100
AcDbEntity
  8
RACCORDO
100
AcDbEllipse
 62
7
  6
CONTINUOUS
 10
17.7474963543
 20
-61.1193107636
 30
0.0
 11
0.1379861541
 21
0.2664038768
 31
0.0
 40
0.6229838795
 41
6.2919624783
 42
6.9593374368
  0
ELLIPSE
  5
3CF
100
AcDbEntity
  8
0
100
AcDbEllipse
 62
7
  6
CONTINUOUS
 10
-30.9804643403
 20
-5.3027732868
 30
0.0
 11
-0.0889021624
 21
0.1795146163
 31
0.0
 40
0.6128267509
 41
-2.2504677204
 42
-0.6811924717
  0
ELLIPSE
  5
3D0
100
AcDbEntity
  8
0
100
AcDbEllipse
 62
7
  6
CONTINUOUS
 10
-31.5540490691
 20
-5.0159809225
 30
0.0
 11
-0.0891456483
 21
0.1797268471
 31
0.0
 40
0.6110058077
 41
-0.6803655806
 42
-0.0610993631
  0
ELLIPSE
  5
3D1
100
AcDbEntity
  8
0
100
AcDbEllipse
 62
7
  6
CONTINUOUS
 10
-30.9804643403
 20
46.6587509402
 30
0.0
 11
-0.0889021624
 21
0.1795146163
 31
0.0
 40
0.6128267509
 41
-2.2504677204
 42
-0.6811924717
  0
ELLIPSE
  5
3D2
100
AcDbEntity
  8
0
100
AcDbEllipse
 62
7
  6
CONTINUOUS
 10
-31.5540490691
 20
46.9455433046
 30
0.0
 11
-0.0891456483
 21
0.1797268471
 31
0.0
 40
0.6110058077
 41
-0.6803655806
 42
-0.0610993631
  0
ELLIPSE
  5
3D3
100
AcDbEntity
  8
0
100
AcDbEllipse
 62
7
  6
CONTINUOUS
 10
-17.3391583356
 20
-41.5394686581
 30
0.0
 11
-0.0900992683
 21
0.1787520981
 31
0.0
 40
0.6137275756
 41
-2.2583825133
 42
-0.6891072646
  0
ELLIPSE
  5
3D4
100
AcDbEntity
  8
0
100
AcDbEllipse
 62
7
  6
CONTINUOUS
 10
26.6428834542
 20
-64.2329845079
 30
0.0
 11
-0.0903365947
 21
0.1789673014
 31
0.0
 40
0.6118980814
 41
-2.9330414672
 42
-2.2605477526
  0
ELLIPSE
  5
3D5
100
AcDbEntity
  8
0
100
AcDbEllipse
 62
7
  6
CONTINUOUS
 10
26.6428834542
 20
-63.530489553
 30
0.0
 11
-0.0900992683
 21
0.1787520981
 31
0.0
 40
0.6137275756
 41
-2.2583825133
 42
-0.6891072646
  0
ELLIPSE
  5
3D6
100
AcDbEntity
  8
RACCORDO
100
AcDbEllipse
 62
7
  6
CONTINUOUS
 10
-33.5523368607
 20
53.7302870225
 30
0.0
 11
0.2999918237
 21
0.0043377328
 31
0.0
 40
0.5106100819
 41
5.5078574022
 42
6.0515880746
  0
ELLIPSE
  5
3D7
100
AcDbEntity
  8
RACCORDO
100
AcDbEllipse
 62
7
  6
CONTINUOUS
 10
-33.5523368607
 20
36.4097789468
 30
0.0
 11
0.2999918237
 21
0.0043377328
 31
0.0
 40
0.5106100819
 41
5.5078574022
 42
6.0515880746
  0
ELLIPSE
  5
3D8
100
AcDbEntity
  8
RACCORDO
100
AcDbEllipse
 62
7
  6
CONTINUOUS
 10
-33.5523368607
 20
19.0892708711
 30
0.0
 11
0.2999918237
 21
0.0043377328
 31
0.0
 40
0.5106100819
 41
5.5078574022
 42
6.0515880746
  0
ELLIPSE
  5
3D9
100
AcDbEntity
  8
RACCORDO
100
AcDbEllipse
 62
7
  6
CONTINUOUS
 10
-33.5523368607
 20
1.7687627955
 30
0.0
 11
0.2999918237
 21
0.0043377328
 31
0.0
 40
0.5106100819
 41
5.5078574022
 42
6.0515880746
  0
ELLIPSE
  5
3DA
100
AcDbEntity
  8
RACCORDO
100
AcDbEllipse
 62
7
  6
CONTINUOUS
 10
-33.5523368607
 20
-15.5517452802
 30
0.0
 11
0.2999918237
 21
0.0043377328
 31
0.0
 40
0.5106100819
 41
5.5078574022
 42
6.0515880746
  0
ELLIPSE
  5
3DB
100
AcDbEntity
  8
RACCORDO
100
AcDbEllipse
 62
7
  6
CONTINUOUS
 10
18.9088473196
 20
-61.6999862463
 30
0.0
 11
0.1304891768
 21
0.2701542511
 31
0.0
 40
0.6016116119
 41
-0.0083403185
 42
0.3595437777
  0
ELLIPSE
  5
3DC
100
AcDbEntity
  8
RACCORDO
100
AcDbEllipse
 62
7
  6
CONTINUOUS
 10
-21.2613298716
 20
-41.6148976506
 30
0.0
 11
0.1549889321
 21
0.257462725
 31
0.0
 40
0.6636722472
 41
0.0518426205
 42
0.4197510013
  0
ELLIPSE
  5
3DD
100
AcDbEntity
  8
RACCORDO
100
AcDbEllipse
 62
7
  6
CONTINUOUS
 10
18.4521346166
 20
-61.4716298947
 30
0.0
 11
0.1379861541
 21
0.2664038768
 31
0.0
 40
0.6229838795
 41
5.9220023235
 42
6.6598446138
  0
ELLIPSE
  5
3DE
100
AcDbEntity
  8
RACCORDO
100
AcDbEllipse
 62
7
  6
CONTINUOUS
 10
21.3577844393
 20
-62.9244548061
 30
0.0
 11
0.1170451071
 21
0.2766776858
 31
0.0
 40
0.5572482653
 41
5.361723529
 42
6.9150665633
  0
ELLIPSE
  5
3DF
100
AcDbEntity
  8
RACCORDO
100
AcDbEllipse
 62
7
  6
CONTINUOUS
 10
5.4478818626
 20
-54.9695035177
 30
0.0
 11
0.1170451071
 21
0.2766776858
 31
0.0
 40
0.5572482653
 41
5.361723529
 42
6.9150665633
  0
ENDSEC
  0
SECTION
  2
OBJECTS
  0
DICTIONARY
  5
C
100
AcDbDictionary
280
0
281
1
  3
ACAD_GROUP
350
D
  3
ACAD_MLINESTYLE
350
17
  3
ACAD_LAYOUT
350
1A
  3
ACAD_PLOTSETTINGS
350
19
  3
ACAD_PLOTSTYLENAME
350
E
  0
DICTIONARY
  5
D
102
{ACAD_REACTORS
330
C
102
}
100
AcDbDictionary
280
0
281
1
  0
ACDBDICTIONARYWDFLT
  5
E
102
{ACAD_REACTORS
330
C
102
}
100
AcDbDictionary
281
1
  3
Normal
350
F
100
AcDbDictionaryWithDefault
340
F
  0
DICTIONARY
  5
17
102
{ACAD_REACTORS
330
C
102
}
100
AcDbDictionary
280
0
281
1
  3
Standard
350
18
  0
DICTIONARY
  5
19
102
{ACAD_REACTORS
330
C
102
}
100
AcDbDictionary
281
1
  0
DICTIONARY
  5
1A
102
{ACAD_REACTORS
330
C
102
}
100
AcDbDictionary
281
1
  3
Model
350
3E0
  3
Layout1
350
3E1
  0
ACDBPLACEHOLDER
  5
F
102
{ACAD_REACTORS
330
E
102
}
  0
MLINESTYLE
  5
18
102
{ACAD_REACTORS
330
17
102
}
100
AcDbMlineStyle
  2
STANDARD
 70
0
  3

 62
256
 51
90.0
 52
90.0
 71
2
 49
0.5
 62
256
  6
BYLAYER
 49
-0.5
 62
256
  6
BYLAYER
  0
LAYOUT
  5
3E0
102
{ACAD_REACTORS
330
1A
102
}
100
AcDbPlotSettings
  1

  2
none_device
  4
ISO_A4_(297.00_x_210.00_MM)
  6

 40
0.0
 41
0.0
 42
0.0
 43
0.0
 44
297.0
 45
210.0
 46
0.0
 47
0.0
 48
0.0
 49
0.0
140
0.0
141
0.0
142
1.0
143
1.0
 70
1024
 72
1
 73
0
 74
0
  7

 75
0
147
1.0
148
0.0
149
0.0
100
AcDbLayout
  1
Model
 70
0
 71
0
 10
0.0
 20
0.0
 11
297.0
 21
210.0
 12
0.0
 22
0.0
 32
0.0
 14
0.0
 24
0.0
 34
0.0
 15
0.0
 25
0.0
 35
0.0
146
0.0
 13
0.0
 23
0.0
 33
0.0
 16
1.0
 26
0.0
 36
0.0
 17
0.0
 27
1.0
 37
0.0
 76
0
330
216
345
0
346
0
  0
LAYOUT
  5
3E1
102
{ACAD_REACTORS
330
1A
102
}
100
AcDbPlotSettings
  1

  2
none_device
  4
ISO_A4_(297.00_x_210.00_MM)
  6

 40
0.0
 41
0.0
 42
0.0
 43
0.0
 44
297.0
 45
210.0
 46
0.0
 47
0.0
 48
0.0
 49
0.0
140
0.0
141
0.0
142
1.0
143
1.0
 70
0
 72
1
 73
0
 74
0
  7

 75
0
147
1.0
148
0.0
149
0.0
100
AcDbLayout
  1
Layout1
 70
0
 71
1
 10
0.0
 20
0.0
 11
297.0
 21
210.0
 12
0.0
 22
0.0
 32
0.0
 14
0.0
 24
0.0
 34
0.0
 15
0.0
 25
0.0
 35
0.0
146
0.0
 13
0.0
 23
0.0
 33
0.0
 16
1.0
 26
0.0
 36
0.0
 17
0.0
 27
1.0
 37
0.0
 76
0
330
217
345
0
346
0
  0
ENDSEC
  0
EOF
