  0
SECTION
  2
HEADER
  9
$ACADVER
  1
AC1015
  9
$DWGCODEPAGE
  3
ANSI_1252
  9
$EXTMAX
 10
297.0
 20
210.0
 30
0.0
  9
$EXTMIN
 10
0.0
 20
0.0
 30
0.0
  9
$LIMMIN
 10
0.0
 20
0.0
  9
$LIMMAX
 10
297.0
 20
210.0
  9
$VIEWCTR
 10
148.5
 20
105.0
  9
$VIEWSIZE
 40
210.0
  9
$CLAYER
  8
0
  9
$LTSCALE
 40
16.335
  9
$CELTYPE
  6
BYLAYER
  9
$DIMSCALE
 40
1.0
  9
$DIMASZ
 40
3.0
  9
$DIMEXO
 40
1.85625
  9
$DIMDLI
 40
11.286
  9
$DIMEXE
 40
5.346
  9
$DIMCEN
 40
2.673
  9
$DIMLFAC
 40
1.0
  9
$DIMBLK
  1
_FILLED
  9
$DIMTXT
 40
3.0
  9
$DIMTOL
 70
1
  9
$DIMLIM
 70
0
  9
$DIMTFAC
 40
1.0
  9
$DIMTP
 40
0.01
  9
$DIMTM
 40
0.01
  9
$PDMODE
 70
3
  9
$PDSIZE
 40
3.0
  9
$HANDSEED
  5
3F2
  9
$TILEMODE
 70
1
  9
$MEASUREMENT
 70
1
  9
$INSUNITS
 70
4
  0
ENDSEC
  0
SECTION
  2
CLASSES
  0
CLASS
  1
ACDBDICTIONARYWDFLT
  2
AcDbDictionaryWithDefault
  3
AutoCAD 2000
 90
0
280
0
281
0
  0
CLASS
  1
ACDBPLACEHOLDER
  2
AcDbPlaceHolder
  3
AutoCAD 2000
 90
0
280
0
281
0
  0
CLASS
  1
LAYOUT
  2
AcDbLayout
  3
AutoCAD 2000
 90
0
280
0
281
0
  0
ENDSEC
  0
SECTION
  2
TABLES
  0
TABLE
  2
VPORT
  5
8
100
AcDbSymbolTable
 70
2
  0
VPORT
  5
1F4
100
AcDbSymbolTableRecord
100
AcDbViewportTableRecord
  2
*ACTIVE
 70
0
 10
0.0
 20
0.0
 11
1.0
 21
1.0
 12
148.5
 22
105.0
 13
0.0
 23
0.0
 14
1.0
 24
1.0
 15
0.0
 25
0.0
 16
0.0
 26
0.0
 36
1.0
 17
0.0
 27
0.0
 37
0.0
 40
210.0
 41
1.4142857143
 42
50.0
 43
0.0
 44
0.0
 50
0.0
 51
0.0
 71
0
 72
100
 73
1
 74
1
 75
0
 76
0
 77
0
 78
0
  0
ENDTAB
  0
TABLE
  2
LTYPE
  5
5
100
AcDbSymbolTable
 70
6
  0
LTYPE
  5
14
100
AcDbSymbolTableRecord
100
AcDbLinetypeTableRecord
  2
BYBLOCK
 70
0
  3

 72
65
 73
0
 40
0.0
  0
LTYPE
  5
15
100
AcDbSymbolTableRecord
100
AcDbLinetypeTableRecord
  2
BYLAYER
 70
0
  3

 72
65
 73
0
 40
0.0
  0
LTYPE
  5
16
100
AcDbSymbolTableRecord
100
AcDbLinetypeTableRecord
  2
CONTINUOUS
 70
64
  3
Solid line
 72
65
 73
0
 40
0.0
  0
LTYPE
  5
1F5
100
AcDbSymbolTableRecord
100
AcDbLinetypeTableRecord
  2
CENTER
 70
64
  3
____ _ ____ _ ____ _ ____ _ ____ _ ____ _ ____
 72
65
 73
4
 40
0.6
 49
0.375
 74
0
 49
-0.075
 74
0
 49
0.075
 74
0
 49
-0.075
 74
0
  0
LTYPE
  5
1F6
100
AcDbSymbolTableRecord
100
AcDbLinetypeTableRecord
  2
HIDDEN
 70
64
  3
- - - - - - - - - - - - - - - - - - - -
 72
65
 73
2
 40
0.2
 49
0.1
 74
0
 49
-0.1
 74
0
  0
LTYPE
  5
1F7
100
AcDbSymbolTableRecord
100
AcDbLinetypeTableRecord
  2
PHANTOM
 70
64
  3
_____ _ _ _____ _ _ _____ _ _ _____
 72
65
 73
6
 40
0.8
 49
0.45
 74
0
 49
-0.05
 74
0
 49
0.1
 74
0
 49
-0.05
 74
0
 49
0.1
 74
0
 49
-0.05
 74
0
  0
LTYPE
  5
1F8
100
AcDbSymbolTableRecord
100
AcDbLinetypeTableRecord
  2
DOT
 70
64
  3
. . . . . . . . . . . . . . . . . . . .
 72
65
 73
2
 40
0.2
 49
0.1
 74
0
 49
-0.1
 74
0
  0
LTYPE
  5
1F9
100
AcDbSymbolTableRecord
100
AcDbLinetypeTableRecord
  2
DASHED
 70
64
  3
- - - - - - - - - - - - - - - - - - - -
 72
65
 73
2
 40
0.2
 49
0.1
 74
0
 49
-0.1
 74
0
  0
ENDTAB
  0
TABLE
  2
LAYER
  5
2
100
AcDbSymbolTable
 70
36
  0
LAYER
  5
10
100
AcDbSymbolTableRecord
100
AcDbLayerTableRecord
  2
0
 70
0
 62
7
  6
CONTINUOUS
370
-3
390
F
  0
LAYER
  5
1FA
100
AcDbSymbolTableRecord
100
AcDbLayerTableRecord
  2
DEFAULT_1
 70
0
 62
7
  6
CENTER
370
-3
390
F
  0
LAYER
  5
1FB
100
AcDbSymbolTableRecord
100
AcDbLayerTableRecord
  2
DEFAULT_2
 70
0
 62
7
  6
HIDDEN
370
-3
390
F
  0
LAYER
  5
1FC
100
AcDbSymbolTableRecord
100
AcDbLayerTableRecord
  2
DEFAULT_3
 70
0
 62
7
  6
PHANTOM
370
-3
390
F
  0
LAYER
  5
1FD
100
AcDbSymbolTableRecord
100
AcDbLayerTableRecord
  2
ASSI
 70
0
 62
7
  6
CONTINUOUS
370
-3
390
F
  0
LAYER
  5
1FE
100
AcDbSymbolTableRecord
100
AcDbLayerTableRecord
  2
COORDINATE
 70
0
 62
7
  6
CONTINUOUS
370
-3
390
F
  0
LAYER
  5
1FF
100
AcDbSymbolTableRecord
100
AcDbLayerTableRecord
  2
COORD_ORIGINE
 70
0
 62
7
  6
CONTINUOUS
370
-3
390
F
  0
LAYER
  5
200
100
AcDbSymbolTableRecord
100
AcDbLayerTableRecord
  2
COPY_PUBLISH
 70
0
 62
7
  6
CONTINUOUS
370
-3
390
F
  0
LAYER
  5
201
100
AcDbSymbolTableRecord
100
AcDbLayerTableRecord
  2
COSMETIC
 70
0
 62
7
  6
CONTINUOUS
370
-3
390
F
  0
LAYER
  5
202
100
AcDbSymbolTableRecord
100
AcDbLayerTableRecord
  2
COSMETICI
 70
0
 62
7
  6
CONTINUOUS
370
-3
390
F
  0
LAYER
  5
203
100
AcDbSymbolTableRecord
100
AcDbLayerTableRecord
  2
CURVE
 70
0
 62
7
  6
CONTINUOUS
370
-3
390
F
  0
LAYER
  5
204
100
AcDbSymbolTableRecord
100
AcDbLayerTableRecord
  2
CURVE_TASSELLI
 70
0
 62
7
  6
CONTINUOUS
370
-3
390
F
  0
LAYER
  5
205
100
AcDbSymbolTableRecord
100
AcDbLayerTableRecord
  2
DRAFT
 70
0
 62
7
  6
CONTINUOUS
370
-3
390
F
  0
LAYER
  5
206
100
AcDbSymbolTableRecord
100
AcDbLayerTableRecord
  2
IGES
 70
0
 62
7
  6
CONTINUOUS
370
-3
390
F
  0
LAYER
  5
207
100
AcDbSymbolTableRecord
100
AcDbLayerTableRecord
  2
IMPORT_IGES
 70
0
 62
7
  6
CONTINUOUS
370
-3
390
F
  0
LAYER
  5
208
100
AcDbSymbolTableRecord
100
AcDbLayerTableRecord
  2
INTFCLR_2
 70
0
 62
7
  6
CONTINUOUS
370
-3
390
F
  0
LAYER
  5
209
100
AcDbSymbolTableRecord
100
AcDbLayerTableRecord
  2
NOTE
 70
0
 62
7
  6
CONTINUOUS
370
-3
390
F
  0
LAYER
  5
20A
100
AcDbSymbolTableRecord
100
AcDbLayerTableRecord
  2
PIANI
 70
0
 62
7
  6
CONTINUOUS
370
-3
390
F
  0
LAYER
  5
20B
100
AcDbSymbolTableRecord
100
AcDbLayerTableRecord
  2
PIANI_ORIGINE
 70
0
 62
7
  6
CONTINUOUS
370
-3
390
F
  0
LAYER
  5
20C
100
AcDbSymbolTableRecord
100
AcDbLayerTableRecord
  2
PUNTI
 70
0
 62
7
  6
CONTINUOUS
370
-3
390
F
  0
LAYER
  5
20D
100
AcDbSymbolTableRecord
100
AcDbLayerTableRecord
  2
RACCORDO
 70
0
 62
7
  6
CONTINUOUS
370
-3
390
F
  0
LAYER
  5
20E
100
AcDbSymbolTableRecord
100
AcDbLayerTableRecord
  2
SIMBOLI
 70
0
 62
7
  6
CONTINUOUS
370
-3
390
F
  0
LAYER
  5
20F
100
AcDbSymbolTableRecord
100
AcDbLayerTableRecord
  2
SMUSSO
 70
0
 62
7
  6
CONTINUOUS
370
-3
390
F
  0
LAYER
  5
210
100
AcDbSymbolTableRecord
100
AcDbLayerTableRecord
  2
SNAPLINE
 70
0
 62
7
  6
CONTINUOUS
370
-3
390
F
  0
LAYER
  5
211
100
AcDbSymbolTableRecord
100
AcDbLayerTableRecord
  2
SUPERFICI
 70
0
 62
7
  6
CONTINUOUS
370
-3
390
F
  0
LAYER
  5
212
100
AcDbSymbolTableRecord
100
AcDbLayerTableRecord
  2
TRASH
 70
0
 62
7
  6
CONTINUOUS
370
-3
390
F
  0
LAYER
  5
213
100
AcDbSymbolTableRecord
100
AcDbLayerTableRecord
  2
XSEC_DATUMS
 70
0
 62
7
  6
CONTINUOUS
370
-3
390
F
  0
ENDTAB
  0
TABLE
  2
STYLE
  5
3
100
AcDbSymbolTable
 70
1
  0
STYLE
  5
11
100
AcDbSymbolTableRecord
100
AcDbTextStyleTableRecord
  2
STANDARD
 70
0
 40
0.0
 41
0.8
 50
0.0
 71
0
 42
0.2
  3
txt
  4

  0
STYLE
  5
214
100
AcDbSymbolTableRecord
100
AcDbTextStyleTableRecord
  2
TEXTSTYLE_1
 70
0
 40
0.0
 41
0.8
 50
0.0
 71
0
 42
0.2
  3
gdt
  4

  0
ENDTAB
  0
TABLE
  2
VIEW
  5
6
100
AcDbSymbolTable
 70
0
  0
ENDTAB
  0
TABLE
  2
UCS
  5
7
100
AcDbSymbolTable
 70
0
  0
ENDTAB
  0
TABLE
  2
APPID
  5
9
100
AcDbSymbolTable
 70
1
  0
APPID
  5
215
100
AcDbSymbolTableRecord
100
AcDbRegAppTableRecord
  2
ACAD
 70
0
  0
ENDTAB
  0
TABLE
  2
BLOCK_RECORD
  5
1
100
AcDbSymbolTable
 70
0
  0
BLOCK_RECORD
  5
216
100
AcDbSymbolTableRecord
100
AcDbBlockTableRecord
  2
*Model_Space
  0
BLOCK_RECORD
  5
217
100
AcDbSymbolTableRecord
100
AcDbBlockTableRecord
  2
*Paper_Space
  0
ENDTAB
  0
TABLE
  2
DIMSTYLE
  5
A
100
AcDbSymbolTable
 70
1
100
AcDbDimStyleTable
 71
0
  0
DIMSTYLE
105
218
100
AcDbSymbolTableRecord
100
AcDbDimStyleTableRecord
  2
STANDARD
 70
0
  3

  4

 40
1.0
 41
3.0
 42
0.0625
 43
0.38
 44
0.18
 45
0.0
 46
0.0
 47
0.01
 48
0.01
140
3.0
141
0.09
142
0.0
143
25.4
144
1.0
145
0.0
146
1.0
147
0.09
 71
1.0
 72
0.0
 73
0
 74
0
 75
0
 76
0
 77
1
 78
8
170
0
171
2
172
0
173
0
174
0
175
0
176
0
177
0
178
0
270
2
271
2
272
2
273
2
274
2
275
0
280
0
281
0
282
0
283
1
284
8
285
0
286
0
287
3
288
0
340
11
  0
ENDTAB
  0
ENDSEC
  0
SECTION
  2
BLOCKS
  0
BLOCK
  5
20
100
AcDbEntity
  8
0
100
AcDbBlockBegin
  2
*Model_Space
 70
0
 10
0.0
 20
0.0
 30
0.0
  3
*Model_Space
  1

  0
ENDBLK
  5
21
100
AcDbEntity
  8
0
100
AcDbBlockEnd
  0
BLOCK
  5
1C
100
AcDbEntity
  8
0
100
AcDbBlockBegin
  2
*Paper_Space
 70
0
 10
0.0
 20
0.0
 30
0.0
  3
*Paper_Space
  1

  0
ENDBLK
  5
1D
100
AcDbEntity
  8
0
100
AcDbBlockEnd
  0
ENDSEC
  0
SECTION
  2
ENTITIES
  0
LINE
  5
219
100
AcDbEntity
  8
RACCORDO
100
AcDbLine
 62
7
  6
CONTINUOUS
 10
-56.7899554805
 20
93.1084611091
 11
-52.9715788621
 21
95.0176494183
  0
LINE
  5
21A
100
AcDbEntity
  8
RACCORDO
100
AcDbLine
 62
7
  6
CONTINUOUS
 10
-56.342741885
 20
93.0800593218
 11
-52.5243652666
 21
94.989247631
  0
LWPOLYLINE
  5
21B
100
AcDbEntity
  8
RACCORDO
100
AcDbPolyline
 62
7
  6
CONTINUOUS
 90
15
 70
0
 10
-39.0296547957
 20
68.5138571426
 10
-39.0559825086
 20
68.4984771497
 10
-39.0874103564
 20
68.4767542017
 10
-39.1171087682
 20
68.4522820636
 10
-39.1448594325
 20
68.4252065361
 10
-39.1706023424
 20
68.3955256433
 10
-39.1941481436
 20
68.3633539573
 10
-39.2153072433
 20
68.3288475373
 10
-39.2340154822
 20
68.2919926615
 10
-39.2501267952
 20
68.2528844069
 10
-39.2634797892
 20
68.211666536
 10
-39.2739786185
 20
68.1683023179
 10
-39.2814880395
 20
68.1228091394
 10
-39.2858355499
 20
68.0753151669
 10
-39.2869346659
 20
68.0357203617
  0
LINE
  5
21C
100
AcDbEntity
  8
RACCORDO
100
AcDbLine
 62
7
  6
CONTINUOUS
 10
-39.0296395125
 20
68.5138698529
 11
-37.1139040468
 21
69.5474530919
  0
LINE
  5
21D
100
AcDbEntity
  8
RACCORDO
100
AcDbLine
 62
7
  6
CONTINUOUS
 10
-38.707843452
 20
68.4985716361
 11
-36.7936043473
 21
69.531347549
  0
LINE
  5
21E
100
AcDbEntity
  8
RACCORDO
100
AcDbLine
 62
7
  6
CONTINUOUS
 10
-33.6567805229
 20
53.6595555897
 11
-33.4064489679
 21
53.7946152066
  0
LINE
  5
21F
100
AcDbEntity
  8
DRAFT
100
AcDbLine
 62
7
  6
CONTINUOUS
 10
-34.2388665458
 20
53.3421587328
 11
-33.9206684943
 21
53.5138338816
  0
LINE
  5
220
100
AcDbEntity
  8
DRAFT
100
AcDbLine
 62
7
  6
CONTINUOUS
 10
-33.0949741572
 20
53.3786524069
 11
-33.9981675995
 21
52.891358824
  0
LINE
  5
221
100
AcDbEntity
  8
DRAFT
100
AcDbLine
 62
7
  6
CONTINUOUS
 10
-32.7574759202
 20
54.1621161968
 11
-33.6446142089
 21
53.7060980142
  0
LINE
  5
222
100
AcDbEntity
  8
RACCORDO
100
AcDbLine
 62
7
  6
CONTINUOUS
 10
-56.5663486828
 20
-40.9082715372
 11
51.4088568044
 21
-94.8958742808
  0
LINE
  5
223
100
AcDbEntity
  8
RACCORDO
100
AcDbLine
 62
7
  6
CONTINUOUS
 10
-56.6962952756
 20
-40.637834637
 11
51.2789102116
 21
-94.6254373806
  0
LINE
  5
224
100
AcDbEntity
  8
RACCORDO
100
AcDbLine
 62
7
  6
CONTINUOUS
 10
-57.1962952756
 20
92.3908106133
 11
-57.1962952756
 21
-39.8512685445
  0
LINE
  5
225
100
AcDbEntity
  8
RACCORDO
100
AcDbLine
 62
7
  6
CONTINUOUS
 10
-57.0498486662
 20
92.2140339181
 11
-57.0498486662
 21
-40.0280452398
  0
LINE
  5
226
100
AcDbEntity
  8
0
100
AcDbLine
 62
7
  6
CONTINUOUS
 10
-30.908935489
 20
41.7150383403
 11
-33.4064489679
 21
40.1495469205
  0
LINE
  5
227
100
AcDbEntity
  8
RACCORDO
100
AcDbLine
 62
7
  6
CONTINUOUS
 10
-30.9546643848
 20
41.6099770558
 11
-33.3237926007
 21
40.1249600876
  0
LINE
  5
228
100
AcDbEntity
  8
DRAFT
100
AcDbLine
 62
7
  6
CONTINUOUS
 10
-33.6446142089
 20
46.407298175
 11
-32.7574759202
 21
46.9026193347
  0
LINE
  5
229
100
AcDbEntity
  8
DRAFT
100
AcDbLine
 62
7
  6
CONTINUOUS
 10
-32.7574759202
 20
45.7692280449
 11
-33.6446142089
 21
45.2739068852
  0
LINE
  5
22A
100
AcDbEntity
  8
DRAFT
100
AcDbLine
 62
7
  6
CONTINUOUS
 10
-33.0949741572
 20
47.3164745804
 11
-33.9981675995
 21
46.8684839746
  0
LINE
  5
22B
100
AcDbEntity
  8
DRAFT
100
AcDbLine
 62
7
  6
CONTINUOUS
 10
-34.2388665458
 20
46.0813919105
 11
-33.9206684943
 21
46.2392204898
  0
LINE
  5
22C
100
AcDbEntity
  8
0
100
AcDbLine
 62
7
  6
CONTINUOUS
 10
-32.7574759202
 20
46.303161571
 11
-31.050163242
 21
47.0009578572
  0
LINE
  5
22D
100
AcDbEntity
  8
0
100
AcDbLine
 62
7
  6
CONTINUOUS
 10
-32.7574759202
 20
46.0012242251
 11
-30.908935489
 21
46.7567417493
  0
LINE
  5
22E
100
AcDbEntity
  8
RACCORDO
100
AcDbLine
 62
7
  6
CONTINUOUS
 10
-31.7061684901
 20
47.2967343752
 11
-32.7565551763
 21
46.9001804805
  0
LINE
  5
22F
100
AcDbEntity
  8
0
100
AcDbLine
 62
7
  6
CONTINUOUS
 10
-31.624178262
 20
47.2879653672
 11
-32.7574759202
 21
46.860109982
  0
LWPOLYLINE
  5
230
100
AcDbEntity
  8
RACCORDO
100
AcDbPolyline
 62
7
  6
CONTINUOUS
 90
13
 70
0
 10
29.2635519283
 20
-72.6087099625
 10
29.2781186521
 20
-72.6157553098
 10
29.3179913969
 20
-72.6326750118
 10
29.358314521
 20
-72.6463564066
 10
29.3989300289
 20
-72.6567475765
 10
29.4395788182
 20
-72.6638004461
 10
29.4800711859
 20
-72.6675040037
 10
29.5202072631
 20
-72.667864152
 10
29.5596320818
 20
-72.6649327391
 10
29.5980863254
 20
-72.6588077992
 10
29.6353688926
 20
-72.6496045109
 10
29.6711878852
 20
-72.6374969218
 10
29.698323579
 20
-72.6260090338
  0
LINE
  5
231
100
AcDbEntity
  8
RACCORDO
100
AcDbLine
 62
7
  6
CONTINUOUS
 10
-38.8383053126
 20
-38.5577888982
 11
29.2635047957
 21
-72.6086939524
  0
LINE
  5
232
100
AcDbEntity
  8
RACCORDO
100
AcDbLine
 62
7
  6
CONTINUOUS
 10
-38.9162732712
 20
-38.3955267567
 11
29.1855368426
 21
-72.4464318136
  0
LWPOLYLINE
  5
233
100
AcDbEntity
  8
RACCORDO
100
AcDbPolyline
 62
7
  6
CONTINUOUS
 90
5
 70
0
 10
-38.9723760203
 20
-38.4690403696
 10
-38.9328128783
 20
-38.5000171715
 10
-38.8919412648
 20
-38.5276592718
 10
-38.8499579532
 20
-38.5518020824
 10
-38.8382751238
 20
-38.5577961803
  0
LINE
  5
234
100
AcDbEntity
  8
RACCORDO
100
AcDbLine
 62
7
  6
CONTINUOUS
 10
-39.0102384615
 20
-38.4350983258
 11
-38.9723760203
 21
-38.4690403696
  0
LINE
  5
235
100
AcDbEntity
  8
RACCORDO
100
AcDbLine
 62
7
  6
CONTINUOUS
 10
-33.6567805229
 20
36.339047514
 11
-33.4064489679
 21
36.474107131
  0
LINE
  5
236
100
AcDbEntity
  8
DRAFT
100
AcDbLine
 62
7
  6
CONTINUOUS
 10
-34.2388665458
 20
36.0216506571
 11
-33.9206684943
 21
36.1933258059
  0
LINE
  5
237
100
AcDbEntity
  8
DRAFT
100
AcDbLine
 62
7
  6
CONTINUOUS
 10
-33.0949741572
 20
36.0581443312
 11
-33.9981675995
 21
35.5708507483
  0
LINE
  5
238
100
AcDbEntity
  8
DRAFT
100
AcDbLine
 62
7
  6
CONTINUOUS
 10
-32.7574759202
 20
37.9749994109
 11
-33.6446142089
 21
37.5189812282
  0
LINE
  5
239
100
AcDbEntity
  8
DRAFT
100
AcDbLine
 62
7
  6
CONTINUOUS
 10
-33.6446142089
 20
36.3855899385
 11
-32.7574759202
 21
36.8416081211
  0
LINE
  5
23A
100
AcDbEntity
  8
DRAFT
100
AcDbLine
 62
7
  6
CONTINUOUS
 10
-33.5031928527
 20
38.3478578771
 11
-33.9206684943
 21
38.1407868812
  0
LINE
  5
23B
100
AcDbEntity
  8
RACCORDO
100
AcDbLine
 62
7
  6
CONTINUOUS
 10
-37.0772571329
 20
-37.2182616219
 11
27.3465207037
 21
-69.4301505402
  0
LINE
  5
23C
100
AcDbEntity
  8
RACCORDO
100
AcDbLine
 62
7
  6
CONTINUOUS
 10
-36.9200289091
 20
-36.8886926189
 11
27.5037489275
 21
-69.1005815372
  0
LINE
  5
23D
100
AcDbEntity
  8
RACCORDO
100
AcDbLine
 62
7
  6
CONTINUOUS
 10
-34.4636380597
 20
-35.5639334035
 11
27.6684603592
 21
-66.6299826129
  0
LINE
  5
23E
100
AcDbEntity
  8
RACCORDO
100
AcDbLine
 62
7
  6
CONTINUOUS
 10
-34.3783020662
 20
-35.5065768066
 11
27.6684603592
 21
-66.5299580193
  0
LINE
  5
23F
100
AcDbEntity
  8
RACCORDO
100
AcDbLine
 62
7
  6
CONTINUOUS
 10
27.6684603592
 20
-66.1770673814
 11
-34.0267668202
 21
-35.3294537917
  0
LINE
  5
240
100
AcDbEntity
  8
DRAFT
100
AcDbLine
 62
7
  6
CONTINUOUS
 10
-20.4056720275
 20
-41.9167197682
 11
-15.4880153056
 21
-44.3755481291
  0
LINE
  5
241
100
AcDbEntity
  8
DRAFT
100
AcDbLine
 62
7
  6
CONTINUOUS
 10
-4.4957694508
 20
-49.8716710565
 11
0.4218872711
 21
-52.3304994175
  0
LINE
  5
242
100
AcDbEntity
  8
DRAFT
100
AcDbLine
 62
7
  6
CONTINUOUS
 10
11.4141331259
 20
-57.8266223449
 11
16.3317898478
 21
-60.2854507058
  0
LINE
  5
243
100
AcDbEntity
  8
RACCORDO
100
AcDbLine
 62
7
  6
CONTINUOUS
 10
27.6684603592
 20
-65.8668152609
 11
16.8781653069
 21
-60.4716677348
  0
LINE
  5
244
100
AcDbEntity
  8
DRAFT
100
AcDbLine
 62
7
  6
CONTINUOUS
 10
10.9384683449
 20
-57.5018192538
 11
0.9682627302
 21
-52.5167164464
  0
LINE
  5
245
100
AcDbEntity
  8
DRAFT
100
AcDbLine
 62
7
  6
CONTINUOUS
 10
-4.9714342318
 20
-49.5468679655
 11
-14.9416398465
 21
-44.5617651581
  0
LINE
  5
246
100
AcDbEntity
  8
RACCORDO
100
AcDbLine
 62
7
  6
CONTINUOUS
 10
-20.8813368085
 20
-41.5919166771
 11
-33.7085687687
 21
-35.178300697
  0
LINE
  5
247
100
AcDbEntity
  8
DRAFT
100
AcDbLine
 62
7
  6
CONTINUOUS
 10
-22.3309057099
 20
-40.8069362279
 11
-26.1108413406
 21
-38.9169684125
  0
LINE
  5
248
100
AcDbEntity
  8
DRAFT
100
AcDbLine
 62
7
  6
CONTINUOUS
 10
20.4490545518
 20
-62.1969163588
 11
23.4735683377
 21
-63.7091732517
  0
LINE
  5
249
100
AcDbEntity
  8
RACCORDO
100
AcDbLine
 62
7
  6
CONTINUOUS
 10
17.2670740365
 20
-60.5360214099
 11
17.6253281577
 21
-60.7151484705
  0
LINE
  5
24A
100
AcDbEntity
  8
0
100
AcDbLine
 62
7
  6
CONTINUOUS
 10
4.1855985846
 20
-53.9787933526
 11
4.7004627136
 21
-54.2362254171
  0
LINE
  5
24B
100
AcDbEntity
  8
RACCORDO
100
AcDbLine
 62
7
  6
CONTINUOUS
 10
4.1855985846
 20
-53.941400843
 11
5.3813461279
 21
-54.5392746147
  0
LINE
  5
24C
100
AcDbEntity
  8
RACCORDO
100
AcDbLine
 62
7
  6
CONTINUOUS
 10
17.6813491439
 20
-60.6892761227
 11
18.0600235808
 21
-60.8786133411
  0
LINE
  5
24D
100
AcDbEntity
  8
RACCORDO
100
AcDbLine
 62
7
  6
CONTINUOUS
 10
20.6103652903
 20
-62.1537841959
 11
21.2912487046
 21
-62.494225903
  0
LINE
  5
24E
100
AcDbEntity
  8
RACCORDO
100
AcDbLine
 62
7
  6
CONTINUOUS
 10
17.2670740365
 20
-60.4640814789
 11
17.7013904545
 21
-60.6812396879
  0
LINE
  5
24F
100
AcDbEntity
  8
DRAFT
100
AcDbLine
 62
7
  6
CONTINUOUS
 10
20.6103652903
 20
-62.1045741651
 11
18.1094308765
 21
-60.8541069582
  0
LINE
  5
250
100
AcDbEntity
  8
DRAFT
100
AcDbLine
 62
7
  6
CONTINUOUS
 10
-20.0842243446
 20
-41.7572793477
 11
-22.1386630578
 21
-40.730059991
  0
LINE
  5
251
100
AcDbEntity
  8
RACCORDO
100
AcDbLine
 62
7
  6
CONTINUOUS
 10
-21.1854367029
 20
-41.1839432683
 11
-20.0614033285
 21
-41.7459599555
  0
LINE
  5
252
100
AcDbEntity
  8
RACCORDO
100
AcDbLine
 62
7
  6
CONTINUOUS
 10
4.1855985846
 20
-53.869460912
 11
5.5004887564
 21
-54.526905998
  0
LINE
  5
253
100
AcDbEntity
  8
RACCORDO
100
AcDbLine
 62
7
  6
CONTINUOUS
 10
17.8140694144
 20
-60.6836963269
 11
18.5187076788
 21
-61.0360154591
  0
LINE
  5
254
100
AcDbEntity
  8
RACCORDO
100
AcDbLine
 62
7
  6
CONTINUOUS
 10
18.97077432
 20
-61.2620487798
 11
21.4103913331
 21
-62.4818572863
  0
LINE
  5
255
100
AcDbEntity
  8
DRAFT
100
AcDbLine
 62
7
  6
CONTINUOUS
 10
27.6684603592
 20
-65.6002325709
 11
23.4735683377
 21
-63.5027865602
  0
LINE
  5
256
100
AcDbEntity
  8
0
100
AcDbLine
 62
7
  6
CONTINUOUS
 10
11.2467923206
 20
-57.3893985516
 11
6.8018936749
 21
-55.1669492288
  0
LINE
  5
257
100
AcDbEntity
  8
0
100
AcDbLine
 62
7
  6
CONTINUOUS
 10
3.266359769
 20
-53.3991822758
 11
1.2963348575
 21
-52.4141698201
  0
LINE
  5
258
100
AcDbEntity
  8
DRAFT
100
AcDbLine
 62
7
  6
CONTINUOUS
 10
-4.6631102561
 20
-49.4344472633
 11
-14.6135677192
 21
-44.4592185317
  0
LINE
  5
259
100
AcDbEntity
  8
DRAFT
100
AcDbLine
 62
7
  6
CONTINUOUS
 10
-26.8403437363
 20
-38.3458305232
 11
-33.6446142089
 21
-34.9436952869
  0
LINE
  5
25A
100
AcDbEntity
  8
DRAFT
100
AcDbLine
 62
7
  6
CONTINUOUS
 10
-19.5024785852
 20
-41.4687291623
 11
-14.5527311169
 21
-43.9436028965
  0
LINE
  5
25B
100
AcDbEntity
  8
DRAFT
100
AcDbLine
 62
7
  6
CONTINUOUS
 10
-3.5925760085
 20
-49.4236804507
 11
1.3571714598
 21
-51.8985541848
  0
LINE
  5
25C
100
AcDbEntity
  8
DRAFT
100
AcDbLine
 62
7
  6
CONTINUOUS
 10
12.3173265682
 20
-57.378631739
 11
17.2670740365
 21
-59.8535054732
  0
LINE
  5
25D
100
AcDbEntity
  8
DRAFT
100
AcDbLine
 62
7
  6
CONTINUOUS
 10
25.3988020202
 20
-63.7546956683
 11
24.2289901825
 21
-63.1697897495
  0
LINE
  5
25E
100
AcDbEntity
  8
0
100
AcDbLine
 62
7
  6
CONTINUOUS
 10
9.4888994435
 20
-55.79974438
 11
7.5443557952
 21
-54.8274725559
  0
LINE
  5
25F
100
AcDbEntity
  8
DRAFT
100
AcDbLine
 62
7
  6
CONTINUOUS
 10
-6.4210031332
 20
-47.8447930916
 11
-11.3707506016
 21
-45.3699193575
  0
LINE
  5
260
100
AcDbEntity
  8
DRAFT
100
AcDbLine
 62
7
  6
CONTINUOUS
 10
-26.1108413406
 20
-37.999873988
 11
-27.2806531782
 21
-37.4149680691
  0
LINE
  5
261
100
AcDbEntity
  8
DRAFT
100
AcDbLine
 62
7
  6
CONTINUOUS
 10
27.6684603592
 20
-64.7203087109
 11
25.5910446723
 21
-63.6816008675
  0
LINE
  5
262
100
AcDbEntity
  8
DRAFT
100
AcDbLine
 62
7
  6
CONTINUOUS
 10
10.0545848684
 20
-55.9133709655
 11
9.6811420956
 21
-55.7266495791
  0
LINE
  5
263
100
AcDbEntity
  8
0
100
AcDbLine
 62
7
  6
CONTINUOUS
 10
4.1855985846
 20
-52.9788778236
 11
2.1995282998
 21
-51.9858426813
  0
LINE
  5
264
100
AcDbEntity
  8
DRAFT
100
AcDbLine
 62
7
  6
CONTINUOUS
 10
-3.7278260673
 20
-49.0221654977
 11
-6.2287604811
 21
-47.7716982908
  0
LINE
  5
265
100
AcDbEntity
  8
DRAFT
100
AcDbLine
 62
7
  6
CONTINUOUS
 10
-11.2094398631
 20
-45.2813585998
 11
-11.5828826359
 21
-45.0946372134
  0
LINE
  5
266
100
AcDbEntity
  8
DRAFT
100
AcDbLine
 62
7
  6
CONTINUOUS
 10
-27.1193424398
 20
-37.3264073115
 11
-32.5485986981
 21
-34.6117791823
  0
LINE
  5
267
100
AcDbEntity
  8
DRAFT
100
AcDbLine
 62
7
  6
CONTINUOUS
 10
12.7576360101
 20
-56.7234049303
 11
10.6301443692
 21
-55.6596591098
  0
LINE
  5
268
100
AcDbEntity
  8
DRAFT
100
AcDbLine
 62
7
  6
CONTINUOUS
 10
-11.017197211
 20
-44.8359883197
 11
-13.1545629277
 21
-43.7673054613
  0
LINE
  5
269
100
AcDbEntity
  8
DRAFT
100
AcDbLine
 62
7
  6
CONTINUOUS
 10
-31.992787349
 20
-34.3481932507
 11
-32.2115446655
 21
-34.2388145924
  0
LINE
  5
26A
100
AcDbEntity
  8
DRAFT
100
AcDbLine
 62
7
  6
CONTINUOUS
 10
-32.7574759202
 20
-33.6979270635
 11
-32.2115446655
 21
-33.9708926908
  0
LINE
  5
26B
100
AcDbEntity
  8
0
100
AcDbLine
 62
7
  6
CONTINUOUS
 10
-21.5253900439
 20
-39.1396305691
 11
-17.4088564484
 21
-41.1978973669
  0
LINE
  5
26C
100
AcDbEntity
  8
0
100
AcDbLine
 62
7
  6
CONTINUOUS
 10
22.4566517459
 20
-61.130651464
 11
26.5731853414
 21
-63.1889182618
  0
LWPOLYLINE
  5
26D
100
AcDbEntity
  8
RACCORDO
100
AcDbPolyline
 62
7
  6
CONTINUOUS
 90
14
 70
0
 10
-39.2863431333
 20
-37.8311802632
 10
-39.2825997434
 20
-37.8821526871
 10
-39.2755272714
 20
-37.9330739565
 10
-39.265258775
 20
-37.9838067946
 10
-39.251916543
 20
-38.0341252756
 10
-39.2355996495
 20
-38.0838929897
 10
-39.2163877387
 20
-38.1329515253
 10
-39.1944106072
 20
-38.1809835558
 10
-39.1697130603
 20
-38.2278916758
 10
-39.142375494
 20
-38.2734304472
 10
-39.1126678043
 20
-38.3171057256
 10
-39.0806307376
 20
-38.3588052811
 10
-39.0463510431
 20
-38.3983095941
 10
-39.0102384615
 20
-38.4350983258
  0
LINE
  5
26E
100
AcDbEntity
  8
RACCORDO
100
AcDbLine
 62
7
  6
CONTINUOUS
 10
-39.2869347986
 20
-37.8015977406
 11
-39.2863431333
 21
-37.8311802632
  0
LINE
  5
26F
100
AcDbEntity
  8
RACCORDO
100
AcDbLine
 62
7
  6
CONTINUOUS
 10
-39.2869408717
 20
68.0356971033
 11
-39.2869408717
 21
-37.8017035172
  0
LINE
  5
270
100
AcDbEntity
  8
RACCORDO
100
AcDbLine
 62
7
  6
CONTINUOUS
 10
-39.1990729061
 20
67.9335341414
 11
-39.199072906
 21
-37.9077695377
  0
LINE
  5
271
100
AcDbEntity
  8
RACCORDO
100
AcDbLine
 62
7
  6
CONTINUOUS
 10
-37.4870647541
 20
-36.5114480291
 11
-37.4870647541
 21
64.82130143
  0
LINE
  5
272
100
AcDbEntity
  8
RACCORDO
100
AcDbLine
 62
7
  6
CONTINUOUS
 10
-37.1249327197
 20
-36.5352858225
 11
-37.1249327197
 21
64.7974636366
  0
LINE
  5
273
100
AcDbEntity
  8
DRAFT
100
AcDbLine
 62
7
  6
CONTINUOUS
 10
-32.7574759202
 20
29.582111259
 11
-33.6446142089
 21
29.0867900993
  0
LINE
  5
274
100
AcDbEntity
  8
DRAFT
100
AcDbLine
 62
7
  6
CONTINUOUS
 10
-32.7574759202
 20
23.2525675465
 11
-32.2115446655
 21
23.5573805679
  0
LINE
  5
275
100
AcDbEntity
  8
DRAFT
100
AcDbLine
 62
7
  6
CONTINUOUS
 10
-32.7574759202
 20
25.8506437579
 11
-32.2115446655
 21
26.1312703318
  0
LINE
  5
276
100
AcDbEntity
  8
DRAFT
100
AcDbLine
 62
7
  6
CONTINUOUS
 10
-33.0949741572
 20
29.9959665047
 11
-33.9981675995
 21
29.5479758989
  0
LINE
  5
277
100
AcDbEntity
  8
DRAFT
100
AcDbLine
 62
7
  6
CONTINUOUS
 10
-34.2388665458
 20
28.7608838348
 11
-33.9206684943
 21
28.9187124141
  0
LINE
  5
278
100
AcDbEntity
  8
RACCORDO
100
AcDbLine
 62
7
  6
CONTINUOUS
 10
-34.6877309771
 20
63.8002661614
 11
-34.6877309771
 21
-35.1774302935
  0
LINE
  5
279
100
AcDbEntity
  8
RACCORDO
100
AcDbLine
 62
7
  6
CONTINUOUS
 10
-34.5904017918
 20
63.7516015688
 11
-34.5904017918
 21
-35.1407588926
  0
LINE
  5
27A
100
AcDbEntity
  8
RACCORDO
100
AcDbLine
 62
7
  6
CONTINUOUS
 10
-34.2388665458
 20
-34.9636358777
 11
-34.2388665458
 21
63.5758339458
  0
LINE
  5
27B
100
AcDbEntity
  8
DRAFT
100
AcDbLine
 62
7
  6
CONTINUOUS
 10
-33.9981675995
 20
52.891358824
 11
-33.9981675995
 21
46.8684839746
  0
LINE
  5
27C
100
AcDbEntity
  8
DRAFT
100
AcDbLine
 62
7
  6
CONTINUOUS
 10
-33.9981675995
 20
35.5708507483
 11
-33.9981675995
 21
29.5479758989
  0
LINE
  5
27D
100
AcDbEntity
  8
DRAFT
100
AcDbLine
 62
7
  6
CONTINUOUS
 10
-33.9981675995
 20
18.2503426726
 11
-33.9981675995
 21
12.2274678232
  0
LINE
  5
27E
100
AcDbEntity
  8
DRAFT
100
AcDbLine
 62
7
  6
CONTINUOUS
 10
-33.9981675995
 20
0.9298345969
 11
-33.9981675995
 21
-5.0930402525
  0
LINE
  5
27F
100
AcDbEntity
  8
DRAFT
100
AcDbLine
 62
7
  6
CONTINUOUS
 10
-33.9981675995
 20
-16.3906734788
 11
-33.9981675995
 21
-22.4135483282
  0
LINE
  5
280
100
AcDbEntity
  8
RACCORDO
100
AcDbLine
 62
7
  6
CONTINUOUS
 10
-33.9206684943
 20
-34.8124827831
 11
-33.9206684943
 21
-23.0428118129
  0
LINE
  5
281
100
AcDbEntity
  8
DRAFT
100
AcDbLine
 62
7
  6
CONTINUOUS
 10
-33.9206684943
 20
-15.7681984211
 11
-33.9206684943
 21
-5.7223037372
  0
LINE
  5
282
100
AcDbEntity
  8
DRAFT
100
AcDbLine
 62
7
  6
CONTINUOUS
 10
-33.9206684943
 20
1.5523096545
 11
-33.9206684943
 21
11.5982043384
  0
LINE
  5
283
100
AcDbEntity
  8
DRAFT
100
AcDbLine
 62
7
  6
CONTINUOUS
 10
-33.9206684943
 20
18.8728177302
 11
-33.9206684943
 21
28.9187124141
  0
LINE
  5
284
100
AcDbEntity
  8
DRAFT
100
AcDbLine
 62
7
  6
CONTINUOUS
 10
-33.9206684943
 20
36.1933258059
 11
-33.9206684943
 21
46.2392204898
  0
LINE
  5
285
100
AcDbEntity
  8
RACCORDO
100
AcDbLine
 62
7
  6
CONTINUOUS
 10
-33.9206684943
 20
53.5138338816
 11
-33.9206684943
 21
63.41673492
  0
LINE
  5
286
100
AcDbEntity
  8
DRAFT
100
AcDbLine
 62
7
  6
CONTINUOUS
 10
-33.6446142089
 20
-34.9436952869
 11
-33.6446142089
 21
-22.8747341278
  0
LINE
  5
287
100
AcDbEntity
  8
DRAFT
100
AcDbLine
 62
7
  6
CONTINUOUS
 10
-33.6446142089
 20
-15.5759342886
 11
-33.6446142089
 21
-14.4425429988
  0
LINE
  5
288
100
AcDbEntity
  8
DRAFT
100
AcDbLine
 62
7
  6
CONTINUOUS
 10
-33.6446142089
 20
-6.6876173419
 11
-33.6446142089
 21
-5.5542260521
  0
LINE
  5
289
100
AcDbEntity
  8
0
100
AcDbLine
 62
7
  6
CONTINUOUS
 10
-33.6446142089
 20
1.7445737871
 11
-33.6446142089
 21
8.0977672812
  0
LINE
  5
28A
100
AcDbEntity
  8
DRAFT
100
AcDbLine
 62
7
  6
CONTINUOUS
 10
-33.6446142089
 20
19.0650818628
 11
-33.6446142089
 21
29.0867900993
  0
LINE
  5
28B
100
AcDbEntity
  8
DRAFT
100
AcDbLine
 62
7
  6
CONTINUOUS
 10
-33.6446142089
 20
36.3855899385
 11
-33.6446142089
 21
37.5189812282
  0
LINE
  5
28C
100
AcDbEntity
  8
DRAFT
100
AcDbLine
 62
7
  6
CONTINUOUS
 10
-33.6446142089
 20
45.2739068852
 11
-33.6446142089
 21
46.407298175
  0
LINE
  5
28D
100
AcDbEntity
  8
DRAFT
100
AcDbLine
 62
7
  6
CONTINUOUS
 10
-33.6446142089
 20
53.7060980142
 11
-33.6446142089
 21
63.2787077774
  0
LINE
  5
28E
100
AcDbEntity
  8
0
100
AcDbLine
 62
7
  6
CONTINUOUS
 10
-33.5739035308
 20
12.437905929
 11
-33.5739035308
 21
8.9816507577
  0
LINE
  5
28F
100
AcDbEntity
  8
DRAFT
100
AcDbLine
 62
7
  6
CONTINUOUS
 10
-33.5031928527
 20
-13.6136663499
 11
-33.5031928527
 21
-6.6086567209
  0
LINE
  5
290
100
AcDbEntity
  8
DRAFT
100
AcDbLine
 62
7
  6
CONTINUOUS
 10
-33.5031928527
 20
38.3478578771
 11
-33.5031928527
 21
45.3528675062
  0
LINE
  5
291
100
AcDbEntity
  8
RACCORDO
100
AcDbLine
 62
7
  6
CONTINUOUS
 10
-33.4504441233
 20
53.770878811
 11
-33.4504441233
 21
53.55638739
  0
LINE
  5
292
100
AcDbEntity
  8
RACCORDO
100
AcDbLine
 62
7
  6
CONTINUOUS
 10
-33.4504441233
 20
36.4503707353
 11
-33.4504441233
 21
36.2358793143
  0
LINE
  5
293
100
AcDbEntity
  8
RACCORDO
100
AcDbLine
 62
7
  6
CONTINUOUS
 10
-33.4504441233
 20
19.1298626596
 11
-33.4504441233
 21
18.9153712386
  0
LINE
  5
294
100
AcDbEntity
  8
RACCORDO
100
AcDbLine
 62
7
  6
CONTINUOUS
 10
-33.4504441233
 20
1.8093545839
 11
-33.4504441233
 21
1.5948631629
  0
LINE
  5
295
100
AcDbEntity
  8
RACCORDO
100
AcDbLine
 62
7
  6
CONTINUOUS
 10
-33.4504441233
 20
-15.5111534918
 11
-33.4504441233
 21
-15.7256449128
  0
LINE
  5
296
100
AcDbEntity
  8
RACCORDO
100
AcDbLine
 62
7
  6
CONTINUOUS
 10
-33.4064489679
 20
53.828522761
 11
-33.4064489679
 21
53.7946152066
  0
LINE
  5
297
100
AcDbEntity
  8
RACCORDO
100
AcDbLine
 62
7
  6
CONTINUOUS
 10
-33.4064489679
 20
36.5080146853
 11
-33.4064489679
 21
36.474107131
  0
LINE
  5
298
100
AcDbEntity
  8
RACCORDO
100
AcDbLine
 62
7
  6
CONTINUOUS
 10
-33.4064489679
 20
19.1875066096
 11
-33.4064489679
 21
19.1535990553
  0
LINE
  5
299
100
AcDbEntity
  8
RACCORDO
100
AcDbLine
 62
7
  6
CONTINUOUS
 10
-33.4064489679
 20
12.5209646267
 11
-33.4064489679
 21
9.4082144073
  0
LINE
  5
29A
100
AcDbEntity
  8
RACCORDO
100
AcDbLine
 62
7
  6
CONTINUOUS
 10
-33.4064489679
 20
1.8669985339
 11
-33.4064489679
 21
1.8330909796
  0
LINE
  5
29B
100
AcDbEntity
  8
RACCORDO
100
AcDbLine
 62
7
  6
CONTINUOUS
 10
-33.4064489679
 20
-15.4535095418
 11
-33.4064489679
 21
-15.4874170961
  0
LINE
  5
29C
100
AcDbEntity
  8
RACCORDO
100
AcDbLine
 62
7
  6
CONTINUOUS
 10
-33.4064489679
 20
-13.6620382923
 11
-33.4064489679
 21
-11.8119773066
  0
LINE
  5
29D
100
AcDbEntity
  8
RACCORDO
100
AcDbLine
 62
7
  6
CONTINUOUS
 10
-33.4064489679
 20
38.2994859347
 11
-33.4064489679
 21
40.1495469205
  0
LINE
  5
29E
100
AcDbEntity
  8
RACCORDO
100
AcDbLine
 62
7
  6
CONTINUOUS
 10
-33.3662460634
 20
53.8218703932
 11
-33.3662460634
 21
53.51428836
  0
LINE
  5
29F
100
AcDbEntity
  8
RACCORDO
100
AcDbLine
 62
7
  6
CONTINUOUS
 10
-33.3662460634
 20
36.5013623175
 11
-33.3662460634
 21
36.1937802843
  0
LINE
  5
2A0
100
AcDbEntity
  8
RACCORDO
100
AcDbLine
 62
7
  6
CONTINUOUS
 10
-33.3662460634
 20
19.1808542418
 11
-33.3662460634
 21
18.8732722086
  0
LINE
  5
2A1
100
AcDbEntity
  8
RACCORDO
100
AcDbLine
 62
7
  6
CONTINUOUS
 10
-33.3662460634
 20
1.8603461661
 11
-33.3662460634
 21
1.552764133
  0
LINE
  5
2A2
100
AcDbEntity
  8
RACCORDO
100
AcDbLine
 62
7
  6
CONTINUOUS
 10
-33.3662460634
 20
-15.4601619096
 11
-33.3662460634
 21
-15.7677439427
  0
LINE
  5
2A3
100
AcDbEntity
  8
RACCORDO
100
AcDbLine
 62
7
  6
CONTINUOUS
 10
-33.322250908
 20
47.2037436365
 11
-33.322250908
 21
47.1850068286
  0
LINE
  5
2A4
100
AcDbEntity
  8
RACCORDO
100
AcDbLine
 62
7
  6
CONTINUOUS
 10
-33.322250908
 20
40.128753427
 11
-33.322250908
 21
38.2573869048
  0
LINE
  5
2A5
100
AcDbEntity
  8
RACCORDO
100
AcDbLine
 62
7
  6
CONTINUOUS
 10
-33.322250908
 20
29.8832355608
 11
-33.322250908
 21
29.8644987529
  0
LINE
  5
2A6
100
AcDbEntity
  8
RACCORDO
100
AcDbLine
 62
7
  6
CONTINUOUS
 10
-33.322250908
 20
12.5627274851
 11
-33.322250908
 21
9.3661153774
  0
LINE
  5
2A7
100
AcDbEntity
  8
RACCORDO
100
AcDbLine
 62
7
  6
CONTINUOUS
 10
-33.322250908
 20
-4.7577805906
 11
-33.322250908
 21
-4.7765173985
  0
LINE
  5
2A8
100
AcDbEntity
  8
RACCORDO
100
AcDbLine
 62
7
  6
CONTINUOUS
 10
-33.322250908
 20
-11.8327708001
 11
-33.322250908
 21
-13.7041373223
  0
LINE
  5
2A9
100
AcDbEntity
  8
RACCORDO
100
AcDbLine
 62
7
  6
CONTINUOUS
 10
-33.322250908
 20
-22.0782886663
 11
-33.322250908
 21
-22.0970254742
  0
LINE
  5
2AA
100
AcDbEntity
  8
DRAFT
100
AcDbLine
 62
7
  6
CONTINUOUS
 10
-33.0949741572
 20
53.3786524069
 11
-33.0949741572
 21
47.3164745804
  0
LINE
  5
2AB
100
AcDbEntity
  8
DRAFT
100
AcDbLine
 62
7
  6
CONTINUOUS
 10
-33.0949741572
 20
36.0581443312
 11
-33.0949741572
 21
29.9959665047
  0
LINE
  5
2AC
100
AcDbEntity
  8
DRAFT
100
AcDbLine
 62
7
  6
CONTINUOUS
 10
-33.0949741572
 20
18.7376362555
 11
-33.0949741572
 21
12.675458429
  0
LINE
  5
2AD
100
AcDbEntity
  8
DRAFT
100
AcDbLine
 62
7
  6
CONTINUOUS
 10
-33.0949741572
 20
1.4171281798
 11
-33.0949741572
 21
-4.6450496467
  0
LINE
  5
2AE
100
AcDbEntity
  8
DRAFT
100
AcDbLine
 62
7
  6
CONTINUOUS
 10
-33.0949741572
 20
-15.9033798959
 11
-33.0949741572
 21
-21.9655577223
  0
LINE
  5
2AF
100
AcDbEntity
  8
DRAFT
100
AcDbLine
 62
7
  6
CONTINUOUS
 10
-32.7574759202
 20
-34.2515192648
 11
-32.7574759202
 21
-22.3794129681
  0
LINE
  5
2B0
100
AcDbEntity
  8
DRAFT
100
AcDbLine
 62
7
  6
CONTINUOUS
 10
-32.7574759202
 20
-15.119916106
 11
-32.7574759202
 21
-13.9865248162
  0
LINE
  5
2B1
100
AcDbEntity
  8
DRAFT
100
AcDbLine
 62
7
  6
CONTINUOUS
 10
-32.7574759202
 20
-6.1922961821
 11
-32.7574759202
 21
-5.0589048924
  0
LINE
  5
2B2
100
AcDbEntity
  8
DRAFT
100
AcDbLine
 62
7
  6
CONTINUOUS
 10
-32.7574759202
 20
2.2005919697
 11
-32.7574759202
 21
5.9320594708
  0
LINE
  5
2B3
100
AcDbEntity
  8
0
100
AcDbLine
 62
7
  6
CONTINUOUS
 10
-32.7574759202
 20
8.5301356822
 11
-32.7574759202
 21
8.5734369524
  0
LINE
  5
2B4
100
AcDbEntity
  8
DRAFT
100
AcDbLine
 62
7
  6
CONTINUOUS
 10
-32.7574759202
 20
19.5211000454
 11
-32.7574759202
 21
23.2525675465
  0
LINE
  5
2B5
100
AcDbEntity
  8
DRAFT
100
AcDbLine
 62
7
  6
CONTINUOUS
 10
-32.7574759202
 20
25.8506437579
 11
-32.7574759202
 21
29.582111259
  0
LINE
  5
2B6
100
AcDbEntity
  8
DRAFT
100
AcDbLine
 62
7
  6
CONTINUOUS
 10
-32.7574759202
 20
36.8416081211
 11
-32.7574759202
 21
37.9749994109
  0
LINE
  5
2B7
100
AcDbEntity
  8
DRAFT
100
AcDbLine
 62
7
  6
CONTINUOUS
 10
-32.7574759202
 20
45.7692280449
 11
-32.7574759202
 21
46.9026193347
  0
LINE
  5
2B8
100
AcDbEntity
  8
DRAFT
100
AcDbLine
 62
7
  6
CONTINUOUS
 10
-32.7574759202
 20
54.1621161968
 11
-32.7574759202
 21
62.835138633
  0
LINE
  5
2B9
100
AcDbEntity
  8
DRAFT
100
AcDbLine
 62
7
  6
CONTINUOUS
 10
-32.2115446655
 20
-34.2388145924
 11
-32.2115446655
 21
-33.9708926908
  0
LINE
  5
2BA
100
AcDbEntity
  8
DRAFT
100
AcDbLine
 62
7
  6
CONTINUOUS
 10
-32.2115446655
 20
6.2368724922
 11
-32.2115446655
 21
8.8107622561
  0
LINE
  5
2BB
100
AcDbEntity
  8
DRAFT
100
AcDbLine
 62
7
  6
CONTINUOUS
 10
-32.2115446655
 20
23.5573805679
 11
-32.2115446655
 21
26.1312703318
  0
LINE
  5
2BC
100
AcDbEntity
  8
DRAFT
100
AcDbLine
 62
7
  6
CONTINUOUS
 10
-31.992787349
 20
-34.3481932507
 11
-31.992787349
 21
-34.8896848569
  0
LINE
  5
2BD
100
AcDbEntity
  8
0
100
AcDbLine
 62
7
  6
CONTINUOUS
 10
-30.908935489
 20
-10.2464858868
 11
-30.908935489
 21
-5.2047824777
  0
LINE
  5
2BE
100
AcDbEntity
  8
0
100
AcDbLine
 62
7
  6
CONTINUOUS
 10
-30.908935489
 20
41.7150383403
 11
-30.908935489
 21
46.7567417493
  0
LINE
  5
2BF
100
AcDbEntity
  8
RACCORDO
100
AcDbLine
 62
7
  6
CONTINUOUS
 10
-33.6567805229
 20
19.0185394384
 11
-33.4064489679
 21
19.1535990553
  0
LINE
  5
2C0
100
AcDbEntity
  8
DRAFT
100
AcDbLine
 62
7
  6
CONTINUOUS
 10
-34.2388665458
 20
18.7011425814
 11
-33.9206684943
 21
18.8728177302
  0
LINE
  5
2C1
100
AcDbEntity
  8
DRAFT
100
AcDbLine
 62
7
  6
CONTINUOUS
 10
-33.0949741572
 20
18.7376362555
 11
-33.9981675995
 21
18.2503426726
  0
LINE
  5
2C2
100
AcDbEntity
  8
DRAFT
100
AcDbLine
 62
7
  6
CONTINUOUS
 10
-32.7574759202
 20
19.5211000454
 11
-33.6446142089
 21
19.0650818628
  0
LINE
  5
2C3
100
AcDbEntity
  8
DRAFT
100
AcDbLine
 62
7
  6
CONTINUOUS
 10
-34.2388665458
 20
-22.8837127872
 11
-33.9206684943
 21
-23.0428118129
  0
LINE
  5
2C4
100
AcDbEntity
  8
RACCORDO
100
AcDbLine
 62
7
  6
CONTINUOUS
 10
-33.6446142089
 20
-22.8747341278
 11
-34.2388665458
 21
-22.5776079594
  0
LINE
  5
2C5
100
AcDbEntity
  8
SMUSSO
100
AcDbLine
 62
7
  6
CONTINUOUS
 10
-33.9981675995
 20
-22.4135483282
 11
-34.2388665458
 21
-22.293198855
  0
LINE
  5
2C6
100
AcDbEntity
  8
DRAFT
100
AcDbLine
 62
7
  6
CONTINUOUS
 10
-32.7574759202
 20
-22.3794129681
 11
-33.3410628249
 21
-22.0876195157
  0
LINE
  5
2C7
100
AcDbEntity
  8
SMUSSO
100
AcDbLine
 62
7
  6
CONTINUOUS
 10
-33.9981675995
 20
-16.3906734788
 11
-34.2388665458
 21
-16.2703240056
  0
LINE
  5
2C8
100
AcDbEntity
  8
SMUSSO
100
AcDbLine
 62
7
  6
CONTINUOUS
 10
-33.9206684943
 20
-15.4905327273
 11
-33.0949741572
 21
-15.9033798959
  0
LINE
  5
2C9
100
AcDbEntity
  8
RACCORDO
100
AcDbLine
 62
7
  6
CONTINUOUS
 10
-33.9206684943
 20
-15.4379071459
 11
-33.6446142089
 21
-15.5759342886
  0
LINE
  5
2CA
100
AcDbEntity
  8
DRAFT
100
AcDbLine
 62
7
  6
CONTINUOUS
 10
-27.1193424398
 20
-37.4956234384
 11
-27.1193424398
 21
-37.3264073115
  0
LINE
  5
2CB
100
AcDbEntity
  8
DRAFT
100
AcDbLine
 62
7
  6
CONTINUOUS
 10
-26.8403437363
 20
-38.6124132132
 11
-26.8403437363
 21
-38.3458305232
  0
LINE
  5
2CC
100
AcDbEntity
  8
DRAFT
100
AcDbLine
 62
7
  6
CONTINUOUS
 10
-26.1108413406
 20
-38.9169684125
 11
-26.1108413406
 21
-37.999873988
  0
LINE
  5
2CD
100
AcDbEntity
  8
0
100
AcDbLine
 62
7
  6
CONTINUOUS
 10
-32.7574759202
 20
8.5734369524
 11
-33.6446142089
 21
8.0977672812
  0
LINE
  5
2CE
100
AcDbEntity
  8
0
100
AcDbLine
 62
7
  6
CONTINUOUS
 10
-34.2388665458
 20
12.3231199009
 11
-34.2146860804
 21
12.3357270637
  0
LINE
  5
2CF
100
AcDbEntity
  8
DRAFT
100
AcDbLine
 62
7
  6
CONTINUOUS
 10
-32.7574759202
 20
8.5301356822
 11
-32.2115446655
 21
8.8107622561
  0
LINE
  5
2D0
100
AcDbEntity
  8
0
100
AcDbLine
 62
7
  6
CONTINUOUS
 10
-33.5739035308
 20
8.9816507577
 11
-33.9206684943
 21
8.808268276
  0
LINE
  5
2D1
100
AcDbEntity
  8
DRAFT
100
AcDbLine
 62
7
  6
CONTINUOUS
 10
-33.0949741572
 20
12.675458429
 11
-33.9981675995
 21
12.2274678232
  0
LINE
  5
2D2
100
AcDbEntity
  8
DRAFT
100
AcDbLine
 62
7
  6
CONTINUOUS
 10
-34.2388665458
 20
11.4403757591
 11
-33.9206684943
 21
11.5982043384
  0
LINE
  5
2D3
100
AcDbEntity
  8
DRAFT
100
AcDbLine
 62
7
  6
CONTINUOUS
 10
-33.6446142089
 20
-14.4425429988
 11
-33.9206684943
 21
-14.3045158561
  0
LINE
  5
2D4
100
AcDbEntity
  8
DRAFT
100
AcDbLine
 62
7
  6
CONTINUOUS
 10
-32.7574759202
 20
-13.9865248162
 11
-33.5031928527
 21
-13.6136663499
  0
LINE
  5
2D5
100
AcDbEntity
  8
DRAFT
100
AcDbLine
 62
7
  6
CONTINUOUS
 10
-20.8813368085
 20
-41.9021687975
 11
-20.8813368085
 21
-41.5919166771
  0
LINE
  5
2D6
100
AcDbEntity
  8
SMUSSO
100
AcDbLine
 62
7
  6
CONTINUOUS
 10
-20.4056720275
 20
-41.9167197682
 11
-20.4056720275
 21
-42.140001188
  0
LINE
  5
2D7
100
AcDbEntity
  8
0
100
AcDbLine
 62
7
  6
CONTINUOUS
 10
-17.26711082
 20
-41.4417381473
 11
-17.26711082
 21
-42.1447600992
  0
LINE
  5
2D8
100
AcDbEntity
  8
SMUSSO
100
AcDbLine
 62
7
  6
CONTINUOUS
 10
-15.4880153056
 20
-44.3755481291
 11
-15.4880153056
 21
-44.598829549
  0
LINE
  5
2D9
100
AcDbEntity
  8
RACCORDO
100
AcDbLine
 62
7
  6
CONTINUOUS
 10
-14.6135677192
 20
-44.4592185317
 11
-14.6135677192
 21
-44.7258012218
  0
LINE
  5
2DA
100
AcDbEntity
  8
SMUSSO
100
AcDbLine
 62
7
  6
CONTINUOUS
 10
-14.5527311169
 20
-44.430367605
 11
-14.5527311169
 21
-43.9436028965
  0
LINE
  5
2DB
100
AcDbEntity
  8
DRAFT
100
AcDbLine
 62
7
  6
CONTINUOUS
 10
-32.7574759202
 20
5.9320594708
 11
-32.2115446655
 21
6.2368724922
  0
LINE
  5
2DC
100
AcDbEntity
  8
RACCORDO
100
AcDbLine
 62
7
  6
CONTINUOUS
 10
-33.6567805229
 20
1.6980313627
 11
-33.4064489679
 21
1.8330909796
  0
LINE
  5
2DD
100
AcDbEntity
  8
DRAFT
100
AcDbLine
 62
7
  6
CONTINUOUS
 10
-34.2388665458
 20
1.3806345057
 11
-33.9206684943
 21
1.5523096545
  0
LINE
  5
2DE
100
AcDbEntity
  8
DRAFT
100
AcDbLine
 62
7
  6
CONTINUOUS
 10
-33.0949741572
 20
1.4171281798
 11
-33.9981675995
 21
0.9298345969
  0
LINE
  5
2DF
100
AcDbEntity
  8
DRAFT
100
AcDbLine
 62
7
  6
CONTINUOUS
 10
-32.7574759202
 20
2.2005919697
 11
-33.6446142089
 21
1.7445737871
  0
LINE
  5
2E0
100
AcDbEntity
  8
RACCORDO
100
AcDbLine
 62
7
  6
CONTINUOUS
 10
29.3935783611
 20
34.447470931
 11
31.3762192832
 21
35.4464357337
  0
LINE
  5
2E1
100
AcDbEntity
  8
RACCORDO
100
AcDbLine
 62
7
  6
CONTINUOUS
 10
29.8888660222
 20
33.5940914462
 11
31.871118643
 21
34.5928606011
  0
LINE
  5
2E2
100
AcDbEntity
  8
DRAFT
100
AcDbLine
 62
7
  6
CONTINUOUS
 10
-33.9206684943
 20
-6.5495901992
 11
-33.6446142089
 21
-6.6876173419
  0
LINE
  5
2E3
100
AcDbEntity
  8
DRAFT
100
AcDbLine
 62
7
  6
CONTINUOUS
 10
-34.2388665458
 20
-5.5632047115
 11
-33.9206684943
 21
-5.7223037372
  0
LINE
  5
2E4
100
AcDbEntity
  8
RACCORDO
100
AcDbLine
 62
7
  6
CONTINUOUS
 10
-33.6446142089
 20
-5.5542260521
 11
-34.2388665458
 21
-5.2570998837
  0
LINE
  5
2E5
100
AcDbEntity
  8
SMUSSO
100
AcDbLine
 62
7
  6
CONTINUOUS
 10
-33.9981675995
 20
-5.0930402525
 11
-34.2388665458
 21
-4.9726907793
  0
LINE
  5
2E6
100
AcDbEntity
  8
DRAFT
100
AcDbLine
 62
7
  6
CONTINUOUS
 10
-32.7574759202
 20
-5.0589048924
 11
-33.3410628249
 21
-4.76711144
  0
LINE
  5
2E7
100
AcDbEntity
  8
0
100
AcDbLine
 62
7
  6
CONTINUOUS
 10
-31.624178262
 20
-4.6735588599
 11
-31.050163242
 21
-4.9605663699
  0
LINE
  5
2E8
100
AcDbEntity
  8
SMUSSO
100
AcDbLine
 62
7
  6
CONTINUOUS
 10
-33.9981675995
 20
0.9298345969
 11
-34.2388665458
 21
1.05018407
  0
LINE
  5
2E9
100
AcDbEntity
  8
DRAFT
100
AcDbLine
 62
7
  6
CONTINUOUS
 10
-11.2094398631
 20
-45.4505747267
 11
-11.2094398631
 21
-45.2813585998
  0
LINE
  5
2EA
100
AcDbEntity
  8
DRAFT
100
AcDbLine
 62
7
  6
CONTINUOUS
 10
-11.017197211
 20
-44.8359883197
 11
-11.017197211
 21
-45.5466960528
  0
LINE
  5
2EB
100
AcDbEntity
  8
0
100
AcDbLine
 62
7
  6
CONTINUOUS
 10
-30.908935489
 20
-10.2464858868
 11
-33.4064489679
 21
-11.8119773066
  0
LINE
  5
2EC
100
AcDbEntity
  8
RACCORDO
100
AcDbLine
 62
7
  6
CONTINUOUS
 10
-30.9546643848
 20
-10.3515471713
 11
-33.3237926007
 21
-11.8365641395
  0
LINE
  5
2ED
100
AcDbEntity
  8
DRAFT
100
AcDbLine
 62
7
  6
CONTINUOUS
 10
-33.6446142089
 20
-5.5542260521
 11
-32.7574759202
 21
-5.0589048924
  0
LINE
  5
2EE
100
AcDbEntity
  8
DRAFT
100
AcDbLine
 62
7
  6
CONTINUOUS
 10
-32.7574759202
 20
-6.1922961821
 11
-33.6446142089
 21
-6.6876173419
  0
LINE
  5
2EF
100
AcDbEntity
  8
RACCORDO
100
AcDbLine
 62
7
  6
CONTINUOUS
 10
51.6324636022
 20
39.0924565782
 11
55.4508402206
 21
41.0016448874
  0
LINE
  5
2F0
100
AcDbEntity
  8
RACCORDO
100
AcDbLine
 62
7
  6
CONTINUOUS
 10
52.3395703834
 20
37.8728777839
 11
56.1579470018
 21
39.7820660931
  0
LINE
  5
2F1
100
AcDbEntity
  8
DRAFT
100
AcDbLine
 62
7
  6
CONTINUOUS
 10
-33.0949741572
 20
-4.6450496467
 11
-33.9981675995
 21
-5.0930402525
  0
LINE
  5
2F2
100
AcDbEntity
  8
DRAFT
100
AcDbLine
 62
7
  6
CONTINUOUS
 10
-34.2388665458
 20
-5.8801323166
 11
-33.9206684943
 21
-5.7223037372
  0
LINE
  5
2F3
100
AcDbEntity
  8
0
100
AcDbLine
 62
7
  6
CONTINUOUS
 10
-32.7574759202
 20
-5.658362656
 11
-31.050163242
 21
-4.9605663699
  0
LINE
  5
2F4
100
AcDbEntity
  8
0
100
AcDbLine
 62
7
  6
CONTINUOUS
 10
-32.7574759202
 20
-5.960300002
 11
-30.908935489
 21
-5.2047824777
  0
LINE
  5
2F5
100
AcDbEntity
  8
RACCORDO
100
AcDbLine
 62
7
  6
CONTINUOUS
 10
-31.7061684901
 20
-4.6647898519
 11
-32.7565551763
 21
-5.0613437466
  0
LINE
  5
2F6
100
AcDbEntity
  8
0
100
AcDbLine
 62
7
  6
CONTINUOUS
 10
-31.624178262
 20
-4.6735588599
 11
-32.7574759202
 21
-5.1014142451
  0
LINE
  5
2F7
100
AcDbEntity
  8
SMUSSO
100
AcDbLine
 62
7
  6
CONTINUOUS
 10
-33.9206684943
 20
1.8299753484
 11
-33.0949741572
 21
1.4171281798
  0
LINE
  5
2F8
100
AcDbEntity
  8
RACCORDO
100
AcDbLine
 62
7
  6
CONTINUOUS
 10
-33.9206684943
 20
1.8826009298
 11
-33.6446142089
 21
1.7445737871
  0
LINE
  5
2F9
100
AcDbEntity
  8
0
100
AcDbLine
 62
7
  6
CONTINUOUS
 10
-33.9206684943
 20
8.2357944239
 11
-33.6446142089
 21
8.0977672812
  0
LINE
  5
2FA
100
AcDbEntity
  8
0
100
AcDbLine
 62
7
  6
CONTINUOUS
 10
-33.5739035308
 20
8.9816507577
 11
-32.7574759202
 21
8.5734369524
  0
LINE
  5
2FB
100
AcDbEntity
  8
DRAFT
100
AcDbLine
 62
7
  6
CONTINUOUS
 10
-4.9714342318
 20
-49.8571200859
 11
-4.9714342318
 21
-49.5468679655
  0
LINE
  5
2FC
100
AcDbEntity
  8
RACCORDO
100
AcDbLine
 62
7
  6
CONTINUOUS
 10
-4.6631102561
 20
-50.0112820737
 11
-4.6631102561
 21
-49.4344472633
  0
LINE
  5
2FD
100
AcDbEntity
  8
SMUSSO
100
AcDbLine
 62
7
  6
CONTINUOUS
 10
-4.4957694508
 20
-49.8716710565
 11
-4.4957694508
 21
-50.0949524764
  0
LINE
  5
2FE
100
AcDbEntity
  8
DRAFT
100
AcDbLine
 62
7
  6
CONTINUOUS
 10
-3.7278260673
 20
-49.490765477
 11
-3.7278260673
 21
-49.0221654977
  0
LINE
  5
2FF
100
AcDbEntity
  8
SMUSSO
100
AcDbLine
 62
7
  6
CONTINUOUS
 10
0.4218872711
 20
-52.3304994175
 11
0.4218872711
 21
-52.5537808373
  0
LINE
  5
300
100
AcDbEntity
  8
RACCORDO
100
AcDbLine
 62
7
  6
CONTINUOUS
 10
-33.6567805229
 20
-15.622476713
 11
-33.4064489679
 21
-15.4874170961
  0
LINE
  5
301
100
AcDbEntity
  8
DRAFT
100
AcDbLine
 62
7
  6
CONTINUOUS
 10
-34.2388665458
 20
-15.93987357
 11
-33.9206684943
 21
-15.7681984211
  0
LINE
  5
302
100
AcDbEntity
  8
DRAFT
100
AcDbLine
 62
7
  6
CONTINUOUS
 10
-33.0949741572
 20
-15.9033798959
 11
-33.9981675995
 21
-16.3906734788
  0
LINE
  5
303
100
AcDbEntity
  8
DRAFT
100
AcDbLine
 62
7
  6
CONTINUOUS
 10
-32.7574759202
 20
-13.9865248162
 11
-33.6446142089
 21
-14.4425429988
  0
LINE
  5
304
100
AcDbEntity
  8
DRAFT
100
AcDbLine
 62
7
  6
CONTINUOUS
 10
-33.6446142089
 20
-15.5759342886
 11
-32.7574759202
 21
-15.119916106
  0
LINE
  5
305
100
AcDbEntity
  8
DRAFT
100
AcDbLine
 62
7
  6
CONTINUOUS
 10
-33.5031928527
 20
-13.6136663499
 11
-33.9206684943
 21
-13.8207373458
  0
LINE
  5
306
100
AcDbEntity
  8
DRAFT
100
AcDbLine
 62
7
  6
CONTINUOUS
 10
-33.5739035308
 20
9.4919416887
 11
-32.2115446655
 21
8.8107622561
  0
LINE
  5
307
100
AcDbEntity
  8
DRAFT
100
AcDbLine
 62
7
  6
CONTINUOUS
 10
-34.2388665458
 20
11.7573033642
 11
-33.9206684943
 21
11.5982043384
  0
LINE
  5
308
100
AcDbEntity
  8
SMUSSO
100
AcDbLine
 62
7
  6
CONTINUOUS
 10
-33.9981675995
 20
12.2274678232
 11
-34.2388665458
 21
12.3478172963
  0
LINE
  5
309
100
AcDbEntity
  8
RACCORDO
100
AcDbLine
 62
7
  6
CONTINUOUS
 10
1.2963348575
 20
-52.4141698201
 11
1.2963348575
 21
-52.6807525101
  0
LINE
  5
30A
100
AcDbEntity
  8
SMUSSO
100
AcDbLine
 62
7
  6
CONTINUOUS
 10
1.3571714598
 20
-52.3853188934
 11
1.3571714598
 21
-51.8985541848
  0
LINE
  5
30B
100
AcDbEntity
  8
0
100
AcDbLine
 62
7
  6
CONTINUOUS
 10
3.266359769
 20
-53.3991822758
 11
3.266359769
 21
-53.6657649659
  0
LINE
  5
30C
100
AcDbEntity
  8
0
100
AcDbLine
 62
7
  6
CONTINUOUS
 10
4.1855985846
 20
-52.9788778236
 11
4.1855985846
 21
-53.9787933526
  0
LINE
  5
30D
100
AcDbEntity
  8
0
100
AcDbLine
 62
7
  6
CONTINUOUS
 10
4.7004627136
 20
-54.3828164382
 11
4.7004627136
 21
-54.2362254171
  0
LINE
  5
30E
100
AcDbEntity
  8
RACCORDO
100
AcDbLine
 62
7
  6
CONTINUOUS
 10
5.5715407014
 20
-54.8183554321
 11
5.5715407014
 21
-54.6857101327
  0
LINE
  5
30F
100
AcDbEntity
  8
0
100
AcDbLine
 62
7
  6
CONTINUOUS
 10
6.8018936749
 20
-55.4335319188
 11
6.8018936749
 21
-55.1669492288
  0
LINE
  5
310
100
AcDbEntity
  8
DRAFT
100
AcDbLine
 62
7
  6
CONTINUOUS
 10
-32.7574759202
 20
-22.3794129681
 11
-33.6446142089
 21
-22.8747341278
  0
LINE
  5
311
100
AcDbEntity
  8
DRAFT
100
AcDbLine
 62
7
  6
CONTINUOUS
 10
-33.0949741572
 20
-21.9655577223
 11
-33.9981675995
 21
-22.4135483282
  0
LINE
  5
312
100
AcDbEntity
  8
DRAFT
100
AcDbLine
 62
7
  6
CONTINUOUS
 10
-34.2388665458
 20
-23.2006403923
 11
-33.9206684943
 21
-23.0428118129
  0
LINE
  5
313
100
AcDbEntity
  8
SMUSSO
100
AcDbLine
 62
7
  6
CONTINUOUS
 10
-33.9981675995
 20
18.2503426726
 11
-34.2388665458
 21
18.3706921457
  0
LINE
  5
314
100
AcDbEntity
  8
SMUSSO
100
AcDbLine
 62
7
  6
CONTINUOUS
 10
-33.9206684943
 20
19.1504834241
 11
-33.0949741572
 21
18.7376362555
  0
LINE
  5
315
100
AcDbEntity
  8
RACCORDO
100
AcDbLine
 62
7
  6
CONTINUOUS
 10
-33.9206684943
 20
19.2031090055
 11
-33.6446142089
 21
19.0650818628
  0
LINE
  5
316
100
AcDbEntity
  8
DRAFT
100
AcDbLine
 62
7
  6
CONTINUOUS
 10
10.9384683449
 20
-57.8120713742
 11
10.9384683449
 21
-57.5018192538
  0
LINE
  5
317
100
AcDbEntity
  8
RACCORDO
100
AcDbLine
 62
7
  6
CONTINUOUS
 10
11.2467923206
 20
-57.9662333621
 11
11.2467923206
 21
-57.3893985516
  0
LINE
  5
318
100
AcDbEntity
  8
SMUSSO
100
AcDbLine
 62
7
  6
CONTINUOUS
 10
11.4141331259
 20
-57.8266223449
 11
11.4141331259
 21
-58.0499037647
  0
LINE
  5
319
100
AcDbEntity
  8
DRAFT
100
AcDbLine
 62
7
  6
CONTINUOUS
 10
12.7576360101
 20
-56.7234049303
 11
12.7576360101
 21
-57.59878646
  0
LINE
  5
31A
100
AcDbEntity
  8
RACCORDO
100
AcDbLine
 62
7
  6
CONTINUOUS
 10
-37.1249327197
 20
-36.5352858225
 11
-34.686136065
 21
-35.2000677882
  0
LINE
  5
31B
100
AcDbEntity
  8
RACCORDO
100
AcDbLine
 62
7
  6
CONTINUOUS
 10
-36.9200289091
 20
-36.8886926189
 11
-34.4812517117
 21
-35.5534541493
  0
LINE
  5
31C
100
AcDbEntity
  8
DRAFT
100
AcDbLine
 62
7
  6
CONTINUOUS
 10
-32.7574759202
 20
-34.2515192648
 11
-32.2115446655
 21
-33.9708926908
  0
LINE
  5
31D
100
AcDbEntity
  8
DRAFT
100
AcDbLine
 62
7
  6
CONTINUOUS
 10
-32.7574759202
 20
26.4042359591
 11
-32.2115446655
 21
26.1312703318
  0
LINE
  5
31E
100
AcDbEntity
  8
DRAFT
100
AcDbLine
 62
7
  6
CONTINUOUS
 10
-34.2388665458
 20
29.0778114399
 11
-33.9206684943
 21
28.9187124141
  0
LINE
  5
31F
100
AcDbEntity
  8
RACCORDO
100
AcDbLine
 62
7
  6
CONTINUOUS
 10
-33.6446142089
 20
29.0867900993
 11
-34.2388665458
 21
29.3839162677
  0
LINE
  5
320
100
AcDbEntity
  8
SMUSSO
100
AcDbLine
 62
7
  6
CONTINUOUS
 10
-33.9981675995
 20
29.5479758989
 11
-34.2388665458
 21
29.668325372
  0
LINE
  5
321
100
AcDbEntity
  8
DRAFT
100
AcDbLine
 62
7
  6
CONTINUOUS
 10
-32.7574759202
 20
29.582111259
 11
-33.3410628249
 21
29.8739047113
  0
LINE
  5
322
100
AcDbEntity
  8
SMUSSO
100
AcDbLine
 62
7
  6
CONTINUOUS
 10
16.3317898478
 20
-60.2854507058
 11
16.3317898478
 21
-60.5087321257
  0
LINE
  5
323
100
AcDbEntity
  8
SMUSSO
100
AcDbLine
 62
7
  6
CONTINUOUS
 10
17.2670740365
 20
-60.6661220996
 11
17.2670740365
 21
-59.8535054732
  0
LINE
  5
324
100
AcDbEntity
  8
DRAFT
100
AcDbLine
 62
7
  6
CONTINUOUS
 10
20.6103652903
 20
-62.277571728
 11
20.6103652903
 21
-62.1045741651
  0
LINE
  5
325
100
AcDbEntity
  8
DRAFT
100
AcDbLine
 62
7
  6
CONTINUOUS
 10
21.4814432781
 20
-62.7131107219
 11
21.4814432781
 21
-62.6406614211
  0
LINE
  5
326
100
AcDbEntity
  8
DRAFT
100
AcDbLine
 62
7
  6
CONTINUOUS
 10
-27.2806531782
 20
-37.4149680691
 11
-27.1193424398
 21
-37.3264073115
  0
LINE
  5
327
100
AcDbEntity
  8
RACCORDO
100
AcDbLine
 62
7
  6
CONTINUOUS
 10
-34.5904017918
 20
-35.1407588926
 11
-34.2388665458
 21
-34.9636358777
  0
LINE
  5
328
100
AcDbEntity
  8
RACCORDO
100
AcDbLine
 62
7
  6
CONTINUOUS
 10
-34.3783020662
 20
-35.5065768066
 11
-34.0267668202
 21
-35.3294537917
  0
LINE
  5
329
100
AcDbEntity
  8
RACCORDO
100
AcDbLine
 62
7
  6
CONTINUOUS
 10
-33.9206684943
 20
-34.8124827831
 11
-34.2362092202
 21
-34.9689933093
  0
LINE
  5
32A
100
AcDbEntity
  8
RACCORDO
100
AcDbLine
 62
7
  6
CONTINUOUS
 10
-33.7085687687
 20
-35.178300697
 11
-34.0200645759
 21
-35.3328049138
  0
LINE
  5
32B
100
AcDbEntity
  8
DRAFT
100
AcDbLine
 62
7
  6
CONTINUOUS
 10
-33.6446142089
 20
-34.9436952869
 11
-32.2115446655
 21
-34.2388145924
  0
LINE
  5
32C
100
AcDbEntity
  8
DRAFT
100
AcDbLine
 62
7
  6
CONTINUOUS
 10
-32.5485986981
 20
-34.6117791823
 11
-31.992787349
 21
-34.3481932507
  0
LINE
  5
32D
100
AcDbEntity
  8
SMUSSO
100
AcDbLine
 62
7
  6
CONTINUOUS
 10
-33.9981675995
 20
35.5708507483
 11
-34.2388665458
 21
35.6912002214
  0
LINE
  5
32E
100
AcDbEntity
  8
SMUSSO
100
AcDbLine
 62
7
  6
CONTINUOUS
 10
-33.9206684943
 20
36.4709914998
 11
-33.0949741572
 21
36.0581443312
  0
LINE
  5
32F
100
AcDbEntity
  8
RACCORDO
100
AcDbLine
 62
7
  6
CONTINUOUS
 10
-33.9206684943
 20
36.5236170812
 11
-33.6446142089
 21
36.3855899385
  0
LINE
  5
330
100
AcDbEntity
  8
DRAFT
100
AcDbLine
 62
7
  6
CONTINUOUS
 10
-33.6446142089
 20
37.5189812282
 11
-33.9206684943
 21
37.6570083709
  0
LINE
  5
331
100
AcDbEntity
  8
DRAFT
100
AcDbLine
 62
7
  6
CONTINUOUS
 10
-32.7574759202
 20
37.9749994109
 11
-33.5031928527
 21
38.3478578771
  0
LINE
  5
332
100
AcDbEntity
  8
DRAFT
100
AcDbLine
 62
7
  6
CONTINUOUS
 10
23.4735683377
 20
-63.5027865602
 11
23.4735683377
 21
-63.7693692502
  0
LINE
  5
333
100
AcDbEntity
  8
0
100
AcDbLine
 62
7
  6
CONTINUOUS
 10
26.7149309698
 20
-63.4327590422
 11
26.7149309698
 21
-64.1357809941
  0
LINE
  5
334
100
AcDbEntity
  8
RACCORDO
100
AcDbLine
 62
7
  6
CONTINUOUS
 10
27.6684603592
 20
32.3056709342
 11
27.6684603592
 21
-69.0270786296
  0
LINE
  5
335
100
AcDbEntity
  8
RACCORDO
100
AcDbLine
 62
7
  6
CONTINUOUS
 10
27.7563283248
 20
32.1996048905
 11
27.7563283248
 21
-69.1331445685
  0
LINE
  5
336
100
AcDbEntity
  8
RACCORDO
100
AcDbLine
 62
7
  6
CONTINUOUS
 10
29.4683364768
 20
-72.2414742283
 11
29.4683364767
 21
33.5959263991
  0
LINE
  5
337
100
AcDbEntity
  8
RACCORDO
100
AcDbLine
 62
7
  6
CONTINUOUS
 10
29.8884777202
 20
-72.2434885127
 11
29.8888660222
 21
33.5940914462
  0
LWPOLYLINE
  5
338
100
AcDbEntity
  8
RACCORDO
100
AcDbPolyline
 62
7
  6
CONTINUOUS
 90
8
 70
0
 10
27.6684604796
 20
-69.0270757164
 10
27.6681327614
 20
-69.0419786061
 10
27.6671539078
 20
-69.056043031
 10
27.6656588902
 20
-69.0683053053
 10
27.6638109655
 20
-69.0786407349
 10
27.6618061883
 20
-69.086945026
 10
27.6599465072
 20
-69.0929373436
 10
27.6585438611
 20
-69.0965782005
  0
LINE
  5
339
100
AcDbEntity
  8
0
100
AcDbLine
 62
7
  6
CONTINUOUS
 10
-17.26711082
 20
-42.1447600992
 11
-17.6616888502
 21
-42.3891240298
  0
LINE
  5
33A
100
AcDbEntity
  8
RACCORDO
100
AcDbLine
 62
7
  6
CONTINUOUS
 10
-17.3129829636
 20
-42.2492549988
 11
-17.5937126381
 21
-42.4231121359
  0
LINE
  5
33B
100
AcDbEntity
  8
0
100
AcDbLine
 62
7
  6
CONTINUOUS
 10
-18.6374861463
 20
-41.9012253818
 11
-17.4088564484
 21
-41.1978973669
  0
LINE
  5
33C
100
AcDbEntity
  8
0
100
AcDbLine
 62
7
  6
CONTINUOUS
 10
-18.3344573767
 20
-42.0527397666
 11
-17.26711082
 21
-41.4417381473
  0
LINE
  5
33D
100
AcDbEntity
  8
DRAFT
100
AcDbLine
 62
7
  6
CONTINUOUS
 10
-26.1108413406
 20
-38.9169684125
 11
-26.1712786428
 21
-38.94694576
  0
LINE
  5
33E
100
AcDbEntity
  8
DRAFT
100
AcDbLine
 62
7
  6
CONTINUOUS
 10
-21.1928326158
 20
-41.7464208939
 11
-20.8813368085
 21
-41.5919166771
  0
LINE
  5
33F
100
AcDbEntity
  8
DRAFT
100
AcDbLine
 62
7
  6
CONTINUOUS
 10
-19.5024785852
 20
-41.4687291623
 11
-20.4056720275
 21
-41.9167197682
  0
LINE
  5
340
100
AcDbEntity
  8
DRAFT
100
AcDbLine
 62
7
  6
CONTINUOUS
 10
-26.1108413406
 20
-37.999873988
 11
-26.8403437363
 21
-38.3458305232
  0
LINE
  5
341
100
AcDbEntity
  8
RACCORDO
100
AcDbLine
 62
7
  6
CONTINUOUS
 10
-23.8723794729
 20
-40.0361993464
 11
-21.609457949
 21
-39.13127586
  0
LINE
  5
342
100
AcDbEntity
  8
0
100
AcDbLine
 62
7
  6
CONTINUOUS
 10
-23.8257374538
 20
-40.059520356
 11
-21.5253900439
 21
-39.1396305691
  0
LINE
  5
343
100
AcDbEntity
  8
DRAFT
100
AcDbLine
 62
7
  6
CONTINUOUS
 10
-22.3309057099
 20
-40.8069362279
 11
-22.1386630578
 21
-40.730059991
  0
LINE
  5
344
100
AcDbEntity
  8
DRAFT
100
AcDbLine
 62
7
  6
CONTINUOUS
 10
-33.9206684943
 20
45.4119340279
 11
-33.6446142089
 21
45.2739068852
  0
LINE
  5
345
100
AcDbEntity
  8
DRAFT
100
AcDbLine
 62
7
  6
CONTINUOUS
 10
-34.2388665458
 20
46.3983195156
 11
-33.9206684943
 21
46.2392204898
  0
LINE
  5
346
100
AcDbEntity
  8
RACCORDO
100
AcDbLine
 62
7
  6
CONTINUOUS
 10
-33.6446142089
 20
46.407298175
 11
-34.2388665458
 21
46.7044243434
  0
LINE
  5
347
100
AcDbEntity
  8
SMUSSO
100
AcDbLine
 62
7
  6
CONTINUOUS
 10
-33.9981675995
 20
46.8684839746
 11
-34.2388665458
 21
46.9888334477
  0
LINE
  5
348
100
AcDbEntity
  8
DRAFT
100
AcDbLine
 62
7
  6
CONTINUOUS
 10
-32.7574759202
 20
46.9026193347
 11
-33.3410628249
 21
47.194412787
  0
LINE
  5
349
100
AcDbEntity
  8
0
100
AcDbLine
 62
7
  6
CONTINUOUS
 10
-31.624178262
 20
47.2879653672
 11
-31.050163242
 21
47.0009578572
  0
LINE
  5
34A
100
AcDbEntity
  8
RACCORDO
100
AcDbLine
 62
7
  6
CONTINUOUS
 10
31.871118643
 20
-71.3278392321
 11
31.871118643
 21
34.5928606011
  0
LINE
  5
34B
100
AcDbEntity
  8
DRAFT
100
AcDbLine
 62
7
  6
CONTINUOUS
 10
-11.3707506016
 20
-45.3699193575
 11
-11.2094398631
 21
-45.2813585998
  0
LINE
  5
34C
100
AcDbEntity
  8
DRAFT
100
AcDbLine
 62
7
  6
CONTINUOUS
 10
-13.1545629277
 20
-43.7673054613
 11
-14.6135677192
 21
-44.4592185317
  0
LINE
  5
34D
100
AcDbEntity
  8
DRAFT
100
AcDbLine
 62
7
  6
CONTINUOUS
 10
-14.5527311169
 20
-43.9436028965
 11
-15.4880153056
 21
-44.3755481291
  0
LINE
  5
34E
100
AcDbEntity
  8
DRAFT
100
AcDbLine
 62
7
  6
CONTINUOUS
 10
-15.2642031976
 20
-44.710735603
 11
-14.9416398465
 21
-44.5617651581
  0
LINE
  5
34F
100
AcDbEntity
  8
DRAFT
100
AcDbLine
 62
7
  6
CONTINUOUS
 10
-11.5828826359
 20
-45.0946372134
 11
-11.017197211
 21
-44.8359883197
  0
LINE
  5
350
100
AcDbEntity
  8
SMUSSO
100
AcDbLine
 62
7
  6
CONTINUOUS
 10
-33.9981675995
 20
52.891358824
 11
-34.2388665458
 21
53.0117082971
  0
LINE
  5
351
100
AcDbEntity
  8
SMUSSO
100
AcDbLine
 62
7
  6
CONTINUOUS
 10
-33.9206684943
 20
53.7914995754
 11
-33.0949741572
 21
53.3786524069
  0
LINE
  5
352
100
AcDbEntity
  8
RACCORDO
100
AcDbLine
 62
7
  6
CONTINUOUS
 10
-33.9206684943
 20
53.8441251569
 11
-33.6446142089
 21
53.7060980142
  0
LINE
  5
353
100
AcDbEntity
  8
DRAFT
100
AcDbLine
 62
7
  6
CONTINUOUS
 10
-5.2829300391
 20
-49.7013721822
 11
-4.9714342318
 21
-49.5468679655
  0
LINE
  5
354
100
AcDbEntity
  8
DRAFT
100
AcDbLine
 62
7
  6
CONTINUOUS
 10
-3.5925760085
 20
-49.4236804507
 11
-4.4957694508
 21
-49.8716710565
  0
LINE
  5
355
100
AcDbEntity
  8
DRAFT
100
AcDbLine
 62
7
  6
CONTINUOUS
 10
-3.7278260673
 20
-49.0221654977
 11
-4.6631102561
 21
-49.4344472633
  0
LINE
  5
356
100
AcDbEntity
  8
DRAFT
100
AcDbLine
 62
7
  6
CONTINUOUS
 10
-6.4210031332
 20
-47.8447930916
 11
-6.2287604811
 21
-47.7716982908
  0
LINE
  5
357
100
AcDbEntity
  8
RACCORDO
100
AcDbLine
 62
7
  6
CONTINUOUS
 10
27.4245410215
 20
32.7441301791
 11
-36.9992892312
 21
64.9560452885
  0
LINE
  5
358
100
AcDbEntity
  8
RACCORDO
100
AcDbLine
 62
7
  6
CONTINUOUS
 10
27.3465207037
 20
32.9064184833
 11
-37.0772571329
 21
65.1183074016
  0
LINE
  5
359
100
AcDbEntity
  8
RACCORDO
100
AcDbLine
 62
7
  6
CONTINUOUS
 10
29.1887236696
 20
34.0820902043
 11
-38.9162732719
 21
68.134588675
  0
LINE
  5
35A
100
AcDbEntity
  8
RACCORDO
100
AcDbLine
 62
7
  6
CONTINUOUS
 10
29.3935783611
 20
34.447470931
 11
-38.707843452
 21
68.4985716361
  0
LWPOLYLINE
  5
35B
100
AcDbEntity
  8
RACCORDO
100
AcDbPolyline
 62
7
  6
CONTINUOUS
 90
24
 70
0
 10
27.4245410543
 20
32.7441302442
 10
27.4321585941
 20
32.7401192378
 10
27.4455886261
 20
32.7321260729
 10
27.4601238044
 20
32.7222246343
 10
27.4753958712
 20
32.7104680681
 10
27.4911468881
 20
32.6968980183
 10
27.5071723575
 20
32.6815508457
 10
27.5232474584
 20
32.6645165067
 10
27.53915573
 20
32.6459179917
 10
27.5547088526
 20
32.6258857999
 10
27.5697770083
 20
32.604505347
 10
27.5841929487
 20
32.5819369775
 10
27.5977881867
 20
32.5583820973
 10
27.610458316
 20
32.5339741497
 10
27.6220792601
 20
32.5089152713
 10
27.6325281791
 20
32.483451902
 10
27.6417209931
 20
32.4578035171
 10
27.6495885359
 20
32.4322175254
 10
27.656085129
 20
32.4069425099
 10
27.6611874495
 20
32.3822441338
 10
27.6649069023
 20
32.3583544483
 10
27.6672780477
 20
32.3355208835
 10
27.6683629951
 20
32.314074106
 10
27.6684604871
 20
32.3056993602
  0
LINE
  5
35C
100
AcDbEntity
  8
RACCORDO
100
AcDbLine
 62
7
  6
CONTINUOUS
 10
51.6324636022
 20
-94.369201374
 11
51.6324636022
 21
37.8728777839
  0
LINE
  5
35D
100
AcDbEntity
  8
0
100
AcDbLine
 62
7
  6
CONTINUOUS
 10
4.5666967451
 20
-54.3159334539
 11
4.7004627136
 21
-54.2362254171
  0
LINE
  5
35E
100
AcDbEntity
  8
RACCORDO
100
AcDbLine
 62
7
  6
CONTINUOUS
 10
5.2097915771
 20
-54.6374808699
 11
5.3813461279
 21
-54.5392746147
  0
LINE
  5
35F
100
AcDbEntity
  8
0
100
AcDbLine
 62
7
  6
CONTINUOUS
 10
4.1855985846
 20
-53.9787933526
 11
4.0390075635
 21
-54.0520888631
  0
LINE
  5
360
100
AcDbEntity
  8
DRAFT
100
AcDbLine
 62
7
  6
CONTINUOUS
 10
2.1995282998
 20
-51.9858426813
 11
1.2963348575
 21
-52.4141698201
  0
LINE
  5
361
100
AcDbEntity
  8
DRAFT
100
AcDbLine
 62
7
  6
CONTINUOUS
 10
1.3571714598
 20
-51.8985541848
 11
0.4218872711
 21
-52.3304994175
  0
LINE
  5
362
100
AcDbEntity
  8
DRAFT
100
AcDbLine
 62
7
  6
CONTINUOUS
 10
0.6456993791
 20
-52.6656868913
 11
0.9682627302
 21
-52.5167164464
  0
LINE
  5
363
100
AcDbEntity
  8
0
100
AcDbLine
 62
7
  6
CONTINUOUS
 10
4.1855985846
 20
-52.9788778236
 11
3.266359769
 21
-53.3991822758
  0
LINE
  5
364
100
AcDbEntity
  8
RACCORDO
100
AcDbLine
 62
7
  6
CONTINUOUS
 10
31.3762192832
 20
35.4464357337
 11
-36.7936043473
 21
69.531347549
  0
LINE
  5
365
100
AcDbEntity
  8
RACCORDO
100
AcDbLine
 62
7
  6
CONTINUOUS
 10
52.3395703834
 20
-94.369201374
 11
52.3395703834
 21
37.8728777839
  0
LINE
  5
366
100
AcDbEntity
  8
RACCORDO
100
AcDbLine
 62
7
  6
CONTINUOUS
 10
56.1579470018
 20
39.7820660931
 11
56.1579470018
 21
-92.4600130648
  0
LINE
  5
367
100
AcDbEntity
  8
RACCORDO
100
AcDbLine
 62
7
  6
CONTINUOUS
 10
56.3043936112
 20
39.9588427884
 11
56.3043936112
 21
-92.2832363695
  0
LINE
  5
368
100
AcDbEntity
  8
DRAFT
100
AcDbLine
 62
7
  6
CONTINUOUS
 10
10.6269725376
 20
-57.6563234706
 11
10.9384683449
 21
-57.5018192538
  0
LINE
  5
369
100
AcDbEntity
  8
DRAFT
100
AcDbLine
 62
7
  6
CONTINUOUS
 10
12.3173265682
 20
-57.378631739
 11
11.4141331259
 21
-57.8266223449
  0
LINE
  5
36A
100
AcDbEntity
  8
0
100
AcDbLine
 62
7
  6
CONTINUOUS
 10
7.5443557952
 20
-54.8274725559
 11
6.8018936749
 21
-55.1669492288
  0
LINE
  5
36B
100
AcDbEntity
  8
DRAFT
100
AcDbLine
 62
7
  6
CONTINUOUS
 10
10.0545848684
 20
-55.9133709655
 11
10.6301443692
 21
-55.6596591098
  0
LINE
  5
36C
100
AcDbEntity
  8
DRAFT
100
AcDbLine
 62
7
  6
CONTINUOUS
 10
12.7576360101
 20
-56.7234049303
 11
11.2467923206
 21
-57.3893985516
  0
LINE
  5
36D
100
AcDbEntity
  8
DRAFT
100
AcDbLine
 62
7
  6
CONTINUOUS
 10
9.4888994435
 20
-55.79974438
 11
9.6811420956
 21
-55.7266495791
  0
LWPOLYLINE
  5
36E
100
AcDbEntity
  8
RACCORDO
100
AcDbPolyline
 62
7
  6
CONTINUOUS
 90
6
 70
0
 10
-37.0265038624
 20
64.9662743469
 10
-37.0262829201
 20
64.9662375399
 10
-37.0234695353
 20
64.9656236768
 10
-37.017784986
 20
64.9639230629
 10
-37.0096051475
 20
64.960805031
 10
-36.9992917154
 20
64.9560466107
  0
LINE
  5
36F
100
AcDbEntity
  8
RACCORDO
100
AcDbLine
 62
7
  6
CONTINUOUS
 10
51.2789102116
 20
38.4826671811
 11
-56.6962952756
 21
92.4702699246
  0
LINE
  5
370
100
AcDbEntity
  8
RACCORDO
100
AcDbLine
 62
7
  6
CONTINUOUS
 10
51.6324636022
 20
39.0924565782
 11
-56.342741885
 21
93.0800593218
  0
LINE
  5
371
100
AcDbEntity
  8
RACCORDO
100
AcDbLine
 62
7
  6
CONTINUOUS
 10
27.5037489275
 20
-69.1005815372
 11
27.6684603592
 21
-68.8841006874
  0
LINE
  5
372
100
AcDbEntity
  8
RACCORDO
100
AcDbLine
 62
7
  6
CONTINUOUS
 10
27.6596739554
 20
-69.0954304156
 11
27.6596466697
 21
-69.0954662505
  0
LINE
  5
373
100
AcDbEntity
  8
DRAFT
100
AcDbLine
 62
7
  6
CONTINUOUS
 10
20.4490545518
 20
-62.1969163588
 11
20.6103652903
 21
-62.1045741651
  0
LINE
  5
374
100
AcDbEntity
  8
RACCORDO
100
AcDbLine
 62
7
  6
CONTINUOUS
 10
21.1758236207
 20
-62.5603008932
 11
21.2912487046
 21
-62.494225903
  0
LINE
  5
375
100
AcDbEntity
  8
DRAFT
100
AcDbLine
 62
7
  6
CONTINUOUS
 10
17.8753025277
 20
-60.9702363452
 11
18.1094308765
 21
-60.8541069582
  0
LINE
  5
376
100
AcDbEntity
  8
DRAFT
100
AcDbLine
 62
7
  6
CONTINUOUS
 10
17.2670740365
 20
-59.8535054732
 11
16.3317898478
 21
-60.2854507058
  0
LINE
  5
377
100
AcDbEntity
  8
DRAFT
100
AcDbLine
 62
7
  6
CONTINUOUS
 10
16.5556019558
 20
-60.6206381797
 11
16.8781653069
 21
-60.4716677348
  0
LINE
  5
378
100
AcDbEntity
  8
RACCORDO
100
AcDbLine
 62
7
  6
CONTINUOUS
 10
17.4900648938
 20
-60.7776175283
 11
17.6813491439
 21
-60.6892761227
  0
LINE
  5
379
100
AcDbEntity
  8
RACCORDO
100
AcDbLine
 62
7
  6
CONTINUOUS
 10
20.3271634537
 20
-61.9402433466
 11
22.3725838408
 21
-61.1222967549
  0
LINE
  5
37A
100
AcDbEntity
  8
0
100
AcDbLine
 62
7
  6
CONTINUOUS
 10
20.3738054729
 20
-61.9635643562
 11
22.4566517459
 21
-61.130651464
  0
LINE
  5
37B
100
AcDbEntity
  8
RACCORDO
100
AcDbLine
 62
7
  6
CONTINUOUS
 10
-37.0234588695
 20
64.9662446963
 11
-37.0234241825
 21
64.9662457381
  0
LINE
  5
37C
100
AcDbEntity
  8
RACCORDO
100
AcDbLine
 62
7
  6
CONTINUOUS
 10
-36.7070799171
 20
64.8099406314
 11
-37.1249327197
 21
64.7974636366
  0
LINE
  5
37D
100
AcDbEntity
  8
RACCORDO
100
AcDbLine
 62
7
  6
CONTINUOUS
 10
-52.5243652666
 20
94.989247631
 11
55.4508402206
 21
41.0016448874
  0
LINE
  5
37E
100
AcDbEntity
  8
RACCORDO
100
AcDbLine
 62
7
  6
CONTINUOUS
 10
-52.3007584689
 20
95.0034485246
 11
55.6744470183
 21
41.0158457811
  0
LINE
  5
37F
100
AcDbEntity
  8
0
100
AcDbLine
 62
7
  6
CONTINUOUS
 10
26.6186541954
 20
-64.195405629
 11
26.7149309698
 21
-64.1357809941
  0
LINE
  5
380
100
AcDbEntity
  8
0
100
AcDbLine
 62
7
  6
CONTINUOUS
 10
26.5731853414
 20
-63.1889182618
 11
25.6558896835
 21
-63.7140233731
  0
LINE
  5
381
100
AcDbEntity
  8
0
100
AcDbLine
 62
7
  6
CONTINUOUS
 10
26.7149309698
 20
-63.4327590422
 11
25.958918453
 21
-63.8655377579
  0
LINE
  5
382
100
AcDbEntity
  8
DRAFT
100
AcDbLine
 62
7
  6
CONTINUOUS
 10
24.2289901825
 20
-63.1697897495
 11
23.4735683377
 21
-63.5027865602
  0
LINE
  5
383
100
AcDbEntity
  8
DRAFT
100
AcDbLine
 62
7
  6
CONTINUOUS
 10
25.3988020202
 20
-63.7546956683
 11
25.5910446723
 21
-63.6816008675
  0
LINE
  5
384
100
AcDbEntity
  8
RACCORDO
100
AcDbLine
 62
7
  6
CONTINUOUS
 10
29.8884777202
 20
-72.2434885127
 11
31.871118643
 21
-71.3278392321
  0
LINE
  5
385
100
AcDbEntity
  8
RACCORDO
100
AcDbLine
 62
7
  6
CONTINUOUS
 10
29.6981287736
 20
-72.6261037144
 11
31.6818929495
 21
-71.7099356783
  0
LINE
  5
386
100
AcDbEntity
  8
RACCORDO
100
AcDbLine
 62
7
  6
CONTINUOUS
 10
52.3395703834
 20
-94.369201374
 11
56.1579470018
 21
-92.4600130648
  0
LINE
  5
387
100
AcDbEntity
  8
RACCORDO
100
AcDbLine
 62
7
  6
CONTINUOUS
 10
52.0796771977
 20
-94.9100751744
 11
55.8980538161
 21
-93.0008868652
  0
ARC
  5
388
100
AcDbEntity
  8
RACCORDO
100
AcDbCircle
 62
7
  6
CONTINUOUS
 10
27.7444341354
 20
-69.0269985432
 40
0.0759738184
100
AcDbArc
 50
180.0603972716
 51
189.9696736027
  0
SPLINE
  5
389
100
AcDbEntity
  8
RACCORDO
100
AcDbSpline
 62
7
  6
CONTINUOUS
 70
0
 71
3
 72
11
 73
7
 74
5
 42
0.0000001
 43
0.0000001
 44
0.0000000001
 12
-0.3862036933
 22
-0.2022094724
 32
0.0
 13
0.0000000146
 23
-0.4359380271
 33
0.0
 40
0.0
 40
0.0
 40
0.0
 40
0.0
 40
0.2308407489
 40
0.4894506684
 40
0.7538191198
 40
1.0
 40
1.0
 40
1.0
 40
1.0
 10
29.3935850279
 20
34.4474671824
 30
0.0
 10
29.3638678446
 20
34.4319077871
 30
0.0
 10
29.3072996768
 20
34.3865133394
 30
0.0
 10
29.2420241887
 20
34.2973967985
 30
0.0
 10
29.1977334139
 20
34.1937736459
 30
0.0
 10
29.1855368414
 20
34.1194568202
 30
0.0
 10
29.1855368426
 20
34.0836836178
 30
0.0
 11
29.3935850279
 21
34.4474671824
 31
0.0
 11
29.3136643955
 21
34.386315368
 31
0.0
 11
29.2462326292
 21
34.295967205
 31
0.0
 11
29.2012986218
 21
34.1898394675
 31
0.0
 11
29.1855368426
 21
34.0836836178
 31
0.0
  0
SPLINE
  5
38A
100
AcDbEntity
  8
RACCORDO
100
AcDbSpline
 62
7
  6
CONTINUOUS
 70
0
 71
3
 72
11
 73
7
 74
5
 42
0.0000001
 43
0.0000001
 44
0.0000000001
 12
-0.3869302045
 22
-0.2017369093
 32
0.0
 13
-0.0000000106
 23
-0.43636311
 33
0.0
 40
0.0
 40
0.0
 40
0.0
 40
0.0
 40
0.2307390512
 40
0.4893391875
 40
0.7537623063
 40
1.0
 40
1.0
 40
1.0
 40
1.0
 10
-38.7078434517
 20
68.4985716359
 30
0.0
 10
-38.7376034211
 20
68.4830554416
 30
0.0
 10
-38.7942714351
 20
68.4376876544
 30
0.0
 10
-38.85966556
 20
68.348532283
 30
0.0
 10
-38.9040481135
 20
68.2448105617
 30
0.0
 10
-38.916273271
 20
68.1704050236
 30
0.0
 10
-38.9162732719
 20
68.134588675
 30
0.0
 11
-38.7078434517
 21
68.4985716359
 31
0.0
 11
-38.7878845061
 21
68.4374888871
 31
0.0
 11
-38.8554445055
 21
68.3471046216
 31
0.0
 11
-38.9004755698
 21
68.2408700471
 31
0.0
 11
-38.9162732719
 21
68.134588675
 31
0.0
  0
SPLINE
  5
38B
100
AcDbEntity
  8
RACCORDO
100
AcDbSpline
 62
7
  6
CONTINUOUS
 70
0
 71
3
 72
11
 73
7
 74
5
 42
0.0000001
 43
0.0000001
 44
0.0000000001
 12
-0.3888888757
 22
-0.1877728259
 32
0.0
 13
-0.3862571023
 23
0.1931285652
 33
0.0
 40
0.0
 40
0.0
 40
0.0
 40
0.0
 40
0.236631889
 40
0.5012536727
 40
0.7652017156
 40
1.0
 40
1.0
 40
1.0
 40
1.0
 10
29.8888660222
 20
33.5940914459
 30
0.0
 10
29.8581915192
 20
33.5792804331
 30
0.0
 10
29.788232577
 20
33.5582271666
 30
0.0
 10
29.6779323455
 20
33.5484648407
 30
0.0
 10
29.5679846819
 20
33.5591347774
 30
0.0
 10
29.4985673117
 20
33.5808109805
 30
0.0
 10
29.4683364767
 20
33.5959263991
 30
0.0
 11
29.8888660222
 21
33.5940914459
 31
0.0
 11
29.7916277355
 21
33.5626695306
 31
0.0
 11
29.6778505465
 21
33.5519981245
 31
0.0
 11
29.5644631705
 21
33.56366075
 31
0.0
 11
29.4683364767
 21
33.5959263991
 31
0.0
  0
SPLINE
  5
38C
100
AcDbEntity
  8
RACCORDO
100
AcDbSpline
 62
7
  6
CONTINUOUS
 70
0
 71
3
 72
11
 73
7
 74
5
 42
0.0000001
 43
0.0000001
 44
0.0000000001
 12
-0.3887675409
 22
-0.187039439
 32
0.0
 13
-0.3858745497
 23
0.1929372552
 33
0.0
 40
0.0
 40
0.0
 40
0.0
 40
0.0
 40
0.2367532795
 40
0.5013779556
 40
0.7652599985
 40
1.0
 40
1.0
 40
1.0
 40
1.0
 10
29.8884773822
 20
-72.243496497
 30
0.0
 10
29.8577967188
 20
-72.2582572305
 30
0.0
 10
29.7878758311
 20
-72.2792319154
 30
0.0
 10
29.6776722307
 20
-72.2889271055
 30
0.0
 10
29.5678556225
 20
-72.2782322351
 30
0.0
 10
29.4985298743
 20
-72.2565709263
 30
0.0
 10
29.4683364768
 20
-72.2414742291
 30
0.0
 11
29.8884773822
 21
-72.243496497
 31
0.0
 11
29.7912539645
 21
-72.2748054145
 31
0.0
 11
29.6775821357
 21
-72.2854012641
 31
0.0
 11
29.5643394252
 21
-72.2737139183
 31
0.0
 11
29.4683364768
 21
-72.2414742291
 31
0.0
  0
SPLINE
  5
38D
100
AcDbEntity
  8
RACCORDO
100
AcDbSpline
 62
7
  6
CONTINUOUS
 70
0
 71
3
 72
8
 73
4
 74
2
 42
0.0000001
 43
0.0000001
 44
0.0000000001
 12
0.0000288376
 22
-0.0226935911
 32
0.0
 13
0.0032141231
 23
-0.0224648464
 33
0.0
 40
0.0
 40
0.0
 40
0.0
 40
0.0
 40
1.0
 40
1.0
 40
1.0
 40
1.0
 10
-34.6877309771
 20
-35.1774302935
 30
0.0
 10
-34.6877213645
 20
-35.1849948239
 30
0.0
 10
-34.6872074394
 20
-35.192579506
 30
0.0
 10
-34.686136065
 20
-35.2000677882
 30
0.0
 11
-34.6877309771
 21
-35.1774302935
 31
0.0
 11
-34.686136065
 21
-35.2000677882
 31
0.0
  0
SPLINE
  5
38E
100
AcDbEntity
  8
RACCORDO
100
AcDbSpline
 62
7
  6
CONTINUOUS
 70
0
 71
3
 72
11
 73
7
 74
5
 42
0.0000001
 43
0.0000001
 44
0.0000000001
 12
-0.1080069137
 22
-0.1418945729
 32
0.0
 13
-0.1342256889
 23
0.11740114
 33
0.0
 40
0.0
 40
0.0
 40
0.0
 40
0.0
 40
0.2603119456
 40
0.4907623459
 40
0.729164318
 40
1.0
 40
1.0
 40
1.0
 40
1.0
 10
27.6596448827
 20
-69.0954614235
 30
0.0
 10
27.6502730528
 20
-69.1077737076
 30
0.0
 10
27.6286383718
 20
-69.1288951955
 30
0.0
 10
27.5848090072
 20
-69.1407315392
 30
0.0
 10
27.5408992571
 20
-69.1289078267
 30
0.0
 10
27.5158653033
 20
-69.1111793247
 30
0.0
 10
27.5037476013
 20
-69.1005805187
 30
0.0
 11
27.6596448827
 21
-69.0954614235
 31
0.0
 11
27.6251092697
 21
-69.126479213
 31
0.0
 11
27.5853715267
 21
-69.1369531564
 31
0.0
 11
27.5439633345
 21
-69.1273247761
 31
0.0
 11
27.5037476013
 21
-69.1005805187
 31
0.0
  0
SPLINE
  5
38F
100
AcDbEntity
  8
RACCORDO
100
AcDbSpline
 62
7
  6
CONTINUOUS
 70
0
 71
3
 72
11
 73
7
 74
5
 42
0.0000001
 43
0.0000001
 44
0.0000000001
 12
-0.168967103
 22
0.0844844986
 32
0.0
 13
0.000000178
 23
0.1889113877
 33
0.0
 40
0.0
 40
0.0
 40
0.0
 40
0.0
 40
0.2171405963
 40
0.4503764138
 40
0.7102994001
 40
1.0
 40
1.0
 40
1.0
 40
1.0
 10
-36.9992919196
 20
64.9560462028
 30
0.0
 10
-37.0115217921
 20
64.9621612076
 30
0.0
 10
-37.034655382
 20
64.979776918
 30
0.0
 10
-37.0594704084
 20
65.0178063981
 30
0.0
 10
-37.074306821
 20
65.0653249552
 30
0.0
 10
-37.0772571501
 20
65.1000648208
 30
0.0
 10
-37.0772571329
 20
65.1183074016
 30
0.0
 11
-36.9992919196
 21
64.9560462028
 31
0.0
 11
-37.0321086936
 21
64.9806577229
 31
0.0
 11
-37.0567748668
 21
65.0171672145
 31
0.0
 11
-37.0720727796
 21
65.0638257693
 31
0.0
 11
-37.0772571329
 21
65.1183074016
 31
0.0
  0
SPLINE
  5
390
100
AcDbEntity
  8
RACCORDO
100
AcDbSpline
 62
7
  6
CONTINUOUS
 70
0
 71
3
 72
15
 73
11
 74
9
 42
0.0000001
 43
0.0000001
 44
0.0000000001
 12
-0.0000005386
 22
0.4335126856
 32
0.0
 13
0.3877520927
 23
-0.1938596481
 33
0.0
 40
0.0
 40
0.0
 40
0.0
 40
0.0
 40
0.1483180443
 40
0.283179123
 40
0.405526508
 40
0.5187913025
 40
0.6287511694
 40
0.7421810923
 40
0.8648057613
 40
1.0
 40
1.0
 40
1.0
 40
1.0
 10
-39.1990729061
 20
67.9335341414
 30
0.0
 10
-39.1990729327
 20
67.954966726
 30
0.0
 10
-39.1952660846
 20
67.9959717828
 30
0.0
 10
-39.1793625241
 20
68.0527714412
 30
0.0
 10
-39.1530600233
 20
68.1000910096
 30
0.0
 10
-39.1170503072
 20
68.1357944355
 30
0.0
 10
-39.0726719232
 20
68.1577564753
 30
0.0
 10
-39.0223816628
 20
68.1647650235
 30
0.0
 10
-38.9687180436
 20
68.1570535843
 30
0.0
 10
-38.9337472215
 20
68.1433249108
 30
0.0
 10
-38.9162732719
 20
68.134588675
 30
0.0
 11
-39.1990729061
 21
67.9335341414
 31
0.0
 11
-39.1930829883
 21
67.9975522796
 31
0.0
 11
-39.1766245756
 21
68.0536518214
 31
0.0
 11
-39.1503055356
 21
68.0997002619
 31
0.0
 11
-39.1151186639
 21
68.1339473564
 31
0.0
 11
-39.0723975814
 21
68.1550954628
 31
0.0
 11
-39.0237612409
 21
68.16234259
 31
0.0
 11
-38.9710544978
 21
68.1554204748
 31
0.0
 11
-38.9162732719
 21
68.134588675
 31
0.0
  0
SPLINE
  5
391
100
AcDbEntity
  8
RACCORDO
100
AcDbSpline
 62
7
  6
CONTINUOUS
 70
0
 71
3
 72
11
 73
7
 74
5
 42
0.0000001
 43
0.0000001
 44
0.0000000001
 12
0.0000403501
 22
-0.1443858036
 32
0.0
 13
0.1291425697
 23
-0.064571345
 33
0.0
 40
0.0
 40
0.0
 40
0.0
 40
0.0
 40
0.2065783418
 40
0.4344754237
 40
0.6975324297
 40
1.0
 40
1.0
 40
1.0
 40
1.0
 10
27.6684603592
 20
32.3056709342
 30
0.0
 10
27.6684631376
 20
32.2957286075
 30
0.0
 10
27.6728576495
 20
32.2746595731
 30
0.0
 10
27.6911850989
 20
32.2459031311
 30
0.0
 10
27.7197696182
 20
32.2200902581
 30
0.0
 10
27.743307845
 20
32.2061151365
 30
0.0
 10
27.7563283248
 20
32.1996048905
 30
0.0
 11
27.6684603592
 21
32.3056709342
 31
0.0
 11
27.6742292885
 21
32.2764071639
 31
0.0
 11
27.6912929495
 21
32.2482721788
 31
0.0
 11
27.7190344007
 21
32.2223295244
 31
0.0
 11
27.7563283248
 21
32.1996048905
 31
0.0
  0
SPLINE
  5
392
100
AcDbEntity
  8
RACCORDO
100
AcDbSpline
 62
7
  6
CONTINUOUS
 70
0
 71
3
 72
12
 73
8
 74
6
 42
0.0000001
 43
0.0000001
 44
0.0000000001
 12
0.5224462519
 22
-0.2612221522
 32
0.0
 13
0.0000164681
 23
-0.5841122312
 33
0.0
 40
0.0
 40
0.0
 40
0.0
 40
0.0
 40
0.1109174718
 40
0.2309231354
 40
0.4893221349
 40
0.7537633763
 40
1.0
 40
1.0
 40
1.0
 40
1.0
 10
29.1887236696
 20
34.0820902043
 30
0.0
 10
29.2080398088
 20
34.0724321707
 30
0.0
 10
29.2458945261
 20
34.0476005584
 30
0.0
 10
29.3172440578
 20
33.9841290467
 30
0.0
 10
29.3923877075
 20
33.88209836
 30
0.0
 10
29.451893396
 20
33.7435008502
 30
0.0
 10
29.4683351251
 20
33.6438696737
 30
0.0
 10
29.4683364767
 20
33.5959263991
 30
0.0
 11
29.1887236696
 21
34.0820902043
 31
0.0
 11
29.2434396343
 21
34.0473961011
 31
0.0
 11
29.2959638374
 21
34.000976643
 31
0.0
 11
29.3866345507
 21
33.8803122365
 31
0.0
 11
29.4471156738
 21
33.7381821396
 31
0.0
 11
29.4683364767
 21
33.5959263991
 31
0.0
  0
SPLINE
  5
393
100
AcDbEntity
  8
RACCORDO
100
AcDbSpline
 62
7
  6
CONTINUOUS
 70
0
 71
3
 72
11
 73
7
 74
5
 42
0.0000001
 43
0.0000001
 44
0.0000000001
 12
0.4079950368
 22
0.1888863769
 32
0.0
 13
0.0027810966
 23
0.4495890112
 33
0.0
 40
0.0
 40
0.0
 40
0.0
 40
0.0
 40
0.2166761523
 40
0.4494780108
 40
0.7094272567
 40
1.0
 40
1.0
 40
1.0
 40
1.0
 10
29.698335618
 20
-72.6260056943
 30
0.0
 10
29.7278032163
 20
-72.6123633031
 30
0.0
 10
29.7839114371
 20
-72.5719410526
 30
0.0
 10
29.8444049916
 20
-72.482438133
 30
0.0
 10
29.880983934
 20
-72.3696387078
 30
0.0
 10
29.888596652
 20
-72.2868552861
 30
0.0
 10
29.8888660222
 20
-72.2433091819
 30
0.0
 11
29.698335618
 21
-72.6260056943
 31
0.0
 11
29.7777665064
 21
-72.5696069211
 31
0.0
 11
29.8378474428
 21
-72.4839010553
 31
0.0
 11
29.8755194245
 21
-72.3732664442
 31
0.0
 11
29.8888660222
 21
-72.2433091819
 31
0.0
  0
SPLINE
  5
394
100
AcDbEntity
  8
RACCORDO
100
AcDbSpline
 62
7
  6
CONTINUOUS
 70
0
 71
3
 72
15
 73
11
 74
9
 42
0.0000001
 43
0.0000001
 44
0.0000000001
 12
0.0000005433
 22
-0.4373931379
 32
0.0
 13
-0.3912229335
 23
0.1955949217
 33
0.0
 40
0.0
 40
0.0
 40
0.0
 40
0.0
 40
0.1487956607
 40
0.2840505564
 40
0.4066337084
 40
0.5199163178
 40
0.6296853472
 40
0.7427992355
 40
0.8650888082
 40
1.0
 40
1.0
 40
1.0
 40
1.0
 10
29.4683364768
 20
-72.2414742283
 30
0.0
 10
29.4683365038
 20
-72.2631682953
 30
0.0
 10
29.4651858808
 20
-72.3047017874
 30
0.0
 10
29.44955356
 20
-72.3623207043
 30
0.0
 10
29.4234931523
 20
-72.4104192914
 30
0.0
 10
29.3875098632
 20
-72.4468169836
 30
0.0
 10
29.3429747737
 20
-72.4693206708
 30
0.0
 10
29.2923807002
 20
-72.4766493417
 30
0.0
 10
29.2383423385
 20
-72.469027035
 30
0.0
 10
29.2031302933
 20
-72.4552277949
 30
0.0
 10
29.1855368426
 20
-72.4464318136
 30
0.0
 11
29.4683364768
 21
-72.2414742283
 31
0.0
 11
29.4629037952
 21
-72.3063292886
 31
0.0
 11
29.446811762
 21
-72.3632581951
 31
0.0
 11
29.4206811749
 21
-72.4100767627
 31
0.0
 11
29.3855117414
 21
-72.4449797412
 31
0.0
 11
29.3426558274
 21
-72.4666256168
 31
0.0
 11
29.2937610029
 21
-72.4741817645
 31
0.0
 11
29.2407086524
 21
-72.4673640989
 31
0.0
 11
29.1855368426
 21
-72.4464318136
 31
0.0
  0
SPLINE
  5
395
100
AcDbEntity
  8
RACCORDO
100
AcDbSpline
 62
7
  6
CONTINUOUS
 70
0
 71
3
 72
8
 73
4
 74
2
 42
0.0000001
 43
0.0000001
 44
0.0000000001
 12
0.0167615597
 22
-0.0117943045
 32
0.0
 13
0.0183203012
 23
-0.0091881483
 33
0.0
 40
0.0
 40
0.0
 40
0.0
 40
0.0
 40
1.0
 40
1.0
 40
1.0
 40
1.0
 10
-34.4812517117
 20
-35.5534541493
 30
0.0
 10
-34.4756645251
 20
-35.5573855842
 30
0.0
 10
-34.4697448267
 20
-35.5608706874
 30
0.0
 10
-34.4636380597
 20
-35.5639334035
 30
0.0
 11
-34.4812517117
 21
-35.5534541493
 31
0.0
 11
-34.4636380597
 21
-35.5639334035
 31
0.0
  0
SPLINE
  5
396
100
AcDbEntity
  8
RACCORDO
100
AcDbSpline
 62
7
  6
CONTINUOUS
 70
0
 71
3
 72
11
 73
7
 74
5
 42
0.0000001
 43
0.0000001
 44
0.0000000001
 12
-0.5252088232
 22
0.262603433
 32
0.0
 13
-0.0000165552
 23
0.5872008777
 33
0.0
 40
0.0
 40
0.0
 40
0.0
 40
0.0
 40
0.2296735233
 40
0.4882132692
 40
0.7532075793
 40
1.0
 40
1.0
 40
1.0
 40
1.0
 10
-38.9162732712
 20
-38.3955267567
 30
0.0
 10
-38.9564821249
 20
-38.3754224048
 30
0.0
 10
-39.0333160111
 20
-38.3153145937
 30
0.0
 10
-39.1220440679
 20
-38.1959802748
 30
0.0
 10
-39.1824053172
 20
-38.0564209258
 30
0.0
 10
-39.1990715441
 20
-37.956075113
 30
0.0
 10
-39.199072906
 20
-37.9077695377
 30
0.0
 11
-38.9162732712
 21
-38.3955267567
 31
0.0
 11
-39.0244968917
 21
-38.3150526625
 31
0.0
 11
-39.1162478834
 21
-38.1941002807
 31
0.0
 11
-39.1775483177
 21
-38.0510788172
 31
0.0
 11
-39.199072906
 21
-37.9077695377
 31
0.0
  0
SPLINE
  5
397
100
AcDbEntity
  8
RACCORDO
100
AcDbSpline
 62
7
  6
CONTINUOUS
 70
0
 71
3
 72
11
 73
7
 74
5
 42
0.0000001
 43
0.0000001
 44
0.0000000001
 12
-0.0000148491
 22
-0.1443860475
 32
0.0
 13
0.1291428057
 23
-0.0645714076
 33
0.0
 40
0.0
 40
0.0
 40
0.0
 40
0.0
 40
0.206582017
 40
0.4344785876
 40
0.6975252505
 40
1.0
 40
1.0
 40
1.0
 40
1.0
 10
-39.2869408021
 20
-37.8017035172
 30
0.0
 10
-39.2869418246
 20
-37.8116460375
 30
0.0
 10
-39.2825434913
 20
-37.8327159022
 30
0.0
 10
-39.2642153671
 20
-37.861470138
 30
0.0
 10
-39.2356325258
 20
-37.8872850228
 30
0.0
 10
-39.2120937186
 20
-37.9012591309
 30
0.0
 10
-39.199072906
 20
-37.9077695377
 30
0.0
 11
-39.2869408021
 21
-37.8017035172
 31
0.0
 11
-39.2811726861
 21
-37.830968039
 31
0.0
 11
-39.2641076206
 21
-37.8591021495
 31
0.0
 11
-39.2363679553
 21
-37.8850446194
 31
0.0
 11
-39.199072906
 21
-37.9077695377
 31
0.0
  0
SPLINE
  5
398
100
AcDbEntity
  8
RACCORDO
100
AcDbSpline
 62
7
  6
CONTINUOUS
 70
0
 71
3
 72
11
 73
7
 74
5
 42
0.0000001
 43
0.0000001
 44
0.0000000001
 12
-0.0000143701
 22
-0.1443860401
 32
0.0
 13
0.1291428035
 23
-0.0645713953
 33
0.0
 40
0.0
 40
0.0
 40
0.0
 40
0.0
 40
0.2065819985
 40
0.434478562
 40
0.6975252468
 40
1.0
 40
1.0
 40
1.0
 40
1.0
 10
-39.2869408062
 20
68.0356971032
 30
0.0
 10
-39.2869417958
 20
68.0257545843
 30
0.0
 10
-39.282543484
 20
68.0046847301
 30
0.0
 10
-39.2642153771
 20
67.9759304759
 30
0.0
 10
-39.2356325225
 20
67.9501156076
 30
0.0
 10
-39.2120937186
 20
67.9361414961
 30
0.0
 10
-39.1990729061
 20
67.9296310905
 30
0.0
 11
-39.2869408062
 21
68.0356971032
 31
0.0
 11
-39.2811726756
 21
68.0064325886
 31
0.0
 11
-39.2641076262
 21
67.9782984715
 31
0.0
 11
-39.2363679548
 21
67.9523560065
 31
0.0
 11
-39.1990729061
 21
67.9296310905
 31
0.0
  0
SPLINE
  5
399
100
AcDbEntity
  8
RACCORDO
100
AcDbSpline
 62
7
  6
CONTINUOUS
 70
0
 71
3
 72
11
 73
7
 74
5
 42
0.0000001
 43
0.0000001
 44
0.0000000001
 12
-0.1689815347
 22
0.0844616437
 32
0.0
 13
0.0000000046
 23
0.1889140766
 33
0.0
 40
0.0
 40
0.0
 40
0.0
 40
0.0
 40
0.2171654761
 40
0.450392866
 40
0.7103024545
 40
1.0
 40
1.0
 40
1.0
 40
1.0
 10
29.2635066757
 20
-72.6086901916
 30
0.0
 10
29.2512743572
 20
-72.6025761406
 30
0.0
 10
29.2281334569
 20
-72.5849660067
 30
0.0
 10
29.2033255783
 20
-72.546929825
 30
0.0
 10
29.1884856654
 20
-72.4994144145
 30
0.0
 10
29.1855368421
 20
-72.4646744617
 30
0.0
 10
29.1855368426
 20
-72.4464318136
 30
0.0
 11
29.2635066757
 21
-72.6086901916
 31
0.0
 11
29.2306815688
 21
-72.5840809764
 31
0.0
 11
29.2060189381
 21
-72.5475702561
 31
0.0
 11
29.1907208724
 21
-72.5009136795
 31
0.0
 11
29.1855368426
 21
-72.4464318136
 31
0.0
  0
SPLINE
  5
39A
100
AcDbEntity
  8
RACCORDO
100
AcDbSpline
 62
7
  6
CONTINUOUS
 70
0
 71
3
 72
11
 73
7
 74
5
 42
0.0000001
 43
0.0000001
 44
0.0000000001
 12
-0.1689813847
 22
0.0844619638
 32
0.0
 13
-0.0000000064
 23
0.1889140855
 33
0.0
 40
0.0
 40
0.0
 40
0.0
 40
0.0
 40
0.2171653099
 40
0.4503927528
 40
0.7103023951
 40
1.0
 40
1.0
 40
1.0
 40
1.0
 10
-38.8383034573
 20
-38.5577851871
 30
0.0
 10
-38.8505357556
 20
-38.5516711176
 30
0.0
 10
-38.8736765946
 20
-38.5340609309
 30
0.0
 10
-38.8984845443
 20
-38.4960248066
 30
0.0
 10
-38.913324436
 20
-38.4485093656
 30
0.0
 10
-38.9162732712
 20
-38.4137694091
 30
0.0
 10
-38.9162732719
 20
-38.3955267564
 30
0.0
 11
-38.8383034573
 21
-38.5577851871
 31
0.0
 11
-38.8711284993
 21
-38.5331759344
 31
0.0
 11
-38.8957911665
 21
-38.4966652242
 31
0.0
 11
-38.9110892358
 21
-38.4500086357
 31
0.0
 11
-38.9162732719
 21
-38.3955267564
 31
0.0
  0
SPLINE
  5
39B
100
AcDbEntity
  8
RACCORDO
100
AcDbSpline
 62
7
  6
CONTINUOUS
 70
0
 71
3
 72
15
 73
11
 74
9
 42
0.0000001
 43
0.0000001
 44
0.0000000001
 12
-0.5701695407
 22
0.2850660234
 32
0.0
 13
-0.0000145285
 23
-0.637460542
 33
0.0
 40
0.0
 40
0.0
 40
0.0
 40
0.0
 40
0.1348561254
 40
0.2573957507
 40
0.3704723954
 40
0.4799257848
 40
0.5930000782
 40
0.7157264728
 40
0.8513022774
 40
1.0
 40
1.0
 40
1.0
 40
1.0
 10
-37.0772571329
 20
65.1183074016
 30
0.0
 10
-37.102887418
 20
65.1311217014
 30
0.0
 10
-37.1540950892
 20
65.1514943395
 30
0.0
 10
-37.2326851369
 20
65.1637119782
 30
0.0
 10
-37.3065806368
 20
65.1541305194
 30
0.0
 10
-37.3716693014
 20
65.1217549632
 30
0.0
 10
-37.42376268
 20
65.0683690245
 30
0.0
 10
-37.4608929968
 20
64.9977393864
 30
0.0
 10
-37.4827360843
 20
64.9134605786
 30
0.0
 10
-37.4870640339
 20
64.8528977402
 30
0.0
 10
-37.4870647541
 20
64.82130143
 30
0.0
 11
-37.0772571329
 21
65.1183074016
 31
0.0
 11
-37.1574772901
 21
65.1492070213
 31
0.0
 11
-37.2348207845
 21
65.1601527222
 31
0.0
 11
-37.3061957624
 21
65.1500823337
 31
0.0
 11
-37.3686488344
 21
65.1189732345
 31
0.0
 11
-37.4195461725
 21
65.0679335922
 31
0.0
 11
-37.4569078428
 21
64.9991982701
 31
0.0
 11
-37.4795461097
 21
64.9157917014
 31
0.0
 11
-37.4870647541
 21
64.82130143
 31
0.0
  0
SPLINE
  5
39C
100
AcDbEntity
  8
RACCORDO
100
AcDbSpline
 62
7
  6
CONTINUOUS
 70
0
 71
3
 72
11
 73
7
 74
5
 42
0.0000001
 43
0.0000001
 44
0.0000000001
 12
0.0000197937
 22
-0.8520140845
 32
0.0
 13
0.7620422334
 23
-0.3810769412
 33
0.0
 40
0.0
 40
0.0
 40
0.0
 40
0.0
 40
0.2467424519
 40
0.5119749011
 40
0.7705534111
 40
1.0
 40
1.0
 40
1.0
 40
1.0
 10
-37.4870647541
 20
-36.5114480291
 30
0.0
 10
-37.4870631261
 20
-36.5815240439
 30
0.0
 10
-37.4641461999
 20
-36.7272761194
 30
0.0
 10
-37.3773885072
 20
-36.9303747176
 30
0.0
 10
-37.2477616207
 20
-37.1031550023
 30
0.0
 10
-37.1355397966
 20
-37.1891160205
 30
0.0
 10
-37.0772571329
 20
-37.2182616219
 30
0.0
 11
-37.4870647541
 21
-36.5114480291
 31
0.0
 11
-37.4569078446
 21
-36.7195018477
 31
0.0
 11
-37.3686488346
 21
-36.9275357708
 31
0.0
 11
-37.2348207848
 21
-37.1025433851
 31
0.0
 11
-37.0772571329
 21
-37.2182616219
 31
0.0
  0
SPLINE
  5
39D
100
AcDbEntity
  8
RACCORDO
100
AcDbSpline
 62
7
  6
CONTINUOUS
 70
0
 71
3
 72
15
 73
11
 74
9
 42
0.0000001
 43
0.0000001
 44
0.0000000001
 12
0.5701695391
 22
-0.2850667643
 32
0.0
 13
0.0000119423
 23
0.637460872
 33
0.0
 40
0.0
 40
0.0
 40
0.0
 40
0.0
 40
0.1348577594
 40
0.2573968016
 40
0.3704735614
 40
0.4799266635
 40
0.5930014688
 40
0.7157277627
 40
0.8513039798
 40
1.0
 40
1.0
 40
1.0
 40
1.0
 10
27.3465207037
 20
-69.4301505402
 30
0.0
 10
27.3721512992
 20
-69.4429650286
 30
0.0
 10
27.4233582123
 20
-69.4633403674
 30
0.0
 10
27.5019489369
 20
-69.4755570079
 30
0.0
 10
27.5758442397
 20
-69.4659752101
 30
0.0
 10
27.6409324736
 20
-69.4335983393
 30
0.0
 10
27.6930249576
 20
-69.3802115726
 30
0.0
 10
27.7301550608
 20
-69.3095815478
 30
0.0
 10
27.7519971309
 20
-69.2253029332
 30
0.0
 10
27.7563277329
 20
-69.1647405334
 30
0.0
 10
27.7563283248
 20
-69.1331445685
 30
0.0
 11
27.3465207037
 21
-69.4301505402
 31
0.0
 11
27.4267411742
 21
-69.461052368
 31
0.0
 11
27.5040843659
 21
-69.4719978433
 31
0.0
 11
27.5754593687
 21
-69.4619268388
 31
0.0
 11
27.6379118086
 21
-69.4308168006
 31
0.0
 11
27.6888086481
 21
-69.3797761474
 31
0.0
 11
27.7261697848
 21
-69.3110405624
 31
0.0
 11
27.7488080314
 21
-69.2276336693
 31
0.0
 11
27.7563283248
 21
-69.1331445685
 31
0.0
  0
SPLINE
  5
39E
100
AcDbEntity
  8
RACCORDO
100
AcDbSpline
 62
7
  6
CONTINUOUS
 70
0
 71
3
 72
9
 73
5
 74
3
 42
0.0000001
 43
0.0000001
 44
0.0000000001
 12
-0.0912696516
 22
-0.0475859885
 32
0.0
 13
-0.0792739398
 23
-0.0656522511
 33
0.0
 40
0.0
 40
0.0
 40
0.0
 40
0.0
 40
0.240045773
 40
1.0
 40
1.0
 40
1.0
 40
1.0
 10
-34.3783020662
 20
-35.5065768066
 30
0.0
 10
-34.3856050309
 20
-35.5103844118
 30
0.0
 10
-34.4155525416
 20
-35.5271538349
 30
0.0
 10
-34.4435565378
 20
-35.5473025015
 30
0.0
 10
-34.4636380597
 20
-35.5639334034
 30
0.0
 11
-34.3783020662
 21
-35.5065768066
 31
0.0
 11
-34.3998705885
 21
-35.5186299887
 31
0.0
 11
-34.4636380597
 21
-35.5639334034
 31
0.0
  0
SPLINE
  5
39F
100
AcDbEntity
  8
RACCORDO
100
AcDbSpline
 62
7
  6
CONTINUOUS
 70
0
 71
3
 72
9
 73
5
 74
3
 42
0.0000001
 43
0.0000001
 44
0.0000000001
 12
-0.1019693292
 22
-0.0404250948
 32
0.0
 13
-0.0914706908
 23
-0.060539616
 33
0.0
 40
0.0
 40
0.0
 40
0.0
 40
0.0
 40
0.2423598346
 40
1.0
 40
1.0
 40
1.0
 40
1.0
 10
-34.384306656
 20
-35.5023525073
 30
0.0
 10
-34.3925444126
 20
-35.5056183137
 30
0.0
 10
-34.4261472383
 20
-35.5200608907
 30
0.0
 10
-34.4581325168
 20
-35.5381770526
 30
0.0
 10
-34.4812331399
 20
-35.5534661341
 30
0.0
 11
-34.384306656
 21
-35.5023525073
 31
0.0
 11
-34.4087373512
 21
-35.5128346949
 31
0.0
 11
-34.4812331399
 21
-35.5534661341
 31
0.0
  0
SPLINE
  5
3A0
100
AcDbEntity
  8
RACCORDO
100
AcDbSpline
 62
7
  6
CONTINUOUS
 70
0
 71
3
 72
9
 73
5
 74
3
 42
0.0000001
 43
0.0000001
 44
0.0000000001
 12
-0.091998554
 22
-0.0596700142
 32
0.0
 13
-0.1008480191
 23
-0.0430571896
 33
0.0
 40
0.0
 40
0.0
 40
0.0
 40
0.0
 40
0.2407744537
 40
1.0
 40
1.0
 40
1.0
 40
1.0
 10
-34.5892108022
 20
-35.1489455513
 30
0.0
 10
-34.5965944361
 20
-35.1537345563
 30
0.0
 10
-34.6277393362
 20
-35.1728828697
 30
0.0
 10
-34.6606150524
 20
-35.189162427
 30
0.0
 10
-34.6861371832
 20
-35.2000591331
 30
0.0
 11
-34.5892108022
 21
-35.1489455513
 31
0.0
 11
-34.6116925682
 21
-35.1627890972
 31
0.0
 11
-34.6861371832
 21
-35.2000591331
 31
0.0
  0
SPLINE
  5
3A1
100
AcDbEntity
  8
RACCORDO
100
AcDbSpline
 62
7
  6
CONTINUOUS
 70
0
 71
3
 72
9
 73
5
 74
3
 42
0.0000001
 43
0.0000001
 44
0.0000000001
 12
-0.093726083
 22
-0.0452541881
 32
0.0
 13
-0.0999960285
 23
-0.0288671864
 33
0.0
 40
0.0
 40
0.0
 40
0.0
 40
0.0
 40
0.2385351266
 40
1.0
 40
1.0
 40
1.0
 40
1.0
 10
-34.5904017918
 20
-35.1407588926
 30
0.0
 10
-34.5978541128
 20
-35.1443571305
 30
0.0
 10
-34.6294627187
 20
-35.1586794507
 30
0.0
 10
-34.6623498226
 20
-35.170103177
 30
0.0
 10
-34.687730977
 20
-35.1774302932
 30
0.0
 11
-34.5904017918
 21
-35.1407588926
 31
0.0
 11
-34.6130063837
 21
-35.1510249563
 31
0.0
 11
-34.687730977
 21
-35.1774302932
 31
0.0
  0
SPLINE
  5
3A2
100
AcDbEntity
  8
RACCORDO
100
AcDbSpline
 62
7
  6
CONTINUOUS
 70
0
 71
3
 72
9
 73
5
 74
3
 42
0.0000001
 43
0.0000001
 44
0.0000000001
 12
0.0000001055
 22
0.204790318
 32
0.0
 13
-0.0542844535
 23
0.1974646106
 33
0.0
 40
0.0
 40
0.0
 40
0.0
 40
0.0
 40
0.2389456905
 40
1.0
 40
1.0
 40
1.0
 40
1.0
 10
27.7563283248
 20
32.1996048905
 30
0.0
 10
27.7563283332
 20
32.2159161452
 30
0.0
 10
27.753768439
 20
32.2841689739
 30
0.0
 10
27.7415078135
 20
32.3519451799
 30
0.0
 10
27.7277366744
 20
32.4020389442
 30
0.0
 11
27.7563283248
 21
32.1996048905
 31
0.0
 11
27.7545511181
 21
32.248506371
 31
0.0
 11
27.7277366744
 21
32.4020389442
 31
0.0
  0
SPLINE
  5
3A3
100
AcDbEntity
  8
RACCORDO
100
AcDbSpline
 62
7
  6
CONTINUOUS
 70
0
 71
3
 72
9
 73
5
 74
3
 42
0.0000001
 43
0.0000001
 44
0.0000000001
 12
-0.1212913385
 22
0.4412082163
 32
0.0
 13
-0.3271261585
 23
0.3199449255
 33
0.0
 40
0.0
 40
0.0
 40
0.0
 40
0.0
 40
0.5065165856
 40
1.0
 40
1.0
 40
1.0
 40
1.0
 10
27.7277366744
 20
32.4020389442
 30
0.0
 10
27.7072579828
 20
32.4765320373
 30
0.0
 10
27.6472233685
 20
32.6186825219
 30
0.0
 10
27.5539421348
 20
32.7419658731
 30
0.0
 10
27.5001316903
 20
32.7945950445
 30
0.0
 11
27.7277366744
 21
32.4020389442
 31
0.0
 11
27.637911206
 21
32.6156946596
 31
0.0
 11
27.5001316903
 21
32.7945950445
 31
0.0
  0
SPLINE
  5
3A4
100
AcDbEntity
  8
RACCORDO
100
AcDbSpline
 62
7
  6
CONTINUOUS
 70
0
 71
3
 72
9
 73
5
 74
3
 42
0.0000001
 43
0.0000001
 44
0.0000000001
 12
-0.1361306887
 22
0.1331422815
 32
0.0
 13
-0.1703114421
 23
0.0851612837
 33
0.0
 40
0.0
 40
0.0
 40
0.0
 40
0.0
 40
0.2645539582
 40
1.0
 40
1.0
 40
1.0
 40
1.0
 10
27.5001316903
 20
32.7945950445
 30
0.0
 10
27.4881270528
 20
32.8063361504
 30
0.0
 10
27.4412789679
 20
32.8491446874
 30
0.0
 10
27.388272329
 20
32.885541307
 30
0.0
 10
27.3465207037
 20
32.9064184833
 30
0.0
 11
27.5001316903
 21
32.7945950445
 31
0.0
 11
27.4629083304
 21
32.8285377238
 31
0.0
 11
27.3465207037
 21
32.9064184833
 31
0.0
  0
SPLINE
  5
3A5
100
AcDbEntity
  8
RACCORDO
100
AcDbSpline
 62
7
  6
CONTINUOUS
 70
0
 71
3
 72
11
 73
7
 74
5
 42
0.0000001
 43
0.0000001
 44
0.0000000001
 12
-0.2889262463
 22
-0.2392800289
 32
0.0
 13
-0.0000001166
 23
-0.3751443829
 33
0.0
 40
0.0
 40
0.0
 40
0.0
 40
0.0
 40
0.2439343447
 40
0.5030007007
 40
0.7604735585
 40
1.0
 40
1.0
 40
1.0
 40
1.0
 10
27.5037489039
 20
-69.1005815567
 30
0.0
 10
27.4802558924
 20
-69.1200377624
 30
0.0
 10
27.437004831
 20
-69.1666018956
 30
0.0
 10
27.3876041835
 20
-69.2485346838
 30
0.0
 10
27.355133347
 20
-69.3379460323
 30
0.0
 10
27.346520713
 20
-69.4001982072
 30
0.0
 10
27.3465207037
 20
-69.4301505402
 30
0.0
 11
27.5037489039
 21
-69.1005815567
 31
0.0
 11
27.4407932725
 21
-69.1669952468
 31
0.0
 11
27.3903609137
 21
-69.2500731993
 31
0.0
 11
27.3577796375
 21
-69.3410016945
 31
0.0
 11
27.3465207037
 21
-69.4301505402
 31
0.0
  0
SPLINE
  5
3A6
100
AcDbEntity
  8
RACCORDO
100
AcDbSpline
 62
7
  6
CONTINUOUS
 70
0
 71
3
 72
11
 73
7
 74
5
 42
0.0000001
 43
0.0000001
 44
0.0000000001
 12
-0.4342348114
 22
0.1130007242
 32
0.0
 13
0.0937808854
 23
0.4387871701
 33
0.0
 40
0.0
 40
0.0
 40
0.0
 40
0.0
 40
0.2363673836
 40
0.4908126188
 40
0.7509288198
 40
1.0
 40
1.0
 40
1.0
 40
1.0
 10
-36.9200177733
 20
-36.8886960609
 30
0.0
 10
-36.9542307554
 20
-36.8797928324
 30
0.0
 10
-37.0223856059
 20
-36.8471385663
 30
0.0
 10
-37.0985987986
 20
-36.7605055046
 30
0.0
 10
-37.1359825795
 20
-36.6495863246
 30
0.0
 10
-37.132718419
 20
-36.5717135187
 30
0.0
 10
-37.1249323804
 20
-36.5352837726
 30
0.0
 11
-36.9200177733
 21
-36.8886960609
 31
0.0
 11
-37.0156215148
 21
-36.8427821718
 31
0.0
 11
-37.0914130465
 21
-36.7573997137
 31
0.0
 11
-37.1291663351
 21
-36.6469610434
 31
0.0
 11
-37.1249323804
 21
-36.5352837726
 31
0.0
  0
SPLINE
  5
3A7
100
AcDbEntity
  8
RACCORDO
100
AcDbSpline
 62
7
  6
CONTINUOUS
 70
0
 71
3
 72
11
 73
7
 74
5
 42
0.0000001
 43
0.0000001
 44
0.0000000001
 12
-0.3552592169
 22
-0.1025545731
 32
0.0
 13
-0.3307282881
 23
0.1653642982
 33
0.0
 40
0.0
 40
0.0
 40
0.0
 40
0.0
 40
0.2517443989
 40
0.5159369745
 40
0.7717524209
 40
1.0
 40
1.0
 40
1.0
 40
1.0
 10
-37.1249327495
 20
-36.5352858311
 30
0.0
 10
-37.1547442555
 20
-36.5438916776
 30
0.0
 10
-37.2177297511
 20
-36.5552407586
 30
0.0
 10
-37.3132226133
 20
-36.5567250392
 30
0.0
 10
-37.4048634544
 20
-36.5434149285
 30
0.0
 10
-37.4619021104
 20
-36.5240293627
 30
0.0
 10
-37.4870647541
 20
-36.5114480291
 30
0.0
 11
-37.1249327495
 21
-36.5352858311
 31
0.0
 11
-37.2164134058
 21
-36.5525011693
 31
0.0
 11
-37.3140897059
 21
-36.5540953953
 31
0.0
 11
-37.4076125365
 21
-36.5399152463
 31
0.0
 11
-37.4870647541
 21
-36.5114480291
 31
0.0
  0
SPLINE
  5
3A8
100
AcDbEntity
  8
RACCORDO
100
AcDbSpline
 62
7
  6
CONTINUOUS
 70
0
 71
3
 72
12
 73
8
 74
6
 42
0.0000001
 43
0.0000001
 44
0.0000000001
 12
-0.0549483499
 22
0.2253710436
 32
0.0
 13
0.231867989
 23
0.0069759662
 33
0.0
 40
0.0
 40
0.0
 40
0.0
 40
0.0
 40
0.2804594286
 40
0.5222262149
 40
0.6353198152
 40
0.7495660118
 40
1.0
 40
1.0
 40
1.0
 40
1.0
 10
-37.1249323962
 20
64.7974618688
 30
0.0
 10
-37.1300693238
 20
64.8185310135
 30
0.0
 10
-37.13582373
 20
64.8590010196
 30
0.0
 10
-37.124562839
 20
64.9088465564
 30
0.0
 10
-37.1022735104
 20
64.9381522526
 30
0.0
 10
-37.0718273488
 20
64.9599381598
 30
0.0
 10
-37.042812328
 20
64.9656629525
 30
0.0
 10
-37.023456453
 20
64.9662452922
 30
0.0
 11
-37.1249323962
 21
64.7974618688
 31
0.0
 11
-37.1319207123
 21
64.8621444429
 31
0.0
 11
-37.1173753039
 21
64.9163087534
 31
0.0
 11
-37.1014162632
 21
64.9371309995
 31
0.0
 11
-37.0799390738
 21
64.9526579923
 31
0.0
 11
-37.023456453
 21
64.9662452922
 31
0.0
  0
SPLINE
  5
3A9
100
AcDbEntity
  8
RACCORDO
100
AcDbSpline
 62
7
  6
CONTINUOUS
 70
0
 71
3
 72
11
 73
7
 74
5
 42
0.0000001
 43
0.0000001
 44
0.0000000001
 12
0.3307283888
 22
-0.1653640404
 32
0.0
 13
0.355259245
 23
0.1025543848
 33
0.0
 40
0.0
 40
0.0
 40
0.0
 40
0.0
 40
0.2282475519
 40
0.484063011
 40
0.7482556034
 40
1.0
 40
1.0
 40
1.0
 40
1.0
 10
-37.4870647541
 20
64.82130143
 30
0.0
 10
-37.4619021057
 20
64.8087201175
 30
0.0
 10
-37.4048634477
 20
64.7893345832
 30
0.0
 10
-37.3132226131
 20
64.7760244822
 30
0.0
 10
-37.2177297548
 20
64.7775087421
 30
0.0
 10
-37.154744258
 20
64.7888577973
 30
0.0
 10
-37.12493275
 20
64.7974636278
 30
0.0
 11
-37.4870647541
 21
64.82130143
 31
0.0
 11
-37.4076125366
 21
64.7928342593
 31
0.0
 11
-37.3140897062
 21
64.7786541212
 31
0.0
 11
-37.2164134062
 21
64.7802483281
 31
0.0
 11
-37.12493275
 21
64.7974636278
 31
0.0
  0
SPLINE
  5
3AA
100
AcDbEntity
  8
RACCORDO
100
AcDbSpline
 62
7
  6
CONTINUOUS
 70
0
 71
3
 72
11
 73
7
 74
5
 42
0.0000001
 43
0.0000001
 44
0.0000000001
 12
0.0000001779
 22
-0.1889142318
 32
0.0
 13
0.1689717606
 23
-0.0844815429
 33
0.0
 40
0.0
 40
0.0
 40
0.0
 40
0.0
 40
0.2897012584
 40
0.5496242293
 40
0.7828596155
 40
1.0
 40
1.0
 40
1.0
 40
1.0
 10
27.3465207036
 20
32.9064184833
 30
0.0
 10
27.3465207208
 20
32.8881755864
 30
0.0
 10
27.3494711978
 20
32.8534351582
 30
0.0
 10
27.3643081553
 20
32.8059159525
 30
0.0
 10
27.3891240371
 20
32.7678862218
 30
0.0
 10
27.4122583506
 20
32.7502707538
 30
0.0
 10
27.4244885483
 20
32.7441559688
 30
0.0
 11
27.3465207036
 21
32.9064184833
 31
0.0
 11
27.351705323
 21
32.8519359237
 31
0.0
 11
27.3670037997
 21
32.8052767789
 31
0.0
 11
27.3916707867
 21
32.7687671349
 31
0.0
 11
27.4244885483
 21
32.7441559688
 31
0.0
  0
SPLINE
  5
3AB
100
AcDbEntity
  8
RACCORDO
100
AcDbSpline
 62
7
  6
CONTINUOUS
 70
0
 71
3
 72
10
 73
6
 74
4
 42
0.0000001
 43
0.0000001
 44
0.0000000001
 12
-0.1169948136
 22
0.0584972416
 32
0.0
 13
-0.0225877217
 23
0.1288390799
 33
0.0
 40
0.0
 40
0.0
 40
0.0
 40
0.0
 40
0.2989747133
 40
0.563607985
 40
1.0
 40
1.0
 40
1.0
 40
1.0
 10
27.7563283248
 20
-69.1331445685
 30
0.0
 10
27.7446688278
 20
-69.1273148365
 30
0.0
 10
27.7233317958
 20
-69.1147897154
 30
0.0
 10
27.6899089109
 20
-69.0868698701
 30
0.0
 10
27.6728932581
 20
-69.0588931034
 30
0.0
 10
27.6696075576
 20
-69.0401516548
 30
0.0
 11
27.7563283248
 21
-69.1331445685
 31
0.0
 11
27.7227350797
 21
-69.113123063
 31
0.0
 11
27.6965636831
 21
-69.0904677238
 31
0.0
 11
27.6696075576
 21
-69.0401516548
 31
0.0
  0
SPLINE
  5
3AC
100
AcDbEntity
  8
RACCORDO
100
AcDbSpline
 62
7
  6
CONTINUOUS
 70
0
 71
3
 72
11
 73
7
 74
5
 42
0.0000001
 43
0.0000001
 44
0.0000000001
 12
-0.0000003533
 22
0.3751444731
 32
0.0
 13
0.2889265506
 23
0.2392798028
 33
0.0
 40
0.0
 40
0.0
 40
0.0
 40
0.0
 40
0.2395264869
 40
0.4969993185
 40
0.7560656446
 40
1.0
 40
1.0
 40
1.0
 40
1.0
 10
-37.0772571329
 20
-37.2182616219
 30
0.0
 10
-37.0772571611
 20
-37.188309276
 30
0.0
 10
-37.0686445791
 20
-37.1260570718
 30
0.0
 10
-37.0361737458
 20
-37.0366456948
 30
0.0
 10
-36.9867730504
 20
-36.954712912
 30
0.0
 10
-36.9435219414
 20
-36.9081488029
 30
0.0
 10
-36.9200289041
 20
-36.8886926147
 30
0.0
 11
-37.0772571329
 21
-37.2182616219
 31
0.0
 11
-37.0659982728
 21
-37.129112728
 31
0.0
 11
-37.0334170066
 21
-37.0381842149
 31
0.0
 11
-36.982984607
 21
-36.955106273
 31
0.0
 11
-36.9200289041
 21
-36.8886926147
 31
0.0
  0
SPLINE
  5
3AD
100
AcDbEntity
  8
RACCORDO
100
AcDbSpline
 62
7
  6
CONTINUOUS
 70
0
 71
3
 72
10
 73
6
 74
4
 42
0.0000001
 43
0.0000001
 44
0.0000000001
 12
-0.0195716357
 22
-0.4268926841
 32
0.0
 13
0.3907363717
 23
-0.1730476827
 33
0.0
 40
0.0
 40
0.0
 40
0.0
 40
0.0
 40
0.2487081936
 40
0.5144055266
 40
1.0
 40
1.0
 40
1.0
 40
1.0
 10
-34.6861369997
 20
-35.2000683
 30
0.0
 10
-34.6877595418
 20
-35.2354588695
 30
0.0
 10
-34.6790756638
 20
-35.3096254096
 30
0.0
 10
-34.6252594272
 20
-35.4420134235
 30
0.0
 10
-34.5445009016
 20
-35.5254453023
 30
0.0
 10
-34.4812544274
 20
-35.5534556351
 30
0.0
 11
-34.6861369997
 21
-35.2000683
 31
0.0
 11
-34.6749211558
 21
-35.3057580832
 31
0.0
 11
-34.6320497417
 21
-35.4108967687
 31
0.0
 11
-34.4812544274
 21
-35.5534556351
 31
0.0
  0
SPLINE
  5
3AE
100
AcDbEntity
  8
RACCORDO
100
AcDbSpline
 62
7
  6
CONTINUOUS
 70
0
 71
3
 72
11
 73
7
 74
5
 42
0.0000001
 43
0.0000001
 44
0.0000000001
 12
0.132042495
 22
-0.3889136643
 32
0.0
 13
0.2820548704
 23
-0.2985533601
 33
0.0
 40
0.0
 40
0.0
 40
0.0
 40
0.0
 40
0.2415272739
 40
0.5166749618
 40
0.7829133103
 40
1.0
 40
1.0
 40
1.0
 40
1.0
 10
-34.5892104666
 20
-35.1489457114
 30
0.0
 10
-34.5785798453
 20
-35.1802567971
 30
0.0
 10
-34.5511067824
 20
-35.2456154624
 30
0.0
 10
-34.5013069173
 20
-35.3406586135
 30
0.0
 10
-34.4454827572
 20
-35.428316808
 30
0.0
 10
-34.4047167754
 20
-35.4807485209
 30
0.0
 10
-34.384306656
 20
-35.5023525078
 30
0.0
 11
-34.5892104666
 21
-35.1489457114
 31
0.0
 11
-34.5517162398
 21
-35.2407865016
 31
0.0
 11
-34.4993429005
 21
-35.3409256518
 31
0.0
 11
-34.4402894625
 21
-35.432957462
 31
0.0
 11
-34.384306656
 21
-35.5023525078
 31
0.0
  0
SPLINE
  5
3AF
100
AcDbEntity
  8
RACCORDO
100
AcDbSpline
 62
7
  6
CONTINUOUS
 70
0
 71
3
 72
8
 73
4
 74
2
 42
0.0000001
 43
0.0000001
 44
0.0000000001
 12
0.0050630357
 22
-0.0053165279
 32
0.0
 13
0.0066390485
 23
-0.0031341401
 33
0.0
 40
0.0
 40
0.0
 40
0.0
 40
0.0
 40
1.0
 40
1.0
 40
1.0
 40
1.0
 10
-34.384306656
 20
-35.5023525078
 30
0.0
 10
-34.3826189774
 20
-35.5041246837
 30
0.0
 10
-34.3805150824
 20
-35.5055320933
 30
0.0
 10
-34.3783020662
 20
-35.5065768066
 30
0.0
 11
-34.384306656
 21
-35.5023525078
 31
0.0
 11
-34.3783020662
 21
-35.5065768066
 31
0.0
  0
SPLINE
  5
3B0
100
AcDbEntity
  8
RACCORDO
100
AcDbSpline
 62
7
  6
CONTINUOUS
 70
0
 71
3
 72
8
 73
4
 74
2
 42
0.0000001
 43
0.0000001
 44
0.0000000001
 12
-0.0001898919
 22
-0.0082708644
 32
0.0
 13
0.0026371872
 23
-0.0078414604
 33
0.0
 40
0.0
 40
0.0
 40
0.0
 40
0.0
 40
1.0
 40
1.0
 40
1.0
 40
1.0
 10
-34.5904017918
 20
-35.1407588926
 30
0.0
 10
-34.5904650891
 20
-35.1435158474
 30
0.0
 10
-34.590089529
 20
-35.1463318913
 30
0.0
 10
-34.5892104666
 20
-35.1489457114
 30
0.0
 11
-34.5904017918
 21
-35.1407588926
 31
0.0
 11
-34.5892104666
 21
-35.1489457114
 31
0.0
  0
SPLINE
  5
3B1
100
AcDbEntity
  8
RACCORDO
100
AcDbSpline
 62
7
  6
CONTINUOUS
 70
0
 71
3
 72
11
 73
7
 74
5
 42
0.0000001
 43
0.0000001
 44
0.0000000001
 12
-0.0064027649
 22
1.0264962597
 32
0.0
 13
-0.9153126615
 23
0.4646916164
 33
0.0
 40
0.0
 40
0.0
 40
0.0
 40
0.0
 40
0.246670931
 40
0.5119111179
 40
0.7706382137
 40
1.0
 40
1.0
 40
1.0
 40
1.0
 10
29.8888660222
 20
33.5940914462
 30
0.0
 10
29.8883395636
 20
33.6784937089
 30
0.0
 10
29.8583276238
 20
33.8537525272
 30
0.0
 10
29.7523791834
 20
34.0975828858
 30
0.0
 10
29.5976360201
 20
34.3064300404
 30
0.0
 10
29.4639459115
 20
34.4121390791
 30
0.0
 10
29.3939666625
 20
34.4476665789
 30
0.0
 11
29.8888660222
 21
33.5940914462
 31
0.0
 11
29.8500435584
 21
33.8443093278
 31
0.0
 11
29.7423627516
 21
34.0943845651
 31
0.0
 11
29.5822104669
 21
34.3062524463
 31
0.0
 11
29.3939666625
 21
34.4476665789
 31
0.0
  0
SPLINE
  5
3B2
100
AcDbEntity
  8
RACCORDO
100
AcDbSpline
 62
7
  6
CONTINUOUS
 70
0
 71
3
 72
11
 73
7
 74
5
 42
0.0000001
 43
0.0000001
 44
0.0000000001
 12
-0.299681524
 22
0.1475650771
 32
0.0
 13
-0.2939897456
 23
-0.1586016938
 33
0.0
 40
0.0
 40
0.0
 40
0.0
 40
0.0
 40
0.2798231701
 40
0.5359571054
 40
0.7731397735
 40
1.0
 40
1.0
 40
1.0
 40
1.0
 10
-38.707843452
 20
68.4985716361
 30
0.0
 10
-38.7357960633
 20
68.5123356786
 30
0.0
 10
-38.7916563402
 20
68.5344299914
 30
0.0
 10
-38.8771388916
 20
68.5494148401
 30
0.0
 10
-38.9580169058
 20
68.5438226206
 30
0.0
 10
-39.0073640653
 20
68.5258843493
 30
0.0
 10
-39.029595592
 20
68.5138908772
 30
0.0
 11
-38.707843452
 21
68.4985716361
 31
0.0
 11
-38.7950516301
 21
68.5322155035
 31
0.0
 11
-38.8794653168
 21
68.5461719741
 31
0.0
 11
-38.958453476
 21
68.5399975183
 31
0.0
 11
-39.029595592
 21
68.5138908772
 31
0.0
  0
SPLINE
  5
3B3
100
AcDbEntity
  8
RACCORDO
100
AcDbSpline
 62
7
  6
CONTINUOUS
 70
0
 71
3
 72
11
 73
7
 74
5
 42
0.0000001
 43
0.0000001
 44
0.0000000001
 12
-0.0340990352
 22
-0.0214753361
 32
0.0
 13
-0.0380465059
 23
0.0132814778
 33
0.0
 40
0.0
 40
0.0
 40
0.0
 40
0.0
 40
0.1278811211
 40
0.3380002508
 40
0.6303306266
 40
1.0
 40
1.0
 40
1.0
 40
1.0
 10
-33.3237038983
 20
40.125015464
 30
0.0
 10
-33.3251574393
 20
40.124100034
 30
0.0
 10
-33.3300294195
 20
40.1239176405
 30
0.0
 10
-33.3382216577
 20
40.1253863846
 30
0.0
 10
-33.349587033
 20
40.1285478374
 30
0.0
 10
-33.3579990343
 20
40.1313714415
 30
0.0
 10
-33.3626872436
 20
40.1330080267
 30
0.0
 11
-33.3237038983
 21
40.125015464
 31
0.0
 11
-33.3287754515
 21
40.1241008659
 31
0.0
 11
-33.3371562713
 21
40.1253086058
 31
0.0
 11
-33.3485372098
 21
40.1283501296
 31
0.0
 11
-33.3626872436
 21
40.1330080267
 31
0.0
  0
SPLINE
  5
3B4
100
AcDbEntity
  8
RACCORDO
100
AcDbSpline
 62
7
  6
CONTINUOUS
 70
0
 71
3
 72
9
 73
5
 74
3
 42
0.0000001
 43
0.0000001
 44
0.0000000001
 12
-0.0441707059
 22
0.0154193464
 32
0.0
 13
-0.0435133037
 23
0.0171872019
 33
0.0
 40
0.0
 40
0.0
 40
0.0
 40
0.0
 40
0.2195340247
 40
1.0
 40
1.0
 40
1.0
 40
1.0
 10
-33.3626872436
 20
40.1330080267
 30
0.0
 10
-33.3659195679
 20
40.1341363838
 30
0.0
 10
-33.3805947459
 20
40.1394148339
 30
0.0
 10
-33.3951287503
 20
40.1450755784
 30
0.0
 10
-33.4064489679
 20
40.1495469205
 30
0.0
 11
-33.3626872436
 21
40.1330080267
 31
0.0
 11
-33.3723561658
 21
40.1364724073
 31
0.0
 11
-33.4064489679
 21
40.1495469205
 31
0.0
  0
SPLINE
  5
3B5
100
AcDbEntity
  8
RACCORDO
100
AcDbSpline
 62
7
  6
CONTINUOUS
 70
0
 71
3
 72
11
 73
7
 74
5
 42
0.0000001
 43
0.0000001
 44
0.0000000001
 12
-0.0340990352
 22
-0.0214753361
 32
0.0
 13
-0.0380465058
 23
0.0132814778
 33
0.0
 40
0.0
 40
0.0
 40
0.0
 40
0.0
 40
0.1278811212
 40
0.3380002509
 40
0.6303306266
 40
1.0
 40
1.0
 40
1.0
 40
1.0
 10
-33.3237038983
 20
-11.8365087631
 30
0.0
 10
-33.3251574393
 20
-11.8374241931
 30
0.0
 10
-33.3300294195
 20
-11.8376065866
 30
0.0
 10
-33.3382216576
 20
-11.8361378425
 30
0.0
 10
-33.3495870329
 20
-11.8329763897
 30
0.0
 10
-33.3579990342
 20
-11.8301527856
 30
0.0
 10
-33.3626872435
 20
-11.8285162004
 30
0.0
 11
-33.3237038983
 21
-11.8365087631
 31
0.0
 11
-33.3287754515
 21
-11.8374233611
 31
0.0
 11
-33.3371562713
 21
-11.8362156212
 31
0.0
 11
-33.3485372098
 21
-11.8331740975
 31
0.0
 11
-33.3626872435
 21
-11.8285162004
 31
0.0
  0
SPLINE
  5
3B6
100
AcDbEntity
  8
RACCORDO
100
AcDbSpline
 62
7
  6
CONTINUOUS
 70
0
 71
3
 72
9
 73
5
 74
3
 42
0.0000001
 43
0.0000001
 44
0.0000000001
 12
-0.044170706
 22
0.0154193464
 32
0.0
 13
-0.0435133037
 23
0.0171872019
 33
0.0
 40
0.0
 40
0.0
 40
0.0
 40
0.0
 40
0.2195340246
 40
1.0
 40
1.0
 40
1.0
 40
1.0
 10
-33.3626872435
 20
-11.8285162004
 30
0.0
 10
-33.3659195678
 20
-11.8273878433
 30
0.0
 10
-33.3805947459
 20
-11.8221093932
 30
0.0
 10
-33.3951287503
 20
-11.8164486487
 30
0.0
 10
-33.4064489679
 20
-11.8119773066
 30
0.0
 11
-33.3626872435
 21
-11.8285162004
 31
0.0
 11
-33.3723561657
 21
-11.8250518198
 31
0.0
 11
-33.4064489679
 21
-11.8119773066
 31
0.0
  0
SPLINE
  5
3B7
100
AcDbEntity
  8
RACCORDO
100
AcDbSpline
 62
7
  6
CONTINUOUS
 70
0
 71
3
 72
12
 73
8
 74
6
 42
0.0000001
 43
0.0000001
 44
0.0000000001
 12
1.1507197858
 22
-0.5753598929
 32
0.0
 13
0.0
 23
-1.2865438321
 33
0.0
 40
0.0
 40
0.0
 40
0.0
 40
0.0
 40
0.2441431698
 40
0.4962282067
 40
0.62406458
 40
0.7513337464
 40
1.0
 40
1.0
 40
1.0
 40
1.0
 10
55.6744470183
 20
41.0158457811
 30
0.0
 10
55.7680938104
 20
40.969022385
 30
0.0
 10
55.9424296964
 20
40.8400627751
 30
0.0
 10
56.1071684062
 20
40.6254439177
 30
0.0
 10
56.2059762755
 20
40.4310843261
 30
0.0
 10
56.279296764
 20
40.2275234082
 30
0.0
 10
56.3043936112
 20
40.0654828
 30
0.0
 10
56.3043936112
 20
39.9588427884
 30
0.0
 11
55.6744470183
 21
41.0158457811
 31
0.0
 11
55.929147849
 21
40.8320337698
 31
0.0
 11
56.1283987855
 21
40.5761401964
 31
0.0
 11
56.2029304584
 21
40.4295303198
 31
0.0
 11
56.2582337682
 21
40.2754152091
 31
0.0
 11
56.3043936112
 21
39.9588427884
 31
0.0
  0
SPLINE
  5
3B8
100
AcDbEntity
  8
RACCORDO
100
AcDbSpline
 62
7
  6
CONTINUOUS
 70
0
 71
3
 72
9
 73
5
 74
3
 42
0.0000001
 43
0.0000001
 44
0.0000000001
 12
0.3555281201
 22
0.1777640601
 32
0.0
 13
0.3955119889
 23
-0.0396304414
 33
0.0
 40
0.0
 40
0.0
 40
0.0
 40
0.0
 40
0.5005099067
 40
1.0
 40
1.0
 40
1.0
 40
1.0
 10
-52.9715788621
 20
95.0176494183
 30
0.0
 10
-52.9122637467
 20
95.047306976
 30
0.0
 10
-52.784411093
 20
95.0894500909
 30
0.0
 10
-52.6501014151
 20
95.0938244847
 30
0.0
 10
-52.584249975
 20
95.0872261471
 30
0.0
 11
-52.9715788621
 21
95.0176494183
 31
0.0
 11
-52.7826631569
 21
95.0800316204
 31
0.0
 11
-52.584249975
 21
95.0872261471
 31
0.0
  0
SPLINE
  5
3B9
100
AcDbEntity
  8
RACCORDO
100
AcDbSpline
 62
7
  6
CONTINUOUS
 70
0
 71
3
 72
9
 73
5
 74
3
 42
0.0000001
 43
0.0000001
 44
0.0000000001
 12
0.2950299386
 22
-0.0295621044
 32
0.0
 13
0.2652041971
 23
-0.1326020986
 33
0.0
 40
0.0
 40
0.0
 40
0.0
 40
0.0
 40
0.7486157572
 40
1.0
 40
1.0
 40
1.0
 40
1.0
 10
-52.584249975
 20
95.0872261471
 30
0.0
 10
-52.5106286213
 20
95.0798492614
 30
0.0
 10
-52.413123427
 20
95.0551274463
 30
0.0
 10
-52.3229811876
 20
95.014559884
 30
0.0
 10
-52.3007584689
 20
95.0034485246
 30
0.0
 11
-52.584249975
 21
95.0872261471
 31
0.0
 11
-52.3687671597
 21
95.0339546191
 31
0.0
 11
-52.3007584689
 21
95.0034485246
 31
0.0
  0
SPLINE
  5
3BA
100
AcDbEntity
  8
RACCORDO
100
AcDbSpline
 62
7
  6
CONTINUOUS
 70
0
 71
3
 72
11
 73
7
 74
5
 42
0.0000001
 43
0.0000001
 44
0.0000000001
 12
-0.0
 22
-0.8666307163
 32
0.0
 13
-0.7751380772
 23
-0.3875690386
 33
0.0
 40
0.0
 40
0.0
 40
0.0
 40
0.0
 40
0.2519767032
 40
0.5012175793
 40
0.7503272334
 40
1.0
 40
1.0
 40
1.0
 40
1.0
 10
56.3043936112
 20
-92.2832363695
 30
0.0
 10
56.3043936112
 20
-92.3560266198
 30
0.0
 10
56.2889774526
 20
-92.5014872907
 30
0.0
 10
56.2127081271
 20
-92.7070966622
 30
0.0
 10
56.081968465
 20
-92.8830290284
 30
0.0
 10
55.9625641055
 20
-92.9686317205
 30
0.0
 10
55.8980538161
 20
-93.0008868652
 30
0.0
 11
56.3043936112
 21
-92.2832363695
 31
0.0
 11
56.2799131567
 21
-92.5002305909
 31
0.0
 11
56.2035786324
 21
-92.7022923478
 31
0.0
 11
56.0740283004
 21
-92.8749871947
 31
0.0
 11
55.8980538161
 21
-93.0008868652
 31
0.0
  0
SPLINE
  5
3BB
100
AcDbEntity
  8
RACCORDO
100
AcDbSpline
 62
7
  6
CONTINUOUS
 70
0
 71
3
 72
11
 73
7
 74
5
 42
0.0000001
 43
0.0000001
 44
0.0000000001
 12
-0.6211759355
 22
-0.3105879678
 32
0.0
 13
-0.6211759355
 23
0.3105879678
 33
0.0
 40
0.0
 40
0.0
 40
0.0
 40
0.0
 40
0.2503497383
 40
0.500266668
 40
0.7497886126
 40
1.0
 40
1.0
 40
1.0
 40
1.0
 10
52.0796771977
 20
-94.9100751744
 30
0.0
 10
52.02784012
 20
-94.9359937132
 30
0.0
 10
51.9171474562
 20
-94.9747340935
 30
0.0
 10
51.7425569675
 20
-94.9898652926
 30
0.0
 10
51.5695108105
 20
-94.963672638
 30
0.0
 10
51.4606652353
 20
-94.9217784963
 30
0.0
 10
51.4088568044
 20
-94.8958742808
 30
0.0
 11
52.0796771977
 21
-94.9100751744
 31
0.0
 11
51.9156002054
 21
-94.9675940414
 31
0.0
 11
51.7427172465
 21
-94.9829800493
 31
0.0
 11
51.571293169
 21
-94.9576051842
 31
0.0
 11
51.4088568044
 21
-94.8958742808
 31
0.0
  0
SPLINE
  5
3BC
100
AcDbEntity
  8
RACCORDO
100
AcDbSpline
 62
7
  6
CONTINUOUS
 70
0
 71
3
 72
12
 73
8
 74
6
 42
0.0000001
 43
0.0000001
 44
0.0000000001
 12
-1.1507197858
 22
0.5753598929
 32
0.0
 13
0.0
 23
1.2865438321
 33
0.0
 40
0.0
 40
0.0
 40
0.0
 40
0.0
 40
0.2441431698
 40
0.4962282067
 40
0.62406458
 40
0.7513337464
 40
1.0
 40
1.0
 40
1.0
 40
1.0
 10
-56.5663486828
 20
-40.9082715372
 30
0.0
 10
-56.6599954748
 20
-40.8614481412
 30
0.0
 10
-56.8343313609
 20
-40.7324885313
 30
0.0
 10
-56.9990700707
 20
-40.5178696739
 30
0.0
 10
-57.0978779399
 20
-40.3235100822
 30
0.0
 10
-57.1711984284
 20
-40.1199491643
 30
0.0
 10
-57.1962952756
 20
-39.9579085561
 30
0.0
 10
-57.1962952756
 20
-39.8512685445
 30
0.0
 11
-56.5663486828
 21
-40.9082715372
 31
0.0
 11
-56.8210495135
 21
-40.724459526
 31
0.0
 11
-57.02030045
 21
-40.4685659526
 31
0.0
 11
-57.0948321229
 21
-40.321956076
 31
0.0
 11
-57.1501354326
 21
-40.1678409653
 31
0.0
 11
-57.1962952756
 21
-39.8512685445
 31
0.0
  0
SPLINE
  5
3BD
100
AcDbEntity
  8
RACCORDO
100
AcDbSpline
 62
7
  6
CONTINUOUS
 70
0
 71
3
 72
11
 73
7
 74
5
 42
0.0000001
 43
0.0000001
 44
0.0000000001
 12
0.0
 22
0.8666307163
 32
0.0
 13
0.7751380772
 23
0.3875690386
 33
0.0
 40
0.0
 40
0.0
 40
0.0
 40
0.0
 40
0.2519767032
 40
0.5012175793
 40
0.7503272334
 40
1.0
 40
1.0
 40
1.0
 40
1.0
 10
-57.1962952756
 20
92.3908106134
 30
0.0
 10
-57.1962952756
 20
92.4636008636
 30
0.0
 10
-57.180879117
 20
92.6090615345
 30
0.0
 10
-57.1046097916
 20
92.814670906
 30
0.0
 10
-56.9738701294
 20
92.9906032723
 30
0.0
 10
-56.8544657699
 20
93.0762059644
 30
0.0
 10
-56.7899554805
 20
93.1084611091
 30
0.0
 11
-57.1962952756
 21
92.3908106134
 31
0.0
 11
-57.1718148211
 21
92.6078048348
 31
0.0
 11
-57.0954802968
 21
92.8098665916
 31
0.0
 11
-56.9659299649
 21
92.9825614385
 31
0.0
 11
-56.7899554805
 21
93.1084611091
 31
0.0
  0
SPLINE
  5
3BE
100
AcDbEntity
  8
RACCORDO
100
AcDbSpline
 62
7
  6
CONTINUOUS
 70
0
 71
3
 72
11
 73
7
 74
5
 42
0.0000001
 43
0.0000001
 44
0.0000000001
 12
0.0
 22
0.7341091226
 32
0.0
 13
-0.6566071604
 23
0.3283035802
 33
0.0
 40
0.0
 40
0.0
 40
0.0
 40
0.0
 40
0.2467983468
 40
0.5117850385
 40
0.7703194491
 40
1.0
 40
1.0
 40
1.0
 40
1.0
 10
51.6324636022
 20
37.8728777839
 30
0.0
 10
51.6324636022
 20
37.9332700898
 30
0.0
 10
51.6116234204
 20
38.0587210965
 30
0.0
 10
51.5361512045
 20
38.2331882684
 30
0.0
 10
51.4252367366
 20
38.3823841814
 30
0.0
 10
51.3291801764
 20
38.4575321987
 30
0.0
 10
51.2789102116
 20
38.4826671811
 30
0.0
 11
51.6324636022
 21
37.8728777839
 31
0.0
 11
51.6055499743
 21
38.0520445559
 31
0.0
 11
51.528909013
 21
38.2308398365
 31
0.0
 11
51.4142118275
 21
38.3820540456
 31
0.0
 11
51.2789102116
 21
38.4826671811
 31
0.0
  0
SPLINE
  5
3BF
100
AcDbEntity
  8
RACCORDO
100
AcDbSpline
 62
7
  6
CONTINUOUS
 70
0
 71
3
 72
11
 73
7
 74
5
 42
0.0000001
 43
0.0000001
 44
0.0000000001
 12
0.4148400133
 22
0.2074023911
 32
0.0
 13
0.4148329673
 23
-0.2074164836
 33
0.0
 40
0.0
 40
0.0
 40
0.0
 40
0.0
 40
0.227111417
 40
0.4646734048
 40
0.7207749346
 40
1.0
 40
1.0
 40
1.0
 40
1.0
 10
-52.9715788077
 20
95.0176493133
 30
0.0
 10
-52.94017384
 20
95.0333504636
 30
0.0
 10
-52.8709688917
 20
95.0563809484
 30
0.0
 10
-52.7585261988
 20
95.0620053116
 30
0.0
 10
-52.6401886062
 20
95.0397707624
 30
0.0
 10
-52.5629758541
 20
95.0085529248
 30
0.0
 10
-52.5243652666
 20
94.989247631
 30
0.0
 11
-52.9715788077
 21
95.0176493133
 31
0.0
 11
-52.8717405321
 21
95.0512276069
 31
0.0
 11
-52.7617489931
 21
95.0576798023
 31
0.0
 11
-52.6448165474
 21
95.0368158499
 31
0.0
 11
-52.5243652666
 21
94.989247631
 31
0.0
  0
SPLINE
  5
3C0
100
AcDbEntity
  8
RACCORDO
100
AcDbSpline
 62
7
  6
CONTINUOUS
 70
0
 71
3
 72
15
 73
11
 74
9
 42
0.0000001
 43
0.0000001
 44
0.0000000001
 12
0.4890795838
 22
-0.2445397919
 32
0.0
 13
0.0
 23
0.5468075979
 33
0.0
 40
0.0
 40
0.0
 40
0.0
 40
0.0
 40
0.1348982525
 40
0.2572075778
 40
0.3703121899
 40
0.4800840678
 40
0.5933696577
 40
0.7159400011
 40
0.8512182943
 40
1.0
 40
1.0
 40
1.0
 40
1.0
 10
51.2789102116
 20
-94.6254373806
 30
0.0
 10
51.3009022053
 20
-94.6364333775
 30
0.0
 10
51.3449256523
 20
-94.6536778613
 30
0.0
 10
51.4124815052
 20
-94.6632156363
 30
0.0
 10
51.4757311994
 20
-94.6540345305
 30
0.0
 10
51.5314078862
 20
-94.6259071075
 30
0.0
 10
51.5763879701
 20
-94.5804023286
 30
0.0
 10
51.6089844108
 20
-94.5202786712
 30
0.0
 10
51.6285189636
 20
-94.4482433319
 30
0.0
 10
51.6324636022
 20
-94.3963196964
 30
0.0
 10
51.6324636022
 20
-94.369201374
 30
0.0
 11
51.2789102116
 21
-94.6254373806
 31
0.0
 11
51.3478777375
 21
-94.6516006751
 31
0.0
 11
51.4142118258
 21
-94.6601258601
 31
0.0
 11
51.4753311353
 21
-94.6506699211
 31
0.0
 11
51.5289090197
 21
-94.6236088327
 31
0.0
 11
51.5728773833
 21
-94.5799737755
 31
0.0
 11
51.6055499745
 21
-94.5214545203
 31
0.0
 11
51.6256699653
 21
-94.4502721898
 31
0.0
 11
51.6324636022
 21
-94.369201374
 31
0.0
  0
SPLINE
  5
3C1
100
AcDbEntity
  8
RACCORDO
100
AcDbSpline
 62
7
  6
CONTINUOUS
 70
0
 71
3
 72
11
 73
7
 74
5
 42
0.0000001
 43
0.0000001
 44
0.0000000001
 12
0.0
 22
-0.7341091226
 32
0.0
 13
0.6566071604
 23
-0.3283035802
 33
0.0
 40
0.0
 40
0.0
 40
0.0
 40
0.0
 40
0.2467983468
 40
0.5117850385
 40
0.7703194491
 40
1.0
 40
1.0
 40
1.0
 40
1.0
 10
-57.0498486662
 20
-40.0280452398
 30
0.0
 10
-57.0498486662
 20
-40.0884375458
 30
0.0
 10
-57.0290084844
 20
-40.2138885524
 30
0.0
 10
-56.9535362685
 20
-40.3883557244
 30
0.0
 10
-56.8426218006
 20
-40.5375516374
 30
0.0
 10
-56.7465652404
 20
-40.6126996546
 30
0.0
 10
-56.6962952756
 20
-40.637834637
 30
0.0
 11
-57.0498486662
 21
-40.0280452398
 31
0.0
 11
-57.0229350384
 21
-40.2072120119
 31
0.0
 11
-56.9462940771
 21
-40.3860072925
 31
0.0
 11
-56.8315968915
 21
-40.5372215016
 31
0.0
 11
-56.6962952756
 21
-40.637834637
 31
0.0
  0
SPLINE
  5
3C2
100
AcDbEntity
  8
RACCORDO
100
AcDbSpline
 62
7
  6
CONTINUOUS
 70
0
 71
3
 72
15
 73
11
 74
9
 42
0.0000001
 43
0.0000001
 44
0.0000000001
 12
-0.4890795838
 22
0.2445397919
 32
0.0
 13
0.0
 23
-0.5468075979
 33
0.0
 40
0.0
 40
0.0
 40
0.0
 40
0.0
 40
0.1348982525
 40
0.2572075778
 40
0.3703121899
 40
0.4800840678
 40
0.5933696577
 40
0.7159400011
 40
0.8512182943
 40
1.0
 40
1.0
 40
1.0
 40
1.0
 10
-56.6962952756
 20
92.4702699246
 30
0.0
 10
-56.7182872693
 20
92.4812659215
 30
0.0
 10
-56.7623107164
 20
92.4985104053
 30
0.0
 10
-56.8298665692
 20
92.5080481804
 30
0.0
 10
-56.8931162634
 20
92.4988670745
 30
0.0
 10
-56.9487929502
 20
92.4707396516
 30
0.0
 10
-56.9937730341
 20
92.4252348726
 30
0.0
 10
-57.0263694749
 20
92.3651112153
 30
0.0
 10
-57.0459040276
 20
92.2930758759
 30
0.0
 10
-57.0498486662
 20
92.2411522404
 30
0.0
 10
-57.0498486662
 20
92.2140339181
 30
0.0
 11
-56.6962952756
 21
92.4702699246
 31
0.0
 11
-56.7652628016
 21
92.4964332191
 31
0.0
 11
-56.8315968898
 21
92.5049584041
 31
0.0
 11
-56.8927161993
 21
92.4955024652
 31
0.0
 11
-56.9462940837
 21
92.4684413767
 31
0.0
 11
-56.9902624473
 21
92.4248063195
 31
0.0
 11
-57.0229350385
 21
92.3662870644
 31
0.0
 11
-57.0430550293
 21
92.2951047338
 31
0.0
 11
-57.0498486662
 21
92.2140339181
 31
0.0
  0
SPLINE
  5
3C3
100
AcDbEntity
  8
RACCORDO
100
AcDbSpline
 62
7
  6
CONTINUOUS
 70
0
 71
3
 72
11
 73
7
 74
5
 42
0.0000001
 43
0.0000001
 44
0.0000000001
 12
0.0
 22
-0.2406445043
 32
0.0
 13
-0.215238988
 23
-0.107619494
 33
0.0
 40
0.0
 40
0.0
 40
0.0
 40
0.0
 40
0.2065725466
 40
0.4344970832
 40
0.697456044
 40
1.0
 40
1.0
 40
1.0
 40
1.0
 10
56.3043912753
 20
-92.2832363695
 30
0.0
 10
56.3043912753
 20
-92.2998065522
 30
0.0
 10
56.2970686015
 20
-92.3349260007
 30
0.0
 10
56.2665182969
 20
-92.3828425168
 30
0.0
 10
56.2188885152
 20
-92.4258765074
 30
0.0
 10
56.1796534201
 20
-92.4491598553
 30
0.0
 10
56.1579470018
 20
-92.4600130644
 30
0.0
 11
56.3043912753
 21
-92.2832363695
 31
0.0
 11
56.2947817481
 21
-92.3320092675
 31
0.0
 11
56.266335509
 21
-92.3789049062
 31
0.0
 11
56.2201214811
 21
-92.4221319237
 31
0.0
 11
56.1579470018
 21
-92.4600130644
 31
0.0
  0
SPLINE
  5
3C4
100
AcDbEntity
  8
RACCORDO
100
AcDbSpline
 62
7
  6
CONTINUOUS
 70
0
 71
3
 72
10
 73
6
 74
4
 42
0.0000001
 43
0.0000001
 44
0.0000000001
 12
-0.2068625654
 22
0.1034358074
 32
0.0
 13
-0.2068643753
 23
-0.1034321877
 33
0.0
 40
0.0
 40
0.0
 40
0.0
 40
0.0
 40
0.2277246618
 40
0.4658846937
 40
1.0
 40
1.0
 40
1.0
 40
1.0
 10
55.6744470441
 20
41.0158458337
 30
0.0
 10
55.6587444748
 20
41.0236974618
 30
0.0
 10
55.6241295404
 20
41.0352018242
 30
0.0
 10
55.5464185099
 20
41.0391223793
 30
0.0
 10
55.48767003
 20
41.0200597925
 30
0.0
 10
55.4508402202
 20
41.0016448876
 30
0.0
 11
55.6744470441
 21
41.0158458337
 31
0.0
 11
55.6245251221
 21
41.0326318518
 31
0.0
 11
55.5695378835
 21
41.035861217
 31
0.0
 11
55.4508402202
 21
41.0016448876
 31
0.0
  0
SPLINE
  5
3C5
100
AcDbEntity
  8
RACCORDO
100
AcDbSpline
 62
7
  6
CONTINUOUS
 70
0
 71
3
 72
11
 73
7
 74
5
 42
0.0000001
 43
0.0000001
 44
0.0000000001
 12
0.5632496412
 22
0.2816009062
 32
0.0
 13
-0.0000000001
 23
0.6297215485
 33
0.0
 40
0.0
 40
0.0
 40
0.0
 40
0.0
 40
0.2171534751
 40
0.4504176095
 40
0.7102461156
 40
1.0
 40
1.0
 40
1.0
 40
1.0
 10
52.0796771448
 20
-94.9100750687
 30
0.0
 10
52.1204476838
 20
-94.8896915302
 30
0.0
 10
52.197597886
 20
-94.8309972869
 30
0.0
 10
52.2802562911
 20
-94.7041981317
 30
0.0
 10
52.3297573954
 20
-94.5458234451
 30
0.0
 10
52.3395703834
 20
-94.4300227956
 30
0.0
 10
52.3395703834
 20
-94.369201374
 30
0.0
 11
52.0796771448
 21
-94.9100750687
 31
0.0
 11
52.1890900764
 21
-94.8280486108
 31
0.0
 11
52.271299943
 21
-94.7063167888
 31
0.0
 11
52.3222910443
 21
-94.5508456207
 31
0.0
 11
52.3395703834
 21
-94.369201374
 31
0.0
  0
SPLINE
  5
3C6
100
AcDbEntity
  8
RACCORDO
100
AcDbSpline
 62
7
  6
CONTINUOUS
 70
0
 71
3
 72
11
 73
7
 74
5
 42
0.0000001
 43
0.0000001
 44
0.0000000001
 12
0.0
 22
-0.2406445045
 32
0.0
 13
-0.2152389882
 23
-0.1076194941
 33
0.0
 40
0.0
 40
0.0
 40
0.0
 40
0.0
 40
0.206572546
 40
0.434497082
 40
0.6974560431
 40
1.0
 40
1.0
 40
1.0
 40
1.0
 10
56.3043912753
 20
39.9588427884
 30
0.0
 10
56.3043912753
 20
39.9422726057
 30
0.0
 10
56.2970686015
 20
39.9071531573
 30
0.0
 10
56.266518297
 20
39.8592366412
 30
0.0
 10
56.2188885152
 20
39.8162026505
 30
0.0
 10
56.1796534202
 20
39.7929193023
 30
0.0
 10
56.1579470018
 20
39.7820660931
 30
0.0
 11
56.3043912753
 21
39.9588427884
 31
0.0
 11
56.2947817481
 21
39.9100698905
 31
0.0
 11
56.2663355091
 21
39.8631742519
 31
0.0
 11
56.2201214812
 21
39.8199472341
 31
0.0
 11
56.1579470018
 21
39.7820660931
 31
0.0
  0
SPLINE
  5
3C7
100
AcDbEntity
  8
RACCORDO
100
AcDbSpline
 62
7
  6
CONTINUOUS
 70
0
 71
3
 72
10
 73
6
 74
4
 42
0.0000001
 43
0.0000001
 44
0.0000000001
 12
-0.2068625654
 22
0.103435808
 32
0.0
 13
-0.2068643755
 23
-0.1034321878
 33
0.0
 40
0.0
 40
0.0
 40
0.0
 40
0.0
 40
0.2277246615
 40
0.4658846938
 40
1.0
 40
1.0
 40
1.0
 40
1.0
 10
-52.3007584427
 20
95.0034485771
 30
0.0
 10
-52.3164610119
 20
95.0113002052
 30
0.0
 10
-52.3510759463
 20
95.0228045677
 30
0.0
 10
-52.428786977
 20
95.0267251231
 30
0.0
 10
-52.4875354568
 20
95.0076625359
 30
0.0
 10
-52.5243652666
 20
94.989247631
 30
0.0
 11
-52.3007584427
 21
95.0034485771
 31
0.0
 11
-52.3506803646
 21
95.0202345953
 31
0.0
 11
-52.4056676033
 21
95.0234639607
 31
0.0
 11
-52.5243652666
 21
94.989247631
 31
0.0
  0
SPLINE
  5
3C8
100
AcDbEntity
  8
RACCORDO
100
AcDbSpline
 62
7
  6
CONTINUOUS
 70
0
 71
3
 72
11
 73
7
 74
5
 42
0.0000001
 43
0.0000001
 44
0.0000000001
 12
0.6499096795
 22
-0.3249548398
 32
0.0
 13
0.6499096795
 23
0.3249548398
 33
0.0
 40
0.0
 40
0.0
 40
0.0
 40
0.0
 40
0.2353766984
 40
0.5
 40
0.7646233016
 40
1.0
 40
1.0
 40
1.0
 40
1.0
 10
51.6324636022
 20
-94.369201374
 30
0.0
 10
51.6834548004
 20
-94.3946969731
 30
0.0
 10
51.800640107
 20
-94.4310654777
 30
0.0
 10
51.9860169928
 20
-94.4484347112
 30
0.0
 10
52.1713938785
 20
-94.4310654777
 30
0.0
 10
52.2885791851
 20
-94.3946969731
 30
0.0
 10
52.3395703834
 20
-94.369201374
 30
0.0
 11
51.6324636022
 21
-94.369201374
 31
0.0
 11
51.7946799198
 21
-94.4233956277
 31
0.0
 11
51.9860169928
 21
-94.4424235108
 31
0.0
 11
52.1773540658
 21
-94.4233956277
 31
0.0
 11
52.3395703834
 21
-94.369201374
 31
0.0
  0
SPLINE
  5
3C9
100
AcDbEntity
  8
RACCORDO
100
AcDbSpline
 62
7
  6
CONTINUOUS
 70
0
 71
3
 72
11
 73
7
 74
5
 42
0.0000001
 43
0.0000001
 44
0.0000000001
 12
0.0
 22
-0.3148612163
 32
0.0
 13
0.2816179689
 23
-0.1408151453
 33
0.0
 40
0.0
 40
0.0
 40
0.0
 40
0.0
 40
0.2897397507
 40
0.5495873685
 40
0.7828463209
 40
1.0
 40
1.0
 40
1.0
 40
1.0
 10
51.2789102116
 20
-94.6254373806
 30
0.0
 10
51.2789102116
 20
-94.6558466507
 30
0.0
 10
51.283818029
 20
-94.7137471305
 30
0.0
 10
51.3085641089
 20
-94.7929362119
 30
0.0
 10
51.3498970664
 20
-94.8563358808
 30
0.0
 10
51.3884719855
 20
-94.8856814909
 30
0.0
 10
51.4088567782
 20
-94.8958743332
 30
0.0
 11
51.2789102116
 21
-94.6254373806
 31
0.0
 11
51.287549381
 21
-94.71625521
 31
0.0
 11
51.3130446783
 21
-94.7939973308
 31
0.0
 11
51.3541501804
 21
-94.8548610133
 31
0.0
 11
51.4088567782
 21
-94.8958743332
 31
0.0
  0
SPLINE
  5
3CA
100
AcDbEntity
  8
RACCORDO
100
AcDbSpline
 62
7
  6
CONTINUOUS
 70
0
 71
3
 72
11
 73
7
 74
5
 42
0.0000001
 43
0.0000001
 44
0.0000000001
 12
0.0
 22
-0.3148612163
 32
0.0
 13
0.281617969
 23
-0.1408151451
 33
0.0
 40
0.0
 40
0.0
 40
0.0
 40
0.0
 40
0.2897397513
 40
0.5495873695
 40
0.7828463215
 40
1.0
 40
1.0
 40
1.0
 40
1.0
 10
-56.6962952756
 20
-40.637834637
 30
0.0
 10
-56.6962952756
 20
-40.6682439072
 30
0.0
 10
-56.6913874582
 20
-40.7261443871
 30
0.0
 10
-56.6666413782
 20
-40.8053334686
 30
0.0
 10
-56.6253084207
 20
-40.8687331374
 30
0.0
 10
-56.5867335016
 20
-40.8980787474
 30
0.0
 10
-56.566348709
 20
-40.9082715896
 30
0.0
 11
-56.6962952756
 21
-40.637834637
 31
0.0
 11
-56.6876561062
 21
-40.7286524666
 31
0.0
 11
-56.6621608088
 21
-40.8063945876
 31
0.0
 11
-56.6210553067
 21
-40.8672582699
 31
0.0
 11
-56.566348709
 21
-40.9082715896
 31
0.0
  0
SPLINE
  5
3CB
100
AcDbEntity
  8
RACCORDO
100
AcDbSpline
 62
7
  6
CONTINUOUS
 70
0
 71
3
 72
11
 73
7
 74
5
 42
0.0000001
 43
0.0000001
 44
0.0000000001
 12
-0.2152389882
 22
0.1076194941
 32
0.0
 13
-0.0
 23
0.2406445045
 33
0.0
 40
0.0
 40
0.0
 40
0.0
 40
0.0
 40
0.3025439565
 40
0.565502917
 40
0.7934274534
 40
1.0
 40
1.0
 40
1.0
 40
1.0
 10
-57.0498486662
 20
-40.0280452398
 30
0.0
 10
-57.0715550846
 20
-40.0171920307
 30
0.0
 10
-57.1107901795
 20
-39.9939086824
 30
0.0
 10
-57.1584199613
 20
-39.9508746918
 30
0.0
 10
-57.1889702659
 20
-39.9029581757
 30
0.0
 10
-57.1962929397
 20
-39.8678387272
 30
0.0
 10
-57.1962929397
 20
-39.8512685445
 30
0.0
 11
-57.0498486662
 21
-40.0280452398
 31
0.0
 11
-57.1120231456
 21
-39.9901640988
 31
0.0
 11
-57.1582371734
 21
-39.9469370812
 31
0.0
 11
-57.1866834125
 21
-39.9000414426
 31
0.0
 11
-57.1962929397
 21
-39.8512685445
 31
0.0
  0
SPLINE
  5
3CC
100
AcDbEntity
  8
RACCORDO
100
AcDbSpline
 62
7
  6
CONTINUOUS
 70
0
 71
3
 72
11
 73
7
 74
5
 42
0.0000001
 43
0.0000001
 44
0.0000000001
 12
-0.2152389882
 22
0.1076194941
 32
0.0
 13
-0.0
 23
0.2406445045
 33
0.0
 40
0.0
 40
0.0
 40
0.0
 40
0.0
 40
0.3025439569
 40
0.565502918
 40
0.793427454
 40
1.0
 40
1.0
 40
1.0
 40
1.0
 10
-57.0498486662
 20
92.2140339181
 30
0.0
 10
-57.0715550846
 20
92.2248871272
 30
0.0
 10
-57.1107901796
 20
92.2481704755
 30
0.0
 10
-57.1584199614
 20
92.2912044662
 30
0.0
 10
-57.188970266
 20
92.3391209823
 30
0.0
 10
-57.1962929398
 20
92.3742404307
 30
0.0
 10
-57.1962929398
 20
92.3908106133
 30
0.0
 11
-57.0498486662
 21
92.2140339181
 31
0.0
 11
-57.1120231456
 21
92.2519150591
 31
0.0
 11
-57.1582371735
 21
92.2951420768
 31
0.0
 11
-57.1866834126
 21
92.3420377155
 31
0.0
 11
-57.1962929398
 21
92.3908106133
 31
0.0
  0
SPLINE
  5
3CD
100
AcDbEntity
  8
RACCORDO
100
AcDbSpline
 62
7
  6
CONTINUOUS
 70
0
 71
3
 72
11
 73
7
 74
5
 42
0.0000001
 43
0.0000001
 44
0.0000000001
 12
-0.0
 22
0.7341091507
 32
0.0
 13
0.6566071856
 23
0.3283035928
 33
0.0
 40
0.0
 40
0.0
 40
0.0
 40
0.0
 40
0.2467998966
 40
0.5117850334
 40
0.7703179878
 40
1.0
 40
1.0
 40
1.0
 40
1.0
 10
-56.6962952756
 20
92.4702699246
 30
0.0
 10
-56.6962952756
 20
92.5306626122
 30
0.0
 10
-56.6754550386
 20
92.6561136393
 30
0.0
 10
-56.5999828058
 20
92.8305803929
 30
0.0
 10
-56.4890687179
 20
92.9797760854
 30
0.0
 10
-56.3930121717
 20
93.0549241786
 30
0.0
 10
-56.3427418851
 20
93.0800593219
 30
0.0
 11
-56.6962952756
 21
92.4702699246
 31
0.0
 11
-56.6693813706
 21
92.6494378126
 31
0.0
 11
-56.5927407171
 21
92.8282319913
 31
0.0
 11
-56.4780442972
 21
92.9794454485
 31
0.0
 11
-56.3427418851
 21
93.0800593219
 31
0.0
  0
SPLINE
  5
3CE
100
AcDbEntity
  8
RACCORDO
100
AcDbSpline
 62
7
  6
CONTINUOUS
 70
0
 71
3
 72
11
 73
7
 74
5
 42
0.0000001
 43
0.0000001
 44
0.0000000001
 12
0.0
 22
0.7341091508
 32
0.0
 13
0.6566071856
 23
0.3283035928
 33
0.0
 40
0.0
 40
0.0
 40
0.0
 40
0.0
 40
0.2467998972
 40
0.5117850334
 40
0.7703179873
 40
1.0
 40
1.0
 40
1.0
 40
1.0
 10
51.2789102116
 20
38.4826671811
 30
0.0
 10
51.2789102116
 20
38.5430598687
 30
0.0
 10
51.2997504487
 20
38.6685108959
 30
0.0
 10
51.3752226814
 20
38.8429776493
 30
0.0
 10
51.4861367692
 20
38.9921733418
 30
0.0
 10
51.5821933155
 20
39.0673214349
 30
0.0
 10
51.6324636022
 20
39.0924565782
 30
0.0
 11
51.2789102116
 21
38.4826671811
 31
0.0
 11
51.3058241167
 21
38.6618350694
 31
0.0
 11
51.3824647701
 21
38.8406292478
 31
0.0
 11
51.4971611897
 21
38.9918427047
 31
0.0
 11
51.6324636022
 21
39.0924565782
 31
0.0
  0
SPLINE
  5
3CF
100
AcDbEntity
  8
RACCORDO
100
AcDbSpline
 62
7
  6
CONTINUOUS
 70
0
 71
3
 72
11
 73
7
 74
5
 42
0.0000001
 43
0.0000001
 44
0.0000000001
 12
0.6499096796
 22
-0.3249548398
 32
0.0
 13
0.6499096796
 23
0.3249548398
 33
0.0
 40
0.0
 40
0.0
 40
0.0
 40
0.0
 40
0.2353766979
 40
0.4999999999
 40
0.764623302
 40
1.0
 40
1.0
 40
1.0
 40
1.0
 10
51.6324636022
 20
37.8728777839
 30
0.0
 10
51.6834548003
 20
37.8473821848
 30
0.0
 10
51.8006401068
 20
37.8110136802
 30
0.0
 10
51.9860169927
 20
37.7936444467
 30
0.0
 10
52.1713938787
 20
37.8110136801
 30
0.0
 10
52.2885791852
 20
37.8473821849
 30
0.0
 10
52.3395703834
 20
37.872877784
 30
0.0
 11
51.6324636022
 21
37.8728777839
 31
0.0
 11
51.7946799194
 21
37.8186835303
 31
0.0
 11
51.9860169927
 21
37.7996556471
 31
0.0
 11
52.1773540661
 21
37.8186835303
 31
0.0
 11
52.3395703834
 21
37.872877784
 31
0.0
  0
SPLINE
  5
3D0
100
AcDbEntity
  8
RACCORDO
100
AcDbSpline
 62
7
  6
CONTINUOUS
 70
0
 71
3
 72
11
 73
7
 74
5
 42
0.0000001
 43
0.0000001
 44
0.0000000001
 12
-0.0000000001
 22
1.4682177063
 32
0.0
 13
-1.313213839
 23
0.6566069191
 33
0.0
 40
0.0
 40
0.0
 40
0.0
 40
0.0
 40
0.2467918946
 40
0.5117851399
 40
0.7703254224
 40
1.0
 40
1.0
 40
1.0
 40
1.0
 10
52.3395703834
 20
37.8728777839
 30
0.0
 10
52.3395703833
 20
37.9936591937
 30
0.0
 10
52.2978874405
 20
38.244560124
 30
0.0
 10
52.1469496662
 20
38.5935008953
 30
0.0
 10
51.9251117848
 20
38.8918902671
 30
0.0
 10
51.7330008801
 20
39.0421879393
 30
0.0
 10
51.6324636022
 20
39.0924565782
 30
0.0
 11
52.3395703834
 21
37.8728777839
 31
0.0
 11
52.2857442215
 21
38.2312017782
 31
0.0
 11
52.1324622575
 21
38.5888026352
 31
0.0
 11
51.9030594804
 21
38.8912353232
 31
0.0
 11
51.6324636022
 21
39.0924565782
 31
0.0
  0
SPLINE
  5
3D1
100
AcDbEntity
  8
RACCORDO
100
AcDbSpline
 62
7
  6
CONTINUOUS
 70
0
 71
3
 72
11
 73
7
 74
5
 42
0.0000001
 43
0.0000001
 44
0.0000000001
 12
1.313213839
 22
-0.6566069191
 32
0.0
 13
0.0000000001
 23
-1.4682177063
 33
0.0
 40
0.0
 40
0.0
 40
0.0
 40
0.0
 40
0.2296745776
 40
0.4882148601
 40
0.7532081054
 40
1.0
 40
1.0
 40
1.0
 40
1.0
 10
55.4508402206
 20
41.0016448874
 30
0.0
 10
55.5513774985
 20
40.9513762485
 30
0.0
 10
55.7434884032
 20
40.8010785764
 30
0.0
 10
55.9653262846
 20
40.5026892045
 30
0.0
 10
56.1162640589
 20
40.1537484332
 30
0.0
 10
56.1579470018
 20
39.9028475029
 30
0.0
 10
56.1579470018
 20
39.7820660931
 30
0.0
 11
55.4508402206
 21
41.0016448874
 31
0.0
 11
55.7214360988
 21
40.8004236324
 31
0.0
 11
55.9508388759
 21
40.4979909444
 31
0.0
 11
56.1041208399
 21
40.1403900874
 31
0.0
 11
56.1579470018
 21
39.7820660931
 31
0.0
  0
SPLINE
  5
3D2
100
AcDbEntity
  8
RACCORDO
100
AcDbSpline
 62
7
  6
CONTINUOUS
 70
0
 71
3
 72
11
 73
7
 74
5
 42
0.0000001
 43
0.0000001
 44
0.0000000001
 12
0.0000000001
 22
-0.6297215485
 32
0.0
 13
-0.5632496412
 23
-0.2816009062
 33
0.0
 40
0.0
 40
0.0
 40
0.0
 40
0.0
 40
0.2897538844
 40
0.5495823905
 40
0.7828465249
 40
1.0
 40
1.0
 40
1.0
 40
1.0
 10
56.1579470018
 20
-92.4600130648
 30
0.0
 10
56.1579470018
 20
-92.5208344864
 30
0.0
 10
56.1481340138
 20
-92.6366351359
 30
0.0
 10
56.0986329095
 20
-92.7950098225
 30
0.0
 10
56.0159745044
 20
-92.9218089777
 30
0.0
 10
55.9388243022
 20
-92.980503221
 30
0.0
 10
55.8980537632
 20
-93.0008867595
 30
0.0
 11
56.1579470018
 21
-92.4600130648
 31
0.0
 11
56.1406676627
 21
-92.6416573115
 31
0.0
 11
56.0896765614
 21
-92.7971284796
 31
0.0
 11
56.0074666948
 21
-92.9188603016
 31
0.0
 11
55.8980537632
 21
-93.0008867595
 31
0.0
  0
SPLINE
  5
3D3
100
AcDbEntity
  8
RACCORDO
100
AcDbSpline
 62
7
  6
CONTINUOUS
 70
0
 71
3
 72
11
 73
7
 74
5
 42
0.0000001
 43
0.0000001
 44
0.0000000001
 12
-0.4148329673
 22
0.2074164836
 32
0.0
 13
-0.4148400133
 23
-0.2074023911
 33
0.0
 40
0.0
 40
0.0
 40
0.0
 40
0.0
 40
0.2792250654
 40
0.5353265952
 40
0.772888583
 40
1.0
 40
1.0
 40
1.0
 40
1.0
 10
-56.342741885
 20
93.0800593218
 30
0.0
 10
-56.3813524725
 20
93.0993646156
 30
0.0
 10
-56.4585652246
 20
93.1305824532
 30
0.0
 10
-56.5769028172
 20
93.1528170024
 30
0.0
 10
-56.6893455101
 20
93.1471926392
 30
0.0
 10
-56.7585504584
 20
93.1241621544
 30
0.0
 10
-56.7899554262
 20
93.1084610041
 30
0.0
 11
-56.342741885
 21
93.0800593218
 31
0.0
 11
-56.4631931658
 21
93.1276275407
 31
0.0
 11
-56.5801256115
 21
93.1484914931
 31
0.0
 11
-56.6901171505
 21
93.1420392977
 31
0.0
 11
-56.7899554262
 21
93.1084610041
 31
0.0
  0
ELLIPSE
  5
3D4
100
AcDbEntity
  8
RACCORDO
100
AcDbEllipse
 62
7
  6
CONTINUOUS
 10
-36.7934535617
 20
68.9249620296
 30
0.0
 11
-0.313181275
 21
0.626269159
 31
0.0
 40
0.6121897086
 41
-0.6846338794
 42
0.0188552051
  0
ELLIPSE
  5
3D5
100
AcDbEntity
  8
RACCORDO
100
AcDbEllipse
 62
7
  6
CONTINUOUS
 10
-33.7085041463
 20
-34.9184858111
 30
0.0
 11
-0.1341484654
 21
0.2683369961
 31
0.0
 40
0.6125552124
 41
0.8862964655
 42
2.4567882058
  0
ELLIPSE
  5
3D6
100
AcDbEntity
  8
RACCORDO
100
AcDbEllipse
 62
7
  6
CONTINUOUS
 10
-34.0267021978
 20
-35.0696389058
 30
0.0
 11
-0.1341484654
 21
0.2683369961
 31
0.0
 40
0.6125552124
 41
0.8862964655
 42
2.4567882058
  0
ELLIPSE
  5
3D7
100
AcDbEntity
  8
RACCORDO
100
AcDbEllipse
 62
7
  6
CONTINUOUS
 10
31.3760684977
 20
-71.0801294855
 30
0.0
 11
-0.313181275
 21
0.626269159
 31
0.0
 40
0.6121897086
 41
-3.1605525579
 42
-2.2557347926
  0
ELLIPSE
  5
3D8
100
AcDbEntity
  8
RACCORDO
100
AcDbEllipse
 62
7
  6
CONTINUOUS
 10
31.3760684977
 20
34.8402009999
 30
0.0
 11
-0.3130130858
 21
0.6261196575
 31
0.0
 40
0.6125552124
 41
-2.255296188
 42
-0.6848044477
  0
ELLIPSE
  5
3D9
100
AcDbEntity
  8
0
100
AcDbEllipse
 62
7
  6
CONTINUOUS
 10
-31.0503783876
 20
-10.1754999728
 30
0.0
 11
-0.0891456483
 21
0.1797268471
 31
0.0
 40
0.6110058077
 41
-3.080440706
 42
-2.2526829854
  0
ELLIPSE
  5
3DA
100
AcDbEntity
  8
0
100
AcDbEllipse
 62
7
  6
CONTINUOUS
 10
-31.0503783876
 20
41.7860242543
 30
0.0
 11
-0.0891456483
 21
0.1797268471
 31
0.0
 40
0.6110058077
 41
-3.080440706
 42
-2.2526829854
  0
ELLIPSE
  5
3DB
100
AcDbEntity
  8
0
100
AcDbEllipse
 62
7
  6
CONTINUOUS
 10
-21.5251741094
 20
-39.3129700012
 30
0.0
 11
-0.0903365947
 21
0.1789673014
 31
0.0
 40
0.6118980814
 41
-0.6882303478
 42
-0.0534222123
  0
ELLIPSE
  5
3DC
100
AcDbEntity
  8
0
100
AcDbEllipse
 62
7
  6
CONTINUOUS
 10
-17.4090723829
 20
-42.0735158193
 30
0.0
 11
-0.0903365947
 21
0.1789673014
 31
0.0
 40
0.6118980814
 41
-3.0879513311
 42
-2.2605477526
  0
ELLIPSE
  5
3DD
100
AcDbEntity
  8
0
100
AcDbEllipse
 62
7
  6
CONTINUOUS
 10
22.4568676804
 20
-61.3039908961
 30
0.0
 11
-0.0903365947
 21
0.1789673014
 31
0.0
 40
0.6118980814
 41
-0.6882303478
 42
-0.0534222123
  0
ELLIPSE
  5
3DE
100
AcDbEntity
  8
RACCORDO
100
AcDbEllipse
 62
7
  6
CONTINUOUS
 10
17.677582307
 20
-60.9508629699
 30
0.0
 11
0.1379861541
 21
0.2664038768
 31
0.0
 40
0.6229838795
 41
6.2919624783
 42
6.9593374368
  0
ELLIPSE
  5
3DF
100
AcDbEntity
  8
0
100
AcDbEllipse
 62
7
  6
CONTINUOUS
 10
-31.0503783876
 20
-5.1343254931
 30
0.0
 11
-0.0889021624
 21
0.1795146163
 31
0.0
 40
0.6128267509
 41
-2.2504677204
 42
-0.6811924717
  0
ELLIPSE
  5
3E0
100
AcDbEntity
  8
0
100
AcDbEllipse
 62
7
  6
CONTINUOUS
 10
-31.6239631164
 20
-4.8475331287
 30
0.0
 11
-0.0891456483
 21
0.1797268471
 31
0.0
 40
0.6110058077
 41
-0.6803655806
 42
-0.0610993631
  0
ELLIPSE
  5
3E1
100
AcDbEntity
  8
0
100
AcDbEllipse
 62
7
  6
CONTINUOUS
 10
-31.0503783876
 20
46.827198734
 30
0.0
 11
-0.0889021624
 21
0.1795146163
 31
0.0
 40
0.6128267509
 41
-2.2504677204
 42
-0.6811924717
  0
ELLIPSE
  5
3E2
100
AcDbEntity
  8
0
100
AcDbEllipse
 62
7
  6
CONTINUOUS
 10
-31.6239631164
 20
47.1139910983
 30
0.0
 11
-0.0891456483
 21
0.1797268471
 31
0.0
 40
0.6110058077
 41
-0.6803655806
 42
-0.0610993631
  0
ELLIPSE
  5
3E3
100
AcDbEntity
  8
0
100
AcDbEllipse
 62
7
  6
CONTINUOUS
 10
-17.4090723829
 20
-41.3710208644
 30
0.0
 11
-0.0900992683
 21
0.1787520981
 31
0.0
 40
0.6137275756
 41
-2.2583825133
 42
-0.6891072646
  0
ELLIPSE
  5
3E4
100
AcDbEntity
  8
0
100
AcDbEllipse
 62
7
  6
CONTINUOUS
 10
26.5729694069
 20
-64.0645367142
 30
0.0
 11
-0.0903365947
 21
0.1789673014
 31
0.0
 40
0.6118980814
 41
-2.9330414672
 42
-2.2605477526
  0
ELLIPSE
  5
3E5
100
AcDbEntity
  8
0
100
AcDbEllipse
 62
7
  6
CONTINUOUS
 10
26.5729694069
 20
-63.3620417593
 30
0.0
 11
-0.0900992683
 21
0.1787520981
 31
0.0
 40
0.6137275756
 41
-2.2583825133
 42
-0.6891072646
  0
ELLIPSE
  5
3E6
100
AcDbEntity
  8
RACCORDO
100
AcDbEllipse
 62
7
  6
CONTINUOUS
 10
-33.622250908
 20
53.8987348163
 30
0.0
 11
0.2999918237
 21
0.0043377328
 31
0.0
 40
0.5106100819
 41
5.5078574022
 42
6.0515880746
  0
ELLIPSE
  5
3E7
100
AcDbEntity
  8
RACCORDO
100
AcDbEllipse
 62
7
  6
CONTINUOUS
 10
-33.622250908
 20
36.5782267406
 30
0.0
 11
0.2999918237
 21
0.0043377328
 31
0.0
 40
0.5106100819
 41
5.5078574022
 42
6.0515880746
  0
ELLIPSE
  5
3E8
100
AcDbEntity
  8
RACCORDO
100
AcDbEllipse
 62
7
  6
CONTINUOUS
 10
-33.622250908
 20
19.2577186649
 30
0.0
 11
0.2999918237
 21
0.0043377328
 31
0.0
 40
0.5106100819
 41
5.5078574022
 42
6.0515880746
  0
ELLIPSE
  5
3E9
100
AcDbEntity
  8
RACCORDO
100
AcDbEllipse
 62
7
  6
CONTINUOUS
 10
-33.622250908
 20
1.9372105892
 30
0.0
 11
0.2999918237
 21
0.0043377328
 31
0.0
 40
0.5106100819
 41
5.5078574022
 42
6.0515880746
  0
ELLIPSE
  5
3EA
100
AcDbEntity
  8
RACCORDO
100
AcDbEllipse
 62
7
  6
CONTINUOUS
 10
-33.622250908
 20
-15.3832974865
 30
0.0
 11
0.2999918237
 21
0.0043377328
 31
0.0
 40
0.5106100819
 41
5.5078574022
 42
6.0515880746
  0
ELLIPSE
  5
3EB
100
AcDbEntity
  8
RACCORDO
100
AcDbEllipse
 62
7
  6
CONTINUOUS
 10
18.8389332723
 20
-61.5315384525
 30
0.0
 11
0.1304891768
 21
0.2701542511
 31
0.0
 40
0.6016116119
 41
-0.0083403185
 42
0.3595437777
  0
ELLIPSE
  5
3EC
100
AcDbEntity
  8
RACCORDO
100
AcDbEllipse
 62
7
  6
CONTINUOUS
 10
-21.331243919
 20
-41.4464498569
 30
0.0
 11
0.1549889321
 21
0.257462725
 31
0.0
 40
0.6636722472
 41
0.0518426205
 42
0.4197510013
  0
ELLIPSE
  5
3ED
100
AcDbEntity
  8
RACCORDO
100
AcDbEllipse
 62
7
  6
CONTINUOUS
 10
18.3822205692
 20
-61.303182101
 30
0.0
 11
0.1379861541
 21
0.2664038768
 31
0.0
 40
0.6229838795
 41
5.9220023235
 42
6.6598446138
  0
ELLIPSE
  5
3EE
100
AcDbEntity
  8
RACCORDO
100
AcDbEllipse
 62
7
  6
CONTINUOUS
 10
21.287870392
 20
-62.7560070123
 30
0.0
 11
0.1170451071
 21
0.2766776858
 31
0.0
 40
0.5572482653
 41
5.361723529
 42
6.9150665633
  0
ELLIPSE
  5
3EF
100
AcDbEntity
  8
RACCORDO
100
AcDbEllipse
 62
7
  6
CONTINUOUS
 10
5.3779678153
 20
-54.801055724
 30
0.0
 11
0.1170451071
 21
0.2766776858
 31
0.0
 40
0.5572482653
 41
5.361723529
 42
6.9150665633
  0
ENDSEC
  0
SECTION
  2
OBJECTS
  0
DICTIONARY
  5
C
100
AcDbDictionary
280
0
281
1
  3
ACAD_GROUP
350
D
  3
ACAD_MLINESTYLE
350
17
  3
ACAD_LAYOUT
350
1A
  3
ACAD_PLOTSETTINGS
350
19
  3
ACAD_PLOTSTYLENAME
350
E
  0
DICTIONARY
  5
D
102
{ACAD_REACTORS
330
C
102
}
100
AcDbDictionary
280
0
281
1
  0
ACDBDICTIONARYWDFLT
  5
E
102
{ACAD_REACTORS
330
C
102
}
100
AcDbDictionary
281
1
  3
Normal
350
F
100
AcDbDictionaryWithDefault
340
F
  0
DICTIONARY
  5
17
102
{ACAD_REACTORS
330
C
102
}
100
AcDbDictionary
280
0
281
1
  3
Standard
350
18
  0
DICTIONARY
  5
19
102
{ACAD_REACTORS
330
C
102
}
100
AcDbDictionary
281
1
  0
DICTIONARY
  5
1A
102
{ACAD_REACTORS
330
C
102
}
100
AcDbDictionary
281
1
  3
Model
350
3F0
  3
Layout1
350
3F1
  0
ACDBPLACEHOLDER
  5
F
102
{ACAD_REACTORS
330
E
102
}
  0
MLINESTYLE
  5
18
102
{ACAD_REACTORS
330
17
102
}
100
AcDbMlineStyle
  2
STANDARD
 70
0
  3

 62
256
 51
90.0
 52
90.0
 71
2
 49
0.5
 62
256
  6
BYLAYER
 49
-0.5
 62
256
  6
BYLAYER
  0
LAYOUT
  5
3F0
102
{ACAD_REACTORS
330
1A
102
}
100
AcDbPlotSettings
  1

  2
none_device
  4
ISO_A4_(297.00_x_210.00_MM)
  6

 40
0.0
 41
0.0
 42
0.0
 43
0.0
 44
297.0
 45
210.0
 46
0.0
 47
0.0
 48
0.0
 49
0.0
140
0.0
141
0.0
142
1.0
143
1.0
 70
1024
 72
1
 73
0
 74
0
  7

 75
0
147
1.0
148
0.0
149
0.0
100
AcDbLayout
  1
Model
 70
0
 71
0
 10
0.0
 20
0.0
 11
297.0
 21
210.0
 12
0.0
 22
0.0
 32
0.0
 14
0.0
 24
0.0
 34
0.0
 15
0.0
 25
0.0
 35
0.0
146
0.0
 13
0.0
 23
0.0
 33
0.0
 16
1.0
 26
0.0
 36
0.0
 17
0.0
 27
1.0
 37
0.0
 76
0
330
216
345
0
346
0
  0
LAYOUT
  5
3F1
102
{ACAD_REACTORS
330
1A
102
}
100
AcDbPlotSettings
  1

  2
none_device
  4
ISO_A4_(297.00_x_210.00_MM)
  6

 40
0.0
 41
0.0
 42
0.0
 43
0.0
 44
297.0
 45
210.0
 46
0.0
 47
0.0
 48
0.0
 49
0.0
140
0.0
141
0.0
142
1.0
143
1.0
 70
0
 72
1
 73
0
 74
0
  7

 75
0
147
1.0
148
0.0
149
0.0
100
AcDbLayout
  1
Layout1
 70
0
 71
1
 10
0.0
 20
0.0
 11
297.0
 21
210.0
 12
0.0
 22
0.0
 32
0.0
 14
0.0
 24
0.0
 34
0.0
 15
0.0
 25
0.0
 35
0.0
146
0.0
 13
0.0
 23
0.0
 33
0.0
 16
1.0
 26
0.0
 36
0.0
 17
0.0
 27
1.0
 37
0.0
 76
0
330
217
345
0
346
0
  0
ENDSEC
  0
EOF
