  0
SECTION
  2
HEADER
  9
$ACADVER
  1
AC1015
  9
$DWGCODEPAGE
  3
ANSI_1252
  9
$EXTMAX
 10
297.0
 20
210.0
 30
0.0
  9
$EXTMIN
 10
0.0
 20
0.0
 30
0.0
  9
$LIMMIN
 10
0.0
 20
0.0
  9
$LIMMAX
 10
297.0
 20
210.0
  9
$VIEWCTR
 10
148.5
 20
105.0
  9
$VIEWSIZE
 40
210.0
  9
$CLAYER
  8
0
  9
$LTSCALE
 40
16.335
  9
$CELTYPE
  6
BYLAYER
  9
$DIMSCALE
 40
1.0
  9
$DIMASZ
 40
3.0
  9
$DIMEXO
 40
1.85625
  9
$DIMDLI
 40
11.286
  9
$DIMEXE
 40
5.346
  9
$DIMCEN
 40
2.673
  9
$DIMLFAC
 40
1.0
  9
$DIMBLK
  1
_FILLED
  9
$DIMTXT
 40
3.0
  9
$DIMTOL
 70
1
  9
$DIMLIM
 70
0
  9
$DIMTFAC
 40
1.0
  9
$DIMTP
 40
0.01
  9
$DIMTM
 40
0.01
  9
$PDMODE
 70
3
  9
$PDSIZE
 40
3.0
  9
$HANDSEED
  5
40D
  9
$TILEMODE
 70
1
  9
$MEASUREMENT
 70
1
  9
$INSUNITS
 70
4
  0
ENDSEC
  0
SECTION
  2
CLASSES
  0
CLASS
  1
ACDBDICTIONARYWDFLT
  2
AcDbDictionaryWithDefault
  3
AutoCAD 2000
 90
0
280
0
281
0
  0
CLASS
  1
ACDBPLACEHOLDER
  2
AcDbPlaceHolder
  3
AutoCAD 2000
 90
0
280
0
281
0
  0
CLASS
  1
LAYOUT
  2
AcDbLayout
  3
AutoCAD 2000
 90
0
280
0
281
0
  0
ENDSEC
  0
SECTION
  2
TABLES
  0
TABLE
  2
VPORT
  5
8
100
AcDbSymbolTable
 70
2
  0
VPORT
  5
1F4
100
AcDbSymbolTableRecord
100
AcDbViewportTableRecord
  2
*ACTIVE
 70
0
 10
0.0
 20
0.0
 11
1.0
 21
1.0
 12
148.5
 22
105.0
 13
0.0
 23
0.0
 14
1.0
 24
1.0
 15
0.0
 25
0.0
 16
0.0
 26
0.0
 36
1.0
 17
0.0
 27
0.0
 37
0.0
 40
210.0
 41
1.4142857143
 42
50.0
 43
0.0
 44
0.0
 50
0.0
 51
0.0
 71
0
 72
100
 73
1
 74
1
 75
0
 76
0
 77
0
 78
0
  0
ENDTAB
  0
TABLE
  2
LTYPE
  5
5
100
AcDbSymbolTable
 70
6
  0
LTYPE
  5
14
100
AcDbSymbolTableRecord
100
AcDbLinetypeTableRecord
  2
BYBLOCK
 70
0
  3

 72
65
 73
0
 40
0.0
  0
LTYPE
  5
15
100
AcDbSymbolTableRecord
100
AcDbLinetypeTableRecord
  2
BYLAYER
 70
0
  3

 72
65
 73
0
 40
0.0
  0
LTYPE
  5
16
100
AcDbSymbolTableRecord
100
AcDbLinetypeTableRecord
  2
CONTINUOUS
 70
64
  3
Solid line
 72
65
 73
0
 40
0.0
  0
LTYPE
  5
1F5
100
AcDbSymbolTableRecord
100
AcDbLinetypeTableRecord
  2
CENTER
 70
64
  3
____ _ ____ _ ____ _ ____ _ ____ _ ____ _ ____
 72
65
 73
4
 40
0.6
 49
0.375
 74
0
 49
-0.075
 74
0
 49
0.075
 74
0
 49
-0.075
 74
0
  0
LTYPE
  5
1F6
100
AcDbSymbolTableRecord
100
AcDbLinetypeTableRecord
  2
HIDDEN
 70
64
  3
- - - - - - - - - - - - - - - - - - - -
 72
65
 73
2
 40
0.2
 49
0.1
 74
0
 49
-0.1
 74
0
  0
LTYPE
  5
1F7
100
AcDbSymbolTableRecord
100
AcDbLinetypeTableRecord
  2
PHANTOM
 70
64
  3
_____ _ _ _____ _ _ _____ _ _ _____
 72
65
 73
6
 40
0.8
 49
0.45
 74
0
 49
-0.05
 74
0
 49
0.1
 74
0
 49
-0.05
 74
0
 49
0.1
 74
0
 49
-0.05
 74
0
  0
LTYPE
  5
1F8
100
AcDbSymbolTableRecord
100
AcDbLinetypeTableRecord
  2
DOT
 70
64
  3
. . . . . . . . . . . . . . . . . . . .
 72
65
 73
2
 40
0.2
 49
0.1
 74
0
 49
-0.1
 74
0
  0
LTYPE
  5
1F9
100
AcDbSymbolTableRecord
100
AcDbLinetypeTableRecord
  2
DASHED
 70
64
  3
- - - - - - - - - - - - - - - - - - - -
 72
65
 73
2
 40
0.2
 49
0.1
 74
0
 49
-0.1
 74
0
  0
ENDTAB
  0
TABLE
  2
LAYER
  5
2
100
AcDbSymbolTable
 70
36
  0
LAYER
  5
10
100
AcDbSymbolTableRecord
100
AcDbLayerTableRecord
  2
0
 70
0
 62
7
  6
CONTINUOUS
370
-3
390
F
  0
LAYER
  5
1FA
100
AcDbSymbolTableRecord
100
AcDbLayerTableRecord
  2
DEFAULT_1
 70
0
 62
7
  6
CENTER
370
-3
390
F
  0
LAYER
  5
1FB
100
AcDbSymbolTableRecord
100
AcDbLayerTableRecord
  2
DEFAULT_2
 70
0
 62
7
  6
HIDDEN
370
-3
390
F
  0
LAYER
  5
1FC
100
AcDbSymbolTableRecord
100
AcDbLayerTableRecord
  2
DEFAULT_3
 70
0
 62
7
  6
PHANTOM
370
-3
390
F
  0
LAYER
  5
1FD
100
AcDbSymbolTableRecord
100
AcDbLayerTableRecord
  2
ASSI
 70
0
 62
7
  6
CONTINUOUS
370
-3
390
F
  0
LAYER
  5
1FE
100
AcDbSymbolTableRecord
100
AcDbLayerTableRecord
  2
COORDINATE
 70
0
 62
7
  6
CONTINUOUS
370
-3
390
F
  0
LAYER
  5
1FF
100
AcDbSymbolTableRecord
100
AcDbLayerTableRecord
  2
COORD_ORIGINE
 70
0
 62
7
  6
CONTINUOUS
370
-3
390
F
  0
LAYER
  5
200
100
AcDbSymbolTableRecord
100
AcDbLayerTableRecord
  2
COPY_PUBLISH
 70
0
 62
7
  6
CONTINUOUS
370
-3
390
F
  0
LAYER
  5
201
100
AcDbSymbolTableRecord
100
AcDbLayerTableRecord
  2
COSMETIC
 70
0
 62
7
  6
CONTINUOUS
370
-3
390
F
  0
LAYER
  5
202
100
AcDbSymbolTableRecord
100
AcDbLayerTableRecord
  2
COSMETICI
 70
0
 62
7
  6
CONTINUOUS
370
-3
390
F
  0
LAYER
  5
203
100
AcDbSymbolTableRecord
100
AcDbLayerTableRecord
  2
CURVE
 70
0
 62
7
  6
CONTINUOUS
370
-3
390
F
  0
LAYER
  5
204
100
AcDbSymbolTableRecord
100
AcDbLayerTableRecord
  2
CURVE_TASSELLI
 70
0
 62
7
  6
CONTINUOUS
370
-3
390
F
  0
LAYER
  5
205
100
AcDbSymbolTableRecord
100
AcDbLayerTableRecord
  2
DRAFT
 70
0
 62
7
  6
CONTINUOUS
370
-3
390
F
  0
LAYER
  5
206
100
AcDbSymbolTableRecord
100
AcDbLayerTableRecord
  2
IGES
 70
0
 62
7
  6
CONTINUOUS
370
-3
390
F
  0
LAYER
  5
207
100
AcDbSymbolTableRecord
100
AcDbLayerTableRecord
  2
IMPORT_IGES
 70
0
 62
7
  6
CONTINUOUS
370
-3
390
F
  0
LAYER
  5
208
100
AcDbSymbolTableRecord
100
AcDbLayerTableRecord
  2
INTFCLR_2
 70
0
 62
7
  6
CONTINUOUS
370
-3
390
F
  0
LAYER
  5
209
100
AcDbSymbolTableRecord
100
AcDbLayerTableRecord
  2
NOTE
 70
0
 62
7
  6
CONTINUOUS
370
-3
390
F
  0
LAYER
  5
20A
100
AcDbSymbolTableRecord
100
AcDbLayerTableRecord
  2
PIANI
 70
0
 62
7
  6
CONTINUOUS
370
-3
390
F
  0
LAYER
  5
20B
100
AcDbSymbolTableRecord
100
AcDbLayerTableRecord
  2
PIANI_ORIGINE
 70
0
 62
7
  6
CONTINUOUS
370
-3
390
F
  0
LAYER
  5
20C
100
AcDbSymbolTableRecord
100
AcDbLayerTableRecord
  2
PUNTI
 70
0
 62
7
  6
CONTINUOUS
370
-3
390
F
  0
LAYER
  5
20D
100
AcDbSymbolTableRecord
100
AcDbLayerTableRecord
  2
RACCORDO
 70
0
 62
7
  6
CONTINUOUS
370
-3
390
F
  0
LAYER
  5
20E
100
AcDbSymbolTableRecord
100
AcDbLayerTableRecord
  2
SIMBOLI
 70
0
 62
7
  6
CONTINUOUS
370
-3
390
F
  0
LAYER
  5
20F
100
AcDbSymbolTableRecord
100
AcDbLayerTableRecord
  2
SMUSSO
 70
0
 62
7
  6
CONTINUOUS
370
-3
390
F
  0
LAYER
  5
210
100
AcDbSymbolTableRecord
100
AcDbLayerTableRecord
  2
SNAPLINE
 70
0
 62
7
  6
CONTINUOUS
370
-3
390
F
  0
LAYER
  5
211
100
AcDbSymbolTableRecord
100
AcDbLayerTableRecord
  2
SUPERFICI
 70
0
 62
7
  6
CONTINUOUS
370
-3
390
F
  0
LAYER
  5
212
100
AcDbSymbolTableRecord
100
AcDbLayerTableRecord
  2
TRASH
 70
0
 62
7
  6
CONTINUOUS
370
-3
390
F
  0
LAYER
  5
213
100
AcDbSymbolTableRecord
100
AcDbLayerTableRecord
  2
XSEC_DATUMS
 70
0
 62
7
  6
CONTINUOUS
370
-3
390
F
  0
ENDTAB
  0
TABLE
  2
STYLE
  5
3
100
AcDbSymbolTable
 70
1
  0
STYLE
  5
11
100
AcDbSymbolTableRecord
100
AcDbTextStyleTableRecord
  2
STANDARD
 70
0
 40
0.0
 41
0.8
 50
0.0
 71
0
 42
0.2
  3
txt
  4

  0
STYLE
  5
214
100
AcDbSymbolTableRecord
100
AcDbTextStyleTableRecord
  2
TEXTSTYLE_1
 70
0
 40
0.0
 41
0.8
 50
0.0
 71
0
 42
0.2
  3
gdt
  4

  0
ENDTAB
  0
TABLE
  2
VIEW
  5
6
100
AcDbSymbolTable
 70
0
  0
ENDTAB
  0
TABLE
  2
UCS
  5
7
100
AcDbSymbolTable
 70
0
  0
ENDTAB
  0
TABLE
  2
APPID
  5
9
100
AcDbSymbolTable
 70
1
  0
APPID
  5
215
100
AcDbSymbolTableRecord
100
AcDbRegAppTableRecord
  2
ACAD
 70
0
  0
ENDTAB
  0
TABLE
  2
BLOCK_RECORD
  5
1
100
AcDbSymbolTable
 70
0
  0
BLOCK_RECORD
  5
216
100
AcDbSymbolTableRecord
100
AcDbBlockTableRecord
  2
*Model_Space
  0
BLOCK_RECORD
  5
217
100
AcDbSymbolTableRecord
100
AcDbBlockTableRecord
  2
*Paper_Space
  0
ENDTAB
  0
TABLE
  2
DIMSTYLE
  5
A
100
AcDbSymbolTable
 70
1
100
AcDbDimStyleTable
 71
0
  0
DIMSTYLE
105
218
100
AcDbSymbolTableRecord
100
AcDbDimStyleTableRecord
  2
STANDARD
 70
0
  3

  4

 40
1.0
 41
3.0
 42
0.0625
 43
0.38
 44
0.18
 45
0.0
 46
0.0
 47
0.01
 48
0.01
140
3.0
141
0.09
142
0.0
143
25.4
144
1.0
145
0.0
146
1.0
147
0.09
 71
1.0
 72
0.0
 73
0
 74
0
 75
0
 76
0
 77
1
 78
8
170
0
171
2
172
0
173
0
174
0
175
0
176
0
177
0
178
0
270
2
271
2
272
2
273
2
274
2
275
0
280
0
281
0
282
0
283
1
284
8
285
0
286
0
287
3
288
0
340
11
  0
ENDTAB
  0
ENDSEC
  0
SECTION
  2
BLOCKS
  0
BLOCK
  5
20
100
AcDbEntity
  8
0
100
AcDbBlockBegin
  2
*Model_Space
 70
0
 10
0.0
 20
0.0
 30
0.0
  3
*Model_Space
  1

  0
ENDBLK
  5
21
100
AcDbEntity
  8
0
100
AcDbBlockEnd
  0
BLOCK
  5
1C
100
AcDbEntity
  8
0
100
AcDbBlockBegin
  2
*Paper_Space
 70
0
 10
0.0
 20
0.0
 30
0.0
  3
*Paper_Space
  1

  0
ENDBLK
  5
1D
100
AcDbEntity
  8
0
100
AcDbBlockEnd
  0
ENDSEC
  0
SECTION
  2
ENTITIES
  0
LWPOLYLINE
  5
219
100
AcDbEntity
  8
RACCORDO
100
AcDbPolyline
 62
7
  6
CONTINUOUS
 90
7
 70
0
 10
-54.4540673073
 20
94.7419438591
 10
-54.5002131118
 20
94.7146718327
 10
-54.5440484799
 20
94.6839659546
 10
-54.585615789
 20
94.6498388682
 10
-54.624788916
 20
94.6124206527
 10
-54.6615019731
 20
94.5717850405
 10
-54.6772819375
 20
94.5515705574
  0
LINE
  5
21A
100
AcDbEntity
  8
RACCORDO
100
AcDbLine
 62
7
  6
CONTINUOUS
 10
-54.4540186262
 20
94.7419732961
 11
-52.4871666017
 21
95.8031350863
  0
LINE
  5
21B
100
AcDbEntity
  8
RACCORDO
100
AcDbLine
 62
7
  6
CONTINUOUS
 10
-53.7649144434
 20
94.7089438567
 11
-51.8008740979
 21
95.7685886816
  0
LINE
  5
21C
100
AcDbEntity
  8
RACCORDO
100
AcDbLine
 62
7
  6
CONTINUOUS
 10
-57.3390943799
 20
93.9195054094
 11
-55.5713280213
 21
94.8033885887
  0
LINE
  5
21D
100
AcDbEntity
  8
SMUSSO
100
AcDbLine
 62
7
  6
CONTINUOUS
 10
-56.8918813788
 20
93.891103325
 11
-55.1241144258
 21
94.7749868015
  0
LINE
  5
21E
100
AcDbEntity
  8
SMUSSO
100
AcDbLine
 62
7
  6
CONTINUOUS
 10
-57.5989881599
 20
92.6715245307
 11
-56.8918813788
 21
93.891103325
  0
LWPOLYLINE
  5
21F
100
AcDbEntity
  8
RACCORDO
100
AcDbPolyline
 62
7
  6
CONTINUOUS
 90
6
 70
0
 10
53.9174800116
 20
-93.0148111691
 10
53.9753093121
 20
-93.0077305002
 10
54.0316408514
 20
-92.9962301571
 10
54.0861043783
 20
-92.9804521747
 10
54.1384527789
 20
-92.9605634845
 10
54.1572098379
 20
-92.9522166524
  0
LINE
  5
220
100
AcDbEntity
  8
RACCORDO
100
AcDbLine
 62
7
  6
CONTINUOUS
 10
53.9117512332
 20
-93.0150634272
 11
53.9174800116
 21
-93.0148111691
  0
LINE
  5
221
100
AcDbEntity
  8
RACCORDO
100
AcDbLine
 62
7
  6
CONTINUOUS
 10
-54.0685898367
 20
94.247224507
 11
-53.8623053767
 21
94.6074609645
  0
LINE
  5
222
100
AcDbEntity
  8
SMUSSO
100
AcDbLine
 62
7
  6
CONTINUOUS
 10
50.7297707178
 20
-94.167946768
 11
52.1439842802
 21
-94.167946768
  0
LINE
  5
223
100
AcDbEntity
  8
RACCORDO
100
AcDbLine
 62
7
  6
CONTINUOUS
 10
53.9117512332
 20
-92.1569953686
 11
54.4242567043
 21
-92.1592316244
  0
LWPOLYLINE
  5
224
100
AcDbEntity
  8
RACCORDO
100
AcDbPolyline
 62
7
  6
CONTINUOUS
 90
15
 70
0
 10
-38.6949108129
 20
69.3735598378
 10
-38.7212385258
 20
69.3581798449
 10
-38.7526663737
 20
69.3364568969
 10
-38.7823647854
 20
69.3119847588
 10
-38.8101154497
 20
69.2849092313
 10
-38.8358583597
 20
69.2552283385
 10
-38.8594041609
 20
69.2230566525
 10
-38.8805632605
 20
69.1885502325
 10
-38.8992714994
 20
69.1516953567
 10
-38.9153828125
 20
69.1125871021
 10
-38.9287358064
 20
69.0713692312
 10
-38.9392346358
 20
69.0280050131
 10
-38.9467440568
 20
68.9825118346
 10
-38.9510915671
 20
68.9350178621
 10
-38.9521906831
 20
68.8954230569
  0
LINE
  5
225
100
AcDbEntity
  8
RACCORDO
100
AcDbLine
 62
7
  6
CONTINUOUS
 10
-38.6948955298
 20
69.3735725481
 11
-37.8213063437
 21
69.8448939607
  0
LINE
  5
226
100
AcDbEntity
  8
RACCORDO
100
AcDbLine
 62
7
  6
CONTINUOUS
 10
-38.3730994692
 20
69.3582743313
 11
-37.5010066441
 21
69.8287884177
  0
LINE
  5
227
100
AcDbEntity
  8
SMUSSO
100
AcDbLine
 62
7
  6
CONTINUOUS
 10
-57.5989881599
 20
-40.0035673291
 11
-56.8918813788
 21
-40.5160393423
  0
LINE
  5
228
100
AcDbEntity
  8
SMUSSO
100
AcDbLine
 62
7
  6
CONTINUOUS
 10
-57.5989881599
 20
-40.0035673291
 11
-57.0332994621
 21
-40.4278338525
  0
LINE
  5
229
100
AcDbEntity
  8
RACCORDO
100
AcDbLine
 62
7
  6
CONTINUOUS
 10
-33.3220365401
 20
54.5192582849
 11
-33.0717049852
 21
54.6543179018
  0
LINE
  5
22A
100
AcDbEntity
  8
DRAFT
100
AcDbLine
 62
7
  6
CONTINUOUS
 10
-33.9041225631
 20
54.201861428
 11
-33.5859245115
 21
54.3735365768
  0
LINE
  5
22B
100
AcDbEntity
  8
DRAFT
100
AcDbLine
 62
7
  6
CONTINUOUS
 10
-32.7602301744
 20
54.2383551021
 11
-33.6634236168
 21
53.7510615192
  0
LINE
  5
22C
100
AcDbEntity
  8
DRAFT
100
AcDbLine
 62
7
  6
CONTINUOUS
 10
-32.4227319374
 20
55.021818892
 11
-33.3098702262
 21
54.5658007094
  0
LINE
  5
22D
100
AcDbEntity
  8
SMUSSO
100
AcDbLine
 62
7
  6
CONTINUOUS
 10
-56.8918813788
 20
-40.5160393423
 11
51.436877499
 21
-94.6804187812
  0
LINE
  5
22E
100
AcDbEntity
  8
SMUSSO
100
AcDbLine
 62
7
  6
CONTINUOUS
 10
-57.5989881599
 20
-40.0035673291
 11
50.7297707178
 21
-94.167946768
  0
LINE
  5
22F
100
AcDbEntity
  8
SMUSSO
100
AcDbLine
 62
7
  6
CONTINUOUS
 10
-57.5989881599
 20
-40.0035673291
 11
-57.5989881599
 21
93.3786313118
  0
LINE
  5
230
100
AcDbEntity
  8
0
100
AcDbLine
 62
7
  6
CONTINUOUS
 10
-30.5741915062
 20
42.5747410355
 11
-33.0717049852
 21
41.0092496157
  0
LINE
  5
231
100
AcDbEntity
  8
RACCORDO
100
AcDbLine
 62
7
  6
CONTINUOUS
 10
-30.619920402
 20
42.469679751
 11
-32.989048618
 21
40.9846627828
  0
LINE
  5
232
100
AcDbEntity
  8
DRAFT
100
AcDbLine
 62
7
  6
CONTINUOUS
 10
-33.3098702262
 20
47.2670008702
 11
-32.4227319374
 21
47.7623220299
  0
LINE
  5
233
100
AcDbEntity
  8
DRAFT
100
AcDbLine
 62
7
  6
CONTINUOUS
 10
-32.4227319374
 20
46.6289307401
 11
-33.3098702262
 21
46.1336095804
  0
LINE
  5
234
100
AcDbEntity
  8
DRAFT
100
AcDbLine
 62
7
  6
CONTINUOUS
 10
-32.7602301744
 20
48.1761772756
 11
-33.6634236168
 21
47.7281866698
  0
LINE
  5
235
100
AcDbEntity
  8
DRAFT
100
AcDbLine
 62
7
  6
CONTINUOUS
 10
-33.9041225631
 20
46.9410946057
 11
-33.5859245115
 21
47.098923185
  0
LINE
  5
236
100
AcDbEntity
  8
0
100
AcDbLine
 62
7
  6
CONTINUOUS
 10
-32.4227319374
 20
47.1628642663
 11
-30.7154192593
 21
47.8606605524
  0
LINE
  5
237
100
AcDbEntity
  8
0
100
AcDbLine
 62
7
  6
CONTINUOUS
 10
-32.4227319374
 20
46.8609269203
 11
-30.5741915062
 21
47.6164444445
  0
LINE
  5
238
100
AcDbEntity
  8
RACCORDO
100
AcDbLine
 62
7
  6
CONTINUOUS
 10
-31.3714245074
 20
48.1564370704
 11
-32.4218111935
 21
47.7598831757
  0
LINE
  5
239
100
AcDbEntity
  8
0
100
AcDbLine
 62
7
  6
CONTINUOUS
 10
-31.2894342793
 20
48.1476680624
 11
-32.4227319374
 21
47.7198126772
  0
LWPOLYLINE
  5
23A
100
AcDbEntity
  8
RACCORDO
100
AcDbPolyline
 62
7
  6
CONTINUOUS
 90
13
 70
0
 10
29.598295911
 20
-71.7490072673
 10
29.6128626348
 20
-71.7560526146
 10
29.6527353797
 20
-71.7729723166
 10
29.6930585038
 20
-71.7866537114
 10
29.7336740116
 20
-71.7970448813
 10
29.7743228009
 20
-71.8040977509
 10
29.8148151686
 20
-71.8078013085
 10
29.8549512458
 20
-71.8081614568
 10
29.8943760646
 20
-71.8052300439
 10
29.9328303081
 20
-71.799105104
 10
29.9701128754
 20
-71.7899018157
 10
30.005931868
 20
-71.7777942266
 10
30.0330675618
 20
-71.7663063386
  0
LINE
  5
23B
100
AcDbEntity
  8
RACCORDO
100
AcDbLine
 62
7
  6
CONTINUOUS
 10
-38.5035613299
 20
-37.698086203
 11
29.5982487784
 21
-71.7489912572
  0
LINE
  5
23C
100
AcDbEntity
  8
RACCORDO
100
AcDbLine
 62
7
  6
CONTINUOUS
 10
-38.5815292885
 20
-37.5358240615
 11
29.5202808253
 21
-71.5867291184
  0
LWPOLYLINE
  5
23D
100
AcDbEntity
  8
RACCORDO
100
AcDbPolyline
 62
7
  6
CONTINUOUS
 90
5
 70
0
 10
-38.6376320376
 20
-37.6093376744
 10
-38.5980688955
 20
-37.6403144763
 10
-38.5571972821
 20
-37.6679565766
 10
-38.5152139704
 20
-37.6920993871
 10
-38.503531141
 20
-37.6980934851
  0
LINE
  5
23E
100
AcDbEntity
  8
RACCORDO
100
AcDbLine
 62
7
  6
CONTINUOUS
 10
-38.6754944788
 20
-37.5753956306
 11
-38.6376320376
 21
-37.6093376744
  0
LINE
  5
23F
100
AcDbEntity
  8
RACCORDO
100
AcDbLine
 62
7
  6
CONTINUOUS
 10
-33.3220365401
 20
37.1987502092
 11
-33.0717049852
 21
37.3338098262
  0
LINE
  5
240
100
AcDbEntity
  8
DRAFT
100
AcDbLine
 62
7
  6
CONTINUOUS
 10
-33.9041225631
 20
36.8813533523
 11
-33.5859245115
 21
37.0530285011
  0
LINE
  5
241
100
AcDbEntity
  8
DRAFT
100
AcDbLine
 62
7
  6
CONTINUOUS
 10
-32.7602301744
 20
36.9178470264
 11
-33.6634236168
 21
36.4305534435
  0
LINE
  5
242
100
AcDbEntity
  8
DRAFT
100
AcDbLine
 62
7
  6
CONTINUOUS
 10
-32.4227319374
 20
38.8347021061
 11
-33.3098702262
 21
38.3786839234
  0
LINE
  5
243
100
AcDbEntity
  8
DRAFT
100
AcDbLine
 62
7
  6
CONTINUOUS
 10
-33.3098702262
 20
37.2452926337
 11
-32.4227319374
 21
37.7013108163
  0
LINE
  5
244
100
AcDbEntity
  8
DRAFT
100
AcDbLine
 62
7
  6
CONTINUOUS
 10
-33.1684488699
 20
39.2075605723
 11
-33.5859245115
 21
39.0004895764
  0
LINE
  5
245
100
AcDbEntity
  8
RACCORDO
100
AcDbLine
 62
7
  6
CONTINUOUS
 10
-36.7425131502
 20
-36.3585589267
 11
27.6812646864
 21
-68.570447845
  0
LINE
  5
246
100
AcDbEntity
  8
RACCORDO
100
AcDbLine
 62
7
  6
CONTINUOUS
 10
-36.5852849264
 20
-36.0289899237
 11
27.8384929102
 21
-68.240878842
  0
LINE
  5
247
100
AcDbEntity
  8
RACCORDO
100
AcDbLine
 62
7
  6
CONTINUOUS
 10
-34.1288940769
 20
-34.7042307082
 11
28.0032043419
 21
-65.7702799177
  0
LINE
  5
248
100
AcDbEntity
  8
RACCORDO
100
AcDbLine
 62
7
  6
CONTINUOUS
 10
-34.0435580835
 20
-34.6468741114
 11
28.0032043419
 21
-65.6702553241
  0
LINE
  5
249
100
AcDbEntity
  8
RACCORDO
100
AcDbLine
 62
7
  6
CONTINUOUS
 10
28.0032043419
 20
-65.3173646861
 11
-33.6920228374
 21
-34.4697510965
  0
LINE
  5
24A
100
AcDbEntity
  8
DRAFT
100
AcDbLine
 62
7
  6
CONTINUOUS
 10
-20.0709280448
 20
-41.057017073
 11
-15.1532713229
 21
-43.5158454339
  0
LINE
  5
24B
100
AcDbEntity
  8
DRAFT
100
AcDbLine
 62
7
  6
CONTINUOUS
 10
-4.1610254681
 20
-49.0119683613
 11
0.7566312538
 21
-51.4707967223
  0
LINE
  5
24C
100
AcDbEntity
  8
DRAFT
100
AcDbLine
 62
7
  6
CONTINUOUS
 10
11.7488771086
 20
-56.9669196497
 11
16.6665338305
 21
-59.4257480106
  0
LINE
  5
24D
100
AcDbEntity
  8
RACCORDO
100
AcDbLine
 62
7
  6
CONTINUOUS
 10
28.0032043419
 20
-65.0071125657
 11
17.2129092896
 21
-59.6119650396
  0
LINE
  5
24E
100
AcDbEntity
  8
DRAFT
100
AcDbLine
 62
7
  6
CONTINUOUS
 10
11.2732123276
 20
-56.6421165586
 11
1.3030067129
 21
-51.6570137512
  0
LINE
  5
24F
100
AcDbEntity
  8
DRAFT
100
AcDbLine
 62
7
  6
CONTINUOUS
 10
-4.6366902491
 20
-48.6871652703
 11
-14.6068958638
 21
-43.7020624629
  0
LINE
  5
250
100
AcDbEntity
  8
RACCORDO
100
AcDbLine
 62
7
  6
CONTINUOUS
 10
-20.5465928258
 20
-40.7322139819
 11
-33.3738247859
 21
-34.3185980018
  0
LINE
  5
251
100
AcDbEntity
  8
DRAFT
100
AcDbLine
 62
7
  6
CONTINUOUS
 10
-21.9961617272
 20
-39.9472335327
 11
-25.7760973579
 21
-38.0572657173
  0
LINE
  5
252
100
AcDbEntity
  8
DRAFT
100
AcDbLine
 62
7
  6
CONTINUOUS
 10
20.7837985346
 20
-61.3372136636
 11
23.8083123205
 21
-62.8494705565
  0
LINE
  5
253
100
AcDbEntity
  8
RACCORDO
100
AcDbLine
 62
7
  6
CONTINUOUS
 10
17.6018180192
 20
-59.6763187147
 11
17.9600721405
 21
-59.8554457753
  0
LINE
  5
254
100
AcDbEntity
  8
0
100
AcDbLine
 62
7
  6
CONTINUOUS
 10
4.5203425673
 20
-53.1190906574
 11
5.0352066964
 21
-53.3765227219
  0
LINE
  5
255
100
AcDbEntity
  8
RACCORDO
100
AcDbLine
 62
7
  6
CONTINUOUS
 10
4.5203425673
 20
-53.0816981478
 11
5.7160901107
 21
-53.6795719195
  0
LINE
  5
256
100
AcDbEntity
  8
RACCORDO
100
AcDbLine
 62
7
  6
CONTINUOUS
 10
18.0160931266
 20
-59.8295734275
 11
18.3947675636
 21
-60.0189106459
  0
LINE
  5
257
100
AcDbEntity
  8
RACCORDO
100
AcDbLine
 62
7
  6
CONTINUOUS
 10
20.9451092731
 20
-61.2940815007
 11
21.6259926874
 21
-61.6345232078
  0
LINE
  5
258
100
AcDbEntity
  8
RACCORDO
100
AcDbLine
 62
7
  6
CONTINUOUS
 10
17.6018180192
 20
-59.6043787837
 11
18.0361344372
 21
-59.8215369927
  0
LINE
  5
259
100
AcDbEntity
  8
DRAFT
100
AcDbLine
 62
7
  6
CONTINUOUS
 10
20.9451092731
 20
-61.2448714699
 11
18.4441748593
 21
-59.994404263
  0
LINE
  5
25A
100
AcDbEntity
  8
DRAFT
100
AcDbLine
 62
7
  6
CONTINUOUS
 10
-19.7494803618
 20
-40.8975766525
 11
-21.8039190751
 21
-39.8703572958
  0
LINE
  5
25B
100
AcDbEntity
  8
RACCORDO
100
AcDbLine
 62
7
  6
CONTINUOUS
 10
-20.8506927201
 20
-40.3242405731
 11
-19.7266593458
 21
-40.8862572603
  0
LINE
  5
25C
100
AcDbEntity
  8
RACCORDO
100
AcDbLine
 62
7
  6
CONTINUOUS
 10
4.5203425673
 20
-53.0097582168
 11
5.8352327392
 21
-53.6672033028
  0
LINE
  5
25D
100
AcDbEntity
  8
RACCORDO
100
AcDbLine
 62
7
  6
CONTINUOUS
 10
18.1488133971
 20
-59.8239936317
 11
18.8534516615
 21
-60.1763127639
  0
LINE
  5
25E
100
AcDbEntity
  8
RACCORDO
100
AcDbLine
 62
7
  6
CONTINUOUS
 10
19.3055183028
 20
-60.4023460846
 11
21.7451353159
 21
-61.6221545911
  0
LINE
  5
25F
100
AcDbEntity
  8
DRAFT
100
AcDbLine
 62
7
  6
CONTINUOUS
 10
28.0032043419
 20
-64.7405298757
 11
23.8083123205
 21
-62.643083865
  0
LINE
  5
260
100
AcDbEntity
  8
0
100
AcDbLine
 62
7
  6
CONTINUOUS
 10
11.5815363033
 20
-56.5296958564
 11
7.1366376577
 21
-54.3072465336
  0
LINE
  5
261
100
AcDbEntity
  8
0
100
AcDbLine
 62
7
  6
CONTINUOUS
 10
3.6011037518
 20
-52.5394795806
 11
1.6310788403
 21
-51.5544671249
  0
LINE
  5
262
100
AcDbEntity
  8
DRAFT
100
AcDbLine
 62
7
  6
CONTINUOUS
 10
-4.3283662734
 20
-48.5747445681
 11
-14.2788237364
 21
-43.5995158365
  0
LINE
  5
263
100
AcDbEntity
  8
DRAFT
100
AcDbLine
 62
7
  6
CONTINUOUS
 10
-26.5055997536
 20
-37.486127828
 11
-33.3098702262
 21
-34.0839925917
  0
LINE
  5
264
100
AcDbEntity
  8
DRAFT
100
AcDbLine
 62
7
  6
CONTINUOUS
 10
-19.1677346025
 20
-40.6090264671
 11
-14.2179871341
 21
-43.0839002013
  0
LINE
  5
265
100
AcDbEntity
  8
DRAFT
100
AcDbLine
 62
7
  6
CONTINUOUS
 10
-3.2578320258
 20
-48.5639777555
 11
1.6919154426
 21
-51.0388514896
  0
LINE
  5
266
100
AcDbEntity
  8
DRAFT
100
AcDbLine
 62
7
  6
CONTINUOUS
 10
12.6520705509
 20
-56.5189290438
 11
17.6018180192
 21
-58.993802778
  0
LINE
  5
267
100
AcDbEntity
  8
DRAFT
100
AcDbLine
 62
7
  6
CONTINUOUS
 10
25.7335460029
 20
-62.8949929731
 11
24.5637341652
 21
-62.3100870543
  0
LINE
  5
268
100
AcDbEntity
  8
0
100
AcDbLine
 62
7
  6
CONTINUOUS
 10
9.8236434262
 20
-54.9400416848
 11
7.8790997779
 21
-53.9677698607
  0
LINE
  5
269
100
AcDbEntity
  8
DRAFT
100
AcDbLine
 62
7
  6
CONTINUOUS
 10
-6.0862591505
 20
-46.9850903964
 11
-11.0360066188
 21
-44.5102166623
  0
LINE
  5
26A
100
AcDbEntity
  8
DRAFT
100
AcDbLine
 62
7
  6
CONTINUOUS
 10
-25.7760973579
 20
-37.1401712928
 11
-26.9459091955
 21
-36.5552653739
  0
LINE
  5
26B
100
AcDbEntity
  8
DRAFT
100
AcDbLine
 62
7
  6
CONTINUOUS
 10
28.0032043419
 20
-63.8606060157
 11
25.925788655
 21
-62.8218981723
  0
LINE
  5
26C
100
AcDbEntity
  8
DRAFT
100
AcDbLine
 62
7
  6
CONTINUOUS
 10
10.3893288511
 20
-55.0536682703
 11
10.0158860783
 21
-54.8669468839
  0
LINE
  5
26D
100
AcDbEntity
  8
0
100
AcDbLine
 62
7
  6
CONTINUOUS
 10
4.5203425673
 20
-52.1191751284
 11
2.5342722826
 21
-51.1261399861
  0
LINE
  5
26E
100
AcDbEntity
  8
DRAFT
100
AcDbLine
 62
7
  6
CONTINUOUS
 10
-3.3930820846
 20
-48.1624628025
 11
-5.8940164984
 21
-46.9119955956
  0
LINE
  5
26F
100
AcDbEntity
  8
DRAFT
100
AcDbLine
 62
7
  6
CONTINUOUS
 10
-10.8746958803
 20
-44.4216559046
 11
-11.2481386532
 21
-44.2349345182
  0
LINE
  5
270
100
AcDbEntity
  8
DRAFT
100
AcDbLine
 62
7
  6
CONTINUOUS
 10
-26.784598457
 20
-36.4667046163
 11
-32.2138547153
 21
-33.7520764871
  0
LINE
  5
271
100
AcDbEntity
  8
DRAFT
100
AcDbLine
 62
7
  6
CONTINUOUS
 10
13.0923799929
 20
-55.863702235
 11
10.9648883519
 21
-54.7999564146
  0
LINE
  5
272
100
AcDbEntity
  8
DRAFT
100
AcDbLine
 62
7
  6
CONTINUOUS
 10
-10.6824532282
 20
-43.9762856245
 11
-12.819818945
 21
-42.9076027661
  0
LINE
  5
273
100
AcDbEntity
  8
DRAFT
100
AcDbLine
 62
7
  6
CONTINUOUS
 10
-31.6580433662
 20
-33.4884905555
 11
-31.8768006828
 21
-33.3791118972
  0
LINE
  5
274
100
AcDbEntity
  8
DRAFT
100
AcDbLine
 62
7
  6
CONTINUOUS
 10
-32.4227319374
 20
-32.8382243683
 11
-31.8768006828
 21
-33.1111899956
  0
LINE
  5
275
100
AcDbEntity
  8
0
100
AcDbLine
 62
7
  6
CONTINUOUS
 10
-21.1906460612
 20
-38.2799278739
 11
-17.0741124656
 21
-40.3381946717
  0
LINE
  5
276
100
AcDbEntity
  8
0
100
AcDbLine
 62
7
  6
CONTINUOUS
 10
22.7913957286
 20
-60.2709487688
 11
26.9079293242
 21
-62.3292155666
  0
LINE
  5
277
100
AcDbEntity
  8
SMUSSO
100
AcDbLine
 62
7
  6
CONTINUOUS
 10
50.7297707178
 20
-94.167946768
 11
51.436877499
 21
-94.6804187812
  0
LWPOLYLINE
  5
278
100
AcDbEntity
  8
RACCORDO
100
AcDbPolyline
 62
7
  6
CONTINUOUS
 90
14
 70
0
 10
-38.9515991506
 20
-36.971477568
 10
-38.9478557606
 20
-37.0224499919
 10
-38.9407832887
 20
-37.0733712613
 10
-38.9305147923
 20
-37.1241040994
 10
-38.9171725602
 20
-37.1744225804
 10
-38.9008556668
 20
-37.2241902945
 10
-38.881643756
 20
-37.2732488301
 10
-38.8596666244
 20
-37.3212808606
 10
-38.8349690776
 20
-37.3681889806
 10
-38.8076315113
 20
-37.413727752
 10
-38.7779238215
 20
-37.4574030304
 10
-38.7458867548
 20
-37.4991025859
 10
-38.7116070604
 20
-37.5386068989
 10
-38.6754944788
 20
-37.5753956306
  0
LINE
  5
279
100
AcDbEntity
  8
RACCORDO
100
AcDbLine
 62
7
  6
CONTINUOUS
 10
-38.9521908159
 20
-36.9418950454
 11
-38.9515991506
 21
-36.971477568
  0
LINE
  5
27A
100
AcDbEntity
  8
RACCORDO
100
AcDbLine
 62
7
  6
CONTINUOUS
 10
-38.9521968889
 20
68.8953997985
 11
-38.9521968889
 21
-36.942000822
  0
LINE
  5
27B
100
AcDbEntity
  8
RACCORDO
100
AcDbLine
 62
7
  6
CONTINUOUS
 10
-38.8643289233
 20
68.7932368597
 11
-38.8643289233
 21
-37.0480668425
  0
LINE
  5
27C
100
AcDbEntity
  8
RACCORDO
100
AcDbLine
 62
7
  6
CONTINUOUS
 10
-37.1523207713
 20
-35.6517453339
 11
-37.1523207713
 21
65.6810041252
  0
LINE
  5
27D
100
AcDbEntity
  8
RACCORDO
100
AcDbLine
 62
7
  6
CONTINUOUS
 10
-36.790188737
 20
-35.6755831273
 11
-36.790188737
 21
65.6571663318
  0
LINE
  5
27E
100
AcDbEntity
  8
DRAFT
100
AcDbLine
 62
7
  6
CONTINUOUS
 10
-32.4227319374
 20
30.4418139542
 11
-33.3098702262
 21
29.9464927945
  0
LINE
  5
27F
100
AcDbEntity
  8
DRAFT
100
AcDbLine
 62
7
  6
CONTINUOUS
 10
-32.4227319374
 20
24.1122702417
 11
-31.8768006828
 21
24.4170832631
  0
LINE
  5
280
100
AcDbEntity
  8
DRAFT
100
AcDbLine
 62
7
  6
CONTINUOUS
 10
-32.4227319374
 20
26.7103464531
 11
-31.8768006828
 21
26.990973027
  0
LINE
  5
281
100
AcDbEntity
  8
DRAFT
100
AcDbLine
 62
7
  6
CONTINUOUS
 10
-32.7602301744
 20
30.8556691999
 11
-33.6634236168
 21
30.4076785941
  0
LINE
  5
282
100
AcDbEntity
  8
DRAFT
100
AcDbLine
 62
7
  6
CONTINUOUS
 10
-33.9041225631
 20
29.62058653
 11
-33.5859245115
 21
29.7784151093
  0
LINE
  5
283
100
AcDbEntity
  8
RACCORDO
100
AcDbLine
 62
7
  6
CONTINUOUS
 10
-34.3529869943
 20
64.6599688566
 11
-34.3529869943
 21
-34.3177275983
  0
LINE
  5
284
100
AcDbEntity
  8
RACCORDO
100
AcDbLine
 62
7
  6
CONTINUOUS
 10
-34.2556578091
 20
64.611304264
 11
-34.2556578091
 21
-34.2810561974
  0
LINE
  5
285
100
AcDbEntity
  8
RACCORDO
100
AcDbLine
 62
7
  6
CONTINUOUS
 10
-33.9041225631
 20
-34.1039331825
 11
-33.9041225631
 21
64.435536641
  0
LINE
  5
286
100
AcDbEntity
  8
DRAFT
100
AcDbLine
 62
7
  6
CONTINUOUS
 10
-33.6634236168
 20
53.7510615192
 11
-33.6634236168
 21
47.7281866698
  0
LINE
  5
287
100
AcDbEntity
  8
DRAFT
100
AcDbLine
 62
7
  6
CONTINUOUS
 10
-33.6634236168
 20
36.4305534435
 11
-33.6634236168
 21
30.4076785941
  0
LINE
  5
288
100
AcDbEntity
  8
DRAFT
100
AcDbLine
 62
7
  6
CONTINUOUS
 10
-33.6634236168
 20
19.1100453678
 11
-33.6634236168
 21
13.0871705184
  0
LINE
  5
289
100
AcDbEntity
  8
DRAFT
100
AcDbLine
 62
7
  6
CONTINUOUS
 10
-33.6634236168
 20
1.7895372921
 11
-33.6634236168
 21
-4.2333375573
  0
LINE
  5
28A
100
AcDbEntity
  8
DRAFT
100
AcDbLine
 62
7
  6
CONTINUOUS
 10
-33.6634236168
 20
-15.5309707836
 11
-33.6634236168
 21
-21.553845633
  0
LINE
  5
28B
100
AcDbEntity
  8
RACCORDO
100
AcDbLine
 62
7
  6
CONTINUOUS
 10
-33.5859245115
 20
-33.9527800879
 11
-33.5859245115
 21
-22.1831091177
  0
LINE
  5
28C
100
AcDbEntity
  8
DRAFT
100
AcDbLine
 62
7
  6
CONTINUOUS
 10
-33.5859245115
 20
-14.9084957259
 11
-33.5859245115
 21
-4.862601042
  0
LINE
  5
28D
100
AcDbEntity
  8
DRAFT
100
AcDbLine
 62
7
  6
CONTINUOUS
 10
-33.5859245115
 20
2.4120123497
 11
-33.5859245115
 21
12.4579070336
  0
LINE
  5
28E
100
AcDbEntity
  8
DRAFT
100
AcDbLine
 62
7
  6
CONTINUOUS
 10
-33.5859245115
 20
19.7325204254
 11
-33.5859245115
 21
29.7784151093
  0
LINE
  5
28F
100
AcDbEntity
  8
DRAFT
100
AcDbLine
 62
7
  6
CONTINUOUS
 10
-33.5859245115
 20
37.0530285011
 11
-33.5859245115
 21
47.098923185
  0
LINE
  5
290
100
AcDbEntity
  8
RACCORDO
100
AcDbLine
 62
7
  6
CONTINUOUS
 10
-33.5859245115
 20
54.3735365768
 11
-33.5859245115
 21
64.2764376152
  0
LINE
  5
291
100
AcDbEntity
  8
DRAFT
100
AcDbLine
 62
7
  6
CONTINUOUS
 10
-33.3098702262
 20
-34.0839925917
 11
-33.3098702262
 21
-22.0150314326
  0
LINE
  5
292
100
AcDbEntity
  8
DRAFT
100
AcDbLine
 62
7
  6
CONTINUOUS
 10
-33.3098702262
 20
-14.7162315934
 11
-33.3098702262
 21
-13.5828403036
  0
LINE
  5
293
100
AcDbEntity
  8
DRAFT
100
AcDbLine
 62
7
  6
CONTINUOUS
 10
-33.3098702262
 20
-5.8279146467
 11
-33.3098702262
 21
-4.6945233569
  0
LINE
  5
294
100
AcDbEntity
  8
0
100
AcDbLine
 62
7
  6
CONTINUOUS
 10
-33.3098702262
 20
2.6042764823
 11
-33.3098702262
 21
8.9574699764
  0
LINE
  5
295
100
AcDbEntity
  8
DRAFT
100
AcDbLine
 62
7
  6
CONTINUOUS
 10
-33.3098702262
 20
19.924784558
 11
-33.3098702262
 21
29.9464927945
  0
LINE
  5
296
100
AcDbEntity
  8
DRAFT
100
AcDbLine
 62
7
  6
CONTINUOUS
 10
-33.3098702262
 20
37.2452926337
 11
-33.3098702262
 21
38.3786839234
  0
LINE
  5
297
100
AcDbEntity
  8
DRAFT
100
AcDbLine
 62
7
  6
CONTINUOUS
 10
-33.3098702262
 20
46.1336095804
 11
-33.3098702262
 21
47.2670008702
  0
LINE
  5
298
100
AcDbEntity
  8
DRAFT
100
AcDbLine
 62
7
  6
CONTINUOUS
 10
-33.3098702262
 20
54.5658007094
 11
-33.3098702262
 21
64.1384104726
  0
LINE
  5
299
100
AcDbEntity
  8
0
100
AcDbLine
 62
7
  6
CONTINUOUS
 10
-33.2391595481
 20
13.2976086242
 11
-33.2391595481
 21
9.8413534529
  0
LINE
  5
29A
100
AcDbEntity
  8
DRAFT
100
AcDbLine
 62
7
  6
CONTINUOUS
 10
-33.1684488699
 20
-12.7539636547
 11
-33.1684488699
 21
-5.7489540257
  0
LINE
  5
29B
100
AcDbEntity
  8
DRAFT
100
AcDbLine
 62
7
  6
CONTINUOUS
 10
-33.1684488699
 20
39.2075605723
 11
-33.1684488699
 21
46.2125702014
  0
LINE
  5
29C
100
AcDbEntity
  8
RACCORDO
100
AcDbLine
 62
7
  6
CONTINUOUS
 10
-33.1157001406
 20
54.6305815062
 11
-33.1157001406
 21
54.4160900852
  0
LINE
  5
29D
100
AcDbEntity
  8
RACCORDO
100
AcDbLine
 62
7
  6
CONTINUOUS
 10
-33.1157001406
 20
37.3100734305
 11
-33.1157001406
 21
37.0955820095
  0
LINE
  5
29E
100
AcDbEntity
  8
RACCORDO
100
AcDbLine
 62
7
  6
CONTINUOUS
 10
-33.1157001406
 20
19.9895653548
 11
-33.1157001406
 21
19.7750739338
  0
LINE
  5
29F
100
AcDbEntity
  8
RACCORDO
100
AcDbLine
 62
7
  6
CONTINUOUS
 10
-33.1157001406
 20
2.6690572791
 11
-33.1157001406
 21
2.4545658581
  0
LINE
  5
2A0
100
AcDbEntity
  8
RACCORDO
100
AcDbLine
 62
7
  6
CONTINUOUS
 10
-33.1157001406
 20
-14.6514507966
 11
-33.1157001406
 21
-14.8659422176
  0
LINE
  5
2A1
100
AcDbEntity
  8
RACCORDO
100
AcDbLine
 62
7
  6
CONTINUOUS
 10
-33.0717049852
 20
54.6882254562
 11
-33.0717049852
 21
54.6543179018
  0
LINE
  5
2A2
100
AcDbEntity
  8
RACCORDO
100
AcDbLine
 62
7
  6
CONTINUOUS
 10
-33.0717049852
 20
37.3677173805
 11
-33.0717049852
 21
37.3338098262
  0
LINE
  5
2A3
100
AcDbEntity
  8
RACCORDO
100
AcDbLine
 62
7
  6
CONTINUOUS
 10
-33.0717049852
 20
20.0472093048
 11
-33.0717049852
 21
20.0133017505
  0
LINE
  5
2A4
100
AcDbEntity
  8
RACCORDO
100
AcDbLine
 62
7
  6
CONTINUOUS
 10
-33.0717049852
 20
13.3806673219
 11
-33.0717049852
 21
10.2679171025
  0
LINE
  5
2A5
100
AcDbEntity
  8
RACCORDO
100
AcDbLine
 62
7
  6
CONTINUOUS
 10
-33.0717049852
 20
2.7267012291
 11
-33.0717049852
 21
2.6927936748
  0
LINE
  5
2A6
100
AcDbEntity
  8
RACCORDO
100
AcDbLine
 62
7
  6
CONTINUOUS
 10
-33.0717049852
 20
-14.5938068466
 11
-33.0717049852
 21
-14.6277144009
  0
LINE
  5
2A7
100
AcDbEntity
  8
RACCORDO
100
AcDbLine
 62
7
  6
CONTINUOUS
 10
-33.0717049852
 20
-12.8023355971
 11
-33.0717049852
 21
-10.9522746114
  0
LINE
  5
2A8
100
AcDbEntity
  8
RACCORDO
100
AcDbLine
 62
7
  6
CONTINUOUS
 10
-33.0717049852
 20
39.1591886299
 11
-33.0717049852
 21
41.0092496157
  0
LINE
  5
2A9
100
AcDbEntity
  8
RACCORDO
100
AcDbLine
 62
7
  6
CONTINUOUS
 10
-33.0315020807
 20
54.6815730884
 11
-33.0315020807
 21
54.3739910552
  0
LINE
  5
2AA
100
AcDbEntity
  8
RACCORDO
100
AcDbLine
 62
7
  6
CONTINUOUS
 10
-33.0315020807
 20
37.3610650127
 11
-33.0315020807
 21
37.0534829795
  0
LINE
  5
2AB
100
AcDbEntity
  8
RACCORDO
100
AcDbLine
 62
7
  6
CONTINUOUS
 10
-33.0315020807
 20
20.040556937
 11
-33.0315020807
 21
19.7329749038
  0
LINE
  5
2AC
100
AcDbEntity
  8
RACCORDO
100
AcDbLine
 62
7
  6
CONTINUOUS
 10
-33.0315020807
 20
2.7200488613
 11
-33.0315020807
 21
2.4124668282
  0
LINE
  5
2AD
100
AcDbEntity
  8
RACCORDO
100
AcDbLine
 62
7
  6
CONTINUOUS
 10
-33.0315020807
 20
-14.6004592144
 11
-33.0315020807
 21
-14.9080412475
  0
LINE
  5
2AE
100
AcDbEntity
  8
RACCORDO
100
AcDbLine
 62
7
  6
CONTINUOUS
 10
-32.9875069253
 20
48.0634463317
 11
-32.9875069253
 21
48.0447095238
  0
LINE
  5
2AF
100
AcDbEntity
  8
RACCORDO
100
AcDbLine
 62
7
  6
CONTINUOUS
 10
-32.9875069253
 20
40.9884561222
 11
-32.9875069253
 21
39.1170896
  0
LINE
  5
2B0
100
AcDbEntity
  8
RACCORDO
100
AcDbLine
 62
7
  6
CONTINUOUS
 10
-32.9875069253
 20
30.742938256
 11
-32.9875069253
 21
30.7242014481
  0
LINE
  5
2B1
100
AcDbEntity
  8
RACCORDO
100
AcDbLine
 62
7
  6
CONTINUOUS
 10
-32.9875069253
 20
13.4224301803
 11
-32.9875069253
 21
10.2258180726
  0
LINE
  5
2B2
100
AcDbEntity
  8
RACCORDO
100
AcDbLine
 62
7
  6
CONTINUOUS
 10
-32.9875069253
 20
-3.8980778954
 11
-32.9875069253
 21
-3.9168147033
  0
LINE
  5
2B3
100
AcDbEntity
  8
RACCORDO
100
AcDbLine
 62
7
  6
CONTINUOUS
 10
-32.9875069253
 20
-10.9730681049
 11
-32.9875069253
 21
-12.8444346271
  0
LINE
  5
2B4
100
AcDbEntity
  8
RACCORDO
100
AcDbLine
 62
7
  6
CONTINUOUS
 10
-32.9875069253
 20
-21.2185859711
 11
-32.9875069253
 21
-21.237322779
  0
LINE
  5
2B5
100
AcDbEntity
  8
DRAFT
100
AcDbLine
 62
7
  6
CONTINUOUS
 10
-32.7602301744
 20
54.2383551021
 11
-32.7602301744
 21
48.1761772756
  0
LINE
  5
2B6
100
AcDbEntity
  8
DRAFT
100
AcDbLine
 62
7
  6
CONTINUOUS
 10
-32.7602301744
 20
36.9178470264
 11
-32.7602301744
 21
30.8556691999
  0
LINE
  5
2B7
100
AcDbEntity
  8
DRAFT
100
AcDbLine
 62
7
  6
CONTINUOUS
 10
-32.7602301744
 20
19.5973389507
 11
-32.7602301744
 21
13.5351611242
  0
LINE
  5
2B8
100
AcDbEntity
  8
DRAFT
100
AcDbLine
 62
7
  6
CONTINUOUS
 10
-32.7602301744
 20
2.276830875
 11
-32.7602301744
 21
-3.7853469515
  0
LINE
  5
2B9
100
AcDbEntity
  8
DRAFT
100
AcDbLine
 62
7
  6
CONTINUOUS
 10
-32.7602301744
 20
-15.0436772007
 11
-32.7602301744
 21
-21.1058550271
  0
LINE
  5
2BA
100
AcDbEntity
  8
DRAFT
100
AcDbLine
 62
7
  6
CONTINUOUS
 10
-32.4227319374
 20
-33.3918165696
 11
-32.4227319374
 21
-21.5197102729
  0
LINE
  5
2BB
100
AcDbEntity
  8
DRAFT
100
AcDbLine
 62
7
  6
CONTINUOUS
 10
-32.4227319374
 20
-14.2602134107
 11
-32.4227319374
 21
-13.126822121
  0
LINE
  5
2BC
100
AcDbEntity
  8
DRAFT
100
AcDbLine
 62
7
  6
CONTINUOUS
 10
-32.4227319374
 20
-5.3325934869
 11
-32.4227319374
 21
-4.1992021972
  0
LINE
  5
2BD
100
AcDbEntity
  8
DRAFT
100
AcDbLine
 62
7
  6
CONTINUOUS
 10
-32.4227319374
 20
3.0602946649
 11
-32.4227319374
 21
6.791762166
  0
LINE
  5
2BE
100
AcDbEntity
  8
0
100
AcDbLine
 62
7
  6
CONTINUOUS
 10
-32.4227319374
 20
9.3898383774
 11
-32.4227319374
 21
9.4331396476
  0
LINE
  5
2BF
100
AcDbEntity
  8
DRAFT
100
AcDbLine
 62
7
  6
CONTINUOUS
 10
-32.4227319374
 20
20.3808027406
 11
-32.4227319374
 21
24.1122702417
  0
LINE
  5
2C0
100
AcDbEntity
  8
DRAFT
100
AcDbLine
 62
7
  6
CONTINUOUS
 10
-32.4227319374
 20
26.7103464531
 11
-32.4227319374
 21
30.4418139542
  0
LINE
  5
2C1
100
AcDbEntity
  8
DRAFT
100
AcDbLine
 62
7
  6
CONTINUOUS
 10
-32.4227319374
 20
37.7013108163
 11
-32.4227319374
 21
38.8347021061
  0
LINE
  5
2C2
100
AcDbEntity
  8
DRAFT
100
AcDbLine
 62
7
  6
CONTINUOUS
 10
-32.4227319374
 20
46.6289307401
 11
-32.4227319374
 21
47.7623220299
  0
LINE
  5
2C3
100
AcDbEntity
  8
DRAFT
100
AcDbLine
 62
7
  6
CONTINUOUS
 10
-32.4227319374
 20
55.021818892
 11
-32.4227319374
 21
63.6948413282
  0
LINE
  5
2C4
100
AcDbEntity
  8
DRAFT
100
AcDbLine
 62
7
  6
CONTINUOUS
 10
-31.8768006828
 20
-33.3791118972
 11
-31.8768006828
 21
-33.1111899956
  0
LINE
  5
2C5
100
AcDbEntity
  8
DRAFT
100
AcDbLine
 62
7
  6
CONTINUOUS
 10
-31.8768006828
 20
7.0965751874
 11
-31.8768006828
 21
9.6704649513
  0
LINE
  5
2C6
100
AcDbEntity
  8
DRAFT
100
AcDbLine
 62
7
  6
CONTINUOUS
 10
-31.8768006828
 20
24.4170832631
 11
-31.8768006828
 21
26.990973027
  0
LINE
  5
2C7
100
AcDbEntity
  8
DRAFT
100
AcDbLine
 62
7
  6
CONTINUOUS
 10
-31.6580433662
 20
-33.4884905555
 11
-31.6580433662
 21
-34.0299821617
  0
LINE
  5
2C8
100
AcDbEntity
  8
0
100
AcDbLine
 62
7
  6
CONTINUOUS
 10
-30.5741915062
 20
-9.3867831916
 11
-30.5741915062
 21
-4.3450797825
  0
LINE
  5
2C9
100
AcDbEntity
  8
0
100
AcDbLine
 62
7
  6
CONTINUOUS
 10
-30.5741915062
 20
42.5747410355
 11
-30.5741915062
 21
47.6164444445
  0
LINE
  5
2CA
100
AcDbEntity
  8
RACCORDO
100
AcDbLine
 62
7
  6
CONTINUOUS
 10
-33.3220365401
 20
19.8782421336
 11
-33.0717049852
 21
20.0133017505
  0
LINE
  5
2CB
100
AcDbEntity
  8
DRAFT
100
AcDbLine
 62
7
  6
CONTINUOUS
 10
-33.9041225631
 20
19.5608452766
 11
-33.5859245115
 21
19.7325204254
  0
LINE
  5
2CC
100
AcDbEntity
  8
DRAFT
100
AcDbLine
 62
7
  6
CONTINUOUS
 10
-32.7602301744
 20
19.5973389507
 11
-33.6634236168
 21
19.1100453678
  0
LINE
  5
2CD
100
AcDbEntity
  8
DRAFT
100
AcDbLine
 62
7
  6
CONTINUOUS
 10
-32.4227319374
 20
20.3808027406
 11
-33.3098702262
 21
19.924784558
  0
LINE
  5
2CE
100
AcDbEntity
  8
DRAFT
100
AcDbLine
 62
7
  6
CONTINUOUS
 10
-33.9041225631
 20
-22.024010092
 11
-33.5859245115
 21
-22.1831091177
  0
LINE
  5
2CF
100
AcDbEntity
  8
RACCORDO
100
AcDbLine
 62
7
  6
CONTINUOUS
 10
-33.3098702262
 20
-22.0150314326
 11
-33.9041225631
 21
-21.7179052642
  0
LINE
  5
2D0
100
AcDbEntity
  8
SMUSSO
100
AcDbLine
 62
7
  6
CONTINUOUS
 10
-33.6634236168
 20
-21.553845633
 11
-33.9041225631
 21
-21.4334961598
  0
LINE
  5
2D1
100
AcDbEntity
  8
DRAFT
100
AcDbLine
 62
7
  6
CONTINUOUS
 10
-32.4227319374
 20
-21.5197102729
 11
-33.0063188422
 21
-21.2279168205
  0
LINE
  5
2D2
100
AcDbEntity
  8
SMUSSO
100
AcDbLine
 62
7
  6
CONTINUOUS
 10
-33.6634236168
 20
-15.5309707836
 11
-33.9041225631
 21
-15.4106213104
  0
LINE
  5
2D3
100
AcDbEntity
  8
DRAFT
100
AcDbLine
 62
7
  6
CONTINUOUS
 10
-26.784598457
 20
-36.6359207432
 11
-26.784598457
 21
-36.4667046163
  0
LINE
  5
2D4
100
AcDbEntity
  8
DRAFT
100
AcDbLine
 62
7
  6
CONTINUOUS
 10
-26.5055997536
 20
-37.752710518
 11
-26.5055997536
 21
-37.486127828
  0
LINE
  5
2D5
100
AcDbEntity
  8
DRAFT
100
AcDbLine
 62
7
  6
CONTINUOUS
 10
-25.7760973579
 20
-38.0572657173
 11
-25.7760973579
 21
-37.1401712928
  0
LINE
  5
2D6
100
AcDbEntity
  8
0
100
AcDbLine
 62
7
  6
CONTINUOUS
 10
-32.4227319374
 20
9.4331396476
 11
-33.3098702262
 21
8.9574699764
  0
LINE
  5
2D7
100
AcDbEntity
  8
0
100
AcDbLine
 62
7
  6
CONTINUOUS
 10
-33.9041225631
 20
13.1828225961
 11
-33.8799420977
 21
13.1954297589
  0
LINE
  5
2D8
100
AcDbEntity
  8
DRAFT
100
AcDbLine
 62
7
  6
CONTINUOUS
 10
-32.4227319374
 20
9.3898383774
 11
-31.8768006828
 21
9.6704649513
  0
LINE
  5
2D9
100
AcDbEntity
  8
0
100
AcDbLine
 62
7
  6
CONTINUOUS
 10
-33.2391595481
 20
9.8413534529
 11
-33.5859245115
 21
9.6679709712
  0
LINE
  5
2DA
100
AcDbEntity
  8
DRAFT
100
AcDbLine
 62
7
  6
CONTINUOUS
 10
-32.7602301744
 20
13.5351611242
 11
-33.6634236168
 21
13.0871705184
  0
LINE
  5
2DB
100
AcDbEntity
  8
DRAFT
100
AcDbLine
 62
7
  6
CONTINUOUS
 10
-33.9041225631
 20
12.3000784543
 11
-33.5859245115
 21
12.4579070336
  0
LINE
  5
2DC
100
AcDbEntity
  8
SMUSSO
100
AcDbLine
 62
7
  6
CONTINUOUS
 10
-33.5859245115
 20
-14.6308300321
 11
-32.7602301744
 21
-15.0436772007
  0
LINE
  5
2DD
100
AcDbEntity
  8
RACCORDO
100
AcDbLine
 62
7
  6
CONTINUOUS
 10
-33.5859245115
 20
-14.5782044507
 11
-33.3098702262
 21
-14.7162315934
  0
LINE
  5
2DE
100
AcDbEntity
  8
DRAFT
100
AcDbLine
 62
7
  6
CONTINUOUS
 10
-33.3098702262
 20
-13.5828403036
 11
-33.5859245115
 21
-13.4448131609
  0
LINE
  5
2DF
100
AcDbEntity
  8
DRAFT
100
AcDbLine
 62
7
  6
CONTINUOUS
 10
-32.4227319374
 20
-13.126822121
 11
-33.1684488699
 21
-12.7539636547
  0
LINE
  5
2E0
100
AcDbEntity
  8
DRAFT
100
AcDbLine
 62
7
  6
CONTINUOUS
 10
-20.5465928258
 20
-41.0424661023
 11
-20.5465928258
 21
-40.7322139819
  0
LINE
  5
2E1
100
AcDbEntity
  8
SMUSSO
100
AcDbLine
 62
7
  6
CONTINUOUS
 10
-20.0709280448
 20
-41.057017073
 11
-20.0709280448
 21
-41.2802984928
  0
LINE
  5
2E2
100
AcDbEntity
  8
0
100
AcDbLine
 62
7
  6
CONTINUOUS
 10
-16.9323668373
 20
-40.5820354521
 11
-16.9323668373
 21
-41.285057404
  0
LINE
  5
2E3
100
AcDbEntity
  8
SMUSSO
100
AcDbLine
 62
7
  6
CONTINUOUS
 10
-15.1532713229
 20
-43.5158454339
 11
-15.1532713229
 21
-43.7391268538
  0
LINE
  5
2E4
100
AcDbEntity
  8
DRAFT
100
AcDbLine
 62
7
  6
CONTINUOUS
 10
-32.4227319374
 20
6.791762166
 11
-31.8768006828
 21
7.0965751874
  0
LINE
  5
2E5
100
AcDbEntity
  8
RACCORDO
100
AcDbLine
 62
7
  6
CONTINUOUS
 10
-33.3220365401
 20
2.5577340579
 11
-33.0717049852
 21
2.6927936748
  0
LINE
  5
2E6
100
AcDbEntity
  8
DRAFT
100
AcDbLine
 62
7
  6
CONTINUOUS
 10
-33.9041225631
 20
2.2403372009
 11
-33.5859245115
 21
2.4120123497
  0
LINE
  5
2E7
100
AcDbEntity
  8
DRAFT
100
AcDbLine
 62
7
  6
CONTINUOUS
 10
-32.7602301744
 20
2.276830875
 11
-33.6634236168
 21
1.7895372921
  0
LINE
  5
2E8
100
AcDbEntity
  8
DRAFT
100
AcDbLine
 62
7
  6
CONTINUOUS
 10
-32.4227319374
 20
3.0602946649
 11
-33.3098702262
 21
2.6042764823
  0
LINE
  5
2E9
100
AcDbEntity
  8
RACCORDO
100
AcDbLine
 62
7
  6
CONTINUOUS
 10
29.7283223439
 20
35.3071736263
 11
30.631789202
 21
35.7623904946
  0
LINE
  5
2EA
100
AcDbEntity
  8
RACCORDO
100
AcDbLine
 62
7
  6
CONTINUOUS
 10
30.223610005
 20
34.4537941414
 11
31.1266885618
 21
34.908815362
  0
LINE
  5
2EB
100
AcDbEntity
  8
DRAFT
100
AcDbLine
 62
7
  6
CONTINUOUS
 10
-33.5859245115
 20
-5.689887504
 11
-33.3098702262
 21
-5.8279146467
  0
LINE
  5
2EC
100
AcDbEntity
  8
DRAFT
100
AcDbLine
 62
7
  6
CONTINUOUS
 10
-33.9041225631
 20
-4.7035020163
 11
-33.5859245115
 21
-4.862601042
  0
LINE
  5
2ED
100
AcDbEntity
  8
RACCORDO
100
AcDbLine
 62
7
  6
CONTINUOUS
 10
-33.3098702262
 20
-4.6945233569
 11
-33.9041225631
 21
-4.3973971885
  0
LINE
  5
2EE
100
AcDbEntity
  8
SMUSSO
100
AcDbLine
 62
7
  6
CONTINUOUS
 10
-33.6634236168
 20
-4.2333375573
 11
-33.9041225631
 21
-4.1129880841
  0
LINE
  5
2EF
100
AcDbEntity
  8
DRAFT
100
AcDbLine
 62
7
  6
CONTINUOUS
 10
-32.4227319374
 20
-4.1992021972
 11
-33.0063188422
 21
-3.9074087448
  0
LINE
  5
2F0
100
AcDbEntity
  8
0
100
AcDbLine
 62
7
  6
CONTINUOUS
 10
-31.2894342793
 20
-3.8138561647
 11
-30.7154192593
 21
-4.1008636747
  0
LINE
  5
2F1
100
AcDbEntity
  8
RACCORDO
100
AcDbLine
 62
7
  6
CONTINUOUS
 10
-14.2788237364
 20
-43.5995158365
 11
-14.2788237364
 21
-43.8660985266
  0
LINE
  5
2F2
100
AcDbEntity
  8
SMUSSO
100
AcDbLine
 62
7
  6
CONTINUOUS
 10
-14.2179871341
 20
-43.5706649098
 11
-14.2179871341
 21
-43.0839002013
  0
LINE
  5
2F3
100
AcDbEntity
  8
DRAFT
100
AcDbLine
 62
7
  6
CONTINUOUS
 10
-10.8746958803
 20
-44.5908720315
 11
-10.8746958803
 21
-44.4216559046
  0
LINE
  5
2F4
100
AcDbEntity
  8
DRAFT
100
AcDbLine
 62
7
  6
CONTINUOUS
 10
-10.6824532282
 20
-43.9762856245
 11
-10.6824532282
 21
-44.6869933576
  0
LINE
  5
2F5
100
AcDbEntity
  8
0
100
AcDbLine
 62
7
  6
CONTINUOUS
 10
-30.5741915062
 20
-9.3867831916
 11
-33.0717049852
 21
-10.9522746114
  0
LINE
  5
2F6
100
AcDbEntity
  8
RACCORDO
100
AcDbLine
 62
7
  6
CONTINUOUS
 10
-30.619920402
 20
-9.4918444761
 11
-32.989048618
 21
-10.9768614443
  0
LINE
  5
2F7
100
AcDbEntity
  8
DRAFT
100
AcDbLine
 62
7
  6
CONTINUOUS
 10
-33.3098702262
 20
-4.6945233569
 11
-32.4227319374
 21
-4.1992021972
  0
LINE
  5
2F8
100
AcDbEntity
  8
DRAFT
100
AcDbLine
 62
7
  6
CONTINUOUS
 10
-32.4227319374
 20
-5.3325934869
 11
-33.3098702262
 21
-5.8279146467
  0
LINE
  5
2F9
100
AcDbEntity
  8
RACCORDO
100
AcDbLine
 62
7
  6
CONTINUOUS
 10
53.5044350583
 20
41.0742691059
 11
55.5382583736
 21
42.0990224458
  0
LINE
  5
2FA
100
AcDbEntity
  8
RACCORDO
100
AcDbLine
 62
7
  6
CONTINUOUS
 10
54.5649336864
 20
39.245179536
 11
56.5987570017
 21
40.2699328759
  0
LINE
  5
2FB
100
AcDbEntity
  8
SMUSSO
100
AcDbLine
 62
7
  6
CONTINUOUS
 10
51.436877499
 20
39.7267238862
 11
53.204644452
 21
40.6106073626
  0
LINE
  5
2FC
100
AcDbEntity
  8
SMUSSO
100
AcDbLine
 62
7
  6
CONTINUOUS
 10
52.1439842802
 20
38.5071450918
 11
53.9117512332
 21
39.3910285683
  0
LINE
  5
2FD
100
AcDbEntity
  8
DRAFT
100
AcDbLine
 62
7
  6
CONTINUOUS
 10
-32.7602301744
 20
-3.7853469515
 11
-33.6634236168
 21
-4.2333375573
  0
LINE
  5
2FE
100
AcDbEntity
  8
DRAFT
100
AcDbLine
 62
7
  6
CONTINUOUS
 10
-33.9041225631
 20
-5.0204296214
 11
-33.5859245115
 21
-4.862601042
  0
LINE
  5
2FF
100
AcDbEntity
  8
0
100
AcDbLine
 62
7
  6
CONTINUOUS
 10
-32.4227319374
 20
-4.7986599608
 11
-30.7154192593
 21
-4.1008636747
  0
LINE
  5
300
100
AcDbEntity
  8
0
100
AcDbLine
 62
7
  6
CONTINUOUS
 10
-32.4227319374
 20
-5.1005973068
 11
-30.5741915062
 21
-4.3450797825
  0
LINE
  5
301
100
AcDbEntity
  8
RACCORDO
100
AcDbLine
 62
7
  6
CONTINUOUS
 10
-31.3714245074
 20
-3.8050871567
 11
-32.4218111935
 21
-4.2016410514
  0
LINE
  5
302
100
AcDbEntity
  8
0
100
AcDbLine
 62
7
  6
CONTINUOUS
 10
-31.2894342793
 20
-3.8138561647
 11
-32.4227319374
 21
-4.2417115499
  0
LINE
  5
303
100
AcDbEntity
  8
SMUSSO
100
AcDbLine
 62
7
  6
CONTINUOUS
 10
-33.6634236168
 20
1.7895372921
 11
-33.9041225631
 21
1.9098867653
  0
LINE
  5
304
100
AcDbEntity
  8
SMUSSO
100
AcDbLine
 62
7
  6
CONTINUOUS
 10
-33.5859245115
 20
2.6896780436
 11
-32.7602301744
 21
2.276830875
  0
LINE
  5
305
100
AcDbEntity
  8
RACCORDO
100
AcDbLine
 62
7
  6
CONTINUOUS
 10
-33.5859245115
 20
2.742303625
 11
-33.3098702262
 21
2.6042764823
  0
LINE
  5
306
100
AcDbEntity
  8
0
100
AcDbLine
 62
7
  6
CONTINUOUS
 10
-33.5859245115
 20
9.0954971191
 11
-33.3098702262
 21
8.9574699764
  0
LINE
  5
307
100
AcDbEntity
  8
DRAFT
100
AcDbLine
 62
7
  6
CONTINUOUS
 10
-4.6366902491
 20
-48.9974173907
 11
-4.6366902491
 21
-48.6871652703
  0
LINE
  5
308
100
AcDbEntity
  8
RACCORDO
100
AcDbLine
 62
7
  6
CONTINUOUS
 10
-4.3283662734
 20
-49.1515793785
 11
-4.3283662734
 21
-48.5747445681
  0
LINE
  5
309
100
AcDbEntity
  8
SMUSSO
100
AcDbLine
 62
7
  6
CONTINUOUS
 10
-4.1610254681
 20
-49.0119683613
 11
-4.1610254681
 21
-49.2352497812
  0
LINE
  5
30A
100
AcDbEntity
  8
DRAFT
100
AcDbLine
 62
7
  6
CONTINUOUS
 10
-3.3930820846
 20
-48.6310627817
 11
-3.3930820846
 21
-48.1624628025
  0
LINE
  5
30B
100
AcDbEntity
  8
RACCORDO
100
AcDbLine
 62
7
  6
CONTINUOUS
 10
-33.3220365401
 20
-14.7627740178
 11
-33.0717049852
 21
-14.6277144009
  0
LINE
  5
30C
100
AcDbEntity
  8
DRAFT
100
AcDbLine
 62
7
  6
CONTINUOUS
 10
-33.9041225631
 20
-15.0801708748
 11
-33.5859245115
 21
-14.9084957259
  0
LINE
  5
30D
100
AcDbEntity
  8
DRAFT
100
AcDbLine
 62
7
  6
CONTINUOUS
 10
-32.7602301744
 20
-15.0436772007
 11
-33.6634236168
 21
-15.5309707836
  0
LINE
  5
30E
100
AcDbEntity
  8
DRAFT
100
AcDbLine
 62
7
  6
CONTINUOUS
 10
-32.4227319374
 20
-13.126822121
 11
-33.3098702262
 21
-13.5828403036
  0
LINE
  5
30F
100
AcDbEntity
  8
DRAFT
100
AcDbLine
 62
7
  6
CONTINUOUS
 10
-33.3098702262
 20
-14.7162315934
 11
-32.4227319374
 21
-14.2602134107
  0
LINE
  5
310
100
AcDbEntity
  8
DRAFT
100
AcDbLine
 62
7
  6
CONTINUOUS
 10
-33.1684488699
 20
-12.7539636547
 11
-33.5859245115
 21
-12.9610346506
  0
LINE
  5
311
100
AcDbEntity
  8
0
100
AcDbLine
 62
7
  6
CONTINUOUS
 10
-33.2391595481
 20
9.8413534529
 11
-32.4227319374
 21
9.4331396476
  0
LINE
  5
312
100
AcDbEntity
  8
DRAFT
100
AcDbLine
 62
7
  6
CONTINUOUS
 10
-33.2391595481
 20
10.3516443839
 11
-31.8768006828
 21
9.6704649513
  0
LINE
  5
313
100
AcDbEntity
  8
DRAFT
100
AcDbLine
 62
7
  6
CONTINUOUS
 10
-33.9041225631
 20
12.6170060594
 11
-33.5859245115
 21
12.4579070336
  0
LINE
  5
314
100
AcDbEntity
  8
SMUSSO
100
AcDbLine
 62
7
  6
CONTINUOUS
 10
-33.6634236168
 20
13.0871705184
 11
-33.9041225631
 21
13.2075199915
  0
LINE
  5
315
100
AcDbEntity
  8
SMUSSO
100
AcDbLine
 62
7
  6
CONTINUOUS
 10
0.7566312538
 20
-51.4707967223
 11
0.7566312538
 21
-51.6940781421
  0
LINE
  5
316
100
AcDbEntity
  8
RACCORDO
100
AcDbLine
 62
7
  6
CONTINUOUS
 10
1.6310788403
 20
-51.5544671249
 11
1.6310788403
 21
-51.8210498149
  0
LINE
  5
317
100
AcDbEntity
  8
SMUSSO
100
AcDbLine
 62
7
  6
CONTINUOUS
 10
1.6919154426
 20
-51.5256161982
 11
1.6919154426
 21
-51.0388514896
  0
LINE
  5
318
100
AcDbEntity
  8
0
100
AcDbLine
 62
7
  6
CONTINUOUS
 10
3.6011037518
 20
-52.5394795806
 11
3.6011037518
 21
-52.8060622707
  0
LINE
  5
319
100
AcDbEntity
  8
0
100
AcDbLine
 62
7
  6
CONTINUOUS
 10
4.5203425673
 20
-52.1191751284
 11
4.5203425673
 21
-53.1190906574
  0
LINE
  5
31A
100
AcDbEntity
  8
0
100
AcDbLine
 62
7
  6
CONTINUOUS
 10
5.0352066964
 20
-53.523113743
 11
5.0352066964
 21
-53.3765227219
  0
LINE
  5
31B
100
AcDbEntity
  8
RACCORDO
100
AcDbLine
 62
7
  6
CONTINUOUS
 10
5.9062846842
 20
-53.9586527369
 11
5.9062846842
 21
-53.8260074375
  0
LINE
  5
31C
100
AcDbEntity
  8
0
100
AcDbLine
 62
7
  6
CONTINUOUS
 10
7.1366376577
 20
-54.5738292236
 11
7.1366376577
 21
-54.3072465336
  0
LINE
  5
31D
100
AcDbEntity
  8
DRAFT
100
AcDbLine
 62
7
  6
CONTINUOUS
 10
-32.4227319374
 20
-21.5197102729
 11
-33.3098702262
 21
-22.0150314326
  0
LINE
  5
31E
100
AcDbEntity
  8
DRAFT
100
AcDbLine
 62
7
  6
CONTINUOUS
 10
-32.7602301744
 20
-21.1058550271
 11
-33.6634236168
 21
-21.553845633
  0
LINE
  5
31F
100
AcDbEntity
  8
DRAFT
100
AcDbLine
 62
7
  6
CONTINUOUS
 10
-33.9041225631
 20
-22.3409376971
 11
-33.5859245115
 21
-22.1831091177
  0
LINE
  5
320
100
AcDbEntity
  8
SMUSSO
100
AcDbLine
 62
7
  6
CONTINUOUS
 10
-33.6634236168
 20
19.1100453678
 11
-33.9041225631
 21
19.2303948409
  0
LINE
  5
321
100
AcDbEntity
  8
SMUSSO
100
AcDbLine
 62
7
  6
CONTINUOUS
 10
-33.5859245115
 20
20.0101861193
 11
-32.7602301744
 21
19.5973389507
  0
LINE
  5
322
100
AcDbEntity
  8
RACCORDO
100
AcDbLine
 62
7
  6
CONTINUOUS
 10
-33.5859245115
 20
20.0628117007
 11
-33.3098702262
 21
19.924784558
  0
LINE
  5
323
100
AcDbEntity
  8
DRAFT
100
AcDbLine
 62
7
  6
CONTINUOUS
 10
11.2732123276
 20
-56.952368679
 11
11.2732123276
 21
-56.6421165586
  0
LINE
  5
324
100
AcDbEntity
  8
RACCORDO
100
AcDbLine
 62
7
  6
CONTINUOUS
 10
11.5815363033
 20
-57.1065306669
 11
11.5815363033
 21
-56.5296958564
  0
LINE
  5
325
100
AcDbEntity
  8
SMUSSO
100
AcDbLine
 62
7
  6
CONTINUOUS
 10
11.7488771086
 20
-56.9669196497
 11
11.7488771086
 21
-57.1902010695
  0
LINE
  5
326
100
AcDbEntity
  8
DRAFT
100
AcDbLine
 62
7
  6
CONTINUOUS
 10
13.0923799929
 20
-55.863702235
 11
13.0923799929
 21
-56.7390837648
  0
LINE
  5
327
100
AcDbEntity
  8
RACCORDO
100
AcDbLine
 62
7
  6
CONTINUOUS
 10
-36.790188737
 20
-35.6755831273
 11
-34.3513920823
 21
-34.340365093
  0
LINE
  5
328
100
AcDbEntity
  8
RACCORDO
100
AcDbLine
 62
7
  6
CONTINUOUS
 10
-36.5852849264
 20
-36.0289899237
 11
-34.1465077289
 21
-34.6937514541
  0
LINE
  5
329
100
AcDbEntity
  8
DRAFT
100
AcDbLine
 62
7
  6
CONTINUOUS
 10
-32.4227319374
 20
-33.3918165696
 11
-31.8768006828
 21
-33.1111899956
  0
LINE
  5
32A
100
AcDbEntity
  8
DRAFT
100
AcDbLine
 62
7
  6
CONTINUOUS
 10
-32.4227319374
 20
27.2639386543
 11
-31.8768006828
 21
26.990973027
  0
LINE
  5
32B
100
AcDbEntity
  8
DRAFT
100
AcDbLine
 62
7
  6
CONTINUOUS
 10
-33.9041225631
 20
29.9375141351
 11
-33.5859245115
 21
29.7784151093
  0
LINE
  5
32C
100
AcDbEntity
  8
RACCORDO
100
AcDbLine
 62
7
  6
CONTINUOUS
 10
-33.3098702262
 20
29.9464927945
 11
-33.9041225631
 21
30.2436189629
  0
LINE
  5
32D
100
AcDbEntity
  8
SMUSSO
100
AcDbLine
 62
7
  6
CONTINUOUS
 10
-33.6634236168
 20
30.4076785941
 11
-33.9041225631
 21
30.5280280672
  0
LINE
  5
32E
100
AcDbEntity
  8
DRAFT
100
AcDbLine
 62
7
  6
CONTINUOUS
 10
-32.4227319374
 20
30.4418139542
 11
-33.0063188422
 21
30.7336074065
  0
LINE
  5
32F
100
AcDbEntity
  8
SMUSSO
100
AcDbLine
 62
7
  6
CONTINUOUS
 10
16.6665338305
 20
-59.4257480106
 11
16.6665338305
 21
-59.6490294304
  0
LINE
  5
330
100
AcDbEntity
  8
SMUSSO
100
AcDbLine
 62
7
  6
CONTINUOUS
 10
17.6018180192
 20
-59.8064194044
 11
17.6018180192
 21
-58.993802778
  0
LINE
  5
331
100
AcDbEntity
  8
DRAFT
100
AcDbLine
 62
7
  6
CONTINUOUS
 10
20.9451092731
 20
-61.4178690328
 11
20.9451092731
 21
-61.2448714699
  0
LINE
  5
332
100
AcDbEntity
  8
DRAFT
100
AcDbLine
 62
7
  6
CONTINUOUS
 10
21.8161872609
 20
-61.8534080267
 11
21.8161872609
 21
-61.7809587259
  0
LINE
  5
333
100
AcDbEntity
  8
DRAFT
100
AcDbLine
 62
7
  6
CONTINUOUS
 10
-26.9459091955
 20
-36.5552653739
 11
-26.784598457
 21
-36.4667046163
  0
LINE
  5
334
100
AcDbEntity
  8
RACCORDO
100
AcDbLine
 62
7
  6
CONTINUOUS
 10
-34.2556578091
 20
-34.2810561974
 11
-33.9041225631
 21
-34.1039331825
  0
LINE
  5
335
100
AcDbEntity
  8
RACCORDO
100
AcDbLine
 62
7
  6
CONTINUOUS
 10
-34.0435580835
 20
-34.6468741114
 11
-33.6920228374
 21
-34.4697510965
  0
LINE
  5
336
100
AcDbEntity
  8
RACCORDO
100
AcDbLine
 62
7
  6
CONTINUOUS
 10
-33.5859245115
 20
-33.9527800879
 11
-33.9014652375
 21
-34.1092906141
  0
LINE
  5
337
100
AcDbEntity
  8
RACCORDO
100
AcDbLine
 62
7
  6
CONTINUOUS
 10
-33.3738247859
 20
-34.3185980018
 11
-33.6853205932
 21
-34.4731022186
  0
LINE
  5
338
100
AcDbEntity
  8
DRAFT
100
AcDbLine
 62
7
  6
CONTINUOUS
 10
-33.3098702262
 20
-34.0839925917
 11
-31.8768006828
 21
-33.3791118972
  0
LINE
  5
339
100
AcDbEntity
  8
DRAFT
100
AcDbLine
 62
7
  6
CONTINUOUS
 10
-32.2138547153
 20
-33.7520764871
 11
-31.6580433662
 21
-33.4884905555
  0
LINE
  5
33A
100
AcDbEntity
  8
SMUSSO
100
AcDbLine
 62
7
  6
CONTINUOUS
 10
-33.6634236168
 20
36.4305534435
 11
-33.9041225631
 21
36.5509029166
  0
LINE
  5
33B
100
AcDbEntity
  8
SMUSSO
100
AcDbLine
 62
7
  6
CONTINUOUS
 10
-33.5859245115
 20
37.330694195
 11
-32.7602301744
 21
36.9178470264
  0
LINE
  5
33C
100
AcDbEntity
  8
RACCORDO
100
AcDbLine
 62
7
  6
CONTINUOUS
 10
-33.5859245115
 20
37.3833197764
 11
-33.3098702262
 21
37.2452926337
  0
LINE
  5
33D
100
AcDbEntity
  8
DRAFT
100
AcDbLine
 62
7
  6
CONTINUOUS
 10
-33.3098702262
 20
38.3786839234
 11
-33.5859245115
 21
38.5167110661
  0
LINE
  5
33E
100
AcDbEntity
  8
DRAFT
100
AcDbLine
 62
7
  6
CONTINUOUS
 10
-32.4227319374
 20
38.8347021061
 11
-33.1684488699
 21
39.2075605723
  0
LINE
  5
33F
100
AcDbEntity
  8
DRAFT
100
AcDbLine
 62
7
  6
CONTINUOUS
 10
23.8083123205
 20
-62.643083865
 11
23.8083123205
 21
-62.909666555
  0
LINE
  5
340
100
AcDbEntity
  8
0
100
AcDbLine
 62
7
  6
CONTINUOUS
 10
27.0496749525
 20
-62.573056347
 11
27.0496749525
 21
-63.2760782989
  0
LINE
  5
341
100
AcDbEntity
  8
RACCORDO
100
AcDbLine
 62
7
  6
CONTINUOUS
 10
28.0032043419
 20
33.1653736294
 11
28.0032043419
 21
-68.1673759344
  0
LINE
  5
342
100
AcDbEntity
  8
RACCORDO
100
AcDbLine
 62
7
  6
CONTINUOUS
 10
28.0910723075
 20
33.0593075857
 11
28.0910723075
 21
-68.2734418733
  0
LINE
  5
343
100
AcDbEntity
  8
RACCORDO
100
AcDbLine
 62
7
  6
CONTINUOUS
 10
29.8030804596
 20
-71.3817715331
 11
29.8030804595
 21
34.4556290943
  0
LWPOLYLINE
  5
344
100
AcDbEntity
  8
RACCORDO
100
AcDbPolyline
 62
7
  6
CONTINUOUS
 90
8
 70
0
 10
28.0032044623
 20
-68.1673730212
 10
28.0028767442
 20
-68.1822759109
 10
28.0018978905
 20
-68.1963403358
 10
28.000402873
 20
-68.2086026101
 10
27.9985549482
 20
-68.2189380397
 10
27.996550171
 20
-68.2272423308
 10
27.9946904899
 20
-68.2332346483
 10
27.9932878439
 20
-68.2368755053
  0
LINE
  5
345
100
AcDbEntity
  8
RACCORDO
100
AcDbLine
 62
7
  6
CONTINUOUS
 10
53.1989251007
 20
40.6138824698
 11
53.4050245841
 21
40.9737959841
  0
LINE
  5
346
100
AcDbEntity
  8
SMUSSO
100
AcDbLine
 62
7
  6
CONTINUOUS
 10
50.7297707178
 20
38.5071450918
 11
51.436877499
 21
39.7267238862
  0
LINE
  5
347
100
AcDbEntity
  8
0
100
AcDbLine
 62
7
  6
CONTINUOUS
 10
-16.9323668373
 20
-41.285057404
 11
-17.3269448675
 21
-41.5294213346
  0
LINE
  5
348
100
AcDbEntity
  8
RACCORDO
100
AcDbLine
 62
7
  6
CONTINUOUS
 10
-16.9782389809
 20
-41.3895523036
 11
-17.2589686553
 21
-41.5634094407
  0
LINE
  5
349
100
AcDbEntity
  8
0
100
AcDbLine
 62
7
  6
CONTINUOUS
 10
-18.3027421635
 20
-41.0415226866
 11
-17.0741124656
 21
-40.3381946717
  0
LINE
  5
34A
100
AcDbEntity
  8
0
100
AcDbLine
 62
7
  6
CONTINUOUS
 10
-17.9997133939
 20
-41.1930370714
 11
-16.9323668373
 21
-40.5820354521
  0
LINE
  5
34B
100
AcDbEntity
  8
DRAFT
100
AcDbLine
 62
7
  6
CONTINUOUS
 10
-25.7760973579
 20
-38.0572657173
 11
-25.83653466
 21
-38.0872430648
  0
LINE
  5
34C
100
AcDbEntity
  8
DRAFT
100
AcDbLine
 62
7
  6
CONTINUOUS
 10
-20.858088633
 20
-40.8867181987
 11
-20.5465928258
 21
-40.7322139819
  0
LINE
  5
34D
100
AcDbEntity
  8
DRAFT
100
AcDbLine
 62
7
  6
CONTINUOUS
 10
-19.1677346025
 20
-40.6090264671
 11
-20.0709280448
 21
-41.057017073
  0
LINE
  5
34E
100
AcDbEntity
  8
DRAFT
100
AcDbLine
 62
7
  6
CONTINUOUS
 10
-25.7760973579
 20
-37.1401712928
 11
-26.5055997536
 21
-37.486127828
  0
LINE
  5
34F
100
AcDbEntity
  8
RACCORDO
100
AcDbLine
 62
7
  6
CONTINUOUS
 10
-23.5376354901
 20
-39.1764966512
 11
-21.2747139663
 21
-38.2715731647
  0
LINE
  5
350
100
AcDbEntity
  8
0
100
AcDbLine
 62
7
  6
CONTINUOUS
 10
-23.490993471
 20
-39.1998176608
 11
-21.1906460612
 21
-38.2799278739
  0
LINE
  5
351
100
AcDbEntity
  8
DRAFT
100
AcDbLine
 62
7
  6
CONTINUOUS
 10
-21.9961617272
 20
-39.9472335327
 11
-21.8039190751
 21
-39.8703572958
  0
LINE
  5
352
100
AcDbEntity
  8
DRAFT
100
AcDbLine
 62
7
  6
CONTINUOUS
 10
-33.5859245115
 20
46.2716367231
 11
-33.3098702262
 21
46.1336095804
  0
LINE
  5
353
100
AcDbEntity
  8
DRAFT
100
AcDbLine
 62
7
  6
CONTINUOUS
 10
-33.9041225631
 20
47.2580222108
 11
-33.5859245115
 21
47.098923185
  0
LINE
  5
354
100
AcDbEntity
  8
RACCORDO
100
AcDbLine
 62
7
  6
CONTINUOUS
 10
-33.3098702262
 20
47.2670008702
 11
-33.9041225631
 21
47.5641270386
  0
LINE
  5
355
100
AcDbEntity
  8
SMUSSO
100
AcDbLine
 62
7
  6
CONTINUOUS
 10
-33.6634236168
 20
47.7281866698
 11
-33.9041225631
 21
47.8485361429
  0
LINE
  5
356
100
AcDbEntity
  8
DRAFT
100
AcDbLine
 62
7
  6
CONTINUOUS
 10
-32.4227319374
 20
47.7623220299
 11
-33.0063188422
 21
48.0541154822
  0
LINE
  5
357
100
AcDbEntity
  8
0
100
AcDbLine
 62
7
  6
CONTINUOUS
 10
-31.2894342793
 20
48.1476680624
 11
-30.7154192593
 21
47.8606605524
  0
LINE
  5
358
100
AcDbEntity
  8
RACCORDO
100
AcDbLine
 62
7
  6
CONTINUOUS
 10
30.2232217033
 20
-71.3837858173
 11
30.223610005
 21
34.4537941414
  0
LINE
  5
359
100
AcDbEntity
  8
RACCORDO
100
AcDbLine
 62
7
  6
CONTINUOUS
 10
31.1266885618
 20
-70.9665348822
 11
31.1266885618
 21
34.908815362
  0
LINE
  5
35A
100
AcDbEntity
  8
DRAFT
100
AcDbLine
 62
7
  6
CONTINUOUS
 10
-11.0360066188
 20
-44.5102166623
 11
-10.8746958803
 21
-44.4216559046
  0
LINE
  5
35B
100
AcDbEntity
  8
DRAFT
100
AcDbLine
 62
7
  6
CONTINUOUS
 10
-12.819818945
 20
-42.9076027661
 11
-14.2788237364
 21
-43.5995158365
  0
LINE
  5
35C
100
AcDbEntity
  8
DRAFT
100
AcDbLine
 62
7
  6
CONTINUOUS
 10
-14.2179871341
 20
-43.0839002013
 11
-15.1532713229
 21
-43.5158454339
  0
LINE
  5
35D
100
AcDbEntity
  8
DRAFT
100
AcDbLine
 62
7
  6
CONTINUOUS
 10
-14.9294592148
 20
-43.8510329078
 11
-14.6068958638
 21
-43.7020624629
  0
LINE
  5
35E
100
AcDbEntity
  8
DRAFT
100
AcDbLine
 62
7
  6
CONTINUOUS
 10
-11.2481386532
 20
-44.2349345182
 11
-10.6824532282
 21
-43.9762856245
  0
LINE
  5
35F
100
AcDbEntity
  8
SMUSSO
100
AcDbLine
 62
7
  6
CONTINUOUS
 10
50.7297707178
 20
38.5071450918
 11
52.1439842802
 21
38.5071450918
  0
LINE
  5
360
100
AcDbEntity
  8
SMUSSO
100
AcDbLine
 62
7
  6
CONTINUOUS
 10
-33.6634236168
 20
53.7510615192
 11
-33.9041225631
 21
53.8714109923
  0
LINE
  5
361
100
AcDbEntity
  8
SMUSSO
100
AcDbLine
 62
7
  6
CONTINUOUS
 10
-33.5859245115
 20
54.6512022706
 11
-32.7602301744
 21
54.2383551021
  0
LINE
  5
362
100
AcDbEntity
  8
RACCORDO
100
AcDbLine
 62
7
  6
CONTINUOUS
 10
-33.5859245115
 20
54.7038278521
 11
-33.3098702262
 21
54.5658007094
  0
LINE
  5
363
100
AcDbEntity
  8
DRAFT
100
AcDbLine
 62
7
  6
CONTINUOUS
 10
-4.9481860563
 20
-48.841669487
 11
-4.6366902491
 21
-48.6871652703
  0
LINE
  5
364
100
AcDbEntity
  8
DRAFT
100
AcDbLine
 62
7
  6
CONTINUOUS
 10
-3.2578320258
 20
-48.5639777555
 11
-4.1610254681
 21
-49.0119683613
  0
LINE
  5
365
100
AcDbEntity
  8
DRAFT
100
AcDbLine
 62
7
  6
CONTINUOUS
 10
-3.3930820846
 20
-48.1624628025
 11
-4.3283662734
 21
-48.5747445681
  0
LINE
  5
366
100
AcDbEntity
  8
DRAFT
100
AcDbLine
 62
7
  6
CONTINUOUS
 10
-6.0862591505
 20
-46.9850903964
 11
-5.8940164984
 21
-46.9119955956
  0
LINE
  5
367
100
AcDbEntity
  8
RACCORDO
100
AcDbLine
 62
7
  6
CONTINUOUS
 10
53.9117512332
 20
39.2181169245
 11
54.4242567043
 21
39.215880613
  0
LINE
  5
368
100
AcDbEntity
  8
RACCORDO
100
AcDbLine
 62
7
  6
CONTINUOUS
 10
27.7592850043
 20
33.6038328743
 11
-36.6645452484
 21
65.8157479837
  0
LINE
  5
369
100
AcDbEntity
  8
RACCORDO
100
AcDbLine
 62
7
  6
CONTINUOUS
 10
27.6812646864
 20
33.7661211785
 11
-36.7425131502
 21
65.9780100968
  0
LINE
  5
36A
100
AcDbEntity
  8
RACCORDO
100
AcDbLine
 62
7
  6
CONTINUOUS
 10
29.5234676771
 20
34.9417928871
 11
-38.5815292891
 21
68.9942913702
  0
LINE
  5
36B
100
AcDbEntity
  8
RACCORDO
100
AcDbLine
 62
7
  6
CONTINUOUS
 10
29.7283223439
 20
35.3071736263
 11
-38.3730994692
 21
69.3582743313
  0
LINE
  5
36C
100
AcDbEntity
  8
RACCORDO
100
AcDbLine
 62
7
  6
CONTINUOUS
 10
30.631789202
 20
35.7623904946
 11
-37.5010066441
 21
69.8287884177
  0
LWPOLYLINE
  5
36D
100
AcDbEntity
  8
RACCORDO
100
AcDbPolyline
 62
7
  6
CONTINUOUS
 90
24
 70
0
 10
27.759285037
 20
33.6038329394
 10
27.7669025768
 20
33.599821933
 10
27.7803326088
 20
33.5918287681
 10
27.7948677871
 20
33.5819273295
 10
27.810139854
 20
33.5701707633
 10
27.8258908708
 20
33.5566007135
 10
27.8419163402
 20
33.5412535409
 10
27.8579914411
 20
33.5242192019
 10
27.8738997127
 20
33.505620687
 10
27.8894528354
 20
33.4855884951
 10
27.904520991
 20
33.4642080422
 10
27.9189369314
 20
33.4416396727
 10
27.9325321694
 20
33.4180847925
 10
27.9452022987
 20
33.3936768449
 10
27.9568232428
 20
33.3686179665
 10
27.9672721618
 20
33.3431545972
 10
27.9764649758
 20
33.3175062123
 10
27.9843325186
 20
33.2919202206
 10
27.9908291117
 20
33.2666452051
 10
27.9959314322
 20
33.241946829
 10
27.9996508851
 20
33.2180571435
 10
28.0020220305
 20
33.1952235787
 10
28.0031069779
 20
33.1737768012
 10
28.0032044699
 20
33.1654020554
  0
LINE
  5
36E
100
AcDbEntity
  8
SMUSSO
100
AcDbLine
 62
7
  6
CONTINUOUS
 10
50.7297707178
 20
-94.167946768
 11
50.7297707178
 21
38.5071450918
  0
LINE
  5
36F
100
AcDbEntity
  8
SMUSSO
100
AcDbLine
 62
7
  6
CONTINUOUS
 10
52.1439842802
 20
-94.167946768
 11
52.1439842802
 21
38.5071450918
  0
LINE
  5
370
100
AcDbEntity
  8
0
100
AcDbLine
 62
7
  6
CONTINUOUS
 10
4.9014407279
 20
-53.4562307587
 11
5.0352066964
 21
-53.3765227219
  0
LINE
  5
371
100
AcDbEntity
  8
RACCORDO
100
AcDbLine
 62
7
  6
CONTINUOUS
 10
5.5445355598
 20
-53.7777781747
 11
5.7160901107
 21
-53.6795719195
  0
LINE
  5
372
100
AcDbEntity
  8
0
100
AcDbLine
 62
7
  6
CONTINUOUS
 10
4.5203425673
 20
-53.1190906574
 11
4.3737515463
 21
-53.1923861679
  0
LINE
  5
373
100
AcDbEntity
  8
DRAFT
100
AcDbLine
 62
7
  6
CONTINUOUS
 10
2.5342722826
 20
-51.1261399861
 11
1.6310788403
 21
-51.5544671249
  0
LINE
  5
374
100
AcDbEntity
  8
DRAFT
100
AcDbLine
 62
7
  6
CONTINUOUS
 10
1.6919154426
 20
-51.0388514896
 11
0.7566312538
 21
-51.4707967223
  0
LINE
  5
375
100
AcDbEntity
  8
DRAFT
100
AcDbLine
 62
7
  6
CONTINUOUS
 10
0.9804433619
 20
-51.8059841961
 11
1.3030067129
 21
-51.6570137512
  0
LINE
  5
376
100
AcDbEntity
  8
0
100
AcDbLine
 62
7
  6
CONTINUOUS
 10
4.5203425673
 20
-52.1191751284
 11
3.6011037518
 21
-52.5394795806
  0
LINE
  5
377
100
AcDbEntity
  8
SMUSSO
100
AcDbLine
 62
7
  6
CONTINUOUS
 10
53.9117512332
 20
39.7445819588
 11
53.9117512332
 21
-93.2840632915
  0
LINE
  5
378
100
AcDbEntity
  8
RACCORDO
100
AcDbLine
 62
7
  6
CONTINUOUS
 10
54.4242567043
 20
39.215880613
 11
54.4242567043
 21
-92.1592316244
  0
LINE
  5
379
100
AcDbEntity
  8
RACCORDO
100
AcDbLine
 62
7
  6
CONTINUOUS
 10
54.5649336864
 20
39.245179536
 11
54.5649336864
 21
-92.1324061238
  0
LINE
  5
37A
100
AcDbEntity
  8
SMUSSO
100
AcDbLine
 62
7
  6
CONTINUOUS
 10
56.5280463236
 20
41.2084373185
 11
56.5280463236
 21
40.7703749113
  0
LINE
  5
37B
100
AcDbEntity
  8
RACCORDO
100
AcDbLine
 62
7
  6
CONTINUOUS
 10
56.5987570017
 20
-91.1931191182
 11
56.5987570017
 21
40.2699328759
  0
LINE
  5
37C
100
AcDbEntity
  8
DRAFT
100
AcDbLine
 62
7
  6
CONTINUOUS
 10
10.9617165204
 20
-56.7966207754
 11
11.2732123276
 21
-56.6421165586
  0
LINE
  5
37D
100
AcDbEntity
  8
DRAFT
100
AcDbLine
 62
7
  6
CONTINUOUS
 10
12.6520705509
 20
-56.5189290438
 11
11.7488771086
 21
-56.9669196497
  0
LINE
  5
37E
100
AcDbEntity
  8
0
100
AcDbLine
 62
7
  6
CONTINUOUS
 10
7.8790997779
 20
-53.9677698607
 11
7.1366376577
 21
-54.3072465336
  0
LINE
  5
37F
100
AcDbEntity
  8
DRAFT
100
AcDbLine
 62
7
  6
CONTINUOUS
 10
10.3893288511
 20
-55.0536682703
 11
10.9648883519
 21
-54.7999564146
  0
LINE
  5
380
100
AcDbEntity
  8
DRAFT
100
AcDbLine
 62
7
  6
CONTINUOUS
 10
13.0923799929
 20
-55.863702235
 11
11.5815363033
 21
-56.5296958564
  0
LINE
  5
381
100
AcDbEntity
  8
DRAFT
100
AcDbLine
 62
7
  6
CONTINUOUS
 10
9.8236434262
 20
-54.9400416848
 11
10.0158860783
 21
-54.8669468839
  0
LWPOLYLINE
  5
382
100
AcDbEntity
  8
RACCORDO
100
AcDbPolyline
 62
7
  6
CONTINUOUS
 90
6
 70
0
 10
-36.6917598796
 20
65.8259770421
 10
-36.6915389374
 20
65.8259402351
 10
-36.6887255526
 20
65.825326372
 10
-36.6830410032
 20
65.8236257581
 10
-36.6748611647
 20
65.8205077262
 10
-36.6645477327
 20
65.8157493059
  0
LINE
  5
383
100
AcDbEntity
  8
SMUSSO
100
AcDbLine
 62
7
  6
CONTINUOUS
 10
50.7297707178
 20
38.5071450918
 11
-57.5989881599
 21
92.6715245307
  0
LINE
  5
384
100
AcDbEntity
  8
SMUSSO
100
AcDbLine
 62
7
  6
CONTINUOUS
 10
51.436877499
 20
39.7267238862
 11
-56.8918813788
 21
93.891103325
  0
LINE
  5
385
100
AcDbEntity
  8
SMUSSO
100
AcDbLine
 62
7
  6
CONTINUOUS
 10
-55.1241144258
 20
94.7749868015
 11
53.204644452
 21
40.6106073626
  0
LINE
  5
386
100
AcDbEntity
  8
RACCORDO
100
AcDbLine
 62
7
  6
CONTINUOUS
 10
27.8384929102
 20
-68.240878842
 11
28.0032043419
 21
-68.0243979922
  0
LINE
  5
387
100
AcDbEntity
  8
RACCORDO
100
AcDbLine
 62
7
  6
CONTINUOUS
 10
27.9944179382
 20
-68.2357277204
 11
27.9943906524
 21
-68.2357635553
  0
LINE
  5
388
100
AcDbEntity
  8
DRAFT
100
AcDbLine
 62
7
  6
CONTINUOUS
 10
20.7837985346
 20
-61.3372136636
 11
20.9451092731
 21
-61.2448714699
  0
LINE
  5
389
100
AcDbEntity
  8
RACCORDO
100
AcDbLine
 62
7
  6
CONTINUOUS
 10
21.5105676034
 20
-61.700598198
 11
21.6259926874
 21
-61.6345232078
  0
LINE
  5
38A
100
AcDbEntity
  8
DRAFT
100
AcDbLine
 62
7
  6
CONTINUOUS
 10
18.2100465105
 20
-60.11053365
 11
18.4441748593
 21
-59.994404263
  0
LINE
  5
38B
100
AcDbEntity
  8
DRAFT
100
AcDbLine
 62
7
  6
CONTINUOUS
 10
17.6018180192
 20
-58.993802778
 11
16.6665338305
 21
-59.4257480106
  0
LINE
  5
38C
100
AcDbEntity
  8
DRAFT
100
AcDbLine
 62
7
  6
CONTINUOUS
 10
16.8903459386
 20
-59.7609354845
 11
17.2129092896
 21
-59.6119650396
  0
LINE
  5
38D
100
AcDbEntity
  8
RACCORDO
100
AcDbLine
 62
7
  6
CONTINUOUS
 10
17.8248088766
 20
-59.9179148331
 11
18.0160931266
 21
-59.8295734275
  0
LINE
  5
38E
100
AcDbEntity
  8
DRAFT
100
AcDbLine
 62
7
  6
CONTINUOUS
 10
24.5637341652
 20
-62.3100870543
 11
23.8083123205
 21
-62.643083865
  0
LINE
  5
38F
100
AcDbEntity
  8
RACCORDO
100
AcDbLine
 62
7
  6
CONTINUOUS
 10
20.6619074365
 20
-61.0805406514
 11
22.7073278235
 21
-60.2625940597
  0
LINE
  5
390
100
AcDbEntity
  8
0
100
AcDbLine
 62
7
  6
CONTINUOUS
 10
20.7085494556
 20
-61.103861661
 11
22.7913957286
 21
-60.2709487688
  0
LINE
  5
391
100
AcDbEntity
  8
RACCORDO
100
AcDbLine
 62
7
  6
CONTINUOUS
 10
-36.6887148867
 20
65.8259473915
 11
-36.6886801998
 21
65.8259484333
  0
LINE
  5
392
100
AcDbEntity
  8
RACCORDO
100
AcDbLine
 62
7
  6
CONTINUOUS
 10
-36.3723359343
 20
65.6696433266
 11
-36.790188737
 21
65.6571663318
  0
LINE
  5
393
100
AcDbEntity
  8
RACCORDO
100
AcDbLine
 62
7
  6
CONTINUOUS
 10
-53.8623053767
 20
94.6074609645
 11
53.4050245841
 21
40.9737959841
  0
LINE
  5
394
100
AcDbEntity
  8
RACCORDO
100
AcDbLine
 62
7
  6
CONTINUOUS
 10
-53.7649144434
 20
94.7089438567
 11
53.5044350583
 21
41.0742691059
  0
LINE
  5
395
100
AcDbEntity
  8
RACCORDO
100
AcDbLine
 62
7
  6
CONTINUOUS
 10
55.5382583736
 20
42.0990224458
 11
-51.8008740979
 21
95.7685886816
  0
LINE
  5
396
100
AcDbEntity
  8
SMUSSO
100
AcDbLine
 62
7
  6
CONTINUOUS
 10
53.6289085207
 20
40.3102673838
 11
53.3460658082
 21
40.5223994182
  0
LINE
  5
397
100
AcDbEntity
  8
SMUSSO
100
AcDbLine
 62
7
  6
CONTINUOUS
 10
56.4714779516
 20
41.3215742755
 11
56.1367325685
 21
41.5726333129
  0
LINE
  5
398
100
AcDbEntity
  8
0
100
AcDbLine
 62
7
  6
CONTINUOUS
 10
26.9533981781
 20
-63.3357029338
 11
27.0496749525
 21
-63.2760782989
  0
LINE
  5
399
100
AcDbEntity
  8
0
100
AcDbLine
 62
7
  6
CONTINUOUS
 10
26.9079293242
 20
-62.3292155666
 11
25.9906336662
 21
-62.8543206779
  0
LINE
  5
39A
100
AcDbEntity
  8
0
100
AcDbLine
 62
7
  6
CONTINUOUS
 10
27.0496749525
 20
-62.573056347
 11
26.2936624358
 21
-63.0058350627
  0
LINE
  5
39B
100
AcDbEntity
  8
DRAFT
100
AcDbLine
 62
7
  6
CONTINUOUS
 10
25.7335460029
 20
-62.8949929731
 11
25.925788655
 21
-62.8218981723
  0
LINE
  5
39C
100
AcDbEntity
  8
RACCORDO
100
AcDbLine
 62
7
  6
CONTINUOUS
 10
30.2232217033
 20
-71.3837858173
 11
31.1266885618
 21
-70.9665348822
  0
LINE
  5
39D
100
AcDbEntity
  8
RACCORDO
100
AcDbLine
 62
7
  6
CONTINUOUS
 10
30.0328727563
 20
-71.7664010192
 11
30.9374628683
 21
-71.3486313284
  0
LINE
  5
39E
100
AcDbEntity
  8
SMUSSO
100
AcDbLine
 62
7
  6
CONTINUOUS
 10
52.1439842802
 20
-94.167946768
 11
53.9117512332
 21
-93.2840632915
  0
LINE
  5
39F
100
AcDbEntity
  8
RACCORDO
100
AcDbLine
 62
7
  6
CONTINUOUS
 10
51.8840916888
 20
-94.7088202713
 11
53.6518580475
 21
-93.8249370919
  0
LINE
  5
3A0
100
AcDbEntity
  8
RACCORDO
100
AcDbLine
 62
7
  6
CONTINUOUS
 10
54.5649336864
 20
-92.1324061238
 11
56.5987570017
 21
-91.1931191182
  0
LINE
  5
3A1
100
AcDbEntity
  8
RACCORDO
100
AcDbLine
 62
7
  6
CONTINUOUS
 10
54.1565990647
 20
-92.9525009058
 11
56.1932338693
 21
-92.0119154612
  0
ARC
  5
3A2
100
AcDbEntity
  8
RACCORDO
100
AcDbCircle
 62
7
  6
CONTINUOUS
 10
53.7938597723
 20
-92.43902572
 40
0.5616994997
100
AcDbArc
 50
305.5512525292
 51
310.2214384288
  0
ARC
  5
3A3
100
AcDbEntity
  8
RACCORDO
100
AcDbCircle
 62
7
  6
CONTINUOUS
 10
53.8021173501
 20
-92.450434511
 40
0.547616151
100
AcDbArc
 50
300.8698672499
 51
305.5423690518
  0
ARC
  5
3A4
100
AcDbEntity
  8
RACCORDO
100
AcDbCircle
 62
7
  6
CONTINUOUS
 10
28.0791781182
 20
-68.167295848
 40
0.0759738184
100
AcDbArc
 50
180.0603972715
 51
189.9696736028
  0
SPLINE
  5
3A5
100
AcDbEntity
  8
RACCORDO
100
AcDbSpline
 62
7
  6
CONTINUOUS
 70
0
 71
3
 72
8
 73
4
 74
2
 42
0.0000001
 43
0.0000001
 44
0.0000000001
 12
-0.0001898907
 22
-0.0082708644
 32
0.0
 13
0.0026371903
 23
-0.0078414593
 33
0.0
 40
0.0
 40
0.0
 40
0.0
 40
0.0
 40
1.0
 40
1.0
 40
1.0
 40
1.0
 10
-34.2556578091
 20
-34.2810561974
 30
0.0
 10
-34.255721106
 20
-34.2838131522
 30
0.0
 10
-34.2553455473
 20
-34.2866291964
 30
0.0
 10
-34.2544664838
 20
-34.2892430162
 30
0.0
 11
-34.2556578091
 21
-34.2810561974
 31
0.0
 11
-34.2544664838
 21
-34.2892430162
 31
0.0
  0
SPLINE
  5
3A6
100
AcDbEntity
  8
RACCORDO
100
AcDbSpline
 62
7
  6
CONTINUOUS
 70
0
 71
3
 72
11
 73
7
 74
5
 42
0.0000001
 43
0.0000001
 44
0.0000000001
 12
-0.299681524
 22
0.1475650771
 32
0.0
 13
-0.2939897456
 23
-0.1586016938
 33
0.0
 40
0.0
 40
0.0
 40
0.0
 40
0.0
 40
0.2798231701
 40
0.5359571054
 40
0.7731397735
 40
1.0
 40
1.0
 40
1.0
 40
1.0
 10
-38.3730994692
 20
69.3582743313
 30
0.0
 10
-38.4010520806
 20
69.3720383738
 30
0.0
 10
-38.4569123575
 20
69.3941326866
 30
0.0
 10
-38.5423949089
 20
69.4091175353
 30
0.0
 10
-38.6232729231
 20
69.4035253158
 30
0.0
 10
-38.6726200825
 20
69.3855870445
 30
0.0
 10
-38.6948516093
 20
69.3735935724
 30
0.0
 11
-38.3730994692
 21
69.3582743313
 31
0.0
 11
-38.4603076473
 21
69.3919181987
 31
0.0
 11
-38.544721334
 21
69.4058746693
 31
0.0
 11
-38.6237094932
 21
69.3997002135
 31
0.0
 11
-38.6948516093
 21
69.3735935724
 31
0.0
  0
SPLINE
  5
3A7
100
AcDbEntity
  8
RACCORDO
100
AcDbSpline
 62
7
  6
CONTINUOUS
 70
0
 71
3
 72
11
 73
7
 74
5
 42
0.0000001
 43
0.0000001
 44
0.0000000001
 12
-0.0064027649
 22
1.0264962597
 32
0.0
 13
-0.9153126615
 23
0.4646916164
 33
0.0
 40
0.0
 40
0.0
 40
0.0
 40
0.0
 40
0.246670931
 40
0.5119111179
 40
0.7706382137
 40
1.0
 40
1.0
 40
1.0
 40
1.0
 10
30.223610005
 20
34.4537941414
 30
0.0
 10
30.2230835463
 20
34.5381964041
 30
0.0
 10
30.1930716065
 20
34.7134552224
 30
0.0
 10
30.0871231661
 20
34.957285581
 30
0.0
 10
29.9323800028
 20
35.1661327356
 30
0.0
 10
29.7986898942
 20
35.2718417743
 30
0.0
 10
29.7287106452
 20
35.3073692741
 30
0.0
 11
30.223610005
 21
34.4537941414
 31
0.0
 11
30.1847875411
 21
34.704012023
 31
0.0
 11
30.0771067343
 21
34.9540872603
 31
0.0
 11
29.9169544496
 21
35.1659551415
 31
0.0
 11
29.7287106452
 21
35.3073692741
 31
0.0
  0
SPLINE
  5
3A8
100
AcDbEntity
  8
RACCORDO
100
AcDbSpline
 62
7
  6
CONTINUOUS
 70
0
 71
3
 72
11
 73
7
 74
5
 42
0.0000001
 43
0.0000001
 44
0.0000000001
 12
-0.3888888757
 22
-0.1877728259
 32
0.0
 13
-0.3862571023
 23
0.1931285652
 33
0.0
 40
0.0
 40
0.0
 40
0.0
 40
0.0
 40
0.236631889
 40
0.5012536727
 40
0.7652017156
 40
1.0
 40
1.0
 40
1.0
 40
1.0
 10
30.223610005
 20
34.4537941411
 30
0.0
 10
30.1929355019
 20
34.4389831283
 30
0.0
 10
30.1229765598
 20
34.4179298618
 30
0.0
 10
30.0126763282
 20
34.4081675359
 30
0.0
 10
29.9027286646
 20
34.4188374726
 30
0.0
 10
29.8333112945
 20
34.4405136757
 30
0.0
 10
29.8030804595
 20
34.4556290943
 30
0.0
 11
30.223610005
 21
34.4537941411
 31
0.0
 11
30.1263717182
 21
34.4223722258
 31
0.0
 11
30.0125945292
 21
34.4117008197
 31
0.0
 11
29.8992071533
 21
34.4233634452
 31
0.0
 11
29.8030804595
 21
34.4556290943
 31
0.0
  0
SPLINE
  5
3A9
100
AcDbEntity
  8
RACCORDO
100
AcDbSpline
 62
7
  6
CONTINUOUS
 70
0
 71
3
 72
11
 73
7
 74
5
 42
0.0000001
 43
0.0000001
 44
0.0000000001
 12
-0.388767541
 22
-0.1870394397
 32
0.0
 13
-0.3858745501
 23
0.1929372554
 33
0.0
 40
0.0
 40
0.0
 40
0.0
 40
0.0
 40
0.2367532794
 40
0.5013779555
 40
0.7652599984
 40
1.0
 40
1.0
 40
1.0
 40
1.0
 10
30.2232213653
 20
-71.3837938016
 30
0.0
 10
30.1925407019
 20
-71.3985545352
 30
0.0
 10
30.1226198142
 20
-71.4195292201
 30
0.0
 10
30.0124162137
 20
-71.4292244103
 30
0.0
 10
29.9025996054
 20
-71.4185295399
 30
0.0
 10
29.8332738571
 20
-71.3968682311
 30
0.0
 10
29.8030804596
 20
-71.3817715339
 30
0.0
 11
30.2232213653
 21
-71.3837938016
 31
0.0
 11
30.1259979476
 21
-71.4151027192
 31
0.0
 11
30.0123261187
 21
-71.4256985689
 31
0.0
 11
29.899083408
 21
-71.4140112231
 31
0.0
 11
29.8030804596
 21
-71.3817715339
 31
0.0
  0
SPLINE
  5
3AA
100
AcDbEntity
  8
RACCORDO
100
AcDbSpline
 62
7
  6
CONTINUOUS
 70
0
 71
3
 72
11
 73
7
 74
5
 42
0.0000001
 43
0.0000001
 44
0.0000000001
 12
-0.3862036935
 22
-0.2022094724
 32
0.0
 13
0.0000000147
 23
-0.4359380273
 33
0.0
 40
0.0
 40
0.0
 40
0.0
 40
0.0
 40
0.2308407489
 40
0.4894506684
 40
0.7538191198
 40
1.0
 40
1.0
 40
1.0
 40
1.0
 10
29.7283290107
 20
35.3071698776
 30
0.0
 10
29.6986118274
 20
35.2916104823
 30
0.0
 10
29.6420436596
 20
35.2462160346
 30
0.0
 10
29.5767681714
 20
35.1570994937
 30
0.0
 10
29.5324773966
 20
35.0534763411
 30
0.0
 10
29.5202808241
 20
34.9791595154
 30
0.0
 10
29.5202808253
 20
34.943386313
 30
0.0
 11
29.7283290107
 21
35.3071698776
 31
0.0
 11
29.6484083783
 21
35.2460180633
 31
0.0
 11
29.580976612
 21
35.1556699002
 31
0.0
 11
29.5360426045
 21
35.0495421626
 31
0.0
 11
29.5202808253
 21
34.943386313
 31
0.0
  0
SPLINE
  5
3AB
100
AcDbEntity
  8
RACCORDO
100
AcDbSpline
 62
7
  6
CONTINUOUS
 70
0
 71
3
 72
11
 73
7
 74
5
 42
0.0000001
 43
0.0000001
 44
0.0000000001
 12
-0.3869302045
 22
-0.2017369093
 32
0.0
 13
-0.0000000106
 23
-0.43636311
 33
0.0
 40
0.0
 40
0.0
 40
0.0
 40
0.0
 40
0.2307390512
 40
0.4893391875
 40
0.7537623063
 40
1.0
 40
1.0
 40
1.0
 40
1.0
 10
-38.373099469
 20
69.3582743312
 30
0.0
 10
-38.4028594384
 20
69.3427581368
 30
0.0
 10
-38.4595274524
 20
69.2973903496
 30
0.0
 10
-38.5249215773
 20
69.2082349782
 30
0.0
 10
-38.5693041307
 20
69.1045132569
 30
0.0
 10
-38.5815292882
 20
69.0301077188
 30
0.0
 10
-38.5815292891
 20
68.9942913702
 30
0.0
 11
-38.373099469
 21
69.3582743312
 31
0.0
 11
-38.4531405234
 21
69.2971915823
 31
0.0
 11
-38.5207005228
 21
69.2068073168
 31
0.0
 11
-38.565731587
 21
69.1005727423
 31
0.0
 11
-38.5815292891
 21
68.9942913702
 31
0.0
  0
SPLINE
  5
3AC
100
AcDbEntity
  8
RACCORDO
100
AcDbSpline
 62
7
  6
CONTINUOUS
 70
0
 71
3
 72
11
 73
7
 74
5
 42
0.0000001
 43
0.0000001
 44
0.0000000001
 12
-0.1080069137
 22
-0.1418945729
 32
0.0
 13
-0.1342256889
 23
0.11740114
 33
0.0
 40
0.0
 40
0.0
 40
0.0
 40
0.0
 40
0.2603119456
 40
0.4907623459
 40
0.729164318
 40
1.0
 40
1.0
 40
1.0
 40
1.0
 10
27.9943888655
 20
-68.2357587283
 30
0.0
 10
27.9850170355
 20
-68.2480710124
 30
0.0
 10
27.9633823545
 20
-68.2691925003
 30
0.0
 10
27.9195529899
 20
-68.281028844
 30
0.0
 10
27.8756432398
 20
-68.2692051315
 30
0.0
 10
27.850609286
 20
-68.2514766295
 30
0.0
 10
27.838491584
 20
-68.2408778235
 30
0.0
 11
27.9943888655
 21
-68.2357587283
 31
0.0
 11
27.9598532525
 21
-68.2667765178
 31
0.0
 11
27.9201155094
 21
-68.2772504612
 31
0.0
 11
27.8787073172
 21
-68.2676220809
 31
0.0
 11
27.838491584
 21
-68.2408778235
 31
0.0
  0
SPLINE
  5
3AD
100
AcDbEntity
  8
RACCORDO
100
AcDbSpline
 62
7
  6
CONTINUOUS
 70
0
 71
3
 72
11
 73
7
 74
5
 42
0.0000001
 43
0.0000001
 44
0.0000000001
 12
-0.168967103
 22
0.0844844986
 32
0.0
 13
0.000000178
 23
0.1889113877
 33
0.0
 40
0.0
 40
0.0
 40
0.0
 40
0.0
 40
0.2171405963
 40
0.4503764138
 40
0.7102994001
 40
1.0
 40
1.0
 40
1.0
 40
1.0
 10
-36.6645479368
 20
65.815748898
 30
0.0
 10
-36.6767778093
 20
65.8218639028
 30
0.0
 10
-36.6999113992
 20
65.8394796132
 30
0.0
 10
-36.7247264257
 20
65.8775090933
 30
0.0
 10
-36.7395628383
 20
65.9250276504
 30
0.0
 10
-36.7425131674
 20
65.959767516
 30
0.0
 10
-36.7425131502
 20
65.9780100968
 30
0.0
 11
-36.6645479368
 21
65.815748898
 31
0.0
 11
-36.6973647109
 21
65.8403604181
 31
0.0
 11
-36.7220308841
 21
65.8768699097
 31
0.0
 11
-36.7373287969
 21
65.9235284645
 31
0.0
 11
-36.7425131502
 21
65.9780100968
 31
0.0
  0
SPLINE
  5
3AE
100
AcDbEntity
  8
RACCORDO
100
AcDbSpline
 62
7
  6
CONTINUOUS
 70
0
 71
3
 72
15
 73
11
 74
9
 42
0.0000001
 43
0.0000001
 44
0.0000000001
 12
-0.0000005386
 22
0.4335126626
 32
0.0
 13
0.3877520722
 23
-0.1938596378
 33
0.0
 40
0.0
 40
0.0
 40
0.0
 40
0.0
 40
0.1483180414
 40
0.2831791178
 40
0.4055265014
 40
0.5187912958
 40
0.6287511638
 40
0.7421810886
 40
0.8648057596
 40
1.0
 40
1.0
 40
1.0
 40
1.0
 10
-38.8643289233
 20
68.7932368597
 30
0.0
 10
-38.8643289499
 20
68.8146694428
 30
0.0
 10
-38.8605220978
 20
68.8556744964
 30
0.0
 10
-38.8446185358
 20
68.91247415
 30
0.0
 10
-38.8183160336
 20
68.9597937138
 30
0.0
 10
-38.7823063173
 20
68.9954971355
 30
0.0
 10
-38.7379279343
 20
69.0174591722
 30
0.0
 10
-38.6876376757
 20
69.0244677184
 30
0.0
 10
-38.6339740587
 20
69.0167562788
 30
0.0
 10
-38.5990032381
 20
69.0030276057
 30
0.0
 10
-38.5815292891
 20
68.9942913702
 30
0.0
 11
-38.8643289233
 21
68.7932368597
 31
0.0
 11
-38.8583390022
 21
68.8572549929
 31
0.0
 11
-38.8418805873
 21
68.9133545298
 31
0.0
 11
-38.8155615463
 21
68.9594029658
 31
0.0
 11
-38.7803746744
 21
68.9936500563
 31
0.0
 11
-38.7376535927
 21
69.0147981598
 31
0.0
 11
-38.6890172538
 21
69.0220452853
 31
0.0
 11
-38.6363105128
 21
69.0151231694
 31
0.0
 11
-38.5815292891
 21
68.9942913702
 31
0.0
  0
SPLINE
  5
3AF
100
AcDbEntity
  8
RACCORDO
100
AcDbSpline
 62
7
  6
CONTINUOUS
 70
0
 71
3
 72
12
 73
8
 74
6
 42
0.0000001
 43
0.0000001
 44
0.0000000001
 12
0.5224462273
 22
-0.26122214
 32
0.0
 13
0.0000164681
 23
-0.5841122038
 33
0.0
 40
0.0
 40
0.0
 40
0.0
 40
0.0
 40
0.1109174752
 40
0.2309231407
 40
0.4893221405
 40
0.7537633792
 40
1.0
 40
1.0
 40
1.0
 40
1.0
 10
29.5234676771
 20
34.9417928871
 30
0.0
 10
29.5427838159
 20
34.9321348537
 30
0.0
 10
29.5806385292
 20
34.9073032366
 30
0.0
 10
29.6519880557
 20
34.8438317249
 30
0.0
 10
29.727131698
 20
34.74180104
 30
0.0
 10
29.7866373806
 20
34.6032035368
 30
0.0
 10
29.8030791078
 20
34.503572366
 30
0.0
 10
29.8030804595
 20
34.4556290943
 30
0.0
 11
29.5234676771
 21
34.9417928871
 31
0.0
 11
29.5781836382
 21
34.9070987803
 31
0.0
 11
29.6307078372
 21
34.8606793208
 31
0.0
 11
29.7213785421
 21
34.7400149166
 31
0.0
 11
29.7818596589
 21
34.5978848267
 31
0.0
 11
29.8030804595
 21
34.4556290943
 31
0.0
  0
SPLINE
  5
3B0
100
AcDbEntity
  8
RACCORDO
100
AcDbSpline
 62
7
  6
CONTINUOUS
 70
0
 71
3
 72
11
 73
7
 74
5
 42
0.0000001
 43
0.0000001
 44
0.0000000001
 12
0.0000403501
 22
-0.1443858036
 32
0.0
 13
0.1291425697
 23
-0.064571345
 33
0.0
 40
0.0
 40
0.0
 40
0.0
 40
0.0
 40
0.2065783418
 40
0.4344754237
 40
0.6975324297
 40
1.0
 40
1.0
 40
1.0
 40
1.0
 10
28.0032043419
 20
33.1653736294
 30
0.0
 10
28.0032071204
 20
33.1554313027
 30
0.0
 10
28.0076016322
 20
33.1343622683
 30
0.0
 10
28.0259290817
 20
33.1056058263
 30
0.0
 10
28.0545136009
 20
33.0797929533
 30
0.0
 10
28.0780518278
 20
33.0658178317
 30
0.0
 10
28.0910723075
 20
33.0593075857
 30
0.0
 11
28.0032043419
 21
33.1653736294
 31
0.0
 11
28.0089732712
 21
33.1361098591
 31
0.0
 11
28.0260369323
 21
33.1079748741
 31
0.0
 11
28.0537783834
 21
33.0820322196
 31
0.0
 11
28.0910723075
 21
33.0593075857
 31
0.0
  0
SPLINE
  5
3B1
100
AcDbEntity
  8
RACCORDO
100
AcDbSpline
 62
7
  6
CONTINUOUS
 70
0
 71
3
 72
15
 73
11
 74
9
 42
0.0000001
 43
0.0000001
 44
0.0000000001
 12
0.0000005433
 22
-0.4373931379
 32
0.0
 13
-0.3912229335
 23
0.1955949217
 33
0.0
 40
0.0
 40
0.0
 40
0.0
 40
0.0
 40
0.1487956607
 40
0.2840505564
 40
0.4066337084
 40
0.5199163178
 40
0.6296853472
 40
0.7427992355
 40
0.8650888082
 40
1.0
 40
1.0
 40
1.0
 40
1.0
 10
29.8030804596
 20
-71.3817715331
 30
0.0
 10
29.8030804865
 20
-71.4034656001
 30
0.0
 10
29.7999298635
 20
-71.4449990922
 30
0.0
 10
29.7842975427
 20
-71.5026180091
 30
0.0
 10
29.758237135
 20
-71.5507165962
 30
0.0
 10
29.722253846
 20
-71.5871142883
 30
0.0
 10
29.6777187564
 20
-71.6096179756
 30
0.0
 10
29.6271246829
 20
-71.6169466464
 30
0.0
 10
29.5730863213
 20
-71.6093243398
 30
0.0
 10
29.5378742761
 20
-71.5955250997
 30
0.0
 10
29.5202808253
 20
-71.5867291184
 30
0.0
 11
29.8030804596
 21
-71.3817715331
 31
0.0
 11
29.7976477779
 21
-71.4466265934
 31
0.0
 11
29.7815557448
 21
-71.5035554999
 31
0.0
 11
29.7554251576
 21
-71.5503740675
 31
0.0
 11
29.7202557241
 21
-71.585277046
 31
0.0
 11
29.6773998102
 21
-71.6069229216
 31
0.0
 11
29.6285049857
 21
-71.6144790693
 31
0.0
 11
29.5754526351
 21
-71.6076614037
 31
0.0
 11
29.5202808253
 21
-71.5867291184
 31
0.0
  0
SPLINE
  5
3B2
100
AcDbEntity
  8
RACCORDO
100
AcDbSpline
 62
7
  6
CONTINUOUS
 70
0
 71
3
 72
11
 73
7
 74
5
 42
0.0000001
 43
0.0000001
 44
0.0000000001
 12
0.4079950368
 22
0.1888863769
 32
0.0
 13
0.0027810966
 23
0.4495890112
 33
0.0
 40
0.0
 40
0.0
 40
0.0
 40
0.0
 40
0.2166761523
 40
0.4494780108
 40
0.7094272567
 40
1.0
 40
1.0
 40
1.0
 40
1.0
 10
30.0330796008
 20
-71.7663029991
 30
0.0
 10
30.062547199
 20
-71.7526606079
 30
0.0
 10
30.1186554199
 20
-71.7122383574
 30
0.0
 10
30.1791489743
 20
-71.6227354378
 30
0.0
 10
30.2157279167
 20
-71.5099360126
 30
0.0
 10
30.2233406347
 20
-71.4271525909
 30
0.0
 10
30.223610005
 20
-71.3836064867
 30
0.0
 11
30.0330796008
 21
-71.7663029991
 31
0.0
 11
30.1125104891
 21
-71.7099042259
 31
0.0
 11
30.1725914255
 21
-71.6241983601
 31
0.0
 11
30.2102634073
 21
-71.513563749
 31
0.0
 11
30.223610005
 21
-71.3836064867
 31
0.0
  0
SPLINE
  5
3B3
100
AcDbEntity
  8
RACCORDO
100
AcDbSpline
 62
7
  6
CONTINUOUS
 70
0
 71
3
 72
11
 73
7
 74
5
 42
0.0000001
 43
0.0000001
 44
0.0000000001
 12
-0.5252088232
 22
0.262603433
 32
0.0
 13
-0.0000165552
 23
0.5872008777
 33
0.0
 40
0.0
 40
0.0
 40
0.0
 40
0.0
 40
0.2296735233
 40
0.4882132692
 40
0.7532075793
 40
1.0
 40
1.0
 40
1.0
 40
1.0
 10
-38.5815292885
 20
-37.5358240615
 30
0.0
 10
-38.6217381421
 20
-37.5157197096
 30
0.0
 10
-38.6985720284
 20
-37.4556118985
 30
0.0
 10
-38.7873000852
 20
-37.3362775796
 30
0.0
 10
-38.8476613344
 20
-37.1967182306
 30
0.0
 10
-38.8643275614
 20
-37.0963724178
 30
0.0
 10
-38.8643289233
 20
-37.0480668425
 30
0.0
 11
-38.5815292885
 21
-37.5358240615
 31
0.0
 11
-38.689752909
 21
-37.4553499672
 31
0.0
 11
-38.7815039006
 21
-37.3343975855
 31
0.0
 11
-38.8428043349
 21
-37.191376122
 31
0.0
 11
-38.8643289233
 21
-37.0480668425
 31
0.0
  0
SPLINE
  5
3B4
100
AcDbEntity
  8
RACCORDO
100
AcDbSpline
 62
7
  6
CONTINUOUS
 70
0
 71
3
 72
11
 73
7
 74
5
 42
0.0000001
 43
0.0000001
 44
0.0000000001
 12
-0.0000148491
 22
-0.1443860475
 32
0.0
 13
0.1291428057
 23
-0.0645714076
 33
0.0
 40
0.0
 40
0.0
 40
0.0
 40
0.0
 40
0.206582017
 40
0.4344785876
 40
0.6975252505
 40
1.0
 40
1.0
 40
1.0
 40
1.0
 10
-38.9521968193
 20
-36.942000822
 30
0.0
 10
-38.9521978418
 20
-36.9519433423
 30
0.0
 10
-38.9477995086
 20
-36.973013207
 30
0.0
 10
-38.9294713844
 20
-37.0017674428
 30
0.0
 10
-38.900888543
 20
-37.0275823276
 30
0.0
 10
-38.8773497359
 20
-37.0415564357
 30
0.0
 10
-38.8643289233
 20
-37.0480668425
 30
0.0
 11
-38.9521968193
 21
-36.942000822
 31
0.0
 11
-38.9464287033
 21
-36.9712653438
 31
0.0
 11
-38.9293636378
 21
-36.9993994543
 31
0.0
 11
-38.9016239726
 21
-37.0253419242
 31
0.0
 11
-38.8643289233
 21
-37.0480668425
 31
0.0
  0
SPLINE
  5
3B5
100
AcDbEntity
  8
RACCORDO
100
AcDbSpline
 62
7
  6
CONTINUOUS
 70
0
 71
3
 72
11
 73
7
 74
5
 42
0.0000001
 43
0.0000001
 44
0.0000000001
 12
-0.0000143701
 22
-0.1443860402
 32
0.0
 13
0.1291428036
 23
-0.0645713953
 33
0.0
 40
0.0
 40
0.0
 40
0.0
 40
0.0
 40
0.2065819985
 40
0.434478562
 40
0.6975252468
 40
1.0
 40
1.0
 40
1.0
 40
1.0
 10
-38.9521968235
 20
68.8953997984
 30
0.0
 10
-38.952197813
 20
68.8854572795
 30
0.0
 10
-38.9477995013
 20
68.8643874253
 30
0.0
 10
-38.9294713943
 20
68.835633171
 30
0.0
 10
-38.9008885397
 20
68.8098183028
 30
0.0
 10
-38.8773497358
 20
68.7958441913
 30
0.0
 10
-38.8643289233
 20
68.7893337857
 30
0.0
 11
-38.9521968235
 21
68.8953997984
 31
0.0
 11
-38.9464286929
 21
68.8661352838
 31
0.0
 11
-38.9293636435
 21
68.8380011667
 31
0.0
 11
-38.901623972
 21
68.8120587016
 31
0.0
 11
-38.8643289233
 21
68.7893337857
 31
0.0
  0
SPLINE
  5
3B6
100
AcDbEntity
  8
RACCORDO
100
AcDbSpline
 62
7
  6
CONTINUOUS
 70
0
 71
3
 72
11
 73
7
 74
5
 42
0.0000001
 43
0.0000001
 44
0.0000000001
 12
-0.1689815347
 22
0.0844616437
 32
0.0
 13
0.0000000046
 23
0.1889140766
 33
0.0
 40
0.0
 40
0.0
 40
0.0
 40
0.0
 40
0.2171654761
 40
0.450392866
 40
0.7103024545
 40
1.0
 40
1.0
 40
1.0
 40
1.0
 10
29.5982506584
 20
-71.7489874964
 30
0.0
 10
29.58601834
 20
-71.7428734454
 30
0.0
 10
29.5628774396
 20
-71.7252633115
 30
0.0
 10
29.538069561
 20
-71.6872271298
 30
0.0
 10
29.5232296482
 20
-71.6397117193
 30
0.0
 10
29.5202808249
 20
-71.6049717665
 30
0.0
 10
29.5202808253
 20
-71.5867291184
 30
0.0
 11
29.5982506584
 21
-71.7489874964
 31
0.0
 11
29.5654255516
 21
-71.7243782812
 31
0.0
 11
29.5407629209
 21
-71.6878675609
 31
0.0
 11
29.5254648552
 21
-71.6412109843
 31
0.0
 11
29.5202808253
 21
-71.5867291184
 31
0.0
  0
SPLINE
  5
3B7
100
AcDbEntity
  8
RACCORDO
100
AcDbSpline
 62
7
  6
CONTINUOUS
 70
0
 71
3
 72
11
 73
7
 74
5
 42
0.0000001
 43
0.0000001
 44
0.0000000001
 12
-0.1689813847
 22
0.0844619638
 32
0.0
 13
-0.0000000064
 23
0.1889140855
 33
0.0
 40
0.0
 40
0.0
 40
0.0
 40
0.0
 40
0.2171653099
 40
0.4503927527
 40
0.7103023951
 40
1.0
 40
1.0
 40
1.0
 40
1.0
 10
-38.5035594746
 20
-37.6980824919
 30
0.0
 10
-38.5157917729
 20
-37.6919684224
 30
0.0
 10
-38.5389326119
 20
-37.6743582357
 30
0.0
 10
-38.5637405616
 20
-37.6363221114
 30
0.0
 10
-38.5785804532
 20
-37.5888066704
 30
0.0
 10
-38.5815292885
 20
-37.5540667139
 30
0.0
 10
-38.5815292891
 20
-37.5358240612
 30
0.0
 11
-38.5035594746
 21
-37.6980824919
 31
0.0
 11
-38.5363845166
 21
-37.6734732392
 31
0.0
 11
-38.5610471838
 21
-37.636962529
 31
0.0
 11
-38.5763452531
 21
-37.5903059405
 31
0.0
 11
-38.5815292891
 21
-37.5358240612
 31
0.0
  0
SPLINE
  5
3B8
100
AcDbEntity
  8
RACCORDO
100
AcDbSpline
 62
7
  6
CONTINUOUS
 70
0
 71
3
 72
8
 73
4
 74
2
 42
0.0000001
 43
0.0000001
 44
0.0000000001
 12
0.0167615633
 22
-0.0117942994
 32
0.0
 13
0.0183203002
 23
-0.0091881502
 33
0.0
 40
0.0
 40
0.0
 40
0.0
 40
0.0
 40
1.0
 40
1.0
 40
1.0
 40
1.0
 10
-34.1465077289
 20
-34.6937514541
 30
0.0
 10
-34.1409205412
 20
-34.6976828873
 30
0.0
 10
-34.1350008437
 20
-34.7011679915
 30
0.0
 10
-34.1288940769
 20
-34.7042307082
 30
0.0
 11
-34.1465077289
 21
-34.6937514541
 31
0.0
 11
-34.1288940769
 21
-34.7042307082
 31
0.0
  0
SPLINE
  5
3B9
100
AcDbEntity
  8
RACCORDO
100
AcDbSpline
 62
7
  6
CONTINUOUS
 70
0
 71
3
 72
8
 73
4
 74
2
 42
0.0000001
 43
0.0000001
 44
0.0000000001
 12
0.0000288411
 22
-0.0226935911
 32
0.0
 13
0.003214114
 23
-0.0224648477
 33
0.0
 40
0.0
 40
0.0
 40
0.0
 40
0.0
 40
1.0
 40
1.0
 40
1.0
 40
1.0
 10
-34.3529869943
 20
-34.3177275983
 30
0.0
 10
-34.3529773806
 20
-34.3252921287
 30
0.0
 10
-34.3524634536
 20
-34.3328768104
 30
0.0
 10
-34.3513920823
 20
-34.340365093
 30
0.0
 11
-34.3529869943
 21
-34.3177275983
 31
0.0
 11
-34.3513920823
 21
-34.340365093
 31
0.0
  0
SPLINE
  5
3BA
100
AcDbEntity
  8
RACCORDO
100
AcDbSpline
 62
7
  6
CONTINUOUS
 70
0
 71
3
 72
15
 73
11
 74
9
 42
0.0000001
 43
0.0000001
 44
0.0000000001
 12
-0.5701695407
 22
0.2850660234
 32
0.0
 13
-0.0000145285
 23
-0.637460542
 33
0.0
 40
0.0
 40
0.0
 40
0.0
 40
0.0
 40
0.1348561254
 40
0.2573957507
 40
0.3704723954
 40
0.4799257848
 40
0.5930000782
 40
0.7157264728
 40
0.8513022774
 40
1.0
 40
1.0
 40
1.0
 40
1.0
 10
-36.7425131502
 20
65.9780100968
 30
0.0
 10
-36.7681434352
 20
65.9908243966
 30
0.0
 10
-36.8193511064
 20
66.0111970347
 30
0.0
 10
-36.8979411542
 20
66.0234146734
 30
0.0
 10
-36.9718366541
 20
66.0138332146
 30
0.0
 10
-37.0369253187
 20
65.9814576584
 30
0.0
 10
-37.0890186973
 20
65.9280717197
 30
0.0
 10
-37.126149014
 20
65.8574420816
 30
0.0
 10
-37.1479921015
 20
65.7731632738
 30
0.0
 10
-37.1523200512
 20
65.7126004354
 30
0.0
 10
-37.1523207713
 20
65.6810041252
 30
0.0
 11
-36.7425131502
 21
65.9780100968
 31
0.0
 11
-36.8227333073
 21
66.0089097165
 31
0.0
 11
-36.9000768017
 21
66.0198554174
 31
0.0
 11
-36.9714517796
 21
66.0097850289
 31
0.0
 11
-37.0339048517
 21
65.9786759297
 31
0.0
 11
-37.0848021898
 21
65.9276362874
 31
0.0
 11
-37.1221638601
 21
65.8589009653
 31
0.0
 11
-37.144802127
 21
65.7754943966
 31
0.0
 11
-37.1523207713
 21
65.6810041252
 31
0.0
  0
SPLINE
  5
3BB
100
AcDbEntity
  8
RACCORDO
100
AcDbSpline
 62
7
  6
CONTINUOUS
 70
0
 71
3
 72
9
 73
5
 74
3
 42
0.0000001
 43
0.0000001
 44
0.0000000001
 12
-0.0912696516
 22
-0.0475859885
 32
0.0
 13
-0.0792739398
 23
-0.0656522511
 33
0.0
 40
0.0
 40
0.0
 40
0.0
 40
0.0
 40
0.240045773
 40
1.0
 40
1.0
 40
1.0
 40
1.0
 10
-34.0435580835
 20
-34.6468741114
 30
0.0
 10
-34.0508610482
 20
-34.6506817166
 30
0.0
 10
-34.0808085588
 20
-34.6674511397
 30
0.0
 10
-34.1088125551
 20
-34.6875998063
 30
0.0
 10
-34.1288940769
 20
-34.7042307082
 30
0.0
 11
-34.0435580835
 21
-34.6468741114
 31
0.0
 11
-34.0651266057
 21
-34.6589272935
 31
0.0
 11
-34.1288940769
 21
-34.7042307082
 31
0.0
  0
SPLINE
  5
3BC
100
AcDbEntity
  8
RACCORDO
100
AcDbSpline
 62
7
  6
CONTINUOUS
 70
0
 71
3
 72
9
 73
5
 74
3
 42
0.0000001
 43
0.0000001
 44
0.0000000001
 12
-0.1019693292
 22
-0.0404250947
 32
0.0
 13
-0.0914706907
 23
-0.0605396162
 33
0.0
 40
0.0
 40
0.0
 40
0.0
 40
0.0
 40
0.2423598346
 40
1.0
 40
1.0
 40
1.0
 40
1.0
 10
-34.0495626732
 20
-34.6426498121
 30
0.0
 10
-34.0578004298
 20
-34.6459156185
 30
0.0
 10
-34.0914032556
 20
-34.6603581955
 30
0.0
 10
-34.123388534
 20
-34.6784743574
 30
0.0
 10
-34.1464891571
 20
-34.693763439
 30
0.0
 11
-34.0495626732
 21
-34.6426498121
 31
0.0
 11
-34.0739933685
 21
-34.6531319997
 31
0.0
 11
-34.1464891571
 21
-34.693763439
 31
0.0
  0
SPLINE
  5
3BD
100
AcDbEntity
  8
RACCORDO
100
AcDbSpline
 62
7
  6
CONTINUOUS
 70
0
 71
3
 72
11
 73
7
 74
5
 42
0.0000001
 43
0.0000001
 44
0.0000000001
 12
0.0000197937
 22
-0.8520140845
 32
0.0
 13
0.7620422334
 23
-0.3810769412
 33
0.0
 40
0.0
 40
0.0
 40
0.0
 40
0.0
 40
0.2467424519
 40
0.5119749011
 40
0.7705534111
 40
1.0
 40
1.0
 40
1.0
 40
1.0
 10
-37.1523207713
 20
-35.6517453339
 30
0.0
 10
-37.1523191433
 20
-35.7218213487
 30
0.0
 10
-37.1294022171
 20
-35.8675734242
 30
0.0
 10
-37.0426445245
 20
-36.0706720224
 30
0.0
 10
-36.913017638
 20
-36.2434523071
 30
0.0
 10
-36.8007958139
 20
-36.3294133253
 30
0.0
 10
-36.7425131502
 20
-36.3585589267
 30
0.0
 11
-37.1523207713
 21
-35.6517453339
 31
0.0
 11
-37.1221638618
 21
-35.8597991525
 31
0.0
 11
-37.0339048519
 21
-36.0678330756
 31
0.0
 11
-36.9000768021
 21
-36.2428406899
 31
0.0
 11
-36.7425131502
 21
-36.3585589267
 31
0.0
  0
SPLINE
  5
3BE
100
AcDbEntity
  8
RACCORDO
100
AcDbSpline
 62
7
  6
CONTINUOUS
 70
0
 71
3
 72
9
 73
5
 74
3
 42
0.0000001
 43
0.0000001
 44
0.0000000001
 12
-0.091998554
 22
-0.0596700142
 32
0.0
 13
-0.1008480191
 23
-0.0430571896
 33
0.0
 40
0.0
 40
0.0
 40
0.0
 40
0.0
 40
0.2407744537
 40
1.0
 40
1.0
 40
1.0
 40
1.0
 10
-34.2544668195
 20
-34.2892428561
 30
0.0
 10
-34.2618504534
 20
-34.2940318611
 30
0.0
 10
-34.2929953535
 20
-34.3131801745
 30
0.0
 10
-34.3258710696
 20
-34.3294597318
 30
0.0
 10
-34.3513932004
 20
-34.3403564379
 30
0.0
 11
-34.2544668195
 21
-34.2892428561
 31
0.0
 11
-34.2769485854
 21
-34.303086402
 31
0.0
 11
-34.3513932004
 21
-34.3403564379
 31
0.0
  0
SPLINE
  5
3BF
100
AcDbEntity
  8
RACCORDO
100
AcDbSpline
 62
7
  6
CONTINUOUS
 70
0
 71
3
 72
9
 73
5
 74
3
 42
0.0000001
 43
0.0000001
 44
0.0000000001
 12
-0.093726083
 22
-0.0452541879
 32
0.0
 13
-0.0999960284
 23
-0.0288671866
 33
0.0
 40
0.0
 40
0.0
 40
0.0
 40
0.0
 40
0.2385351264
 40
1.0
 40
1.0
 40
1.0
 40
1.0
 10
-34.2556578091
 20
-34.2810561974
 30
0.0
 10
-34.2631101301
 20
-34.2846544352
 30
0.0
 10
-34.2947187359
 20
-34.2989767554
 30
0.0
 10
-34.3276058399
 20
-34.3104004818
 30
0.0
 10
-34.3529869943
 20
-34.317727598
 30
0.0
 11
-34.2556578091
 21
-34.2810561974
 31
0.0
 11
-34.2782624009
 21
-34.291322261
 31
0.0
 11
-34.3529869943
 21
-34.317727598
 31
0.0
  0
SPLINE
  5
3C0
100
AcDbEntity
  8
RACCORDO
100
AcDbSpline
 62
7
  6
CONTINUOUS
 70
0
 71
3
 72
15
 73
11
 74
9
 42
0.0000001
 43
0.0000001
 44
0.0000000001
 12
0.5701695391
 22
-0.2850667643
 32
0.0
 13
0.0000119423
 23
0.637460872
 33
0.0
 40
0.0
 40
0.0
 40
0.0
 40
0.0
 40
0.1348577594
 40
0.2573968016
 40
0.3704735614
 40
0.4799266635
 40
0.5930014688
 40
0.7157277627
 40
0.8513039798
 40
1.0
 40
1.0
 40
1.0
 40
1.0
 10
27.6812646864
 20
-68.570447845
 30
0.0
 10
27.7068952819
 20
-68.5832623334
 30
0.0
 10
27.758102195
 20
-68.6036376722
 30
0.0
 10
27.8366929196
 20
-68.6158543127
 30
0.0
 10
27.9105882225
 20
-68.6062725149
 30
0.0
 10
27.9756764563
 20
-68.5738956441
 30
0.0
 10
28.0277689404
 20
-68.5205088774
 30
0.0
 10
28.0648990435
 20
-68.4498788526
 30
0.0
 10
28.0867411136
 20
-68.365600238
 30
0.0
 10
28.0910717156
 20
-68.3050378382
 30
0.0
 10
28.0910723075
 20
-68.2734418733
 30
0.0
 11
27.6812646864
 21
-68.570447845
 31
0.0
 11
27.7614851569
 21
-68.6013496728
 31
0.0
 11
27.8388283486
 21
-68.6122951481
 31
0.0
 11
27.9102033514
 21
-68.6022241436
 31
0.0
 11
27.9726557914
 21
-68.5711141054
 31
0.0
 11
28.0235526308
 21
-68.5200734522
 31
0.0
 11
28.0609137676
 21
-68.4513378672
 31
0.0
 11
28.0835520141
 21
-68.3679309741
 31
0.0
 11
28.0910723075
 21
-68.2734418733
 31
0.0
  0
SPLINE
  5
3C1
100
AcDbEntity
  8
RACCORDO
100
AcDbSpline
 62
7
  6
CONTINUOUS
 70
0
 71
3
 72
9
 73
5
 74
3
 42
0.0000001
 43
0.0000001
 44
0.0000000001
 12
0.0000001055
 22
0.204790318
 32
0.0
 13
-0.0542844535
 23
0.1974646106
 33
0.0
 40
0.0
 40
0.0
 40
0.0
 40
0.0
 40
0.2389456905
 40
1.0
 40
1.0
 40
1.0
 40
1.0
 10
28.0910723075
 20
33.0593075857
 30
0.0
 10
28.0910723159
 20
33.0756188404
 30
0.0
 10
28.0885124217
 20
33.1438716691
 30
0.0
 10
28.0762517962
 20
33.2116478751
 30
0.0
 10
28.0624806571
 20
33.2617416394
 30
0.0
 11
28.0910723075
 21
33.0593075857
 31
0.0
 11
28.0892951009
 21
33.1082090662
 31
0.0
 11
28.0624806571
 21
33.2617416394
 31
0.0
  0
SPLINE
  5
3C2
100
AcDbEntity
  8
RACCORDO
100
AcDbSpline
 62
7
  6
CONTINUOUS
 70
0
 71
3
 72
9
 73
5
 74
3
 42
0.0000001
 43
0.0000001
 44
0.0000000001
 12
-0.1212913385
 22
0.4412082163
 32
0.0
 13
-0.3271261585
 23
0.3199449255
 33
0.0
 40
0.0
 40
0.0
 40
0.0
 40
0.0
 40
0.5065165856
 40
1.0
 40
1.0
 40
1.0
 40
1.0
 10
28.0624806571
 20
33.2617416394
 30
0.0
 10
28.0420019656
 20
33.3362347325
 30
0.0
 10
27.9819673512
 20
33.4783852171
 30
0.0
 10
27.8886861176
 20
33.6016685683
 30
0.0
 10
27.834875673
 20
33.6542977397
 30
0.0
 11
28.0624806571
 21
33.2617416394
 31
0.0
 11
27.9726551887
 21
33.4753973549
 31
0.0
 11
27.834875673
 21
33.6542977397
 31
0.0
  0
SPLINE
  5
3C3
100
AcDbEntity
  8
RACCORDO
100
AcDbSpline
 62
7
  6
CONTINUOUS
 70
0
 71
3
 72
9
 73
5
 74
3
 42
0.0000001
 43
0.0000001
 44
0.0000000001
 12
-0.1361306887
 22
0.1331422815
 32
0.0
 13
-0.1703114421
 23
0.0851612837
 33
0.0
 40
0.0
 40
0.0
 40
0.0
 40
0.0
 40
0.2645539582
 40
1.0
 40
1.0
 40
1.0
 40
1.0
 10
27.834875673
 20
33.6542977397
 30
0.0
 10
27.8228710355
 20
33.6660388456
 30
0.0
 10
27.7760229507
 20
33.7088473826
 30
0.0
 10
27.7230163117
 20
33.7452440022
 30
0.0
 10
27.6812646864
 20
33.7661211785
 30
0.0
 11
27.834875673
 21
33.6542977397
 31
0.0
 11
27.7976523132
 21
33.688240419
 31
0.0
 11
27.6812646864
 21
33.7661211785
 31
0.0
  0
SPLINE
  5
3C4
100
AcDbEntity
  8
RACCORDO
100
AcDbSpline
 62
7
  6
CONTINUOUS
 70
0
 71
3
 72
11
 73
7
 74
5
 42
0.0000001
 43
0.0000001
 44
0.0000000001
 12
-0.2889262463
 22
-0.2392800289
 32
0.0
 13
-0.0000001166
 23
-0.3751443829
 33
0.0
 40
0.0
 40
0.0
 40
0.0
 40
0.0
 40
0.2439343447
 40
0.5030007007
 40
0.7604735585
 40
1.0
 40
1.0
 40
1.0
 40
1.0
 10
27.8384928867
 20
-68.2408788615
 30
0.0
 10
27.8149998752
 20
-68.2603350672
 30
0.0
 10
27.7717488138
 20
-68.3068992004
 30
0.0
 10
27.7223481663
 20
-68.3888319886
 30
0.0
 10
27.6898773297
 20
-68.4782433371
 30
0.0
 10
27.6812646957
 20
-68.540495512
 30
0.0
 10
27.6812646864
 20
-68.570447845
 30
0.0
 11
27.8384928867
 21
-68.2408788615
 31
0.0
 11
27.7755372552
 21
-68.3072925516
 31
0.0
 11
27.7251048965
 21
-68.3903705041
 31
0.0
 11
27.6925236202
 21
-68.4812989993
 31
0.0
 11
27.6812646864
 21
-68.570447845
 31
0.0
  0
SPLINE
  5
3C5
100
AcDbEntity
  8
RACCORDO
100
AcDbSpline
 62
7
  6
CONTINUOUS
 70
0
 71
3
 72
11
 73
7
 74
5
 42
0.0000001
 43
0.0000001
 44
0.0000000001
 12
-0.4342348114
 22
0.1130007242
 32
0.0
 13
0.0937808854
 23
0.4387871701
 33
0.0
 40
0.0
 40
0.0
 40
0.0
 40
0.0
 40
0.2363673836
 40
0.4908126188
 40
0.7509288198
 40
1.0
 40
1.0
 40
1.0
 40
1.0
 10
-36.5852737906
 20
-36.0289933657
 30
0.0
 10
-36.6194867727
 20
-36.0200901372
 30
0.0
 10
-36.6876416232
 20
-35.9874358711
 30
0.0
 10
-36.7638548159
 20
-35.9008028094
 30
0.0
 10
-36.8012385968
 20
-35.7898836294
 30
0.0
 10
-36.7979744363
 20
-35.7120108235
 30
0.0
 10
-36.7901883977
 20
-35.6755810774
 30
0.0
 11
-36.5852737906
 21
-36.0289933657
 31
0.0
 11
-36.680877532
 21
-35.9830794766
 31
0.0
 11
-36.7566690638
 21
-35.8976970185
 31
0.0
 11
-36.7944223524
 21
-35.7872583482
 31
0.0
 11
-36.7901883977
 21
-35.6755810774
 31
0.0
  0
SPLINE
  5
3C6
100
AcDbEntity
  8
RACCORDO
100
AcDbSpline
 62
7
  6
CONTINUOUS
 70
0
 71
3
 72
11
 73
7
 74
5
 42
0.0000001
 43
0.0000001
 44
0.0000000001
 12
-0.3552592169
 22
-0.1025545731
 32
0.0
 13
-0.3307282881
 23
0.1653642982
 33
0.0
 40
0.0
 40
0.0
 40
0.0
 40
0.0
 40
0.2517443989
 40
0.5159369745
 40
0.7717524209
 40
1.0
 40
1.0
 40
1.0
 40
1.0
 10
-36.7901887668
 20
-35.6755831359
 30
0.0
 10
-36.8200002728
 20
-35.6841889824
 30
0.0
 10
-36.8829857683
 20
-35.6955380634
 30
0.0
 10
-36.9784786306
 20
-35.697022344
 30
0.0
 10
-37.0701194716
 20
-35.6837122333
 30
0.0
 10
-37.1271581276
 20
-35.6643266675
 30
0.0
 10
-37.1523207713
 20
-35.6517453339
 30
0.0
 11
-36.7901887668
 21
-35.6755831359
 31
0.0
 11
-36.8816694231
 21
-35.6927984741
 31
0.0
 11
-36.9793457232
 21
-35.6943927001
 31
0.0
 11
-37.0728685538
 21
-35.6802125511
 31
0.0
 11
-37.1523207713
 21
-35.6517453339
 31
0.0
  0
SPLINE
  5
3C7
100
AcDbEntity
  8
RACCORDO
100
AcDbSpline
 62
7
  6
CONTINUOUS
 70
0
 71
3
 72
12
 73
8
 74
6
 42
0.0000001
 43
0.0000001
 44
0.0000000001
 12
-0.0549483499
 22
0.2253710436
 32
0.0
 13
0.231867989
 23
0.0069759662
 33
0.0
 40
0.0
 40
0.0
 40
0.0
 40
0.0
 40
0.2804594286
 40
0.5222262149
 40
0.6353198152
 40
0.7495660118
 40
1.0
 40
1.0
 40
1.0
 40
1.0
 10
-36.7901884135
 20
65.657164564
 30
0.0
 10
-36.7953253411
 20
65.6782337087
 30
0.0
 10
-36.8010797472
 20
65.7187037148
 30
0.0
 10
-36.7898188563
 20
65.7685492516
 30
0.0
 10
-36.7675295276
 20
65.7978549478
 30
0.0
 10
-36.737083366
 20
65.819640855
 30
0.0
 10
-36.7080683453
 20
65.8253656477
 30
0.0
 10
-36.6887124702
 20
65.8259479874
 30
0.0
 11
-36.7901884135
 21
65.657164564
 31
0.0
 11
-36.7971767295
 21
65.7218471381
 31
0.0
 11
-36.7826313212
 21
65.7760114486
 31
0.0
 11
-36.7666722805
 21
65.7968336947
 31
0.0
 11
-36.745195091
 21
65.8123606875
 31
0.0
 11
-36.6887124702
 21
65.8259479874
 31
0.0
  0
SPLINE
  5
3C8
100
AcDbEntity
  8
RACCORDO
100
AcDbSpline
 62
7
  6
CONTINUOUS
 70
0
 71
3
 72
11
 73
7
 74
5
 42
0.0000001
 43
0.0000001
 44
0.0000000001
 12
0.3307283888
 22
-0.1653640404
 32
0.0
 13
0.355259245
 23
0.1025543848
 33
0.0
 40
0.0
 40
0.0
 40
0.0
 40
0.0
 40
0.2282475519
 40
0.484063011
 40
0.7482556034
 40
1.0
 40
1.0
 40
1.0
 40
1.0
 10
-37.1523207713
 20
65.6810041252
 30
0.0
 10
-37.127158123
 20
65.6684228127
 30
0.0
 10
-37.0701194649
 20
65.6490372784
 30
0.0
 10
-36.9784786304
 20
65.6357271774
 30
0.0
 10
-36.8829857721
 20
65.6372114374
 30
0.0
 10
-36.8200002753
 20
65.6485604925
 30
0.0
 10
-36.7901887672
 20
65.657166323
 30
0.0
 11
-37.1523207713
 21
65.6810041252
 31
0.0
 11
-37.0728685539
 21
65.6525369545
 31
0.0
 11
-36.9793457234
 21
65.6383568164
 31
0.0
 11
-36.8816694235
 21
65.6399510233
 31
0.0
 11
-36.7901887672
 21
65.657166323
 31
0.0
  0
SPLINE
  5
3C9
100
AcDbEntity
  8
RACCORDO
100
AcDbSpline
 62
7
  6
CONTINUOUS
 70
0
 71
3
 72
11
 73
7
 74
5
 42
0.0000001
 43
0.0000001
 44
0.0000000001
 12
0.0000001779
 22
-0.1889142318
 32
0.0
 13
0.1689717606
 23
-0.0844815429
 33
0.0
 40
0.0
 40
0.0
 40
0.0
 40
0.0
 40
0.2897012584
 40
0.5496242293
 40
0.7828596155
 40
1.0
 40
1.0
 40
1.0
 40
1.0
 10
27.6812646864
 20
33.7661211785
 30
0.0
 10
27.6812647036
 20
33.7478782816
 30
0.0
 10
27.6842151806
 20
33.7131378534
 30
0.0
 10
27.6990521381
 20
33.6656186477
 30
0.0
 10
27.7238680198
 20
33.627588917
 30
0.0
 10
27.7470023334
 20
33.609973449
 30
0.0
 10
27.759232531
 20
33.603858664
 30
0.0
 11
27.6812646864
 21
33.7661211785
 31
0.0
 11
27.6864493058
 21
33.7116386189
 31
0.0
 11
27.7017477824
 21
33.6649794741
 31
0.0
 11
27.7264147695
 21
33.6284698301
 31
0.0
 11
27.759232531
 21
33.603858664
 31
0.0
  0
SPLINE
  5
3CA
100
AcDbEntity
  8
RACCORDO
100
AcDbSpline
 62
7
  6
CONTINUOUS
 70
0
 71
3
 72
10
 73
6
 74
4
 42
0.0000001
 43
0.0000001
 44
0.0000000001
 12
-0.1169948136
 22
0.0584972416
 32
0.0
 13
-0.0225877217
 23
0.1288390799
 33
0.0
 40
0.0
 40
0.0
 40
0.0
 40
0.0
 40
0.2989747133
 40
0.563607985
 40
1.0
 40
1.0
 40
1.0
 40
1.0
 10
28.0910723075
 20
-68.2734418733
 30
0.0
 10
28.0794128106
 20
-68.2676121413
 30
0.0
 10
28.0580757785
 20
-68.2550870202
 30
0.0
 10
28.0246528937
 20
-68.2271671749
 30
0.0
 10
28.0076372408
 20
-68.1991904082
 30
0.0
 10
28.0043515404
 20
-68.1804489596
 30
0.0
 11
28.0910723075
 21
-68.2734418733
 31
0.0
 11
28.0574790624
 21
-68.2534203678
 31
0.0
 11
28.0313076658
 21
-68.2307650286
 31
0.0
 11
28.0043515404
 21
-68.1804489596
 31
0.0
  0
SPLINE
  5
3CB
100
AcDbEntity
  8
RACCORDO
100
AcDbSpline
 62
7
  6
CONTINUOUS
 70
0
 71
3
 72
11
 73
7
 74
5
 42
0.0000001
 43
0.0000001
 44
0.0000000001
 12
-0.0000003533
 22
0.3751444731
 32
0.0
 13
0.2889265506
 23
0.2392798028
 33
0.0
 40
0.0
 40
0.0
 40
0.0
 40
0.0
 40
0.2395264869
 40
0.4969993185
 40
0.7560656446
 40
1.0
 40
1.0
 40
1.0
 40
1.0
 10
-36.7425131502
 20
-36.3585589267
 30
0.0
 10
-36.7425131784
 20
-36.3286065808
 30
0.0
 10
-36.7339005964
 20
-36.2663543766
 30
0.0
 10
-36.7014297631
 20
-36.1769429996
 30
0.0
 10
-36.6520290676
 20
-36.0950102168
 30
0.0
 10
-36.6087779587
 20
-36.0484461077
 30
0.0
 10
-36.5852849214
 20
-36.0289899195
 30
0.0
 11
-36.7425131502
 21
-36.3585589267
 31
0.0
 11
-36.73125429
 21
-36.2694100328
 31
0.0
 11
-36.6986730239
 21
-36.1784815197
 31
0.0
 11
-36.6482406242
 21
-36.0954035778
 31
0.0
 11
-36.5852849214
 21
-36.0289899195
 31
0.0
  0
SPLINE
  5
3CC
100
AcDbEntity
  8
RACCORDO
100
AcDbSpline
 62
7
  6
CONTINUOUS
 70
0
 71
3
 72
10
 73
6
 74
4
 42
0.0000001
 43
0.0000001
 44
0.0000000001
 12
-0.0195716357
 22
-0.4268926841
 32
0.0
 13
0.3907363717
 23
-0.1730476827
 33
0.0
 40
0.0
 40
0.0
 40
0.0
 40
0.0
 40
0.2487081936
 40
0.5144055266
 40
1.0
 40
1.0
 40
1.0
 40
1.0
 10
-34.351393017
 20
-34.3403656048
 30
0.0
 10
-34.353015559
 20
-34.3757561743
 30
0.0
 10
-34.3443316811
 20
-34.4499227144
 30
0.0
 10
-34.2905154445
 20
-34.5823107283
 30
0.0
 10
-34.2097569189
 20
-34.6657426071
 30
0.0
 10
-34.1465104447
 20
-34.6937529399
 30
0.0
 11
-34.351393017
 21
-34.3403656048
 31
0.0
 11
-34.3401771731
 21
-34.446055388
 31
0.0
 11
-34.2973057589
 21
-34.5511940735
 31
0.0
 11
-34.1465104447
 21
-34.6937529399
 31
0.0
  0
SPLINE
  5
3CD
100
AcDbEntity
  8
RACCORDO
100
AcDbSpline
 62
7
  6
CONTINUOUS
 70
0
 71
3
 72
11
 73
7
 74
5
 42
0.0000001
 43
0.0000001
 44
0.0000000001
 12
0.132042495
 22
-0.3889136643
 32
0.0
 13
0.2820548704
 23
-0.2985533601
 33
0.0
 40
0.0
 40
0.0
 40
0.0
 40
0.0
 40
0.2415272739
 40
0.5166749618
 40
0.7829133103
 40
1.0
 40
1.0
 40
1.0
 40
1.0
 10
-34.2544664838
 20
-34.2892430162
 30
0.0
 10
-34.2438358625
 20
-34.3205541019
 30
0.0
 10
-34.2163627996
 20
-34.3859127672
 30
0.0
 10
-34.1665629345
 20
-34.4809559183
 30
0.0
 10
-34.1107387744
 20
-34.5686141128
 30
0.0
 10
-34.0699727926
 20
-34.6210458257
 30
0.0
 10
-34.0495626732
 20
-34.6426498126
 30
0.0
 11
-34.2544664838
 21
-34.2892430162
 31
0.0
 11
-34.2169722571
 21
-34.3810838064
 31
0.0
 11
-34.1645989177
 21
-34.4812229566
 31
0.0
 11
-34.1055454798
 21
-34.5732547668
 31
0.0
 11
-34.0495626732
 21
-34.6426498126
 31
0.0
  0
SPLINE
  5
3CE
100
AcDbEntity
  8
RACCORDO
100
AcDbSpline
 62
7
  6
CONTINUOUS
 70
0
 71
3
 72
8
 73
4
 74
2
 42
0.0000001
 43
0.0000001
 44
0.0000000001
 12
0.0050630359
 22
-0.0053165277
 32
0.0
 13
0.0066390483
 23
-0.0031341405
 33
0.0
 40
0.0
 40
0.0
 40
0.0
 40
0.0
 40
1.0
 40
1.0
 40
1.0
 40
1.0
 10
-34.0495626732
 20
-34.6426498126
 30
0.0
 10
-34.0478749946
 20
-34.6444219885
 30
0.0
 10
-34.0457710996
 20
-34.6458293979
 30
0.0
 10
-34.0435580835
 20
-34.6468741114
 30
0.0
 11
-34.0495626732
 21
-34.6426498126
 31
0.0
 11
-34.0435580835
 21
-34.6468741114
 31
0.0
  0
SPLINE
  5
3CF
100
AcDbEntity
  8
RACCORDO
100
AcDbSpline
 62
7
  6
CONTINUOUS
 70
0
 71
3
 72
11
 73
7
 74
5
 42
0.0000001
 43
0.0000001
 44
0.0000000001
 12
-0.0340990352
 22
-0.0214753361
 32
0.0
 13
-0.0380465059
 23
0.0132814778
 33
0.0
 40
0.0
 40
0.0
 40
0.0
 40
0.0
 40
0.1278811211
 40
0.3380002508
 40
0.6303306266
 40
1.0
 40
1.0
 40
1.0
 40
1.0
 10
-32.9889599156
 20
40.9847181592
 30
0.0
 10
-32.9904134565
 20
40.9838027292
 30
0.0
 10
-32.9952854368
 20
40.9836203357
 30
0.0
 10
-33.0034776749
 20
40.9850890798
 30
0.0
 10
-33.0148430502
 20
40.9882505326
 30
0.0
 10
-33.0232550515
 20
40.9910741367
 30
0.0
 10
-33.0279432609
 20
40.9927107219
 30
0.0
 11
-32.9889599156
 21
40.9847181592
 31
0.0
 11
-32.9940314687
 21
40.9838035611
 31
0.0
 11
-33.0024122885
 21
40.985011301
 31
0.0
 11
-33.0137932271
 21
40.9880528248
 31
0.0
 11
-33.0279432609
 21
40.9927107219
 31
0.0
  0
SPLINE
  5
3D0
100
AcDbEntity
  8
RACCORDO
100
AcDbSpline
 62
7
  6
CONTINUOUS
 70
0
 71
3
 72
9
 73
5
 74
3
 42
0.0000001
 43
0.0000001
 44
0.0000000001
 12
-0.0441707059
 22
0.0154193464
 32
0.0
 13
-0.0435133037
 23
0.0171872019
 33
0.0
 40
0.0
 40
0.0
 40
0.0
 40
0.0
 40
0.2195340247
 40
1.0
 40
1.0
 40
1.0
 40
1.0
 10
-33.0279432609
 20
40.9927107219
 30
0.0
 10
-33.0311755851
 20
40.993839079
 30
0.0
 10
-33.0458507632
 20
40.9991175291
 30
0.0
 10
-33.0603847675
 20
41.0047782736
 30
0.0
 10
-33.0717049852
 20
41.0092496157
 30
0.0
 11
-33.0279432609
 21
40.9927107219
 31
0.0
 11
-33.037612183
 21
40.9961751025
 31
0.0
 11
-33.0717049852
 21
41.0092496157
 31
0.0
  0
SPLINE
  5
3D1
100
AcDbEntity
  8
RACCORDO
100
AcDbSpline
 62
7
  6
CONTINUOUS
 70
0
 71
3
 72
11
 73
7
 74
5
 42
0.0000001
 43
0.0000001
 44
0.0000000001
 12
-0.0340990352
 22
-0.0214753361
 32
0.0
 13
-0.0380465058
 23
0.0132814778
 33
0.0
 40
0.0
 40
0.0
 40
0.0
 40
0.0
 40
0.1278811212
 40
0.3380002509
 40
0.6303306266
 40
1.0
 40
1.0
 40
1.0
 40
1.0
 10
-32.9889599156
 20
-10.9768060679
 30
0.0
 10
-32.9904134565
 20
-10.9777214979
 30
0.0
 10
-32.9952854368
 20
-10.9779038914
 30
0.0
 10
-33.0034776749
 20
-10.9764351473
 30
0.0
 10
-33.0148430502
 20
-10.9732736945
 30
0.0
 10
-33.0232550515
 20
-10.9704500904
 30
0.0
 10
-33.0279432608
 20
-10.9688135052
 30
0.0
 11
-32.9889599156
 21
-10.9768060679
 31
0.0
 11
-32.9940314687
 21
-10.9777206659
 31
0.0
 11
-33.0024122885
 21
-10.976512926
 31
0.0
 11
-33.0137932271
 21
-10.9734714023
 31
0.0
 11
-33.0279432608
 21
-10.9688135052
 31
0.0
  0
SPLINE
  5
3D2
100
AcDbEntity
  8
RACCORDO
100
AcDbSpline
 62
7
  6
CONTINUOUS
 70
0
 71
3
 72
9
 73
5
 74
3
 42
0.0000001
 43
0.0000001
 44
0.0000000001
 12
-0.044170706
 22
0.0154193464
 32
0.0
 13
-0.0435133037
 23
0.0171872019
 33
0.0
 40
0.0
 40
0.0
 40
0.0
 40
0.0
 40
0.2195340246
 40
1.0
 40
1.0
 40
1.0
 40
1.0
 10
-33.0279432608
 20
-10.9688135052
 30
0.0
 10
-33.0311755851
 20
-10.9676851481
 30
0.0
 10
-33.0458507631
 20
-10.962406698
 30
0.0
 10
-33.0603847675
 20
-10.9567459535
 30
0.0
 10
-33.0717049852
 20
-10.9522746114
 30
0.0
 11
-33.0279432608
 21
-10.9688135052
 31
0.0
 11
-33.037612183
 21
-10.9653491246
 31
0.0
 11
-33.0717049852
 21
-10.9522746114
 31
0.0
  0
SPLINE
  5
3D3
100
AcDbEntity
  8
SMUSSO
100
AcDbSpline
 62
7
  6
CONTINUOUS
 70
0
 71
3
 72
9
 73
5
 74
3
 42
0.0000001
 43
0.0000001
 44
0.0000000001
 12
0.1035878628
 22
-0.0776744869
 32
0.0
 13
0.0
 23
-0.1294749831
 33
0.0
 40
0.0
 40
0.0
 40
0.0
 40
0.0
 40
0.4999919095
 40
1.0
 40
1.0
 40
1.0
 40
1.0
 10
56.4714720235
 20
41.3215780974
 30
0.0
 10
56.4887363879
 20
41.3086325591
 30
0.0
 10
56.515821006
 20
41.2730393889
 30
0.0
 10
56.5280463236
 20
41.2300168316
 30
0.0
 10
56.5280463236
 20
41.2084373185
 30
0.0
 11
56.4714720235
 21
41.3215780974
 31
0.0
 11
56.5121058628
 21
41.2711826781
 31
0.0
 11
56.5280463236
 21
41.2084373185
 31
0.0
  0
SPLINE
  5
3D4
100
AcDbEntity
  8
RACCORDO
100
AcDbSpline
 62
7
  6
CONTINUOUS
 70
0
 71
3
 72
9
 73
5
 74
3
 42
0.0000001
 43
0.0000001
 44
0.0000000001
 12
-0.1296157438
 22
-0.0640187797
 32
0.0
 13
-0.1445627016
 23
-0.0005200843
 33
0.0
 40
0.0
 40
0.0
 40
0.0
 40
0.0
 40
0.4725459198
 40
1.0
 40
1.0
 40
1.0
 40
1.0
 10
54.5649336864
 20
39.245179536
 30
0.0
 10
54.5445172228
 20
39.2350955982
 30
0.0
 10
54.4979280683
 20
39.2206277613
 30
0.0
 10
54.4496734332
 20
39.2159720851
 30
0.0
 10
54.4242567043
 20
39.215880645
 30
0.0
 11
54.5649336864
 21
39.245179536
 31
0.0
 11
54.5001142919
 21
39.2236132156
 31
0.0
 11
54.4242567043
 21
39.215880645
 31
0.0
  0
SPLINE
  5
3D5
100
AcDbEntity
  8
RACCORDO
100
AcDbSpline
 62
7
  6
CONTINUOUS
 70
0
 71
3
 72
9
 73
5
 74
3
 42
0.0000001
 43
0.0000001
 44
0.0000000001
 12
-0.1268382264
 22
-0.0648567069
 32
0.0
 13
-0.0715567836
 23
-0.1231826077
 33
0.0
 40
0.0
 40
0.0
 40
0.0
 40
0.0
 40
0.2281550275
 40
1.0
 40
1.0
 40
1.0
 40
1.0
 10
53.5044350583
 20
41.0742691059
 30
0.0
 10
53.4947887986
 20
41.0693366446
 30
0.0
 10
53.4546399282
 20
41.0435971679
 30
0.0
 10
53.4234224713
 20
41.0054670853
 30
0.0
 10
53.4050122234
 20
40.9737744599
 30
0.0
 11
53.5044350583
 21
41.0742691059
 31
0.0
 11
53.4769333875
 21
41.0569464731
 31
0.0
 11
53.4050122234
 21
40.9737744599
 31
0.0
  0
SPLINE
  5
3D6
100
AcDbEntity
  8
RACCORDO
100
AcDbSpline
 62
7
  6
CONTINUOUS
 70
0
 71
3
 72
9
 73
5
 74
3
 42
0.0000001
 43
0.0000001
 44
0.0000000001
 12
-0.1251880064
 22
-0.0664568249
 32
0.0
 13
-0.0695347561
 23
-0.1235049158
 33
0.0
 40
0.0
 40
0.0
 40
0.0
 40
0.0
 40
0.2271795804
 40
1.0
 40
1.0
 40
1.0
 40
1.0
 10
-53.7649144434
 20
94.7089438567
 30
0.0
 10
-53.7743944964
 20
94.7039113122
 30
0.0
 10
-53.8139337021
 20
94.6776778912
 30
0.0
 10
-53.8443927763
 20
94.6392766845
 30
0.0
 10
-53.8623054028
 20
94.6074609775
 30
0.0
 11
-53.7649144434
 21
94.7089438567
 31
0.0
 11
-53.791890866
 21
94.6913639308
 31
0.0
 11
-53.8623054028
 21
94.6074609775
 31
0.0
  0
SPLINE
  5
3D7
100
AcDbEntity
  8
RACCORDO
100
AcDbSpline
 62
7
  6
CONTINUOUS
 70
0
 71
3
 72
9
 73
5
 74
3
 42
0.0000001
 43
0.0000001
 44
0.0000000001
 12
0.1304162191
 22
0.1314657212
 32
0.0
 13
0.1661813652
 23
0.0817029982
 33
0.0
 40
0.0
 40
0.0
 40
0.0
 40
0.0
 40
0.2539371476
 40
1.0
 40
1.0
 40
1.0
 40
1.0
 10
-54.6555447509
 20
94.540787164
 30
0.0
 10
-54.6445055767
 20
94.5519151741
 30
0.0
 10
-54.5993389239
 20
94.5940172526
 30
0.0
 10
-54.5471721437
 20
94.6286543364
 30
0.0
 10
-54.5058448959
 20
94.6489728603
 30
0.0
 11
-54.6555447509
 21
94.540787164
 31
0.0
 11
-54.621115198
 21
94.5728163643
 31
0.0
 11
-54.5058448959
 21
94.6489728603
 31
0.0
  0
SPLINE
  5
3D8
100
AcDbEntity
  8
RACCORDO
100
AcDbSpline
 62
7
  6
CONTINUOUS
 70
0
 71
3
 72
9
 73
5
 74
3
 42
0.0000001
 43
0.0000001
 44
0.0000000001
 12
0.1122136989
 22
0.0551698178
 32
0.0
 13
0.1217406303
 23
0.0285454367
 33
0.0
 40
0.0
 40
0.0
 40
0.0
 40
0.0
 40
0.2487387709
 40
1.0
 40
1.0
 40
1.0
 40
1.0
 10
-54.5058448959
 20
94.6489728603
 30
0.0
 10
-54.4965409301
 20
94.6535471512
 30
0.0
 10
-54.4586165305
 20
94.6708649533
 30
0.0
 10
-54.418697282
 20
94.6837758585
 30
0.0
 10
-54.3882109435
 20
94.6909242185
 30
0.0
 11
-54.5058448959
 21
94.6489728603
 31
0.0
 11
-54.4775509697
 21
94.6618897098
 31
0.0
 11
-54.3882109435
 21
94.6909242185
 31
0.0
  0
SPLINE
  5
3D9
100
AcDbEntity
  8
RACCORDO
100
AcDbSpline
 62
7
  6
CONTINUOUS
 70
0
 71
3
 72
10
 73
6
 74
4
 42
0.0000001
 43
0.0000001
 44
0.0000000001
 12
0.5273557992
 22
0.1236530609
 32
0.0
 13
0.4854463462
 23
-0.2402832982
 33
0.0
 40
0.0
 40
0.0
 40
0.0
 40
0.0
 40
0.2284259663
 40
0.4692849783
 40
1.0
 40
1.0
 40
1.0
 40
1.0
 10
-54.3882109435
 20
94.6909242185
 30
0.0
 10
-54.3480570242
 20
94.7003394084
 30
0.0
 10
-54.2632300318
 20
94.7106987618
 30
0.0
 10
-54.0823459018
 20
94.6972699224
 30
0.0
 10
-53.9482060352
 20
94.6499541208
 30
0.0
 10
-53.8623281458
 20
94.6074468022
 30
0.0
 11
-54.3882109435
 21
94.6909242185
 31
0.0
 11
-54.2654633745
 21
94.7064767641
 31
0.0
 11
-54.135304968
 21
94.6975612336
 31
0.0
 11
-53.8623281458
 21
94.6074468022
 31
0.0
  0
SPLINE
  5
3DA
100
AcDbEntity
  8
RACCORDO
100
AcDbSpline
 62
7
  6
CONTINUOUS
 70
0
 71
3
 72
12
 73
8
 74
6
 42
0.0000001
 43
0.0000001
 44
0.0000000001
 12
1.8885230376
 22
-0.9542114187
 32
0.0
 13
0.0087679592
 23
-2.1158832241
 33
0.0
 40
0.0
 40
0.0
 40
0.0
 40
0.0
 40
0.2293158139
 40
0.3564965913
 40
0.4884357851
 40
0.7534945798
 40
1.0
 40
1.0
 40
1.0
 40
1.0
 10
53.4050017686
 20
40.9737818124
 30
0.0
 10
53.5493578344
 20
40.900843223
 30
0.0
 10
53.7513516204
 20
40.7417551002
 30
0.0
 10
53.975770106
 20
40.4801136753
 30
0.0
 10
54.180227174
 20
40.1708814611
 30
0.0
 10
54.3622749596
 20
39.7508142993
 30
0.0
 10
54.4235112124
 20
39.389729199
 30
0.0
 10
54.4242316622
 20
39.2158703046
 30
0.0
 11
53.4050017686
 21
40.9737818124
 31
0.0
 11
53.7934176111
 21
40.6829871471
 31
0.0
 11
53.9692509402
 21
40.4792752967
 31
0.0
 11
54.1236051179
 21
40.2466578908
 31
0.0
 11
54.3451108973
 21
39.731415465
 31
0.0
 11
54.4242316622
 21
39.2158703046
 31
0.0
  0
SPLINE
  5
3DB
100
AcDbEntity
  8
RACCORDO
100
AcDbSpline
 62
7
  6
CONTINUOUS
 70
0
 71
3
 72
11
 73
7
 74
5
 42
0.0000001
 43
0.0000001
 44
0.0000000001
 12
-0.0033350266
 22
-0.7796137123
 32
0.0
 13
-0.5953918374
 23
-0.5033062912
 33
0.0
 40
0.0
 40
0.0
 40
0.0
 40
0.0
 40
0.2842660033
 40
0.5444063227
 40
0.7813586416
 40
1.0
 40
1.0
 40
1.0
 40
1.0
 10
54.4242316372
 20
-92.1592418442
 30
0.0
 10
54.4239156256
 20
-92.2331144022
 30
0.0
 10
54.4132741206
 20
-92.3748948964
 30
0.0
 10
54.3626041685
 20
-92.5727991026
 30
0.0
 10
54.2790902104
 20
-92.7407627523
 30
0.0
 10
54.1999659622
 20
-92.8312326898
 30
0.0
 10
54.1565735355
 20
-92.8679138802
 30
0.0
 11
54.4242316372
 21
-92.1592418442
 31
0.0
 11
54.4060783525
 21
-92.3801168099
 31
0.0
 11
54.3540438467
 21
-92.5761388424
 31
0.0
 11
54.2699303204
 21
-92.7406112834
 31
0.0
 11
54.1565735355
 21
-92.8679138802
 31
0.0
  0
SPLINE
  5
3DC
100
AcDbEntity
  8
RACCORDO
100
AcDbSpline
 62
7
  6
CONTINUOUS
 70
0
 71
3
 72
9
 73
5
 74
3
 42
0.0000001
 43
0.0000001
 44
0.0000000001
 12
-0.1580031163
 22
-0.0944224215
 32
0.0
 13
-0.1803219912
 23
-0.0369399234
 33
0.0
 40
0.0
 40
0.0
 40
0.0
 40
0.0
 40
0.7473402965
 40
1.0
 40
1.0
 40
1.0
 40
1.0
 10
54.0830936724
 20
-92.9204725469
 30
0.0
 10
54.0437329738
 20
-92.9439944404
 30
0.0
 10
53.9866394003
 20
-92.9688258959
 30
0.0
 10
53.9270518107
 20
-92.9835504404
 30
0.0
 10
53.9118651105
 20
-92.9866615171
 30
0.0
 11
54.0830936724
 21
-92.9204725469
 31
0.0
 11
53.9570033658
 21
-92.9754646482
 31
0.0
 11
53.9118651105
 21
-92.9866615171
 31
0.0
  0
SPLINE
  5
3DD
100
AcDbEntity
  8
RACCORDO
100
AcDbSpline
 62
7
  6
CONTINUOUS
 70
0
 71
3
 72
12
 73
8
 74
6
 42
0.0000001
 43
0.0000001
 44
0.0000000001
 12
1.9633967361
 22
-0.9950029506
 32
0.0
 13
0.0117885298
 23
-2.2010948743
 33
0.0
 40
0.0
 40
0.0
 40
0.0
 40
0.0
 40
0.2292669978
 40
0.3564564271
 40
0.4884145475
 40
0.7535121809
 40
1.0
 40
1.0
 40
1.0
 40
1.0
 10
53.5044098194
 20
41.0742563891
 30
0.0
 10
53.6544571778
 20
40.9982159427
 30
0.0
 10
53.8643814572
 20
40.8325408442
 30
0.0
 10
54.0976995519
 20
40.5602670737
 30
0.0
 10
54.310365008
 20
40.2385082836
 30
0.0
 10
54.4998822354
 20
39.8015752697
 30
0.0
 10
54.5639399185
 20
39.4260145347
 30
0.0
 10
54.5649084948
 20
39.245166843
 30
0.0
 11
53.5044098194
 21
41.0742563891
 31
0.0
 11
53.9080971361
 21
40.7714300631
 31
0.0
 11
54.090924168
 21
40.5594114625
 31
0.0
 11
54.2514802076
 21
40.3173644811
 31
0.0
 11
54.4821091
 21
39.7813624154
 31
0.0
 11
54.5649084948
 21
39.245166843
 31
0.0
  0
SPLINE
  5
3DE
100
AcDbEntity
  8
RACCORDO
100
AcDbSpline
 62
7
  6
CONTINUOUS
 70
0
 71
3
 72
11
 73
7
 74
5
 42
0.0000001
 43
0.0000001
 44
0.0000000001
 12
-0.0052578212
 22
-0.9629295814
 32
0.0
 13
-0.8737143784
 23
-0.4048261458
 33
0.0
 40
0.0
 40
0.0
 40
0.0
 40
0.0
 40
0.2904259677
 40
0.5503705496
 40
0.7832136423
 40
1.0
 40
1.0
 40
1.0
 40
1.0
 10
54.5649084475
 20
-92.1324177799
 30
0.0
 10
54.5643994449
 20
-92.2256376984
 30
0.0
 10
54.5482815022
 20
-92.4029106305
 30
0.0
 10
54.4700824869
 20
-92.6445220728
 30
0.0
 10
54.3405671528
 20
-92.8363132418
 30
0.0
 10
54.2203755072
 20
-92.9229500121
 30
0.0
 10
54.1572390546
 20
-92.9522036073
 30
0.0
 11
54.5649084475
 21
-92.1324177799
 31
0.0
 11
54.536575418
 21
-92.4106427789
 31
0.0
 11
54.4560392356
 21
-92.6476449942
 31
0.0
 11
54.327412828
 21
-92.8312955961
 31
0.0
 11
54.1572390546
 21
-92.9522036073
 31
0.0
  0
SPLINE
  5
3DF
100
AcDbEntity
  8
RACCORDO
100
AcDbSpline
 62
7
  6
CONTINUOUS
 70
0
 71
3
 72
11
 73
7
 74
5
 42
0.0000001
 43
0.0000001
 44
0.0000000001
 12
0.629345763
 22
0.3380435504
 32
0.0
 13
0.6406312132
 23
-0.3161347499
 33
0.0
 40
0.0
 40
0.0
 40
0.0
 40
0.0
 40
0.2269698587
 40
0.4642106629
 40
0.7202992514
 40
1.0
 40
1.0
 40
1.0
 40
1.0
 10
-54.4530515874
 20
94.7424915039
 30
0.0
 10
-54.4054374144
 20
94.7680667361
 30
0.0
 10
-54.2998040488
 20
94.8062689023
 30
0.0
 10
-54.126797395
 20
94.8179813439
 30
0.0
 10
-53.944040463
 20
94.7857757103
 30
0.0
 10
-53.824667114
 20
94.738405107
 30
0.0
 10
-53.7649387707
 20
94.7089307316
 30
0.0
 11
-54.4530515874
 21
94.7424915039
 31
0.0
 11
-54.300739385
 21
94.7980955574
 31
0.0
 11
-54.1317546057
 21
94.8110666282
 31
0.0
 11
-53.9512895356
 21
94.7810370183
 31
0.0
 11
-53.7649387707
 21
94.7089307316
 31
0.0
  0
SPLINE
  5
3E0
100
AcDbEntity
  8
RACCORDO
100
AcDbSpline
 62
7
  6
CONTINUOUS
 70
0
 71
3
 72
9
 73
5
 74
3
 42
0.0000001
 43
0.0000001
 44
0.0000000001
 12
-0.1303561077
 22
-0.0613833444
 32
0.0
 13
-0.1440762997
 23
0.0016277784
 33
0.0
 40
0.0
 40
0.0
 40
0.0
 40
0.0
 40
0.471484887
 40
1.0
 40
1.0
 40
1.0
 40
1.0
 10
54.5649336864
 20
-92.1324061238
 30
0.0
 10
54.5444467081
 20
-92.1420532302
 30
0.0
 10
54.4977696153
 20
-92.1556349365
 30
0.0
 10
54.4496139879
 20
-92.159518249
 30
0.0
 10
54.4242318206
 20
-92.1592314805
 30
0.0
 11
54.5649336864
 21
-92.1324061238
 31
0.0
 11
54.5001029451
 21
-92.1527044352
 31
0.0
 11
54.4242318206
 21
-92.1592314805
 31
0.0
  0
SPLINE
  5
3E1
100
AcDbEntity
  8
SMUSSO
100
AcDbSpline
 62
7
  6
CONTINUOUS
 70
0
 71
3
 72
11
 73
7
 74
5
 42
0.0000001
 43
0.0000001
 44
0.0000000001
 12
0.5211626276
 22
-0.3908665127
 32
0.0
 13
0.0000000002
 23
-0.6514500097
 33
0.0
 40
0.0
 40
0.0
 40
0.0
 40
0.0
 40
0.2409429556
 40
0.5000138533
 40
0.7590645364
 40
1.0
 40
1.0
 40
1.0
 40
1.0
 10
53.6289735564
 20
40.3102169078
 30
0.0
 10
53.6708303777
 20
40.2788247302
 30
0.0
 10
53.7483684865
 20
40.2009467802
 30
0.0
 10
53.8372061685
 20
40.0608115824
 30
0.0
 10
53.8960021437
 20
39.9056550017
 30
0.0
 10
53.9117512332
 20
39.7969010955
 30
0.0
 10
53.9117512332
 20
39.7445819588
 30
0.0
 11
53.6289735564
 21
40.3102169078
 31
0.0
 11
53.7411412069
 21
40.2004190075
 31
0.0
 11
53.8320817731
 21
40.0582440686
 31
0.0
 11
53.8912366406
 21
39.9001929484
 31
0.0
 11
53.9117512332
 21
39.7445819588
 31
0.0
  0
SPLINE
  5
3E2
100
AcDbEntity
  8
SMUSSO
100
AcDbSpline
 62
7
  6
CONTINUOUS
 70
0
 71
3
 72
9
 73
5
 74
3
 42
0.0000001
 43
0.0000001
 44
0.0000000001
 12
0.1334376539
 22
-0.1000702419
 32
0.0
 13
0.14918354
 23
-0.0745917702
 33
0.0
 40
0.0
 40
0.0
 40
0.0
 40
0.0
 40
0.258699887
 40
1.0
 40
1.0
 40
1.0
 40
1.0
 10
-57.0332933781
 20
-40.4278272194
 30
0.0
 10
-57.0217866095
 20
-40.4364566062
 30
0.0
 10
-56.9766375114
 20
-40.46890012
 30
0.0
 10
-56.9287446371
 20
-40.4976077131
 30
0.0
 10
-56.8918813788
 20
-40.5160393423
 30
0.0
 11
-57.0332933781
 21
-40.4278272194
 31
0.0
 11
-56.9982428474
 21
-40.452992844
 31
0.0
 11
-56.8918813788
 21
-40.5160393423
 31
0.0
  0
SPLINE
  5
3E3
100
AcDbEntity
  8
SMUSSO
100
AcDbSpline
 62
7
  6
CONTINUOUS
 70
0
 71
3
 72
11
 73
7
 74
5
 42
0.0000001
 43
0.0000001
 44
0.0000000001
 12
0.4148400136
 22
0.2074023934
 32
0.0
 13
0.4148329686
 23
-0.2074164841
 33
0.0
 40
0.0
 40
0.0
 40
0.0
 40
0.0
 40
0.2271114177
 40
0.4646734057
 40
0.720774934
 40
1.0
 40
1.0
 40
1.0
 40
1.0
 10
-55.5713279681
 20
94.8033884832
 30
0.0
 10
-55.5399230003
 20
94.8190896337
 30
0.0
 10
-55.4707180517
 20
94.8421201189
 30
0.0
 10
-55.3582753585
 20
94.8477444821
 30
0.0
 10
-55.2399377657
 20
94.825509933
 30
0.0
 10
-55.1627250135
 20
94.7942920954
 30
0.0
 10
-55.1241144258
 20
94.7749868015
 30
0.0
 11
-55.5713279681
 21
94.8033884832
 31
0.0
 11
-55.471489692
 21
94.8369667772
 31
0.0
 11
-55.3614981525
 21
94.8434189728
 31
0.0
 11
-55.2445657072
 21
94.8225550206
 31
0.0
 11
-55.1241144258
 21
94.7749868015
 31
0.0
  0
SPLINE
  5
3E4
100
AcDbEntity
  8
SMUSSO
100
AcDbSpline
 62
7
  6
CONTINUOUS
 70
0
 71
3
 72
11
 73
7
 74
5
 42
0.0000001
 43
0.0000001
 44
0.0000000001
 12
-0.5632490194
 22
-0.2816005953
 32
0.0
 13
-0.0000000006
 23
-0.6297208533
 33
0.0
 40
0.0
 40
0.0
 40
0.0
 40
0.0
 40
0.2171542898
 40
0.4504213951
 40
0.7102377337
 40
1.0
 40
1.0
 40
1.0
 40
1.0
 10
-57.3390942378
 20
93.9195053483
 30
0.0
 10
-57.3798648847
 20
93.8991217559
 30
0.0
 10
-57.457014511
 20
93.8404266951
 30
0.0
 10
-57.5396775907
 20
93.7136313047
 30
0.0
 10
-57.5891606434
 20
93.5552519623
 30
0.0
 10
-57.5989881599
 20
93.4394544257
 30
0.0
 10
-57.5989881599
 20
93.3786313118
 30
0.0
 11
-57.3390942378
 21
93.9195053483
 31
0.0
 11
-57.4485074985
 21
93.8374787258
 31
0.0
 11
-57.5307191191
 21
93.7157460266
 31
0.0
 11
-57.5817002516
 21
93.5602798429
 31
0.0
 11
-57.5989881599
 21
93.3786313118
 31
0.0
  0
SPLINE
  5
3E5
100
AcDbEntity
  8
SMUSSO
100
AcDbSpline
 62
7
  6
CONTINUOUS
 70
0
 71
3
 72
11
 73
7
 74
5
 42
0.0000001
 43
0.0000001
 44
0.0000000001
 12
0.4148320327
 22
-0.2074160141
 32
0.0
 13
0.4148390773
 23
0.2074019244
 33
0.0
 40
0.0
 40
0.0
 40
0.0
 40
0.0
 40
0.2792430017
 40
0.5353250678
 40
0.7728906288
 40
1.0
 40
1.0
 40
1.0
 40
1.0
 10
51.436877499
 20
-94.6804187812
 30
0.0
 10
51.4754904797
 20
-94.6997252713
 30
0.0
 10
51.5527079509
 20
-94.730928404
 30
0.0
 10
51.6710416468
 20
-94.7531798433
 30
0.0
 10
51.7834821962
 20
-94.7475501749
 30
0.0
 10
51.8526871113
 20
-94.7245210944
 30
0.0
 10
51.8840917253
 20
-94.7088201209
 30
0.0
 11
51.436877499
 21
-94.6804187812
 31
0.0
 11
51.5573395325
 21
-94.7279816241
 31
0.0
 11
51.6742616113
 21
-94.7488507601
 31
0.0
 11
51.7842545212
 21
-94.742397879
 31
0.0
 11
51.8840917253
 21
-94.7088201209
 31
0.0
  0
SPLINE
  5
3E6
100
AcDbEntity
  8
SMUSSO
100
AcDbSpline
 62
7
  6
CONTINUOUS
 70
0
 71
3
 72
11
 73
7
 74
5
 42
0.0000001
 43
0.0000001
 44
0.0000000001
 12
-0.0000000006
 22
-0.6297215488
 32
0.0
 13
-0.5632496416
 23
-0.2816009062
 33
0.0
 40
0.0
 40
0.0
 40
0.0
 40
0.0
 40
0.2897538845
 40
0.5495823905
 40
0.7828465249
 40
1.0
 40
1.0
 40
1.0
 40
1.0
 10
53.9117512332
 20
-93.2840632915
 30
0.0
 10
53.9117512331
 20
-93.3448847132
 30
0.0
 10
53.9019382453
 20
-93.4606853628
 30
0.0
 10
53.8524371408
 20
-93.6190600494
 30
0.0
 10
53.7697787357
 20
-93.7458592046
 30
0.0
 10
53.6926285333
 20
-93.8045534479
 30
0.0
 10
53.6518579943
 20
-93.8249369864
 30
0.0
 11
53.9117512332
 21
-93.2840632915
 31
0.0
 11
53.8944718941
 21
-93.4657075384
 31
0.0
 11
53.8434807927
 21
-93.6211787065
 31
0.0
 11
53.761270926
 21
-93.7429105285
 31
0.0
 11
53.6518579943
 21
-93.8249369864
 31
0.0
  0
SPLINE
  5
3E7
100
AcDbEntity
  8
SMUSSO
100
AcDbSpline
 62
7
  6
CONTINUOUS
 70
0
 71
3
 72
9
 73
5
 74
3
 42
0.0000001
 43
0.0000001
 44
0.0000000001
 12
0.1491936393
 22
-0.0745968198
 32
0.0
 13
0.1334429877
 23
-0.1000819493
 33
0.0
 40
0.0
 40
0.0
 40
0.0
 40
0.0
 40
0.2413231767
 40
1.0
 40
1.0
 40
1.0
 40
1.0
 10
53.204644452
 20
40.6106073626
 30
0.0
 10
53.2166457463
 20
40.6046067155
 30
0.0
 10
53.2657504137
 20
40.5784956582
 30
0.0
 10
53.3123192093
 20
40.5477099185
 30
0.0
 10
53.34606591
 20
40.5223999667
 30
0.0
 11
53.204644452
 21
40.6106073626
 31
0.0
 11
53.2401982537
 21
40.59173207
 31
0.0
 11
53.34606591
 21
40.5223999667
 31
0.0
  0
SPLINE
  5
3E8
100
AcDbEntity
  8
SMUSSO
100
AcDbSpline
 62
7
  6
CONTINUOUS
 70
0
 71
3
 72
11
 73
7
 74
5
 42
0.0000001
 43
0.0000001
 44
0.0000000001
 12
0.5632502642
 22
0.2816012163
 32
0.0
 13
-0.0000000006
 23
0.6297222444
 33
0.0
 40
0.0
 40
0.0
 40
0.0
 40
0.0
 40
0.2171526606
 40
0.4504138247
 40
0.7102544983
 40
1.0
 40
1.0
 40
1.0
 40
1.0
 10
51.8840917253
 20
-94.7088201209
 30
0.0
 10
51.9248621564
 20
-94.6884366364
 30
0.0
 10
52.0020129346
 20
-94.6297432103
 30
0.0
 10
52.0846666655
 20
-94.5029402899
 30
0.0
 10
52.1341858209
 20
-94.3445702592
 30
0.0
 10
52.1439842803
 20
-94.2287664972
 30
0.0
 10
52.1439842802
 20
-94.167946768
 30
0.0
 11
51.8840917253
 21
-94.7088201209
 31
0.0
 11
51.993504328
 21
-94.6267938273
 31
0.0
 11
52.0757124407
 21
-94.5050628821
 31
0.0
 11
52.1267135106
 21
-94.3495867297
 31
0.0
 11
52.1439842802
 21
-94.167946768
 31
0.0
  0
SPLINE
  5
3E9
100
AcDbEntity
  8
SMUSSO
100
AcDbSpline
 62
7
  6
CONTINUOUS
 70
0
 71
3
 72
11
 73
7
 74
5
 42
0.0000001
 43
0.0000001
 44
0.0000000001
 12
1.0424533899
 22
-0.7818377651
 32
0.0
 13
0.0000000004
 23
-1.3030653709
 33
0.0
 40
0.0
 40
0.0
 40
0.0
 40
0.0
 40
0.2409256216
 40
0.4999974992
 40
0.7590695335
 40
1.0
 40
1.0
 40
1.0
 40
1.0
 10
53.34606591
 20
40.5223999667
 30
0.0
 10
53.4297838203
 20
40.4596117169
 30
0.0
 10
53.5849134903
 20
40.3038826934
 30
0.0
 10
53.7626175018
 20
40.0235722946
 30
0.0
 10
53.8802461345
 20
39.713221418
 30
0.0
 10
53.9117512331
 20
39.4956779508
 30
0.0
 10
53.9117512332
 20
39.3910285683
 30
0.0
 11
53.34606591
 21
40.5223999667
 31
0.0
 11
53.5704427231
 21
40.3028219142
 31
0.0
 11
53.7523654195
 21
40.0184462559
 31
0.0
 11
53.8707139616
 21
39.7022830972
 31
0.0
 11
53.9117512332
 21
39.3910285683
 31
0.0
  0
SPLINE
  5
3EA
100
AcDbEntity
  8
SMUSSO
100
AcDbSpline
 62
7
  6
CONTINUOUS
 70
0
 71
3
 72
11
 73
7
 74
5
 42
0.0000001
 43
0.0000001
 44
0.0000000001
 12
-0.4148339059
 22
0.2074169551
 32
0.0
 13
-0.4148409518
 23
-0.2074028626
 33
0.0
 40
0.0
 40
0.0
 40
0.0
 40
0.0
 40
0.2792071299
 40
0.5353281238
 40
0.7728865369
 40
1.0
 40
1.0
 40
1.0
 40
1.0
 10
-56.8918813788
 20
93.891103325
 30
0.0
 10
-56.9304895735
 20
93.9104074226
 30
0.0
 10
-57.0076976065
 20
93.9416399655
 30
0.0
 10
-57.1260390968
 20
93.9638576243
 30
0.0
 10
-57.2384839343
 20
93.9582385658
 30
0.0
 10
-57.3076889161
 20
93.9352066758
 30
0.0
 10
-57.3390942378
 20
93.9195053483
 30
0.0
 11
-56.8918813788
 21
93.891103325
 31
0.0
 11
-57.0123219077
 21
93.9386769202
 31
0.0
 11
-57.1292647213
 21
93.9595356888
 31
0.0
 11
-57.2392548897
 21
93.9530841785
 31
0.0
 11
-57.3390942378
 21
93.9195053483
 31
0.0
  0
SPLINE
  5
3EB
100
AcDbEntity
  8
SMUSSO
100
AcDbSpline
 62
7
  6
CONTINUOUS
 70
0
 71
3
 72
11
 73
7
 74
5
 42
0.0000001
 43
0.0000001
 44
0.0000000001
 12
0.0000000064
 22
1.4682168624
 32
0.0
 13
-1.3132130846
 23
0.6566065408
 33
0.0
 40
0.0
 40
0.0
 40
0.0
 40
0.0
 40
0.2467918265
 40
0.5117852553
 40
0.770325913
 40
1.0
 40
1.0
 40
1.0
 40
1.0
 10
52.1439842802
 20
38.5071450918
 30
0.0
 10
52.1439842807
 20
38.6279263988
 30
0.0
 10
52.1022994885
 20
38.8788267467
 30
0.0
 10
51.9513644236
 20
39.2277689584
 30
0.0
 10
51.7295229973
 20
39.5261551952
 30
0.0
 10
51.5374145044
 20
39.6764553836
 30
0.0
 10
51.436877499
 20
39.7267238862
 30
0.0
 11
52.1439842802
 21
38.5071450918
 31
0.0
 11
52.0901572273
 21
38.8654686405
 31
0.0
 11
51.9368759556
 21
39.223069844
 31
0.0
 11
51.7074715646
 21
39.5255017255
 31
0.0
 11
51.436877499
 21
39.7267238862
 31
0.0
  0
ELLIPSE
  5
3EC
100
AcDbEntity
  8
RACCORDO
100
AcDbEllipse
 62
7
  6
CONTINUOUS
 10
-37.5008558586
 20
69.2224028983
 30
0.0
 11
-0.313181275
 21
0.626269159
 31
0.0
 40
0.6121897086
 41
-0.6846338794
 42
0.0188552051
  0
ELLIPSE
  5
3ED
100
AcDbEntity
  8
RACCORDO
100
AcDbEllipse
 62
7
  6
CONTINUOUS
 10
30.6316384164
 20
-70.7188251356
 30
0.0
 11
-0.313181275
 21
0.626269159
 31
0.0
 40
0.6121897086
 41
-3.1605525579
 42
-2.2557347926
  0
ELLIPSE
  5
3EE
100
AcDbEntity
  8
RACCORDO
100
AcDbEllipse
 62
7
  6
CONTINUOUS
 10
30.6316384164
 20
35.1561557608
 30
0.0
 11
-0.3130130858
 21
0.6261196575
 31
0.0
 40
0.6125552124
 41
-2.255296188
 42
-0.6848044477
  0
ELLIPSE
  5
3EF
100
AcDbEntity
  8
RACCORDO
100
AcDbEllipse
 62
7
  6
CONTINUOUS
 10
-33.3737601635
 20
-34.0587831159
 30
0.0
 11
-0.1341484654
 21
0.2683369961
 31
0.0
 40
0.6125552124
 41
0.8862964655
 42
2.4567882058
  0
ELLIPSE
  5
3F0
100
AcDbEntity
  8
RACCORDO
100
AcDbEllipse
 62
7
  6
CONTINUOUS
 10
-33.6919582151
 20
-34.2099362106
 30
0.0
 11
-0.1341484654
 21
0.2683369961
 31
0.0
 40
0.6125552124
 41
0.8862964655
 42
2.4567882058
  0
ELLIPSE
  5
3F1
100
AcDbEntity
  8
0
100
AcDbEllipse
 62
7
  6
CONTINUOUS
 10
-30.7156344049
 20
-9.3157972775
 30
0.0
 11
-0.0891456483
 21
0.1797268471
 31
0.0
 40
0.6110058077
 41
-3.080440706
 42
-2.2526829854
  0
ELLIPSE
  5
3F2
100
AcDbEntity
  8
0
100
AcDbEllipse
 62
7
  6
CONTINUOUS
 10
-30.7156344049
 20
42.6457269495
 30
0.0
 11
-0.0891456483
 21
0.1797268471
 31
0.0
 40
0.6110058077
 41
-3.080440706
 42
-2.2526829854
  0
ELLIPSE
  5
3F3
100
AcDbEntity
  8
0
100
AcDbEllipse
 62
7
  6
CONTINUOUS
 10
-21.1904301266
 20
-38.4532673059
 30
0.0
 11
-0.0903365947
 21
0.1789673014
 31
0.0
 40
0.6118980814
 41
-0.6882303478
 42
-0.0534222123
  0
ELLIPSE
  5
3F4
100
AcDbEntity
  8
0
100
AcDbEllipse
 62
7
  6
CONTINUOUS
 10
-17.0743284001
 20
-41.2138131241
 30
0.0
 11
-0.0903365947
 21
0.1789673014
 31
0.0
 40
0.6118980814
 41
-3.0879513311
 42
-2.2605477526
  0
ELLIPSE
  5
3F5
100
AcDbEntity
  8
0
100
AcDbEllipse
 62
7
  6
CONTINUOUS
 10
22.7916116632
 20
-60.4442882008
 30
0.0
 11
-0.0903365947
 21
0.1789673014
 31
0.0
 40
0.6118980814
 41
-0.6882303478
 42
-0.0534222123
  0
ELLIPSE
  5
3F6
100
AcDbEntity
  8
RACCORDO
100
AcDbEllipse
 62
7
  6
CONTINUOUS
 10
18.0123262898
 20
-60.0911602747
 30
0.0
 11
0.1379861541
 21
0.2664038768
 31
0.0
 40
0.6229838795
 41
6.2919624783
 42
6.9593374368
  0
ELLIPSE
  5
3F7
100
AcDbEntity
  8
0
100
AcDbEllipse
 62
7
  6
CONTINUOUS
 10
-30.7156344049
 20
-4.2746227979
 30
0.0
 11
-0.0889021624
 21
0.1795146163
 31
0.0
 40
0.6128267509
 41
-2.2504677204
 42
-0.6811924717
  0
ELLIPSE
  5
3F8
100
AcDbEntity
  8
0
100
AcDbEllipse
 62
7
  6
CONTINUOUS
 10
-31.2892191337
 20
-3.9878304335
 30
0.0
 11
-0.0891456483
 21
0.1797268471
 31
0.0
 40
0.6110058077
 41
-0.6803655806
 42
-0.0610993631
  0
ELLIPSE
  5
3F9
100
AcDbEntity
  8
0
100
AcDbEllipse
 62
7
  6
CONTINUOUS
 10
-30.7156344049
 20
47.6869014292
 30
0.0
 11
-0.0889021624
 21
0.1795146163
 31
0.0
 40
0.6128267509
 41
-2.2504677204
 42
-0.6811924717
  0
ELLIPSE
  5
3FA
100
AcDbEntity
  8
0
100
AcDbEllipse
 62
7
  6
CONTINUOUS
 10
-31.2892191337
 20
47.9736937936
 30
0.0
 11
-0.0891456483
 21
0.1797268471
 31
0.0
 40
0.6110058077
 41
-0.6803655806
 42
-0.0610993631
  0
ELLIPSE
  5
3FB
100
AcDbEntity
  8
0
100
AcDbEllipse
 62
7
  6
CONTINUOUS
 10
-17.0743284001
 20
-40.5113181692
 30
0.0
 11
-0.0900992683
 21
0.1787520981
 31
0.0
 40
0.6137275756
 41
-2.2583825133
 42
-0.6891072646
  0
ELLIPSE
  5
3FC
100
AcDbEntity
  8
0
100
AcDbEllipse
 62
7
  6
CONTINUOUS
 10
26.9077133897
 20
-63.204834019
 30
0.0
 11
-0.0903365947
 21
0.1789673014
 31
0.0
 40
0.6118980814
 41
-2.9330414672
 42
-2.2605477526
  0
ELLIPSE
  5
3FD
100
AcDbEntity
  8
0
100
AcDbEllipse
 62
7
  6
CONTINUOUS
 10
26.9077133897
 20
-62.5023390641
 30
0.0
 11
-0.0900992683
 21
0.1787520981
 31
0.0
 40
0.6137275756
 41
-2.2583825133
 42
-0.6891072646
  0
ELLIPSE
  5
3FE
100
AcDbEntity
  8
RACCORDO
100
AcDbEllipse
 62
7
  6
CONTINUOUS
 10
-33.2875069253
 20
54.7584375115
 30
0.0
 11
0.2999918237
 21
0.0043377328
 31
0.0
 40
0.5106100819
 41
5.5078574022
 42
6.0515880746
  0
ELLIPSE
  5
3FF
100
AcDbEntity
  8
RACCORDO
100
AcDbEllipse
 62
7
  6
CONTINUOUS
 10
-33.2875069253
 20
37.4379294358
 30
0.0
 11
0.2999918237
 21
0.0043377328
 31
0.0
 40
0.5106100819
 41
5.5078574022
 42
6.0515880746
  0
ELLIPSE
  5
400
100
AcDbEntity
  8
RACCORDO
100
AcDbEllipse
 62
7
  6
CONTINUOUS
 10
-33.2875069253
 20
20.1174213601
 30
0.0
 11
0.2999918237
 21
0.0043377328
 31
0.0
 40
0.5106100819
 41
5.5078574022
 42
6.0515880746
  0
ELLIPSE
  5
401
100
AcDbEntity
  8
RACCORDO
100
AcDbEllipse
 62
7
  6
CONTINUOUS
 10
-33.2875069253
 20
2.7969132844
 30
0.0
 11
0.2999918237
 21
0.0043377328
 31
0.0
 40
0.5106100819
 41
5.5078574022
 42
6.0515880746
  0
ELLIPSE
  5
402
100
AcDbEntity
  8
RACCORDO
100
AcDbEllipse
 62
7
  6
CONTINUOUS
 10
-33.2875069253
 20
-14.5235947913
 30
0.0
 11
0.2999918237
 21
0.0043377328
 31
0.0
 40
0.5106100819
 41
5.5078574022
 42
6.0515880746
  0
ELLIPSE
  5
403
100
AcDbEntity
  8
RACCORDO
100
AcDbEllipse
 62
7
  6
CONTINUOUS
 10
19.173677255
 20
-60.6718357573
 30
0.0
 11
0.1304891768
 21
0.2701542511
 31
0.0
 40
0.6016116119
 41
-0.0083403185
 42
0.3595437777
  0
ELLIPSE
  5
404
100
AcDbEntity
  8
RACCORDO
100
AcDbEllipse
 62
7
  6
CONTINUOUS
 10
-20.9964999362
 20
-40.5867471617
 30
0.0
 11
0.1549889321
 21
0.257462725
 31
0.0
 40
0.6636722472
 41
0.0518426205
 42
0.4197510013
  0
ELLIPSE
  5
405
100
AcDbEntity
  8
RACCORDO
100
AcDbEllipse
 62
7
  6
CONTINUOUS
 10
18.716964552
 20
-60.4434794058
 30
0.0
 11
0.1379861541
 21
0.2664038768
 31
0.0
 40
0.6229838795
 41
5.9220023235
 42
6.6598446138
  0
ELLIPSE
  5
406
100
AcDbEntity
  8
RACCORDO
100
AcDbEllipse
 62
7
  6
CONTINUOUS
 10
21.6226143747
 20
-61.8963043171
 30
0.0
 11
0.1170451071
 21
0.2766776858
 31
0.0
 40
0.5572482653
 41
5.361723529
 42
6.9150665633
  0
ELLIPSE
  5
407
100
AcDbEntity
  8
RACCORDO
100
AcDbEllipse
 62
7
  6
CONTINUOUS
 10
5.712711798
 20
-53.9413530288
 30
0.0
 11
0.1170451071
 21
0.2766776858
 31
0.0
 40
0.5572482653
 41
5.361723529
 42
6.9150665633
  0
ELLIPSE
  5
408
100
AcDbEntity
  8
RACCORDO
100
AcDbEllipse
 62
7
  6
CONTINUOUS
 10
55.5379352616
 20
-90.6623125184
 30
0.0
 11
-0.6711027321
 21
1.3420053406
 31
0.0
 40
0.6121897086
 41
-3.1605244876
 42
-2.2557347926
  0
ELLIPSE
  5
409
100
AcDbEntity
  8
RACCORDO
100
AcDbEllipse
 62
7
  6
CONTINUOUS
 10
55.5379352616
 20
40.7999480162
 30
0.0
 11
-0.6707423268
 21
1.3416849804
 31
0.0
 40
0.6125552124
 41
4.0278891191
 42
5.5983808594
  0
ELLIPSE
  5
40A
100
AcDbEntity
  8
RACCORDO
100
AcDbEllipse
 62
7
  6
CONTINUOUS
 10
-51.8005509859
 20
94.46919114
 30
0.0
 11
-0.6711027321
 21
1.3420053406
 31
0.0
 40
0.6121897086
 41
-0.6846338794
 42
0.0189908098
  0
ENDSEC
  0
SECTION
  2
OBJECTS
  0
DICTIONARY
  5
C
100
AcDbDictionary
280
0
281
1
  3
ACAD_GROUP
350
D
  3
ACAD_MLINESTYLE
350
17
  3
ACAD_LAYOUT
350
1A
  3
ACAD_PLOTSETTINGS
350
19
  3
ACAD_PLOTSTYLENAME
350
E
  0
DICTIONARY
  5
D
102
{ACAD_REACTORS
330
C
102
}
100
AcDbDictionary
280
0
281
1
  0
ACDBDICTIONARYWDFLT
  5
E
102
{ACAD_REACTORS
330
C
102
}
100
AcDbDictionary
281
1
  3
Normal
350
F
100
AcDbDictionaryWithDefault
340
F
  0
DICTIONARY
  5
17
102
{ACAD_REACTORS
330
C
102
}
100
AcDbDictionary
280
0
281
1
  3
Standard
350
18
  0
DICTIONARY
  5
19
102
{ACAD_REACTORS
330
C
102
}
100
AcDbDictionary
281
1
  0
DICTIONARY
  5
1A
102
{ACAD_REACTORS
330
C
102
}
100
AcDbDictionary
281
1
  3
Model
350
40B
  3
Layout1
350
40C
  0
ACDBPLACEHOLDER
  5
F
102
{ACAD_REACTORS
330
E
102
}
  0
MLINESTYLE
  5
18
102
{ACAD_REACTORS
330
17
102
}
100
AcDbMlineStyle
  2
STANDARD
 70
0
  3

 62
256
 51
90.0
 52
90.0
 71
2
 49
0.5
 62
256
  6
BYLAYER
 49
-0.5
 62
256
  6
BYLAYER
  0
LAYOUT
  5
40B
102
{ACAD_REACTORS
330
1A
102
}
100
AcDbPlotSettings
  1

  2
none_device
  4
ISO_A4_(297.00_x_210.00_MM)
  6

 40
0.0
 41
0.0
 42
0.0
 43
0.0
 44
297.0
 45
210.0
 46
0.0
 47
0.0
 48
0.0
 49
0.0
140
0.0
141
0.0
142
1.0
143
1.0
 70
1024
 72
1
 73
0
 74
0
  7

 75
0
147
1.0
148
0.0
149
0.0
100
AcDbLayout
  1
Model
 70
0
 71
0
 10
0.0
 20
0.0
 11
297.0
 21
210.0
 12
0.0
 22
0.0
 32
0.0
 14
0.0
 24
0.0
 34
0.0
 15
0.0
 25
0.0
 35
0.0
146
0.0
 13
0.0
 23
0.0
 33
0.0
 16
1.0
 26
0.0
 36
0.0
 17
0.0
 27
1.0
 37
0.0
 76
0
330
216
345
0
346
0
  0
LAYOUT
  5
40C
102
{ACAD_REACTORS
330
1A
102
}
100
AcDbPlotSettings
  1

  2
none_device
  4
ISO_A4_(297.00_x_210.00_MM)
  6

 40
0.0
 41
0.0
 42
0.0
 43
0.0
 44
297.0
 45
210.0
 46
0.0
 47
0.0
 48
0.0
 49
0.0
140
0.0
141
0.0
142
1.0
143
1.0
 70
0
 72
1
 73
0
 74
0
  7

 75
0
147
1.0
148
0.0
149
0.0
100
AcDbLayout
  1
Layout1
 70
0
 71
1
 10
0.0
 20
0.0
 11
297.0
 21
210.0
 12
0.0
 22
0.0
 32
0.0
 14
0.0
 24
0.0
 34
0.0
 15
0.0
 25
0.0
 35
0.0
146
0.0
 13
0.0
 23
0.0
 33
0.0
 16
1.0
 26
0.0
 36
0.0
 17
0.0
 27
1.0
 37
0.0
 76
0
330
217
345
0
346
0
  0
ENDSEC
  0
EOF
