  0
SECTION
  2
HEADER
  9
$ACADVER
  1
AC1015
  9
$DWGCODEPAGE
  3
ANSI_1252
  9
$EXTMAX
 10
297.0
 20
210.0
 30
0.0
  9
$EXTMIN
 10
0.0
 20
0.0
 30
0.0
  9
$LIMMIN
 10
0.0
 20
0.0
  9
$LIMMAX
 10
297.0
 20
210.0
  9
$VIEWCTR
 10
148.5
 20
105.0
  9
$VIEWSIZE
 40
210.0
  9
$CLAYER
  8
0
  9
$LTSCALE
 40
16.335
  9
$CELTYPE
  6
BYLAYER
  9
$DIMSCALE
 40
1.0
  9
$DIMASZ
 40
3.0
  9
$DIMEXO
 40
1.85625
  9
$DIMDLI
 40
11.286
  9
$DIMEXE
 40
5.346
  9
$DIMCEN
 40
2.673
  9
$DIMLFAC
 40
1.0
  9
$DIMBLK
  1
_FILLED
  9
$DIMTXT
 40
3.0
  9
$DIMTOL
 70
1
  9
$DIMLIM
 70
0
  9
$DIMTFAC
 40
1.0
  9
$DIMTP
 40
0.01
  9
$DIMTM
 40
0.01
  9
$PDMODE
 70
3
  9
$PDSIZE
 40
3.0
  9
$HANDSEED
  5
40D
  9
$TILEMODE
 70
1
  9
$MEASUREMENT
 70
1
  9
$INSUNITS
 70
4
  0
ENDSEC
  0
SECTION
  2
CLASSES
  0
CLASS
  1
ACDBDICTIONARYWDFLT
  2
AcDbDictionaryWithDefault
  3
AutoCAD 2000
 90
0
280
0
281
0
  0
CLASS
  1
ACDBPLACEHOLDER
  2
AcDbPlaceHolder
  3
AutoCAD 2000
 90
0
280
0
281
0
  0
CLASS
  1
LAYOUT
  2
AcDbLayout
  3
AutoCAD 2000
 90
0
280
0
281
0
  0
ENDSEC
  0
SECTION
  2
TABLES
  0
TABLE
  2
VPORT
  5
8
100
AcDbSymbolTable
 70
2
  0
VPORT
  5
1F4
100
AcDbSymbolTableRecord
100
AcDbViewportTableRecord
  2
*ACTIVE
 70
0
 10
0.0
 20
0.0
 11
1.0
 21
1.0
 12
148.5
 22
105.0
 13
0.0
 23
0.0
 14
1.0
 24
1.0
 15
0.0
 25
0.0
 16
0.0
 26
0.0
 36
1.0
 17
0.0
 27
0.0
 37
0.0
 40
210.0
 41
1.4142857143
 42
50.0
 43
0.0
 44
0.0
 50
0.0
 51
0.0
 71
0
 72
100
 73
1
 74
1
 75
0
 76
0
 77
0
 78
0
  0
ENDTAB
  0
TABLE
  2
LTYPE
  5
5
100
AcDbSymbolTable
 70
6
  0
LTYPE
  5
14
100
AcDbSymbolTableRecord
100
AcDbLinetypeTableRecord
  2
BYBLOCK
 70
0
  3

 72
65
 73
0
 40
0.0
  0
LTYPE
  5
15
100
AcDbSymbolTableRecord
100
AcDbLinetypeTableRecord
  2
BYLAYER
 70
0
  3

 72
65
 73
0
 40
0.0
  0
LTYPE
  5
16
100
AcDbSymbolTableRecord
100
AcDbLinetypeTableRecord
  2
CONTINUOUS
 70
64
  3
Solid line
 72
65
 73
0
 40
0.0
  0
LTYPE
  5
1F5
100
AcDbSymbolTableRecord
100
AcDbLinetypeTableRecord
  2
CENTER
 70
64
  3
____ _ ____ _ ____ _ ____ _ ____ _ ____ _ ____
 72
65
 73
4
 40
0.6
 49
0.375
 74
0
 49
-0.075
 74
0
 49
0.075
 74
0
 49
-0.075
 74
0
  0
LTYPE
  5
1F6
100
AcDbSymbolTableRecord
100
AcDbLinetypeTableRecord
  2
HIDDEN
 70
64
  3
- - - - - - - - - - - - - - - - - - - -
 72
65
 73
2
 40
0.2
 49
0.1
 74
0
 49
-0.1
 74
0
  0
LTYPE
  5
1F7
100
AcDbSymbolTableRecord
100
AcDbLinetypeTableRecord
  2
PHANTOM
 70
64
  3
_____ _ _ _____ _ _ _____ _ _ _____
 72
65
 73
6
 40
0.8
 49
0.45
 74
0
 49
-0.05
 74
0
 49
0.1
 74
0
 49
-0.05
 74
0
 49
0.1
 74
0
 49
-0.05
 74
0
  0
LTYPE
  5
1F8
100
AcDbSymbolTableRecord
100
AcDbLinetypeTableRecord
  2
DOT
 70
64
  3
. . . . . . . . . . . . . . . . . . . .
 72
65
 73
2
 40
0.2
 49
0.1
 74
0
 49
-0.1
 74
0
  0
LTYPE
  5
1F9
100
AcDbSymbolTableRecord
100
AcDbLinetypeTableRecord
  2
DASHED
 70
64
  3
- - - - - - - - - - - - - - - - - - - -
 72
65
 73
2
 40
0.2
 49
0.1
 74
0
 49
-0.1
 74
0
  0
ENDTAB
  0
TABLE
  2
LAYER
  5
2
100
AcDbSymbolTable
 70
36
  0
LAYER
  5
10
100
AcDbSymbolTableRecord
100
AcDbLayerTableRecord
  2
0
 70
0
 62
7
  6
CONTINUOUS
370
-3
390
F
  0
LAYER
  5
1FA
100
AcDbSymbolTableRecord
100
AcDbLayerTableRecord
  2
DEFAULT_1
 70
0
 62
7
  6
CENTER
370
-3
390
F
  0
LAYER
  5
1FB
100
AcDbSymbolTableRecord
100
AcDbLayerTableRecord
  2
DEFAULT_2
 70
0
 62
7
  6
HIDDEN
370
-3
390
F
  0
LAYER
  5
1FC
100
AcDbSymbolTableRecord
100
AcDbLayerTableRecord
  2
DEFAULT_3
 70
0
 62
7
  6
PHANTOM
370
-3
390
F
  0
LAYER
  5
1FD
100
AcDbSymbolTableRecord
100
AcDbLayerTableRecord
  2
ASSI
 70
0
 62
7
  6
CONTINUOUS
370
-3
390
F
  0
LAYER
  5
1FE
100
AcDbSymbolTableRecord
100
AcDbLayerTableRecord
  2
COORDINATE
 70
0
 62
7
  6
CONTINUOUS
370
-3
390
F
  0
LAYER
  5
1FF
100
AcDbSymbolTableRecord
100
AcDbLayerTableRecord
  2
COORD_ORIGINE
 70
0
 62
7
  6
CONTINUOUS
370
-3
390
F
  0
LAYER
  5
200
100
AcDbSymbolTableRecord
100
AcDbLayerTableRecord
  2
COPY_PUBLISH
 70
0
 62
7
  6
CONTINUOUS
370
-3
390
F
  0
LAYER
  5
201
100
AcDbSymbolTableRecord
100
AcDbLayerTableRecord
  2
COSMETIC
 70
0
 62
7
  6
CONTINUOUS
370
-3
390
F
  0
LAYER
  5
202
100
AcDbSymbolTableRecord
100
AcDbLayerTableRecord
  2
COSMETICI
 70
0
 62
7
  6
CONTINUOUS
370
-3
390
F
  0
LAYER
  5
203
100
AcDbSymbolTableRecord
100
AcDbLayerTableRecord
  2
CURVE
 70
0
 62
7
  6
CONTINUOUS
370
-3
390
F
  0
LAYER
  5
204
100
AcDbSymbolTableRecord
100
AcDbLayerTableRecord
  2
CURVE_TASSELLI
 70
0
 62
7
  6
CONTINUOUS
370
-3
390
F
  0
LAYER
  5
205
100
AcDbSymbolTableRecord
100
AcDbLayerTableRecord
  2
DRAFT
 70
0
 62
7
  6
CONTINUOUS
370
-3
390
F
  0
LAYER
  5
206
100
AcDbSymbolTableRecord
100
AcDbLayerTableRecord
  2
IGES
 70
0
 62
7
  6
CONTINUOUS
370
-3
390
F
  0
LAYER
  5
207
100
AcDbSymbolTableRecord
100
AcDbLayerTableRecord
  2
IMPORT_IGES
 70
0
 62
7
  6
CONTINUOUS
370
-3
390
F
  0
LAYER
  5
208
100
AcDbSymbolTableRecord
100
AcDbLayerTableRecord
  2
INTFCLR_2
 70
0
 62
7
  6
CONTINUOUS
370
-3
390
F
  0
LAYER
  5
209
100
AcDbSymbolTableRecord
100
AcDbLayerTableRecord
  2
NOTE
 70
0
 62
7
  6
CONTINUOUS
370
-3
390
F
  0
LAYER
  5
20A
100
AcDbSymbolTableRecord
100
AcDbLayerTableRecord
  2
PIANI
 70
0
 62
7
  6
CONTINUOUS
370
-3
390
F
  0
LAYER
  5
20B
100
AcDbSymbolTableRecord
100
AcDbLayerTableRecord
  2
PIANI_ORIGINE
 70
0
 62
7
  6
CONTINUOUS
370
-3
390
F
  0
LAYER
  5
20C
100
AcDbSymbolTableRecord
100
AcDbLayerTableRecord
  2
PUNTI
 70
0
 62
7
  6
CONTINUOUS
370
-3
390
F
  0
LAYER
  5
20D
100
AcDbSymbolTableRecord
100
AcDbLayerTableRecord
  2
RACCORDO
 70
0
 62
7
  6
CONTINUOUS
370
-3
390
F
  0
LAYER
  5
20E
100
AcDbSymbolTableRecord
100
AcDbLayerTableRecord
  2
SIMBOLI
 70
0
 62
7
  6
CONTINUOUS
370
-3
390
F
  0
LAYER
  5
20F
100
AcDbSymbolTableRecord
100
AcDbLayerTableRecord
  2
SMUSSO
 70
0
 62
7
  6
CONTINUOUS
370
-3
390
F
  0
LAYER
  5
210
100
AcDbSymbolTableRecord
100
AcDbLayerTableRecord
  2
SNAPLINE
 70
0
 62
7
  6
CONTINUOUS
370
-3
390
F
  0
LAYER
  5
211
100
AcDbSymbolTableRecord
100
AcDbLayerTableRecord
  2
SUPERFICI
 70
0
 62
7
  6
CONTINUOUS
370
-3
390
F
  0
LAYER
  5
212
100
AcDbSymbolTableRecord
100
AcDbLayerTableRecord
  2
TRASH
 70
0
 62
7
  6
CONTINUOUS
370
-3
390
F
  0
LAYER
  5
213
100
AcDbSymbolTableRecord
100
AcDbLayerTableRecord
  2
XSEC_DATUMS
 70
0
 62
7
  6
CONTINUOUS
370
-3
390
F
  0
ENDTAB
  0
TABLE
  2
STYLE
  5
3
100
AcDbSymbolTable
 70
1
  0
STYLE
  5
11
100
AcDbSymbolTableRecord
100
AcDbTextStyleTableRecord
  2
STANDARD
 70
0
 40
0.0
 41
0.8
 50
0.0
 71
0
 42
0.2
  3
txt
  4

  0
STYLE
  5
214
100
AcDbSymbolTableRecord
100
AcDbTextStyleTableRecord
  2
TEXTSTYLE_1
 70
0
 40
0.0
 41
0.8
 50
0.0
 71
0
 42
0.2
  3
gdt
  4

  0
ENDTAB
  0
TABLE
  2
VIEW
  5
6
100
AcDbSymbolTable
 70
0
  0
ENDTAB
  0
TABLE
  2
UCS
  5
7
100
AcDbSymbolTable
 70
0
  0
ENDTAB
  0
TABLE
  2
APPID
  5
9
100
AcDbSymbolTable
 70
1
  0
APPID
  5
215
100
AcDbSymbolTableRecord
100
AcDbRegAppTableRecord
  2
ACAD
 70
0
  0
ENDTAB
  0
TABLE
  2
BLOCK_RECORD
  5
1
100
AcDbSymbolTable
 70
0
  0
BLOCK_RECORD
  5
216
100
AcDbSymbolTableRecord
100
AcDbBlockTableRecord
  2
*Model_Space
  0
BLOCK_RECORD
  5
217
100
AcDbSymbolTableRecord
100
AcDbBlockTableRecord
  2
*Paper_Space
  0
ENDTAB
  0
TABLE
  2
DIMSTYLE
  5
A
100
AcDbSymbolTable
 70
1
100
AcDbDimStyleTable
 71
0
  0
DIMSTYLE
105
218
100
AcDbSymbolTableRecord
100
AcDbDimStyleTableRecord
  2
STANDARD
 70
0
  3

  4

 40
1.0
 41
3.0
 42
0.0625
 43
0.38
 44
0.18
 45
0.0
 46
0.0
 47
0.01
 48
0.01
140
3.0
141
0.09
142
0.0
143
25.4
144
1.0
145
0.0
146
1.0
147
0.09
 71
1.0
 72
0.0
 73
0
 74
0
 75
0
 76
0
 77
1
 78
8
170
0
171
2
172
0
173
0
174
0
175
0
176
0
177
0
178
0
270
2
271
2
272
2
273
2
274
2
275
0
280
0
281
0
282
0
283
1
284
8
285
0
286
0
287
3
288
0
340
11
  0
ENDTAB
  0
ENDSEC
  0
SECTION
  2
BLOCKS
  0
BLOCK
  5
20
100
AcDbEntity
  8
0
100
AcDbBlockBegin
  2
*Model_Space
 70
0
 10
0.0
 20
0.0
 30
0.0
  3
*Model_Space
  1

  0
ENDBLK
  5
21
100
AcDbEntity
  8
0
100
AcDbBlockEnd
  0
BLOCK
  5
1C
100
AcDbEntity
  8
0
100
AcDbBlockBegin
  2
*Paper_Space
 70
0
 10
0.0
 20
0.0
 30
0.0
  3
*Paper_Space
  1

  0
ENDBLK
  5
1D
100
AcDbEntity
  8
0
100
AcDbBlockEnd
  0
ENDSEC
  0
SECTION
  2
ENTITIES
  0
LWPOLYLINE
  5
219
100
AcDbEntity
  8
RACCORDO
100
AcDbPolyline
 62
7
  6
CONTINUOUS
 90
7
 70
0
 10
-54.4517189128
 20
93.9753986173
 10
-54.4978647174
 20
93.9481265909
 10
-54.5417000854
 20
93.9174207128
 10
-54.5832673946
 20
93.8832936264
 10
-54.6224405215
 20
93.8458754109
 10
-54.6591535786
 20
93.8052397987
 10
-54.674933543
 20
93.7850253155
  0
LINE
  5
21A
100
AcDbEntity
  8
RACCORDO
100
AcDbLine
 62
7
  6
CONTINUOUS
 10
-54.4516702317
 20
93.9754280543
 11
-52.4848182072
 21
95.0365898444
  0
LINE
  5
21B
100
AcDbEntity
  8
RACCORDO
100
AcDbLine
 62
7
  6
CONTINUOUS
 10
-53.762566049
 20
93.9423986149
 11
-51.7985257034
 21
95.0020434398
  0
LINE
  5
21C
100
AcDbEntity
  8
RACCORDO
100
AcDbLine
 62
7
  6
CONTINUOUS
 10
-56.6832943307
 20
93.479685995
 11
-55.5689796268
 21
94.0368433469
  0
LINE
  5
21D
100
AcDbEntity
  8
SMUSSO
100
AcDbLine
 62
7
  6
CONTINUOUS
 10
-56.1824262031
 20
93.4781114738
 11
-55.1217660313
 21
94.0084415597
  0
LWPOLYLINE
  5
21E
100
AcDbEntity
  8
RACCORDO
100
AcDbPolyline
 62
7
  6
CONTINUOUS
 90
6
 70
0
 10
53.9198284061
 20
-93.7813564109
 10
53.9776577065
 20
-93.774275742
 10
54.0339892458
 20
-93.7627753989
 10
54.0884527727
 20
-93.7469974165
 10
54.1408011734
 20
-93.7271087263
 10
54.1595582324
 20
-93.7187618942
  0
LINE
  5
21F
100
AcDbEntity
  8
RACCORDO
100
AcDbLine
 62
7
  6
CONTINUOUS
 10
53.9140996276
 20
-93.781608669
 11
53.9198284061
 21
-93.7813564109
  0
LINE
  5
220
100
AcDbEntity
  8
RACCORDO
100
AcDbLine
 62
7
  6
CONTINUOUS
 10
-54.0662414422
 20
93.4806792651
 11
-53.8599569822
 21
93.8409157226
  0
LINE
  5
221
100
AcDbEntity
  8
RACCORDO
100
AcDbLine
 62
7
  6
CONTINUOUS
 10
53.9140996276
 20
-92.9235406104
 11
54.4266050988
 21
-92.9257768662
  0
LWPOLYLINE
  5
222
100
AcDbEntity
  8
RACCORDO
100
AcDbPolyline
 62
7
  6
CONTINUOUS
 90
15
 70
0
 10
-38.6925624185
 20
68.607014596
 10
-38.7188901314
 20
68.591634603
 10
-38.7503179792
 20
68.5699116551
 10
-38.780016391
 20
68.545439517
 10
-38.8077670553
 20
68.5183639895
 10
-38.8335099652
 20
68.4886830967
 10
-38.8570557664
 20
68.4565114107
 10
-38.8782148661
 20
68.4220049907
 10
-38.896923105
 20
68.3851501149
 10
-38.913034418
 20
68.3460418603
 10
-38.926387412
 20
68.3048239894
 10
-38.9368862413
 20
68.2614597713
 10
-38.9443956623
 20
68.2159665928
 10
-38.9487431727
 20
68.1684726203
 10
-38.9498422887
 20
68.128877815
  0
LINE
  5
223
100
AcDbEntity
  8
RACCORDO
100
AcDbLine
 62
7
  6
CONTINUOUS
 10
-38.6925471353
 20
68.6070273063
 11
-37.8189579492
 21
69.0783487189
  0
LINE
  5
224
100
AcDbEntity
  8
RACCORDO
100
AcDbLine
 62
7
  6
CONTINUOUS
 10
-38.3707510748
 20
68.5917290895
 11
-37.4986582497
 21
69.0622431759
  0
LINE
  5
225
100
AcDbEntity
  8
RACCORDO
100
AcDbLine
 62
7
  6
CONTINUOUS
 10
-33.3196881457
 20
53.7527130431
 11
-33.0693565907
 21
53.88777266
  0
LINE
  5
226
100
AcDbEntity
  8
DRAFT
100
AcDbLine
 62
7
  6
CONTINUOUS
 10
-33.9017741686
 20
53.4353161862
 11
-33.5835761171
 21
53.606991335
  0
LINE
  5
227
100
AcDbEntity
  8
DRAFT
100
AcDbLine
 62
7
  6
CONTINUOUS
 10
-32.75788178
 20
53.4718098603
 11
-33.6610752223
 21
52.9845162774
  0
LINE
  5
228
100
AcDbEntity
  8
DRAFT
100
AcDbLine
 62
7
  6
CONTINUOUS
 10
-32.420383543
 20
54.2552736502
 11
-33.3075218317
 21
53.7992554676
  0
LINE
  5
229
100
AcDbEntity
  8
SMUSSO
100
AcDbLine
 62
7
  6
CONTINUOUS
 10
-56.1824262031
 20
-40.9290311935
 11
52.1463326747
 21
-95.0934106324
  0
LINE
  5
22A
100
AcDbEntity
  8
SMUSSO
100
AcDbLine
 62
7
  6
CONTINUOUS
 10
-54.0611058596
 20
-38.207752505
 11
47.1965852064
 21
-88.8365980379
  0
LINE
  5
22B
100
AcDbEntity
  8
SMUSSO
100
AcDbLine
 62
7
  6
CONTINUOUS
 10
-56.8895329843
 20
92.9656394606
 11
-56.8895329843
 21
-39.7094523991
  0
LINE
  5
22C
100
AcDbEntity
  8
SMUSSO
100
AcDbLine
 62
7
  6
CONTINUOUS
 10
-54.0611058596
 20
85.807085317
 11
-54.0611058596
 21
-38.207752505
  0
LINE
  5
22D
100
AcDbEntity
  8
0
100
AcDbLine
 62
7
  6
CONTINUOUS
 10
-30.5718431118
 20
41.8081957937
 11
-33.0693565907
 21
40.2427043739
  0
LINE
  5
22E
100
AcDbEntity
  8
RACCORDO
100
AcDbLine
 62
7
  6
CONTINUOUS
 10
-30.6175720076
 20
41.7031345091
 11
-32.9867002235
 21
40.218117541
  0
LINE
  5
22F
100
AcDbEntity
  8
DRAFT
100
AcDbLine
 62
7
  6
CONTINUOUS
 10
-33.3075218317
 20
46.5004556283
 11
-32.420383543
 21
46.9957767881
  0
LINE
  5
230
100
AcDbEntity
  8
DRAFT
100
AcDbLine
 62
7
  6
CONTINUOUS
 10
-32.420383543
 20
45.8623854983
 11
-33.3075218317
 21
45.3670643386
  0
LINE
  5
231
100
AcDbEntity
  8
DRAFT
100
AcDbLine
 62
7
  6
CONTINUOUS
 10
-32.75788178
 20
47.4096320338
 11
-33.6610752223
 21
46.961641428
  0
LINE
  5
232
100
AcDbEntity
  8
DRAFT
100
AcDbLine
 62
7
  6
CONTINUOUS
 10
-33.9017741686
 20
46.1745493639
 11
-33.5835761171
 21
46.3323779432
  0
LINE
  5
233
100
AcDbEntity
  8
0
100
AcDbLine
 62
7
  6
CONTINUOUS
 10
-32.420383543
 20
46.3963190244
 11
-30.7130708648
 21
47.0941153106
  0
LINE
  5
234
100
AcDbEntity
  8
0
100
AcDbLine
 62
7
  6
CONTINUOUS
 10
-32.420383543
 20
46.0943816785
 11
-30.5718431118
 21
46.8498992027
  0
LINE
  5
235
100
AcDbEntity
  8
RACCORDO
100
AcDbLine
 62
7
  6
CONTINUOUS
 10
-31.3690761129
 20
47.3898918286
 11
-32.4194627991
 21
46.9933379339
  0
LINE
  5
236
100
AcDbEntity
  8
0
100
AcDbLine
 62
7
  6
CONTINUOUS
 10
-31.2870858848
 20
47.3811228206
 11
-32.420383543
 21
46.9532674354
  0
LWPOLYLINE
  5
237
100
AcDbEntity
  8
RACCORDO
100
AcDbPolyline
 62
7
  6
CONTINUOUS
 90
13
 70
0
 10
29.6006443055
 20
-72.5155525091
 10
29.6152110293
 20
-72.5225978564
 10
29.6550837741
 20
-72.5395175584
 10
29.6954068982
 20
-72.5531989532
 10
29.7360224061
 20
-72.5635901231
 10
29.7766711954
 20
-72.5706429927
 10
29.8171635631
 20
-72.5743465503
 10
29.8572996403
 20
-72.5747066986
 10
29.896724459
 20
-72.5717752857
 10
29.9351787026
 20
-72.5656503459
 10
29.9724612698
 20
-72.5564470575
 10
30.0082802624
 20
-72.5443394684
 10
30.0354159562
 20
-72.5328515805
  0
LINE
  5
238
100
AcDbEntity
  8
RACCORDO
100
AcDbLine
 62
7
  6
CONTINUOUS
 10
-38.5012129354
 20
-38.4646314448
 11
29.6005971729
 21
-72.515536499
  0
LINE
  5
239
100
AcDbEntity
  8
RACCORDO
100
AcDbLine
 62
7
  6
CONTINUOUS
 10
-38.579180894
 20
-38.3023693033
 11
29.5226292198
 21
-72.3532743602
  0
LWPOLYLINE
  5
23A
100
AcDbEntity
  8
RACCORDO
100
AcDbPolyline
 62
7
  6
CONTINUOUS
 90
5
 70
0
 10
-38.6352836432
 20
-38.3758829162
 10
-38.5957205011
 20
-38.4068597181
 10
-38.5548488876
 20
-38.4345018184
 10
-38.512865576
 20
-38.458644629
 10
-38.5011827466
 20
-38.4646387269
  0
LINE
  5
23B
100
AcDbEntity
  8
RACCORDO
100
AcDbLine
 62
7
  6
CONTINUOUS
 10
-38.6731460843
 20
-38.3419408725
 11
-38.6352836432
 21
-38.3758829162
  0
LINE
  5
23C
100
AcDbEntity
  8
RACCORDO
100
AcDbLine
 62
7
  6
CONTINUOUS
 10
-33.3196881457
 20
36.4322049674
 11
-33.0693565907
 21
36.5672645843
  0
LINE
  5
23D
100
AcDbEntity
  8
DRAFT
100
AcDbLine
 62
7
  6
CONTINUOUS
 10
-33.9017741686
 20
36.1148081105
 11
-33.5835761171
 21
36.2864832593
  0
LINE
  5
23E
100
AcDbEntity
  8
DRAFT
100
AcDbLine
 62
7
  6
CONTINUOUS
 10
-32.75788178
 20
36.1513017846
 11
-33.6610752223
 21
35.6640082017
  0
LINE
  5
23F
100
AcDbEntity
  8
DRAFT
100
AcDbLine
 62
7
  6
CONTINUOUS
 10
-32.420383543
 20
38.0681568642
 11
-33.3075218317
 21
37.6121386816
  0
LINE
  5
240
100
AcDbEntity
  8
DRAFT
100
AcDbLine
 62
7
  6
CONTINUOUS
 10
-33.3075218317
 20
36.4787473919
 11
-32.420383543
 21
36.9347655745
  0
LINE
  5
241
100
AcDbEntity
  8
DRAFT
100
AcDbLine
 62
7
  6
CONTINUOUS
 10
-33.1661004755
 20
38.4410153305
 11
-33.5835761171
 21
38.2339443346
  0
LINE
  5
242
100
AcDbEntity
  8
RACCORDO
100
AcDbLine
 62
7
  6
CONTINUOUS
 10
-36.7401647557
 20
-37.1251041685
 11
27.6836130809
 21
-69.3369930868
  0
LINE
  5
243
100
AcDbEntity
  8
RACCORDO
100
AcDbLine
 62
7
  6
CONTINUOUS
 10
-36.5829365319
 20
-36.7955351655
 11
27.8408413046
 21
-69.0074240838
  0
LINE
  5
244
100
AcDbEntity
  8
RACCORDO
100
AcDbLine
 62
7
  6
CONTINUOUS
 10
-34.1265456825
 20
-35.4707759501
 11
28.0055527364
 21
-66.5368251595
  0
LINE
  5
245
100
AcDbEntity
  8
RACCORDO
100
AcDbLine
 62
7
  6
CONTINUOUS
 10
-34.041209689
 20
-35.4134193532
 11
28.0055527364
 21
-66.4368005659
  0
LINE
  5
246
100
AcDbEntity
  8
RACCORDO
100
AcDbLine
 62
7
  6
CONTINUOUS
 10
28.0055527364
 20
-66.083909928
 11
-33.689674443
 21
-35.2362963383
  0
LINE
  5
247
100
AcDbEntity
  8
DRAFT
100
AcDbLine
 62
7
  6
CONTINUOUS
 10
-20.0685796503
 20
-41.8235623148
 11
-15.1509229284
 21
-44.2823906757
  0
LINE
  5
248
100
AcDbEntity
  8
DRAFT
100
AcDbLine
 62
7
  6
CONTINUOUS
 10
-4.1586770736
 20
-49.7785136031
 11
0.7589796483
 21
-52.2373419641
  0
LINE
  5
249
100
AcDbEntity
  8
DRAFT
100
AcDbLine
 62
7
  6
CONTINUOUS
 10
11.7512255031
 20
-57.7334648915
 11
16.6688822249
 21
-60.1922932524
  0
LINE
  5
24A
100
AcDbEntity
  8
RACCORDO
100
AcDbLine
 62
7
  6
CONTINUOUS
 10
28.0055527364
 20
-65.7736578076
 11
17.215257684
 21
-60.3785102814
  0
LINE
  5
24B
100
AcDbEntity
  8
DRAFT
100
AcDbLine
 62
7
  6
CONTINUOUS
 10
11.2755607221
 20
-57.4086618004
 11
1.3053551074
 21
-52.4235589931
  0
LINE
  5
24C
100
AcDbEntity
  8
DRAFT
100
AcDbLine
 62
7
  6
CONTINUOUS
 10
-4.6343418546
 20
-49.4537105121
 11
-14.6045474693
 21
-44.4686077047
  0
LINE
  5
24D
100
AcDbEntity
  8
RACCORDO
100
AcDbLine
 62
7
  6
CONTINUOUS
 10
-20.5442444313
 20
-41.4987592237
 11
-33.3714763915
 21
-35.0851432437
  0
LINE
  5
24E
100
AcDbEntity
  8
DRAFT
100
AcDbLine
 62
7
  6
CONTINUOUS
 10
-21.9938133327
 20
-40.7137787745
 11
-25.7737489634
 21
-38.8238109592
  0
LINE
  5
24F
100
AcDbEntity
  8
DRAFT
100
AcDbLine
 62
7
  6
CONTINUOUS
 10
20.786146929
 20
-62.1037589054
 11
23.8106607149
 21
-63.6160157983
  0
LINE
  5
250
100
AcDbEntity
  8
RACCORDO
100
AcDbLine
 62
7
  6
CONTINUOUS
 10
17.6041664137
 20
-60.4428639565
 11
17.9624205349
 21
-60.6219910171
  0
LINE
  5
251
100
AcDbEntity
  8
0
100
AcDbLine
 62
7
  6
CONTINUOUS
 10
4.5226909617
 20
-53.8856358992
 11
5.0375550908
 21
-54.1430679638
  0
LINE
  5
252
100
AcDbEntity
  8
RACCORDO
100
AcDbLine
 62
7
  6
CONTINUOUS
 10
4.5226909617
 20
-53.8482433896
 11
5.7184385051
 21
-54.4461171613
  0
LINE
  5
253
100
AcDbEntity
  8
RACCORDO
100
AcDbLine
 62
7
  6
CONTINUOUS
 10
18.0184415211
 20
-60.5961186693
 11
18.397115958
 21
-60.7854558877
  0
LINE
  5
254
100
AcDbEntity
  8
RACCORDO
100
AcDbLine
 62
7
  6
CONTINUOUS
 10
20.9474576675
 20
-62.0606267425
 11
21.6283410818
 21
-62.4010684496
  0
LINE
  5
255
100
AcDbEntity
  8
RACCORDO
100
AcDbLine
 62
7
  6
CONTINUOUS
 10
17.6041664137
 20
-60.3709240256
 11
18.0384828317
 21
-60.5880822345
  0
LINE
  5
256
100
AcDbEntity
  8
DRAFT
100
AcDbLine
 62
7
  6
CONTINUOUS
 10
20.9474576675
 20
-62.0114167117
 11
18.4465232537
 21
-60.7609495048
  0
LINE
  5
257
100
AcDbEntity
  8
DRAFT
100
AcDbLine
 62
7
  6
CONTINUOUS
 10
-19.7471319674
 20
-41.6641218943
 11
-21.8015706806
 21
-40.6369025377
  0
LINE
  5
258
100
AcDbEntity
  8
RACCORDO
100
AcDbLine
 62
7
  6
CONTINUOUS
 10
-20.8483443257
 20
-41.0907858149
 11
-19.7243109513
 21
-41.6528025021
  0
LINE
  5
259
100
AcDbEntity
  8
RACCORDO
100
AcDbLine
 62
7
  6
CONTINUOUS
 10
4.5226909617
 20
-53.7763034586
 11
5.8375811336
 21
-54.4337485446
  0
LINE
  5
25A
100
AcDbEntity
  8
RACCORDO
100
AcDbLine
 62
7
  6
CONTINUOUS
 10
18.1511617916
 20
-60.5905388736
 11
18.855800056
 21
-60.9428580057
  0
LINE
  5
25B
100
AcDbEntity
  8
RACCORDO
100
AcDbLine
 62
7
  6
CONTINUOUS
 10
19.3078666972
 20
-61.1688913264
 11
21.7474837103
 21
-62.3886998329
  0
LINE
  5
25C
100
AcDbEntity
  8
DRAFT
100
AcDbLine
 62
7
  6
CONTINUOUS
 10
28.0055527364
 20
-65.5070751175
 11
23.8106607149
 21
-63.4096291068
  0
LINE
  5
25D
100
AcDbEntity
  8
0
100
AcDbLine
 62
7
  6
CONTINUOUS
 10
11.5838846978
 20
-57.2962410982
 11
7.1389860521
 21
-55.0737917754
  0
LINE
  5
25E
100
AcDbEntity
  8
0
100
AcDbLine
 62
7
  6
CONTINUOUS
 10
3.6034521462
 20
-53.3060248225
 11
1.6334272347
 21
-52.3210123667
  0
LINE
  5
25F
100
AcDbEntity
  8
DRAFT
100
AcDbLine
 62
7
  6
CONTINUOUS
 10
-4.3260178789
 20
-49.3412898099
 11
-14.276475342
 21
-44.3660610784
  0
LINE
  5
260
100
AcDbEntity
  8
DRAFT
100
AcDbLine
 62
7
  6
CONTINUOUS
 10
-26.5032513591
 20
-38.2526730698
 11
-33.3075218317
 21
-34.8505378335
  0
LINE
  5
261
100
AcDbEntity
  8
DRAFT
100
AcDbLine
 62
7
  6
CONTINUOUS
 10
-19.165386208
 20
-41.3755717089
 11
-14.2156387397
 21
-43.8504454431
  0
LINE
  5
262
100
AcDbEntity
  8
DRAFT
100
AcDbLine
 62
7
  6
CONTINUOUS
 10
-3.2554836313
 20
-49.3305229973
 11
1.694263837
 21
-51.8053967314
  0
LINE
  5
263
100
AcDbEntity
  8
DRAFT
100
AcDbLine
 62
7
  6
CONTINUOUS
 10
12.6544189454
 20
-57.2854742856
 11
17.6041664137
 21
-59.7603480198
  0
LINE
  5
264
100
AcDbEntity
  8
DRAFT
100
AcDbLine
 62
7
  6
CONTINUOUS
 10
25.7358943973
 20
-63.6615382149
 11
24.5660825597
 21
-63.0766322961
  0
LINE
  5
265
100
AcDbEntity
  8
0
100
AcDbLine
 62
7
  6
CONTINUOUS
 10
9.8259918206
 20
-55.7065869266
 11
7.8814481724
 21
-54.7343151025
  0
LINE
  5
266
100
AcDbEntity
  8
DRAFT
100
AcDbLine
 62
7
  6
CONTINUOUS
 10
-6.083910756
 20
-47.7516356383
 11
-11.0336582244
 21
-45.2767619041
  0
LINE
  5
267
100
AcDbEntity
  8
DRAFT
100
AcDbLine
 62
7
  6
CONTINUOUS
 10
-25.7737489634
 20
-37.9067165346
 11
-26.9435608011
 21
-37.3218106158
  0
LINE
  5
268
100
AcDbEntity
  8
DRAFT
100
AcDbLine
 62
7
  6
CONTINUOUS
 10
28.0055527364
 20
-64.6271512575
 11
25.9281370495
 21
-63.5884434141
  0
LINE
  5
269
100
AcDbEntity
  8
DRAFT
100
AcDbLine
 62
7
  6
CONTINUOUS
 10
10.3916772456
 20
-55.8202135122
 11
10.0182344728
 21
-55.6334921257
  0
LINE
  5
26A
100
AcDbEntity
  8
0
100
AcDbLine
 62
7
  6
CONTINUOUS
 10
4.5226909617
 20
-52.8857203702
 11
2.536620677
 21
-51.8926852279
  0
LINE
  5
26B
100
AcDbEntity
  8
DRAFT
100
AcDbLine
 62
7
  6
CONTINUOUS
 10
-3.3907336902
 20
-48.9290080443
 11
-5.8916681039
 21
-47.6785408374
  0
LINE
  5
26C
100
AcDbEntity
  8
DRAFT
100
AcDbLine
 62
7
  6
CONTINUOUS
 10
-10.8723474859
 20
-45.1882011464
 11
-11.2457902587
 21
-45.00147976
  0
LINE
  5
26D
100
AcDbEntity
  8
DRAFT
100
AcDbLine
 62
7
  6
CONTINUOUS
 10
-26.7822500626
 20
-37.2332498581
 11
-32.2115063209
 21
-34.5186217289
  0
LINE
  5
26E
100
AcDbEntity
  8
DRAFT
100
AcDbLine
 62
7
  6
CONTINUOUS
 10
13.0947283873
 20
-56.6302474769
 11
10.9672367464
 21
-55.5665016564
  0
LINE
  5
26F
100
AcDbEntity
  8
DRAFT
100
AcDbLine
 62
7
  6
CONTINUOUS
 10
-10.6801048338
 20
-44.7428308663
 11
-12.8174705505
 21
-43.6741480079
  0
LINE
  5
270
100
AcDbEntity
  8
DRAFT
100
AcDbLine
 62
7
  6
CONTINUOUS
 10
-31.6556949718
 20
-34.2550357973
 11
-31.8744522884
 21
-34.145657139
  0
LINE
  5
271
100
AcDbEntity
  8
DRAFT
100
AcDbLine
 62
7
  6
CONTINUOUS
 10
-32.420383543
 20
-33.6047696101
 11
-31.8744522884
 21
-33.8777352375
  0
LINE
  5
272
100
AcDbEntity
  8
0
100
AcDbLine
 62
7
  6
CONTINUOUS
 10
-21.1882976667
 20
-39.0464731157
 11
-17.0717640712
 21
-41.1047399135
  0
LINE
  5
273
100
AcDbEntity
  8
0
100
AcDbLine
 62
7
  6
CONTINUOUS
 10
22.7937441231
 20
-61.0374940106
 11
26.9102777186
 21
-63.0957608084
  0
LWPOLYLINE
  5
274
100
AcDbEntity
  8
RACCORDO
100
AcDbPolyline
 62
7
  6
CONTINUOUS
 90
14
 70
0
 10
-38.9492507561
 20
-37.7380228099
 10
-38.9455073662
 20
-37.7889952337
 10
-38.9384348942
 20
-37.8399165031
 10
-38.9281663978
 20
-37.8906493412
 10
-38.9148241658
 20
-37.9409678222
 10
-38.8985072723
 20
-37.9907355363
 10
-38.8792953615
 20
-38.0397940719
 10
-38.85731823
 20
-38.0878261024
 10
-38.8326206831
 20
-38.1347342224
 10
-38.8052831168
 20
-38.1802729938
 10
-38.7755754271
 20
-38.2239482722
 10
-38.7435383604
 20
-38.2656478277
 10
-38.7092586659
 20
-38.3051521407
 10
-38.6731460843
 20
-38.3419408725
  0
LINE
  5
275
100
AcDbEntity
  8
RACCORDO
100
AcDbLine
 62
7
  6
CONTINUOUS
 10
-38.9498424214
 20
-37.7084402872
 11
-38.9492507561
 21
-37.7380228099
  0
LINE
  5
276
100
AcDbEntity
  8
RACCORDO
100
AcDbLine
 62
7
  6
CONTINUOUS
 10
-38.9498484945
 20
68.1288545567
 11
-38.9498484945
 21
-37.7085460638
  0
LINE
  5
277
100
AcDbEntity
  8
RACCORDO
100
AcDbLine
 62
7
  6
CONTINUOUS
 10
-38.8619805288
 20
68.0266916179
 11
-38.8619805288
 21
-37.8146120843
  0
LINE
  5
278
100
AcDbEntity
  8
RACCORDO
100
AcDbLine
 62
7
  6
CONTINUOUS
 10
-37.1499723769
 20
-36.4182905757
 11
-37.1499723769
 21
64.9144588833
  0
LINE
  5
279
100
AcDbEntity
  8
RACCORDO
100
AcDbLine
 62
7
  6
CONTINUOUS
 10
-36.7878403425
 20
-36.4421283691
 11
-36.7878403425
 21
64.89062109
  0
LINE
  5
27A
100
AcDbEntity
  8
DRAFT
100
AcDbLine
 62
7
  6
CONTINUOUS
 10
-32.420383543
 20
29.6752687124
 11
-33.3075218317
 21
29.1799475527
  0
LINE
  5
27B
100
AcDbEntity
  8
DRAFT
100
AcDbLine
 62
7
  6
CONTINUOUS
 10
-32.420383543
 20
23.3457249999
 11
-31.8744522884
 21
23.6505380213
  0
LINE
  5
27C
100
AcDbEntity
  8
DRAFT
100
AcDbLine
 62
7
  6
CONTINUOUS
 10
-32.420383543
 20
25.9438012113
 11
-31.8744522884
 21
26.2244277852
  0
LINE
  5
27D
100
AcDbEntity
  8
DRAFT
100
AcDbLine
 62
7
  6
CONTINUOUS
 10
-32.75788178
 20
30.0891239581
 11
-33.6610752223
 21
29.6411333523
  0
LINE
  5
27E
100
AcDbEntity
  8
DRAFT
100
AcDbLine
 62
7
  6
CONTINUOUS
 10
-33.9017741686
 20
28.8540412882
 11
-33.5835761171
 21
29.0118698675
  0
LINE
  5
27F
100
AcDbEntity
  8
RACCORDO
100
AcDbLine
 62
7
  6
CONTINUOUS
 10
-34.3506385999
 20
63.8934236148
 11
-34.3506385999
 21
-35.0842728401
  0
LINE
  5
280
100
AcDbEntity
  8
RACCORDO
100
AcDbLine
 62
7
  6
CONTINUOUS
 10
-34.2533094146
 20
63.8447590222
 11
-34.2533094146
 21
-35.0476014392
  0
LINE
  5
281
100
AcDbEntity
  8
RACCORDO
100
AcDbLine
 62
7
  6
CONTINUOUS
 10
-33.9017741686
 20
-34.8704784243
 11
-33.9017741686
 21
63.6689913992
  0
LINE
  5
282
100
AcDbEntity
  8
DRAFT
100
AcDbLine
 62
7
  6
CONTINUOUS
 10
-33.6610752223
 20
52.9845162774
 11
-33.6610752223
 21
46.961641428
  0
LINE
  5
283
100
AcDbEntity
  8
DRAFT
100
AcDbLine
 62
7
  6
CONTINUOUS
 10
-33.6610752223
 20
35.6640082017
 11
-33.6610752223
 21
29.6411333523
  0
LINE
  5
284
100
AcDbEntity
  8
DRAFT
100
AcDbLine
 62
7
  6
CONTINUOUS
 10
-33.6610752223
 20
18.343500126
 11
-33.6610752223
 21
12.3206252766
  0
LINE
  5
285
100
AcDbEntity
  8
DRAFT
100
AcDbLine
 62
7
  6
CONTINUOUS
 10
-33.6610752223
 20
1.0229920503
 11
-33.6610752223
 21
-4.9998827991
  0
LINE
  5
286
100
AcDbEntity
  8
DRAFT
100
AcDbLine
 62
7
  6
CONTINUOUS
 10
-33.6610752223
 20
-16.2975160254
 11
-33.6610752223
 21
-22.3203908748
  0
LINE
  5
287
100
AcDbEntity
  8
RACCORDO
100
AcDbLine
 62
7
  6
CONTINUOUS
 10
-33.5835761171
 20
-34.7193253297
 11
-33.5835761171
 21
-22.9496543596
  0
LINE
  5
288
100
AcDbEntity
  8
DRAFT
100
AcDbLine
 62
7
  6
CONTINUOUS
 10
-33.5835761171
 20
-15.6750409678
 11
-33.5835761171
 21
-5.6291462839
  0
LINE
  5
289
100
AcDbEntity
  8
DRAFT
100
AcDbLine
 62
7
  6
CONTINUOUS
 10
-33.5835761171
 20
1.6454671079
 11
-33.5835761171
 21
11.6913617918
  0
LINE
  5
28A
100
AcDbEntity
  8
DRAFT
100
AcDbLine
 62
7
  6
CONTINUOUS
 10
-33.5835761171
 20
18.9659751836
 11
-33.5835761171
 21
29.0118698675
  0
LINE
  5
28B
100
AcDbEntity
  8
DRAFT
100
AcDbLine
 62
7
  6
CONTINUOUS
 10
-33.5835761171
 20
36.2864832593
 11
-33.5835761171
 21
46.3323779432
  0
LINE
  5
28C
100
AcDbEntity
  8
RACCORDO
100
AcDbLine
 62
7
  6
CONTINUOUS
 10
-33.5835761171
 20
53.606991335
 11
-33.5835761171
 21
63.5098923734
  0
LINE
  5
28D
100
AcDbEntity
  8
DRAFT
100
AcDbLine
 62
7
  6
CONTINUOUS
 10
-33.3075218317
 20
-34.8505378335
 11
-33.3075218317
 21
-22.7815766744
  0
LINE
  5
28E
100
AcDbEntity
  8
DRAFT
100
AcDbLine
 62
7
  6
CONTINUOUS
 10
-33.3075218317
 20
-15.4827768352
 11
-33.3075218317
 21
-14.3493855454
  0
LINE
  5
28F
100
AcDbEntity
  8
DRAFT
100
AcDbLine
 62
7
  6
CONTINUOUS
 10
-33.3075218317
 20
-6.5944598885
 11
-33.3075218317
 21
-5.4610685987
  0
LINE
  5
290
100
AcDbEntity
  8
0
100
AcDbLine
 62
7
  6
CONTINUOUS
 10
-33.3075218317
 20
1.8377312405
 11
-33.3075218317
 21
8.1909247346
  0
LINE
  5
291
100
AcDbEntity
  8
DRAFT
100
AcDbLine
 62
7
  6
CONTINUOUS
 10
-33.3075218317
 20
19.1582393162
 11
-33.3075218317
 21
29.1799475527
  0
LINE
  5
292
100
AcDbEntity
  8
DRAFT
100
AcDbLine
 62
7
  6
CONTINUOUS
 10
-33.3075218317
 20
36.4787473919
 11
-33.3075218317
 21
37.6121386816
  0
LINE
  5
293
100
AcDbEntity
  8
DRAFT
100
AcDbLine
 62
7
  6
CONTINUOUS
 10
-33.3075218317
 20
45.3670643386
 11
-33.3075218317
 21
46.5004556283
  0
LINE
  5
294
100
AcDbEntity
  8
DRAFT
100
AcDbLine
 62
7
  6
CONTINUOUS
 10
-33.3075218317
 20
53.7992554676
 11
-33.3075218317
 21
63.3718652307
  0
LINE
  5
295
100
AcDbEntity
  8
0
100
AcDbLine
 62
7
  6
CONTINUOUS
 10
-33.2368111536
 20
12.5310633824
 11
-33.2368111536
 21
9.0748082111
  0
LINE
  5
296
100
AcDbEntity
  8
DRAFT
100
AcDbLine
 62
7
  6
CONTINUOUS
 10
-33.1661004755
 20
-13.5205088966
 11
-33.1661004755
 21
-6.5154992675
  0
LINE
  5
297
100
AcDbEntity
  8
DRAFT
100
AcDbLine
 62
7
  6
CONTINUOUS
 10
-33.1661004755
 20
38.4410153305
 11
-33.1661004755
 21
45.4460249596
  0
LINE
  5
298
100
AcDbEntity
  8
RACCORDO
100
AcDbLine
 62
7
  6
CONTINUOUS
 10
-33.1133517461
 20
53.8640362644
 11
-33.1133517461
 21
53.6495448434
  0
LINE
  5
299
100
AcDbEntity
  8
RACCORDO
100
AcDbLine
 62
7
  6
CONTINUOUS
 10
-33.1133517461
 20
36.5435281887
 11
-33.1133517461
 21
36.3290367677
  0
LINE
  5
29A
100
AcDbEntity
  8
RACCORDO
100
AcDbLine
 62
7
  6
CONTINUOUS
 10
-33.1133517461
 20
19.223020113
 11
-33.1133517461
 21
19.008528692
  0
LINE
  5
29B
100
AcDbEntity
  8
RACCORDO
100
AcDbLine
 62
7
  6
CONTINUOUS
 10
-33.1133517461
 20
1.9025120373
 11
-33.1133517461
 21
1.6880206163
  0
LINE
  5
29C
100
AcDbEntity
  8
RACCORDO
100
AcDbLine
 62
7
  6
CONTINUOUS
 10
-33.1133517461
 20
-15.4179960384
 11
-33.1133517461
 21
-15.6324874594
  0
LINE
  5
29D
100
AcDbEntity
  8
RACCORDO
100
AcDbLine
 62
7
  6
CONTINUOUS
 10
-33.0693565907
 20
53.9216802144
 11
-33.0693565907
 21
53.88777266
  0
LINE
  5
29E
100
AcDbEntity
  8
RACCORDO
100
AcDbLine
 62
7
  6
CONTINUOUS
 10
-33.0693565907
 20
36.6011721387
 11
-33.0693565907
 21
36.5672645843
  0
LINE
  5
29F
100
AcDbEntity
  8
RACCORDO
100
AcDbLine
 62
7
  6
CONTINUOUS
 10
-33.0693565907
 20
19.280664063
 11
-33.0693565907
 21
19.2467565087
  0
LINE
  5
2A0
100
AcDbEntity
  8
RACCORDO
100
AcDbLine
 62
7
  6
CONTINUOUS
 10
-33.0693565907
 20
12.6141220801
 11
-33.0693565907
 21
9.5013718607
  0
LINE
  5
2A1
100
AcDbEntity
  8
RACCORDO
100
AcDbLine
 62
7
  6
CONTINUOUS
 10
-33.0693565907
 20
1.9601559873
 11
-33.0693565907
 21
1.926248433
  0
LINE
  5
2A2
100
AcDbEntity
  8
RACCORDO
100
AcDbLine
 62
7
  6
CONTINUOUS
 10
-33.0693565907
 20
-15.3603520884
 11
-33.0693565907
 21
-15.3942596427
  0
LINE
  5
2A3
100
AcDbEntity
  8
RACCORDO
100
AcDbLine
 62
7
  6
CONTINUOUS
 10
-33.0693565907
 20
-13.5688808389
 11
-33.0693565907
 21
-11.7188198532
  0
LINE
  5
2A4
100
AcDbEntity
  8
RACCORDO
100
AcDbLine
 62
7
  6
CONTINUOUS
 10
-33.0693565907
 20
38.3926433881
 11
-33.0693565907
 21
40.2427043739
  0
LINE
  5
2A5
100
AcDbEntity
  8
RACCORDO
100
AcDbLine
 62
7
  6
CONTINUOUS
 10
-33.0291536862
 20
53.9150278466
 11
-33.0291536862
 21
53.6074458134
  0
LINE
  5
2A6
100
AcDbEntity
  8
RACCORDO
100
AcDbLine
 62
7
  6
CONTINUOUS
 10
-33.0291536862
 20
36.5945197709
 11
-33.0291536862
 21
36.2869377377
  0
LINE
  5
2A7
100
AcDbEntity
  8
RACCORDO
100
AcDbLine
 62
7
  6
CONTINUOUS
 10
-33.0291536862
 20
19.2740116952
 11
-33.0291536862
 21
18.966429662
  0
LINE
  5
2A8
100
AcDbEntity
  8
RACCORDO
100
AcDbLine
 62
7
  6
CONTINUOUS
 10
-33.0291536862
 20
1.9535036195
 11
-33.0291536862
 21
1.6459215863
  0
LINE
  5
2A9
100
AcDbEntity
  8
RACCORDO
100
AcDbLine
 62
7
  6
CONTINUOUS
 10
-33.0291536862
 20
-15.3670044562
 11
-33.0291536862
 21
-15.6745864893
  0
LINE
  5
2AA
100
AcDbEntity
  8
RACCORDO
100
AcDbLine
 62
7
  6
CONTINUOUS
 10
-32.9851585308
 20
47.2969010899
 11
-32.9851585308
 21
47.278164282
  0
LINE
  5
2AB
100
AcDbEntity
  8
RACCORDO
100
AcDbLine
 62
7
  6
CONTINUOUS
 10
-32.9851585308
 20
40.2219108804
 11
-32.9851585308
 21
38.3505443582
  0
LINE
  5
2AC
100
AcDbEntity
  8
RACCORDO
100
AcDbLine
 62
7
  6
CONTINUOUS
 10
-32.9851585308
 20
29.9763930142
 11
-32.9851585308
 21
29.9576562063
  0
LINE
  5
2AD
100
AcDbEntity
  8
RACCORDO
100
AcDbLine
 62
7
  6
CONTINUOUS
 10
-32.9851585308
 20
12.6558849385
 11
-32.9851585308
 21
9.4592728307
  0
LINE
  5
2AE
100
AcDbEntity
  8
RACCORDO
100
AcDbLine
 62
7
  6
CONTINUOUS
 10
-32.9851585308
 20
-4.6646231372
 11
-32.9851585308
 21
-4.6833599451
  0
LINE
  5
2AF
100
AcDbEntity
  8
RACCORDO
100
AcDbLine
 62
7
  6
CONTINUOUS
 10
-32.9851585308
 20
-11.7396133467
 11
-32.9851585308
 21
-13.6109798689
  0
LINE
  5
2B0
100
AcDbEntity
  8
RACCORDO
100
AcDbLine
 62
7
  6
CONTINUOUS
 10
-32.9851585308
 20
-21.9851312129
 11
-32.9851585308
 21
-22.0038680208
  0
LINE
  5
2B1
100
AcDbEntity
  8
DRAFT
100
AcDbLine
 62
7
  6
CONTINUOUS
 10
-32.75788178
 20
53.4718098603
 11
-32.75788178
 21
47.4096320338
  0
LINE
  5
2B2
100
AcDbEntity
  8
DRAFT
100
AcDbLine
 62
7
  6
CONTINUOUS
 10
-32.75788178
 20
36.1513017846
 11
-32.75788178
 21
30.0891239581
  0
LINE
  5
2B3
100
AcDbEntity
  8
DRAFT
100
AcDbLine
 62
7
  6
CONTINUOUS
 10
-32.75788178
 20
18.8307937089
 11
-32.75788178
 21
12.7686158824
  0
LINE
  5
2B4
100
AcDbEntity
  8
DRAFT
100
AcDbLine
 62
7
  6
CONTINUOUS
 10
-32.75788178
 20
1.5102856332
 11
-32.75788178
 21
-4.5518921933
  0
LINE
  5
2B5
100
AcDbEntity
  8
DRAFT
100
AcDbLine
 62
7
  6
CONTINUOUS
 10
-32.75788178
 20
-15.8102224425
 11
-32.75788178
 21
-21.872400269
  0
LINE
  5
2B6
100
AcDbEntity
  8
DRAFT
100
AcDbLine
 62
7
  6
CONTINUOUS
 10
-32.420383543
 20
-34.1583618114
 11
-32.420383543
 21
-22.2862555147
  0
LINE
  5
2B7
100
AcDbEntity
  8
DRAFT
100
AcDbLine
 62
7
  6
CONTINUOUS
 10
-32.420383543
 20
-15.0267586526
 11
-32.420383543
 21
-13.8933673628
  0
LINE
  5
2B8
100
AcDbEntity
  8
DRAFT
100
AcDbLine
 62
7
  6
CONTINUOUS
 10
-32.420383543
 20
-6.0991387288
 11
-32.420383543
 21
-4.965747439
  0
LINE
  5
2B9
100
AcDbEntity
  8
DRAFT
100
AcDbLine
 62
7
  6
CONTINUOUS
 10
-32.420383543
 20
2.2937494231
 11
-32.420383543
 21
6.0252169242
  0
LINE
  5
2BA
100
AcDbEntity
  8
0
100
AcDbLine
 62
7
  6
CONTINUOUS
 10
-32.420383543
 20
8.6232931356
 11
-32.420383543
 21
8.6665944058
  0
LINE
  5
2BB
100
AcDbEntity
  8
DRAFT
100
AcDbLine
 62
7
  6
CONTINUOUS
 10
-32.420383543
 20
19.6142574988
 11
-32.420383543
 21
23.3457249999
  0
LINE
  5
2BC
100
AcDbEntity
  8
DRAFT
100
AcDbLine
 62
7
  6
CONTINUOUS
 10
-32.420383543
 20
25.9438012113
 11
-32.420383543
 21
29.6752687124
  0
LINE
  5
2BD
100
AcDbEntity
  8
DRAFT
100
AcDbLine
 62
7
  6
CONTINUOUS
 10
-32.420383543
 20
36.9347655745
 11
-32.420383543
 21
38.0681568642
  0
LINE
  5
2BE
100
AcDbEntity
  8
DRAFT
100
AcDbLine
 62
7
  6
CONTINUOUS
 10
-32.420383543
 20
45.8623854983
 11
-32.420383543
 21
46.9957767881
  0
LINE
  5
2BF
100
AcDbEntity
  8
DRAFT
100
AcDbLine
 62
7
  6
CONTINUOUS
 10
-32.420383543
 20
54.2552736502
 11
-32.420383543
 21
62.9282960864
  0
LINE
  5
2C0
100
AcDbEntity
  8
DRAFT
100
AcDbLine
 62
7
  6
CONTINUOUS
 10
-31.8744522884
 20
-34.145657139
 11
-31.8744522884
 21
-33.8777352375
  0
LINE
  5
2C1
100
AcDbEntity
  8
DRAFT
100
AcDbLine
 62
7
  6
CONTINUOUS
 10
-31.8744522884
 20
6.3300299456
 11
-31.8744522884
 21
8.9039197095
  0
LINE
  5
2C2
100
AcDbEntity
  8
DRAFT
100
AcDbLine
 62
7
  6
CONTINUOUS
 10
-31.8744522884
 20
23.6505380213
 11
-31.8744522884
 21
26.2244277852
  0
LINE
  5
2C3
100
AcDbEntity
  8
DRAFT
100
AcDbLine
 62
7
  6
CONTINUOUS
 10
-31.6556949718
 20
-34.2550357973
 11
-31.6556949718
 21
-34.7965274035
  0
LINE
  5
2C4
100
AcDbEntity
  8
0
100
AcDbLine
 62
7
  6
CONTINUOUS
 10
-30.5718431118
 20
-10.1533284334
 11
-30.5718431118
 21
-5.1116250243
  0
LINE
  5
2C5
100
AcDbEntity
  8
0
100
AcDbLine
 62
7
  6
CONTINUOUS
 10
-30.5718431118
 20
41.8081957937
 11
-30.5718431118
 21
46.8498992027
  0
LINE
  5
2C6
100
AcDbEntity
  8
RACCORDO
100
AcDbLine
 62
7
  6
CONTINUOUS
 10
-33.3196881457
 20
19.1116968917
 11
-33.0693565907
 21
19.2467565087
  0
LINE
  5
2C7
100
AcDbEntity
  8
DRAFT
100
AcDbLine
 62
7
  6
CONTINUOUS
 10
-33.9017741686
 20
18.7943000348
 11
-33.5835761171
 21
18.9659751836
  0
LINE
  5
2C8
100
AcDbEntity
  8
DRAFT
100
AcDbLine
 62
7
  6
CONTINUOUS
 10
-32.75788178
 20
18.8307937089
 11
-33.6610752223
 21
18.343500126
  0
LINE
  5
2C9
100
AcDbEntity
  8
DRAFT
100
AcDbLine
 62
7
  6
CONTINUOUS
 10
-32.420383543
 20
19.6142574988
 11
-33.3075218317
 21
19.1582393162
  0
LINE
  5
2CA
100
AcDbEntity
  8
DRAFT
100
AcDbLine
 62
7
  6
CONTINUOUS
 10
-33.9017741686
 20
-22.7905553338
 11
-33.5835761171
 21
-22.9496543596
  0
LINE
  5
2CB
100
AcDbEntity
  8
RACCORDO
100
AcDbLine
 62
7
  6
CONTINUOUS
 10
-33.3075218317
 20
-22.7815766744
 11
-33.9017741686
 21
-22.484450506
  0
LINE
  5
2CC
100
AcDbEntity
  8
SMUSSO
100
AcDbLine
 62
7
  6
CONTINUOUS
 10
-33.6610752223
 20
-22.3203908748
 11
-33.9017741686
 21
-22.2000414016
  0
LINE
  5
2CD
100
AcDbEntity
  8
DRAFT
100
AcDbLine
 62
7
  6
CONTINUOUS
 10
-32.420383543
 20
-22.2862555147
 11
-33.0039704477
 21
-21.9944620623
  0
LINE
  5
2CE
100
AcDbEntity
  8
SMUSSO
100
AcDbLine
 62
7
  6
CONTINUOUS
 10
-33.6610752223
 20
-16.2975160254
 11
-33.9017741686
 21
-16.1771665523
  0
LINE
  5
2CF
100
AcDbEntity
  8
SMUSSO
100
AcDbLine
 62
7
  6
CONTINUOUS
 10
-33.5835761171
 20
-15.3973752739
 11
-32.75788178
 21
-15.8102224425
  0
LINE
  5
2D0
100
AcDbEntity
  8
RACCORDO
100
AcDbLine
 62
7
  6
CONTINUOUS
 10
-33.5835761171
 20
-15.3447496925
 11
-33.3075218317
 21
-15.4827768352
  0
LINE
  5
2D1
100
AcDbEntity
  8
DRAFT
100
AcDbLine
 62
7
  6
CONTINUOUS
 10
-26.7822500626
 20
-37.402465985
 11
-26.7822500626
 21
-37.2332498581
  0
LINE
  5
2D2
100
AcDbEntity
  8
DRAFT
100
AcDbLine
 62
7
  6
CONTINUOUS
 10
-26.5032513591
 20
-38.5192557598
 11
-26.5032513591
 21
-38.2526730698
  0
LINE
  5
2D3
100
AcDbEntity
  8
DRAFT
100
AcDbLine
 62
7
  6
CONTINUOUS
 10
-25.7737489634
 20
-38.8238109592
 11
-25.7737489634
 21
-37.9067165346
  0
LINE
  5
2D4
100
AcDbEntity
  8
0
100
AcDbLine
 62
7
  6
CONTINUOUS
 10
-32.420383543
 20
8.6665944058
 11
-33.3075218317
 21
8.1909247346
  0
LINE
  5
2D5
100
AcDbEntity
  8
0
100
AcDbLine
 62
7
  6
CONTINUOUS
 10
-33.9017741686
 20
12.4162773543
 11
-33.8775937032
 21
12.428884517
  0
LINE
  5
2D6
100
AcDbEntity
  8
DRAFT
100
AcDbLine
 62
7
  6
CONTINUOUS
 10
-32.420383543
 20
8.6232931356
 11
-31.8744522884
 21
8.9039197095
  0
LINE
  5
2D7
100
AcDbEntity
  8
0
100
AcDbLine
 62
7
  6
CONTINUOUS
 10
-33.2368111536
 20
9.0748082111
 11
-33.5835761171
 21
8.9014257294
  0
LINE
  5
2D8
100
AcDbEntity
  8
DRAFT
100
AcDbLine
 62
7
  6
CONTINUOUS
 10
-32.75788178
 20
12.7686158824
 11
-33.6610752223
 21
12.3206252766
  0
LINE
  5
2D9
100
AcDbEntity
  8
DRAFT
100
AcDbLine
 62
7
  6
CONTINUOUS
 10
-33.9017741686
 20
11.5335332125
 11
-33.5835761171
 21
11.6913617918
  0
LINE
  5
2DA
100
AcDbEntity
  8
DRAFT
100
AcDbLine
 62
7
  6
CONTINUOUS
 10
-33.3075218317
 20
-14.3493855454
 11
-33.5835761171
 21
-14.2113584028
  0
LINE
  5
2DB
100
AcDbEntity
  8
DRAFT
100
AcDbLine
 62
7
  6
CONTINUOUS
 10
-32.420383543
 20
-13.8933673628
 11
-33.1661004755
 21
-13.5205088966
  0
LINE
  5
2DC
100
AcDbEntity
  8
SMUSSO
100
AcDbLine
 62
7
  6
CONTINUOUS
 10
52.5772970809
 20
-95.1242754612
 11
47.1965852064
 21
-88.8365980379
  0
LINE
  5
2DD
100
AcDbEntity
  8
SMUSSO
100
AcDbLine
 62
7
  6
CONTINUOUS
 10
-56.7514617968
 20
93.4399407089
 11
-54.0611058596
 21
85.807085317
  0
LINE
  5
2DE
100
AcDbEntity
  8
DRAFT
100
AcDbLine
 62
7
  6
CONTINUOUS
 10
-20.5442444313
 20
-41.8090113441
 11
-20.5442444313
 21
-41.4987592237
  0
LINE
  5
2DF
100
AcDbEntity
  8
SMUSSO
100
AcDbLine
 62
7
  6
CONTINUOUS
 10
-20.0685796503
 20
-41.8235623148
 11
-20.0685796503
 21
-42.0468437346
  0
LINE
  5
2E0
100
AcDbEntity
  8
0
100
AcDbLine
 62
7
  6
CONTINUOUS
 10
-16.9300184429
 20
-41.348580694
 11
-16.9300184429
 21
-42.0516026458
  0
LINE
  5
2E1
100
AcDbEntity
  8
SMUSSO
100
AcDbLine
 62
7
  6
CONTINUOUS
 10
-15.1509229284
 20
-44.2823906757
 11
-15.1509229284
 21
-44.5056720956
  0
LINE
  5
2E2
100
AcDbEntity
  8
RACCORDO
100
AcDbLine
 62
7
  6
CONTINUOUS
 10
-14.276475342
 20
-44.3660610784
 11
-14.276475342
 21
-44.6326437684
  0
LINE
  5
2E3
100
AcDbEntity
  8
SMUSSO
100
AcDbLine
 62
7
  6
CONTINUOUS
 10
-14.2156387397
 20
-44.3372101517
 11
-14.2156387397
 21
-43.8504454431
  0
LINE
  5
2E4
100
AcDbEntity
  8
DRAFT
100
AcDbLine
 62
7
  6
CONTINUOUS
 10
-32.420383543
 20
6.0252169242
 11
-31.8744522884
 21
6.3300299456
  0
LINE
  5
2E5
100
AcDbEntity
  8
RACCORDO
100
AcDbLine
 62
7
  6
CONTINUOUS
 10
-33.3196881457
 20
1.7911888161
 11
-33.0693565907
 21
1.926248433
  0
LINE
  5
2E6
100
AcDbEntity
  8
DRAFT
100
AcDbLine
 62
7
  6
CONTINUOUS
 10
-33.9017741686
 20
1.4737919591
 11
-33.5835761171
 21
1.6454671079
  0
LINE
  5
2E7
100
AcDbEntity
  8
DRAFT
100
AcDbLine
 62
7
  6
CONTINUOUS
 10
-32.75788178
 20
1.5102856332
 11
-33.6610752223
 21
1.0229920503
  0
LINE
  5
2E8
100
AcDbEntity
  8
DRAFT
100
AcDbLine
 62
7
  6
CONTINUOUS
 10
-32.420383543
 20
2.2937494231
 11
-33.3075218317
 21
1.8377312405
  0
LINE
  5
2E9
100
AcDbEntity
  8
RACCORDO
100
AcDbLine
 62
7
  6
CONTINUOUS
 10
29.7306707383
 20
34.5406283844
 11
30.6341375965
 21
34.9958452528
  0
LINE
  5
2EA
100
AcDbEntity
  8
RACCORDO
100
AcDbLine
 62
7
  6
CONTINUOUS
 10
30.2259583994
 20
33.6872488996
 11
31.1290369563
 21
34.1422701202
  0
LINE
  5
2EB
100
AcDbEntity
  8
DRAFT
100
AcDbLine
 62
7
  6
CONTINUOUS
 10
-33.5835761171
 20
-6.4564327458
 11
-33.3075218317
 21
-6.5944598885
  0
LINE
  5
2EC
100
AcDbEntity
  8
DRAFT
100
AcDbLine
 62
7
  6
CONTINUOUS
 10
-33.9017741686
 20
-5.4700472581
 11
-33.5835761171
 21
-5.6291462839
  0
LINE
  5
2ED
100
AcDbEntity
  8
RACCORDO
100
AcDbLine
 62
7
  6
CONTINUOUS
 10
-33.3075218317
 20
-5.4610685987
 11
-33.9017741686
 21
-5.1639424303
  0
LINE
  5
2EE
100
AcDbEntity
  8
SMUSSO
100
AcDbLine
 62
7
  6
CONTINUOUS
 10
-33.6610752223
 20
-4.9998827991
 11
-33.9017741686
 21
-4.879533326
  0
LINE
  5
2EF
100
AcDbEntity
  8
DRAFT
100
AcDbLine
 62
7
  6
CONTINUOUS
 10
-32.420383543
 20
-4.965747439
 11
-33.0039704477
 21
-4.6739539866
  0
LINE
  5
2F0
100
AcDbEntity
  8
0
100
AcDbLine
 62
7
  6
CONTINUOUS
 10
-31.2870858848
 20
-4.5804014065
 11
-30.7130708648
 21
-4.8674089165
  0
LINE
  5
2F1
100
AcDbEntity
  8
SMUSSO
100
AcDbLine
 62
7
  6
CONTINUOUS
 10
-33.6610752223
 20
1.0229920503
 11
-33.9017741686
 21
1.1433415234
  0
LINE
  5
2F2
100
AcDbEntity
  8
DRAFT
100
AcDbLine
 62
7
  6
CONTINUOUS
 10
-10.8723474859
 20
-45.3574172733
 11
-10.8723474859
 21
-45.1882011464
  0
LINE
  5
2F3
100
AcDbEntity
  8
DRAFT
100
AcDbLine
 62
7
  6
CONTINUOUS
 10
-10.6801048338
 20
-44.7428308663
 11
-10.6801048338
 21
-45.4535385994
  0
LINE
  5
2F4
100
AcDbEntity
  8
0
100
AcDbLine
 62
7
  6
CONTINUOUS
 10
-30.5718431118
 20
-10.1533284334
 11
-33.0693565907
 21
-11.7188198532
  0
LINE
  5
2F5
100
AcDbEntity
  8
RACCORDO
100
AcDbLine
 62
7
  6
CONTINUOUS
 10
-30.6175720076
 20
-10.2583897179
 11
-32.9867002235
 21
-11.7434066861
  0
LINE
  5
2F6
100
AcDbEntity
  8
DRAFT
100
AcDbLine
 62
7
  6
CONTINUOUS
 10
-33.3075218317
 20
-5.4610685987
 11
-32.420383543
 21
-4.965747439
  0
LINE
  5
2F7
100
AcDbEntity
  8
DRAFT
100
AcDbLine
 62
7
  6
CONTINUOUS
 10
-32.420383543
 20
-6.0991387288
 11
-33.3075218317
 21
-6.5944598885
  0
LINE
  5
2F8
100
AcDbEntity
  8
RACCORDO
100
AcDbLine
 62
7
  6
CONTINUOUS
 10
53.5067834527
 20
40.3077238641
 11
55.540606768
 21
41.332477204
  0
LINE
  5
2F9
100
AcDbEntity
  8
RACCORDO
100
AcDbLine
 62
7
  6
CONTINUOUS
 10
54.5672820808
 20
38.4786342941
 11
56.6011053961
 21
39.5033876341
  0
LINE
  5
2FA
100
AcDbEntity
  8
SMUSSO
100
AcDbLine
 62
7
  6
CONTINUOUS
 10
52.1463326747
 20
39.3137320349
 11
53.2069928464
 21
39.8440621208
  0
LINE
  5
2FB
100
AcDbEntity
  8
SMUSSO
100
AcDbLine
 62
7
  6
CONTINUOUS
 10
52.8534394559
 20
38.0941532406
 11
53.9140996276
 21
38.6244833264
  0
LINE
  5
2FC
100
AcDbEntity
  8
DRAFT
100
AcDbLine
 62
7
  6
CONTINUOUS
 10
-32.75788178
 20
-4.5518921933
 11
-33.6610752223
 21
-4.9998827991
  0
LINE
  5
2FD
100
AcDbEntity
  8
DRAFT
100
AcDbLine
 62
7
  6
CONTINUOUS
 10
-33.9017741686
 20
-5.7869748632
 11
-33.5835761171
 21
-5.6291462839
  0
LINE
  5
2FE
100
AcDbEntity
  8
0
100
AcDbLine
 62
7
  6
CONTINUOUS
 10
-32.420383543
 20
-5.5652052026
 11
-30.7130708648
 21
-4.8674089165
  0
LINE
  5
2FF
100
AcDbEntity
  8
0
100
AcDbLine
 62
7
  6
CONTINUOUS
 10
-32.420383543
 20
-5.8671425486
 11
-30.5718431118
 21
-5.1116250243
  0
LINE
  5
300
100
AcDbEntity
  8
RACCORDO
100
AcDbLine
 62
7
  6
CONTINUOUS
 10
-31.3690761129
 20
-4.5716323985
 11
-32.4194627991
 21
-4.9681862932
  0
LINE
  5
301
100
AcDbEntity
  8
0
100
AcDbLine
 62
7
  6
CONTINUOUS
 10
-31.2870858848
 20
-4.5804014065
 11
-32.420383543
 21
-5.0082567917
  0
LINE
  5
302
100
AcDbEntity
  8
SMUSSO
100
AcDbLine
 62
7
  6
CONTINUOUS
 10
-33.5835761171
 20
1.9231328018
 11
-32.75788178
 21
1.5102856332
  0
LINE
  5
303
100
AcDbEntity
  8
RACCORDO
100
AcDbLine
 62
7
  6
CONTINUOUS
 10
-33.5835761171
 20
1.9757583832
 11
-33.3075218317
 21
1.8377312405
  0
LINE
  5
304
100
AcDbEntity
  8
0
100
AcDbLine
 62
7
  6
CONTINUOUS
 10
-33.5835761171
 20
8.3289518773
 11
-33.3075218317
 21
8.1909247346
  0
LINE
  5
305
100
AcDbEntity
  8
0
100
AcDbLine
 62
7
  6
CONTINUOUS
 10
-33.2368111536
 20
9.0748082111
 11
-32.420383543
 21
8.6665944058
  0
LINE
  5
306
100
AcDbEntity
  8
DRAFT
100
AcDbLine
 62
7
  6
CONTINUOUS
 10
-4.6343418546
 20
-49.7639626325
 11
-4.6343418546
 21
-49.4537105121
  0
LINE
  5
307
100
AcDbEntity
  8
RACCORDO
100
AcDbLine
 62
7
  6
CONTINUOUS
 10
-4.3260178789
 20
-49.9181246203
 11
-4.3260178789
 21
-49.3412898099
  0
LINE
  5
308
100
AcDbEntity
  8
SMUSSO
100
AcDbLine
 62
7
  6
CONTINUOUS
 10
-4.1586770736
 20
-49.7785136031
 11
-4.1586770736
 21
-50.001795023
  0
LINE
  5
309
100
AcDbEntity
  8
DRAFT
100
AcDbLine
 62
7
  6
CONTINUOUS
 10
-3.3907336902
 20
-49.3976080236
 11
-3.3907336902
 21
-48.9290080443
  0
LINE
  5
30A
100
AcDbEntity
  8
SMUSSO
100
AcDbLine
 62
7
  6
CONTINUOUS
 10
0.7589796483
 20
-52.2373419641
 11
0.7589796483
 21
-52.4606233839
  0
LINE
  5
30B
100
AcDbEntity
  8
SMUSSO
100
AcDbLine
 62
7
  6
CONTINUOUS
 10
-56.7514617968
 20
-40.4598960223
 11
-54.0611058596
 21
-38.207752505
  0
LINE
  5
30C
100
AcDbEntity
  8
SMUSSO
100
AcDbLine
 62
7
  6
CONTINUOUS
 10
52.5772970809
 20
38.77556127
 11
47.1965852064
 21
35.178239784
  0
LINE
  5
30D
100
AcDbEntity
  8
RACCORDO
100
AcDbLine
 62
7
  6
CONTINUOUS
 10
-33.3196881457
 20
-15.5293192596
 11
-33.0693565907
 21
-15.3942596427
  0
LINE
  5
30E
100
AcDbEntity
  8
DRAFT
100
AcDbLine
 62
7
  6
CONTINUOUS
 10
-33.9017741686
 20
-15.8467161166
 11
-33.5835761171
 21
-15.6750409678
  0
LINE
  5
30F
100
AcDbEntity
  8
DRAFT
100
AcDbLine
 62
7
  6
CONTINUOUS
 10
-32.75788178
 20
-15.8102224425
 11
-33.6610752223
 21
-16.2975160254
  0
LINE
  5
310
100
AcDbEntity
  8
DRAFT
100
AcDbLine
 62
7
  6
CONTINUOUS
 10
-32.420383543
 20
-13.8933673628
 11
-33.3075218317
 21
-14.3493855454
  0
LINE
  5
311
100
AcDbEntity
  8
DRAFT
100
AcDbLine
 62
7
  6
CONTINUOUS
 10
-33.3075218317
 20
-15.4827768352
 11
-32.420383543
 21
-15.0267586526
  0
LINE
  5
312
100
AcDbEntity
  8
DRAFT
100
AcDbLine
 62
7
  6
CONTINUOUS
 10
-33.1661004755
 20
-13.5205088966
 11
-33.5835761171
 21
-13.7275798925
  0
LINE
  5
313
100
AcDbEntity
  8
DRAFT
100
AcDbLine
 62
7
  6
CONTINUOUS
 10
-33.2368111536
 20
9.5850991421
 11
-31.8744522884
 21
8.9039197095
  0
LINE
  5
314
100
AcDbEntity
  8
DRAFT
100
AcDbLine
 62
7
  6
CONTINUOUS
 10
-33.9017741686
 20
11.8504608176
 11
-33.5835761171
 21
11.6913617918
  0
LINE
  5
315
100
AcDbEntity
  8
SMUSSO
100
AcDbLine
 62
7
  6
CONTINUOUS
 10
-33.6610752223
 20
12.3206252766
 11
-33.9017741686
 21
12.4409747497
  0
LINE
  5
316
100
AcDbEntity
  8
RACCORDO
100
AcDbLine
 62
7
  6
CONTINUOUS
 10
1.6334272347
 20
-52.3210123667
 11
1.6334272347
 21
-52.5875950567
  0
LINE
  5
317
100
AcDbEntity
  8
SMUSSO
100
AcDbLine
 62
7
  6
CONTINUOUS
 10
1.694263837
 20
-52.29216144
 11
1.694263837
 21
-51.8053967314
  0
LINE
  5
318
100
AcDbEntity
  8
0
100
AcDbLine
 62
7
  6
CONTINUOUS
 10
3.6034521462
 20
-53.3060248225
 11
3.6034521462
 21
-53.5726075125
  0
LINE
  5
319
100
AcDbEntity
  8
0
100
AcDbLine
 62
7
  6
CONTINUOUS
 10
4.5226909617
 20
-52.8857203702
 11
4.5226909617
 21
-53.8856358992
  0
LINE
  5
31A
100
AcDbEntity
  8
0
100
AcDbLine
 62
7
  6
CONTINUOUS
 10
5.0375550908
 20
-54.2896589848
 11
5.0375550908
 21
-54.1430679638
  0
LINE
  5
31B
100
AcDbEntity
  8
RACCORDO
100
AcDbLine
 62
7
  6
CONTINUOUS
 10
5.9086330786
 20
-54.7251979787
 11
5.9086330786
 21
-54.5925526793
  0
LINE
  5
31C
100
AcDbEntity
  8
0
100
AcDbLine
 62
7
  6
CONTINUOUS
 10
7.1389860521
 20
-55.3403744655
 11
7.1389860521
 21
-55.0737917754
  0
LINE
  5
31D
100
AcDbEntity
  8
DRAFT
100
AcDbLine
 62
7
  6
CONTINUOUS
 10
-32.420383543
 20
-22.2862555147
 11
-33.3075218317
 21
-22.7815766744
  0
LINE
  5
31E
100
AcDbEntity
  8
DRAFT
100
AcDbLine
 62
7
  6
CONTINUOUS
 10
-32.75788178
 20
-21.872400269
 11
-33.6610752223
 21
-22.3203908748
  0
LINE
  5
31F
100
AcDbEntity
  8
DRAFT
100
AcDbLine
 62
7
  6
CONTINUOUS
 10
-33.9017741686
 20
-23.1074829389
 11
-33.5835761171
 21
-22.9496543596
  0
LINE
  5
320
100
AcDbEntity
  8
SMUSSO
100
AcDbLine
 62
7
  6
CONTINUOUS
 10
-33.6610752223
 20
18.343500126
 11
-33.9017741686
 21
18.4638495991
  0
LINE
  5
321
100
AcDbEntity
  8
SMUSSO
100
AcDbLine
 62
7
  6
CONTINUOUS
 10
-33.5835761171
 20
19.2436408775
 11
-32.75788178
 21
18.8307937089
  0
LINE
  5
322
100
AcDbEntity
  8
RACCORDO
100
AcDbLine
 62
7
  6
CONTINUOUS
 10
-33.5835761171
 20
19.2962664589
 11
-33.3075218317
 21
19.1582393162
  0
LINE
  5
323
100
AcDbEntity
  8
DRAFT
100
AcDbLine
 62
7
  6
CONTINUOUS
 10
11.2755607221
 20
-57.7189139208
 11
11.2755607221
 21
-57.4086618004
  0
LINE
  5
324
100
AcDbEntity
  8
RACCORDO
100
AcDbLine
 62
7
  6
CONTINUOUS
 10
11.5838846978
 20
-57.8730759087
 11
11.5838846978
 21
-57.2962410982
  0
LINE
  5
325
100
AcDbEntity
  8
SMUSSO
100
AcDbLine
 62
7
  6
CONTINUOUS
 10
11.7512255031
 20
-57.7334648915
 11
11.7512255031
 21
-57.9567463113
  0
LINE
  5
326
100
AcDbEntity
  8
DRAFT
100
AcDbLine
 62
7
  6
CONTINUOUS
 10
13.0947283873
 20
-56.6302474769
 11
13.0947283873
 21
-57.5056290066
  0
LINE
  5
327
100
AcDbEntity
  8
RACCORDO
100
AcDbLine
 62
7
  6
CONTINUOUS
 10
-36.7878403425
 20
-36.4421283691
 11
-34.3490436878
 21
-35.1069103348
  0
LINE
  5
328
100
AcDbEntity
  8
RACCORDO
100
AcDbLine
 62
7
  6
CONTINUOUS
 10
-36.5829365319
 20
-36.7955351655
 11
-34.1441593345
 21
-35.4602966959
  0
LINE
  5
329
100
AcDbEntity
  8
DRAFT
100
AcDbLine
 62
7
  6
CONTINUOUS
 10
-32.420383543
 20
-34.1583618114
 11
-31.8744522884
 21
-33.8777352375
  0
LINE
  5
32A
100
AcDbEntity
  8
DRAFT
100
AcDbLine
 62
7
  6
CONTINUOUS
 10
-32.420383543
 20
26.4973934125
 11
-31.8744522884
 21
26.2244277852
  0
LINE
  5
32B
100
AcDbEntity
  8
DRAFT
100
AcDbLine
 62
7
  6
CONTINUOUS
 10
-33.9017741686
 20
29.1709688933
 11
-33.5835761171
 21
29.0118698675
  0
LINE
  5
32C
100
AcDbEntity
  8
RACCORDO
100
AcDbLine
 62
7
  6
CONTINUOUS
 10
-33.3075218317
 20
29.1799475527
 11
-33.9017741686
 21
29.4770737211
  0
LINE
  5
32D
100
AcDbEntity
  8
SMUSSO
100
AcDbLine
 62
7
  6
CONTINUOUS
 10
-33.6610752223
 20
29.6411333523
 11
-33.9017741686
 21
29.7614828254
  0
LINE
  5
32E
100
AcDbEntity
  8
DRAFT
100
AcDbLine
 62
7
  6
CONTINUOUS
 10
-32.420383543
 20
29.6752687124
 11
-33.0039704477
 21
29.9670621647
  0
LINE
  5
32F
100
AcDbEntity
  8
SMUSSO
100
AcDbLine
 62
7
  6
CONTINUOUS
 10
16.6688822249
 20
-60.1922932524
 11
16.6688822249
 21
-60.4155746723
  0
LINE
  5
330
100
AcDbEntity
  8
SMUSSO
100
AcDbLine
 62
7
  6
CONTINUOUS
 10
17.6041664137
 20
-60.5729646462
 11
17.6041664137
 21
-59.7603480198
  0
LINE
  5
331
100
AcDbEntity
  8
DRAFT
100
AcDbLine
 62
7
  6
CONTINUOUS
 10
20.9474576675
 20
-62.1844142746
 11
20.9474576675
 21
-62.0114167117
  0
LINE
  5
332
100
AcDbEntity
  8
DRAFT
100
AcDbLine
 62
7
  6
CONTINUOUS
 10
21.8185356553
 20
-62.6199532685
 11
21.8185356553
 21
-62.5475039677
  0
LINE
  5
333
100
AcDbEntity
  8
DRAFT
100
AcDbLine
 62
7
  6
CONTINUOUS
 10
-26.9435608011
 20
-37.3218106158
 11
-26.7822500626
 21
-37.2332498581
  0
LINE
  5
334
100
AcDbEntity
  8
RACCORDO
100
AcDbLine
 62
7
  6
CONTINUOUS
 10
-34.2533094146
 20
-35.0476014392
 11
-33.9017741686
 21
-34.8704784243
  0
LINE
  5
335
100
AcDbEntity
  8
RACCORDO
100
AcDbLine
 62
7
  6
CONTINUOUS
 10
-34.041209689
 20
-35.4134193532
 11
-33.689674443
 21
-35.2362963383
  0
LINE
  5
336
100
AcDbEntity
  8
RACCORDO
100
AcDbLine
 62
7
  6
CONTINUOUS
 10
-33.5835761171
 20
-34.7193253297
 11
-33.899116843
 21
-34.8758358559
  0
LINE
  5
337
100
AcDbEntity
  8
RACCORDO
100
AcDbLine
 62
7
  6
CONTINUOUS
 10
-33.3714763915
 20
-35.0851432437
 11
-33.6829721987
 21
-35.2396474604
  0
LINE
  5
338
100
AcDbEntity
  8
DRAFT
100
AcDbLine
 62
7
  6
CONTINUOUS
 10
-33.3075218317
 20
-34.8505378335
 11
-31.8744522884
 21
-34.145657139
  0
LINE
  5
339
100
AcDbEntity
  8
DRAFT
100
AcDbLine
 62
7
  6
CONTINUOUS
 10
-32.2115063209
 20
-34.5186217289
 11
-31.6556949718
 21
-34.2550357973
  0
LINE
  5
33A
100
AcDbEntity
  8
SMUSSO
100
AcDbLine
 62
7
  6
CONTINUOUS
 10
-33.6610752223
 20
35.6640082017
 11
-33.9017741686
 21
35.7843576748
  0
LINE
  5
33B
100
AcDbEntity
  8
SMUSSO
100
AcDbLine
 62
7
  6
CONTINUOUS
 10
-33.5835761171
 20
36.5641489531
 11
-32.75788178
 21
36.1513017846
  0
LINE
  5
33C
100
AcDbEntity
  8
RACCORDO
100
AcDbLine
 62
7
  6
CONTINUOUS
 10
-33.5835761171
 20
36.6167745346
 11
-33.3075218317
 21
36.4787473919
  0
LINE
  5
33D
100
AcDbEntity
  8
DRAFT
100
AcDbLine
 62
7
  6
CONTINUOUS
 10
-33.3075218317
 20
37.6121386816
 11
-33.5835761171
 21
37.7501658243
  0
LINE
  5
33E
100
AcDbEntity
  8
DRAFT
100
AcDbLine
 62
7
  6
CONTINUOUS
 10
-32.420383543
 20
38.0681568642
 11
-33.1661004755
 21
38.4410153305
  0
LINE
  5
33F
100
AcDbEntity
  8
DRAFT
100
AcDbLine
 62
7
  6
CONTINUOUS
 10
23.8106607149
 20
-63.4096291068
 11
23.8106607149
 21
-63.6762117969
  0
LINE
  5
340
100
AcDbEntity
  8
0
100
AcDbLine
 62
7
  6
CONTINUOUS
 10
27.052023347
 20
-63.3396015889
 11
27.052023347
 21
-64.0426235407
  0
LINE
  5
341
100
AcDbEntity
  8
RACCORDO
100
AcDbLine
 62
7
  6
CONTINUOUS
 10
28.0055527364
 20
32.3988283876
 11
28.0055527364
 21
-68.9339211762
  0
LINE
  5
342
100
AcDbEntity
  8
RACCORDO
100
AcDbLine
 62
7
  6
CONTINUOUS
 10
28.093420702
 20
32.2927623439
 11
28.093420702
 21
-69.0399871152
  0
LINE
  5
343
100
AcDbEntity
  8
RACCORDO
100
AcDbLine
 62
7
  6
CONTINUOUS
 10
29.805428854
 20
-72.1483167749
 11
29.8054288539
 21
33.6890838525
  0
LINE
  5
344
100
AcDbEntity
  8
RACCORDO
100
AcDbLine
 62
7
  6
CONTINUOUS
 10
30.2255700978
 20
-72.1503310591
 11
30.2259583994
 21
33.6872488996
  0
LWPOLYLINE
  5
345
100
AcDbEntity
  8
RACCORDO
100
AcDbPolyline
 62
7
  6
CONTINUOUS
 90
8
 70
0
 10
28.0055528568
 20
-68.933918263
 10
28.0052251386
 20
-68.9488211527
 10
28.004246285
 20
-68.9628855776
 10
28.0027512674
 20
-68.9751478519
 10
28.0009033427
 20
-68.9854832815
 10
27.9988985655
 20
-68.9937875726
 10
27.9970388844
 20
-68.9997798902
 10
27.9956362383
 20
-69.0034207471
  0
LINE
  5
346
100
AcDbEntity
  8
RACCORDO
100
AcDbLine
 62
7
  6
CONTINUOUS
 10
53.2012734952
 20
39.847337228
 11
53.4073729786
 21
40.2072507423
  0
LINE
  5
347
100
AcDbEntity
  8
0
100
AcDbLine
 62
7
  6
CONTINUOUS
 10
-16.9300184429
 20
-42.0516026458
 11
-17.324596473
 21
-42.2959665764
  0
LINE
  5
348
100
AcDbEntity
  8
RACCORDO
100
AcDbLine
 62
7
  6
CONTINUOUS
 10
-16.9758905865
 20
-42.1560975454
 11
-17.2566202609
 21
-42.3299546825
  0
LINE
  5
349
100
AcDbEntity
  8
0
100
AcDbLine
 62
7
  6
CONTINUOUS
 10
-18.3003937691
 20
-41.8080679284
 11
-17.0717640712
 21
-41.1047399135
  0
LINE
  5
34A
100
AcDbEntity
  8
0
100
AcDbLine
 62
7
  6
CONTINUOUS
 10
-17.9973649995
 20
-41.9595823132
 11
-16.9300184429
 21
-41.348580694
  0
LINE
  5
34B
100
AcDbEntity
  8
DRAFT
100
AcDbLine
 62
7
  6
CONTINUOUS
 10
-25.7737489634
 20
-38.8238109592
 11
-25.8341862656
 21
-38.8537883066
  0
LINE
  5
34C
100
AcDbEntity
  8
DRAFT
100
AcDbLine
 62
7
  6
CONTINUOUS
 10
-20.8557402386
 20
-41.6532634405
 11
-20.5442444313
 21
-41.4987592237
  0
LINE
  5
34D
100
AcDbEntity
  8
DRAFT
100
AcDbLine
 62
7
  6
CONTINUOUS
 10
-19.165386208
 20
-41.3755717089
 11
-20.0685796503
 21
-41.8235623148
  0
LINE
  5
34E
100
AcDbEntity
  8
DRAFT
100
AcDbLine
 62
7
  6
CONTINUOUS
 10
-25.7737489634
 20
-37.9067165346
 11
-26.5032513591
 21
-38.2526730698
  0
LINE
  5
34F
100
AcDbEntity
  8
RACCORDO
100
AcDbLine
 62
7
  6
CONTINUOUS
 10
-23.5352870957
 20
-39.943041893
 11
-21.2723655718
 21
-39.0381184066
  0
LINE
  5
350
100
AcDbEntity
  8
0
100
AcDbLine
 62
7
  6
CONTINUOUS
 10
-23.4886450766
 20
-39.9663629026
 11
-21.1882976667
 21
-39.0464731157
  0
LINE
  5
351
100
AcDbEntity
  8
DRAFT
100
AcDbLine
 62
7
  6
CONTINUOUS
 10
-21.9938133327
 20
-40.7137787745
 11
-21.8015706806
 21
-40.6369025377
  0
LINE
  5
352
100
AcDbEntity
  8
DRAFT
100
AcDbLine
 62
7
  6
CONTINUOUS
 10
-33.5835761171
 20
45.5050914813
 11
-33.3075218317
 21
45.3670643386
  0
LINE
  5
353
100
AcDbEntity
  8
DRAFT
100
AcDbLine
 62
7
  6
CONTINUOUS
 10
-33.9017741686
 20
46.491476969
 11
-33.5835761171
 21
46.3323779432
  0
LINE
  5
354
100
AcDbEntity
  8
RACCORDO
100
AcDbLine
 62
7
  6
CONTINUOUS
 10
-33.3075218317
 20
46.5004556283
 11
-33.9017741686
 21
46.7975817968
  0
LINE
  5
355
100
AcDbEntity
  8
SMUSSO
100
AcDbLine
 62
7
  6
CONTINUOUS
 10
-33.6610752223
 20
46.961641428
 11
-33.9017741686
 21
47.0819909011
  0
LINE
  5
356
100
AcDbEntity
  8
DRAFT
100
AcDbLine
 62
7
  6
CONTINUOUS
 10
-32.420383543
 20
46.9957767881
 11
-33.0039704477
 21
47.2875702404
  0
LINE
  5
357
100
AcDbEntity
  8
0
100
AcDbLine
 62
7
  6
CONTINUOUS
 10
-31.2870858848
 20
47.3811228206
 11
-30.7130708648
 21
47.0941153106
  0
LINE
  5
358
100
AcDbEntity
  8
RACCORDO
100
AcDbLine
 62
7
  6
CONTINUOUS
 10
31.1290369563
 20
-71.733080124
 11
31.1290369563
 21
34.1422701202
  0
LINE
  5
359
100
AcDbEntity
  8
DRAFT
100
AcDbLine
 62
7
  6
CONTINUOUS
 10
-11.0336582244
 20
-45.2767619041
 11
-10.8723474859
 21
-45.1882011464
  0
LINE
  5
35A
100
AcDbEntity
  8
DRAFT
100
AcDbLine
 62
7
  6
CONTINUOUS
 10
-12.8174705505
 20
-43.6741480079
 11
-14.276475342
 21
-44.3660610784
  0
LINE
  5
35B
100
AcDbEntity
  8
DRAFT
100
AcDbLine
 62
7
  6
CONTINUOUS
 10
-14.2156387397
 20
-43.8504454431
 11
-15.1509229284
 21
-44.2823906757
  0
LINE
  5
35C
100
AcDbEntity
  8
DRAFT
100
AcDbLine
 62
7
  6
CONTINUOUS
 10
-14.9271108204
 20
-44.6175781496
 11
-14.6045474693
 21
-44.4686077047
  0
LINE
  5
35D
100
AcDbEntity
  8
DRAFT
100
AcDbLine
 62
7
  6
CONTINUOUS
 10
-11.2457902587
 20
-45.00147976
 11
-10.6801048338
 21
-44.7428308663
  0
LINE
  5
35E
100
AcDbEntity
  8
SMUSSO
100
AcDbLine
 62
7
  6
CONTINUOUS
 10
-33.6610752223
 20
52.9845162774
 11
-33.9017741686
 21
53.1048657505
  0
LINE
  5
35F
100
AcDbEntity
  8
SMUSSO
100
AcDbLine
 62
7
  6
CONTINUOUS
 10
-33.5835761171
 20
53.8846570288
 11
-32.75788178
 21
53.4718098603
  0
LINE
  5
360
100
AcDbEntity
  8
RACCORDO
100
AcDbLine
 62
7
  6
CONTINUOUS
 10
-33.5835761171
 20
53.9372826103
 11
-33.3075218317
 21
53.7992554676
  0
LINE
  5
361
100
AcDbEntity
  8
DRAFT
100
AcDbLine
 62
7
  6
CONTINUOUS
 10
-4.9458376619
 20
-49.6082147289
 11
-4.6343418546
 21
-49.4537105121
  0
LINE
  5
362
100
AcDbEntity
  8
DRAFT
100
AcDbLine
 62
7
  6
CONTINUOUS
 10
-3.2554836313
 20
-49.3305229973
 11
-4.1586770736
 21
-49.7785136031
  0
LINE
  5
363
100
AcDbEntity
  8
DRAFT
100
AcDbLine
 62
7
  6
CONTINUOUS
 10
-3.3907336902
 20
-48.9290080443
 11
-4.3260178789
 21
-49.3412898099
  0
LINE
  5
364
100
AcDbEntity
  8
DRAFT
100
AcDbLine
 62
7
  6
CONTINUOUS
 10
-6.083910756
 20
-47.7516356383
 11
-5.8916681039
 21
-47.6785408374
  0
LINE
  5
365
100
AcDbEntity
  8
RACCORDO
100
AcDbLine
 62
7
  6
CONTINUOUS
 10
53.9140996276
 20
38.4515716827
 11
54.4266050988
 21
38.4493353712
  0
LINE
  5
366
100
AcDbEntity
  8
RACCORDO
100
AcDbLine
 62
7
  6
CONTINUOUS
 10
27.7616333987
 20
32.8372876325
 11
-36.662196854
 21
65.0492027419
  0
LINE
  5
367
100
AcDbEntity
  8
RACCORDO
100
AcDbLine
 62
7
  6
CONTINUOUS
 10
27.6836130809
 20
32.9995759367
 11
-36.7401647557
 21
65.211464855
  0
LINE
  5
368
100
AcDbEntity
  8
RACCORDO
100
AcDbLine
 62
7
  6
CONTINUOUS
 10
29.5258160715
 20
34.1752476453
 11
-38.5791808947
 21
68.2277461284
  0
LINE
  5
369
100
AcDbEntity
  8
RACCORDO
100
AcDbLine
 62
7
  6
CONTINUOUS
 10
29.7306707383
 20
34.5406283844
 11
-38.3707510748
 21
68.5917290895
  0
LINE
  5
36A
100
AcDbEntity
  8
RACCORDO
100
AcDbLine
 62
7
  6
CONTINUOUS
 10
30.6341375965
 20
34.9958452528
 11
-37.4986582497
 21
69.0622431759
  0
LWPOLYLINE
  5
36B
100
AcDbEntity
  8
RACCORDO
100
AcDbPolyline
 62
7
  6
CONTINUOUS
 90
24
 70
0
 10
27.7616334315
 20
32.8372876975
 10
27.7692509713
 20
32.8332766912
 10
27.7826810033
 20
32.8252835263
 10
27.7972161816
 20
32.8153820877
 10
27.8124882484
 20
32.8036255215
 10
27.8282392653
 20
32.7900554717
 10
27.8442647346
 20
32.7747082991
 10
27.8603398356
 20
32.75767396
 10
27.8762481072
 20
32.7390754451
 10
27.8918012298
 20
32.7190432533
 10
27.9068693855
 20
32.6976628004
 10
27.9212853259
 20
32.6750944309
 10
27.9348805639
 20
32.6515395507
 10
27.9475506932
 20
32.6271316031
 10
27.9591716373
 20
32.6020727247
 10
27.9696205563
 20
32.5766093554
 10
27.9788133703
 20
32.5509609705
 10
27.9866809131
 20
32.5253749788
 10
27.9931775062
 20
32.5000999633
 10
27.9982798267
 20
32.4754015872
 10
28.0019992795
 20
32.4515119017
 10
28.0043704249
 20
32.4286783368
 10
28.0054553723
 20
32.4072315594
 10
28.0055528643
 20
32.3988568136
  0
LINE
  5
36C
100
AcDbEntity
  8
SMUSSO
100
AcDbLine
 62
7
  6
CONTINUOUS
 10
47.1965852064
 20
-88.8365980379
 11
47.1965852064
 21
35.178239784
  0
LINE
  5
36D
100
AcDbEntity
  8
0
100
AcDbLine
 62
7
  6
CONTINUOUS
 10
4.9037891223
 20
-54.2227760005
 11
5.0375550908
 21
-54.1430679638
  0
LINE
  5
36E
100
AcDbEntity
  8
RACCORDO
100
AcDbLine
 62
7
  6
CONTINUOUS
 10
5.5468839543
 20
-54.5443234165
 11
5.7184385051
 21
-54.4461171613
  0
LINE
  5
36F
100
AcDbEntity
  8
0
100
AcDbLine
 62
7
  6
CONTINUOUS
 10
4.5226909617
 20
-53.8856358992
 11
4.3760999407
 21
-53.9589314097
  0
LINE
  5
370
100
AcDbEntity
  8
DRAFT
100
AcDbLine
 62
7
  6
CONTINUOUS
 10
2.536620677
 20
-51.8926852279
 11
1.6334272347
 21
-52.3210123667
  0
LINE
  5
371
100
AcDbEntity
  8
DRAFT
100
AcDbLine
 62
7
  6
CONTINUOUS
 10
1.694263837
 20
-51.8053967314
 11
0.7589796483
 21
-52.2373419641
  0
LINE
  5
372
100
AcDbEntity
  8
DRAFT
100
AcDbLine
 62
7
  6
CONTINUOUS
 10
0.9827917563
 20
-52.5725294379
 11
1.3053551074
 21
-52.4235589931
  0
LINE
  5
373
100
AcDbEntity
  8
0
100
AcDbLine
 62
7
  6
CONTINUOUS
 10
4.5226909617
 20
-52.8857203702
 11
3.6034521462
 21
-53.3060248225
  0
LINE
  5
374
100
AcDbEntity
  8
SMUSSO
100
AcDbLine
 62
7
  6
CONTINUOUS
 10
47.1965852064
 20
35.178239784
 11
-54.0611058596
 21
85.807085317
  0
LINE
  5
375
100
AcDbEntity
  8
SMUSSO
100
AcDbLine
 62
7
  6
CONTINUOUS
 10
52.8534394559
 20
-94.5809386192
 11
52.8534394559
 21
38.0941532406
  0
LINE
  5
376
100
AcDbEntity
  8
SMUSSO
100
AcDbLine
 62
7
  6
CONTINUOUS
 10
53.9140996276
 20
38.978036717
 11
53.9140996276
 21
-94.0506085333
  0
LINE
  5
377
100
AcDbEntity
  8
RACCORDO
100
AcDbLine
 62
7
  6
CONTINUOUS
 10
54.4266050988
 20
38.4493353712
 11
54.4266050988
 21
-92.9257768662
  0
LINE
  5
378
100
AcDbEntity
  8
RACCORDO
100
AcDbLine
 62
7
  6
CONTINUOUS
 10
54.5672820808
 20
38.4786342941
 11
54.5672820808
 21
-92.8989513656
  0
LINE
  5
379
100
AcDbEntity
  8
SMUSSO
100
AcDbLine
 62
7
  6
CONTINUOUS
 10
56.530394718
 20
40.4418920766
 11
56.530394718
 21
40.0038296695
  0
LINE
  5
37A
100
AcDbEntity
  8
RACCORDO
100
AcDbLine
 62
7
  6
CONTINUOUS
 10
56.6011053961
 20
-91.95966436
 11
56.6011053961
 21
39.5033876341
  0
LINE
  5
37B
100
AcDbEntity
  8
DRAFT
100
AcDbLine
 62
7
  6
CONTINUOUS
 10
10.9640649148
 20
-57.5631660172
 11
11.2755607221
 21
-57.4086618004
  0
LINE
  5
37C
100
AcDbEntity
  8
DRAFT
100
AcDbLine
 62
7
  6
CONTINUOUS
 10
12.6544189454
 20
-57.2854742856
 11
11.7512255031
 21
-57.7334648915
  0
LINE
  5
37D
100
AcDbEntity
  8
0
100
AcDbLine
 62
7
  6
CONTINUOUS
 10
7.8814481724
 20
-54.7343151025
 11
7.1389860521
 21
-55.0737917754
  0
LINE
  5
37E
100
AcDbEntity
  8
DRAFT
100
AcDbLine
 62
7
  6
CONTINUOUS
 10
10.3916772456
 20
-55.8202135122
 11
10.9672367464
 21
-55.5665016564
  0
LINE
  5
37F
100
AcDbEntity
  8
DRAFT
100
AcDbLine
 62
7
  6
CONTINUOUS
 10
13.0947283873
 20
-56.6302474769
 11
11.5838846978
 21
-57.2962410982
  0
LINE
  5
380
100
AcDbEntity
  8
DRAFT
100
AcDbLine
 62
7
  6
CONTINUOUS
 10
9.8259918206
 20
-55.7065869266
 11
10.0182344728
 21
-55.6334921257
  0
LWPOLYLINE
  5
381
100
AcDbEntity
  8
RACCORDO
100
AcDbPolyline
 62
7
  6
CONTINUOUS
 90
6
 70
0
 10
-36.6894114852
 20
65.0594318003
 10
-36.6891905429
 20
65.0593949932
 10
-36.6863771581
 20
65.0587811302
 10
-36.6806926088
 20
65.0570805163
 10
-36.6725127703
 20
65.0539624844
 10
-36.6621993382
 20
65.0492040641
  0
LINE
  5
382
100
AcDbEntity
  8
SMUSSO
100
AcDbLine
 62
7
  6
CONTINUOUS
 10
52.1463326747
 20
39.3137320349
 11
-56.1824262031
 21
93.4781114738
  0
LINE
  5
383
100
AcDbEntity
  8
SMUSSO
100
AcDbLine
 62
7
  6
CONTINUOUS
 10
-55.1217660313
 20
94.0084415597
 11
53.2069928464
 21
39.8440621208
  0
LINE
  5
384
100
AcDbEntity
  8
RACCORDO
100
AcDbLine
 62
7
  6
CONTINUOUS
 10
-53.8599569822
 20
93.8409157226
 11
53.4073729786
 21
40.2072507423
  0
LINE
  5
385
100
AcDbEntity
  8
RACCORDO
100
AcDbLine
 62
7
  6
CONTINUOUS
 10
27.8408413046
 20
-69.0074240838
 11
28.0055527364
 21
-68.790943234
  0
LINE
  5
386
100
AcDbEntity
  8
RACCORDO
100
AcDbLine
 62
7
  6
CONTINUOUS
 10
27.9967663326
 20
-69.0022729622
 11
27.9967390469
 21
-69.0023087971
  0
LINE
  5
387
100
AcDbEntity
  8
DRAFT
100
AcDbLine
 62
7
  6
CONTINUOUS
 10
20.786146929
 20
-62.1037589054
 11
20.9474576675
 21
-62.0114167117
  0
LINE
  5
388
100
AcDbEntity
  8
RACCORDO
100
AcDbLine
 62
7
  6
CONTINUOUS
 10
21.5129159979
 20
-62.4671434398
 11
21.6283410818
 21
-62.4010684496
  0
LINE
  5
389
100
AcDbEntity
  8
DRAFT
100
AcDbLine
 62
7
  6
CONTINUOUS
 10
18.2123949049
 20
-60.8770788919
 11
18.4465232537
 21
-60.7609495048
  0
LINE
  5
38A
100
AcDbEntity
  8
DRAFT
100
AcDbLine
 62
7
  6
CONTINUOUS
 10
17.6041664137
 20
-59.7603480198
 11
16.6688822249
 21
-60.1922932524
  0
LINE
  5
38B
100
AcDbEntity
  8
DRAFT
100
AcDbLine
 62
7
  6
CONTINUOUS
 10
16.892694333
 20
-60.5274807263
 11
17.215257684
 21
-60.3785102814
  0
LINE
  5
38C
100
AcDbEntity
  8
RACCORDO
100
AcDbLine
 62
7
  6
CONTINUOUS
 10
17.827157271
 20
-60.6844600749
 11
18.0184415211
 21
-60.5961186693
  0
LINE
  5
38D
100
AcDbEntity
  8
RACCORDO
100
AcDbLine
 62
7
  6
CONTINUOUS
 10
20.6642558309
 20
-61.8470858932
 11
22.709676218
 21
-61.0291393015
  0
LINE
  5
38E
100
AcDbEntity
  8
0
100
AcDbLine
 62
7
  6
CONTINUOUS
 10
20.7108978501
 20
-61.8704069028
 11
22.7937441231
 21
-61.0374940106
  0
LINE
  5
38F
100
AcDbEntity
  8
RACCORDO
100
AcDbLine
 62
7
  6
CONTINUOUS
 10
-36.6863664923
 20
65.0594021497
 11
-36.6863318053
 21
65.0594031915
  0
LINE
  5
390
100
AcDbEntity
  8
RACCORDO
100
AcDbLine
 62
7
  6
CONTINUOUS
 10
-36.3699875399
 20
64.9030980848
 11
-36.7878403425
 21
64.89062109
  0
LINE
  5
391
100
AcDbEntity
  8
RACCORDO
100
AcDbLine
 62
7
  6
CONTINUOUS
 10
-53.762566049
 20
93.9423986149
 11
53.5067834527
 21
40.3077238641
  0
LINE
  5
392
100
AcDbEntity
  8
RACCORDO
100
AcDbLine
 62
7
  6
CONTINUOUS
 10
55.540606768
 20
41.332477204
 11
-51.7985257034
 21
95.0020434398
  0
LINE
  5
393
100
AcDbEntity
  8
SMUSSO
100
AcDbLine
 62
7
  6
CONTINUOUS
 10
53.6312569152
 20
39.543722142
 11
53.3484142027
 21
39.7558541763
  0
LINE
  5
394
100
AcDbEntity
  8
SMUSSO
100
AcDbLine
 62
7
  6
CONTINUOUS
 10
56.4738263461
 20
40.5550290337
 11
56.1390809629
 21
40.8060880711
  0
LINE
  5
395
100
AcDbEntity
  8
0
100
AcDbLine
 62
7
  6
CONTINUOUS
 10
26.9557465726
 20
-64.1022481756
 11
27.052023347
 21
-64.0426235407
  0
LINE
  5
396
100
AcDbEntity
  8
0
100
AcDbLine
 62
7
  6
CONTINUOUS
 10
26.9102777186
 20
-63.0957608084
 11
25.9929820607
 21
-63.6208659197
  0
LINE
  5
397
100
AcDbEntity
  8
0
100
AcDbLine
 62
7
  6
CONTINUOUS
 10
27.052023347
 20
-63.3396015889
 11
26.2960108302
 21
-63.7723803045
  0
LINE
  5
398
100
AcDbEntity
  8
DRAFT
100
AcDbLine
 62
7
  6
CONTINUOUS
 10
24.5660825597
 20
-63.0766322961
 11
23.8106607149
 21
-63.4096291068
  0
LINE
  5
399
100
AcDbEntity
  8
DRAFT
100
AcDbLine
 62
7
  6
CONTINUOUS
 10
25.7358943973
 20
-63.661538215
 11
25.9281370495
 21
-63.5884434141
  0
LINE
  5
39A
100
AcDbEntity
  8
RACCORDO
100
AcDbLine
 62
7
  6
CONTINUOUS
 10
30.2255700978
 20
-72.1503310591
 11
31.1290369563
 21
-71.733080124
  0
LINE
  5
39B
100
AcDbEntity
  8
RACCORDO
100
AcDbLine
 62
7
  6
CONTINUOUS
 10
30.0352211508
 20
-72.532946261
 11
30.9398112628
 21
-72.1151765702
  0
LINE
  5
39C
100
AcDbEntity
  8
SMUSSO
100
AcDbLine
 62
7
  6
CONTINUOUS
 10
52.8534394559
 20
-94.5809386192
 11
53.9140996276
 21
-94.0506085333
  0
LINE
  5
39D
100
AcDbEntity
  8
RACCORDO
100
AcDbLine
 62
7
  6
CONTINUOUS
 10
52.5795617022
 20
-95.1288047036
 11
53.6542064419
 21
-94.5914823337
  0
LINE
  5
39E
100
AcDbEntity
  8
RACCORDO
100
AcDbLine
 62
7
  6
CONTINUOUS
 10
54.5672820808
 20
-92.8989513656
 11
56.6011053961
 21
-91.95966436
  0
LINE
  5
39F
100
AcDbEntity
  8
RACCORDO
100
AcDbLine
 62
7
  6
CONTINUOUS
 10
54.1589474591
 20
-93.7190461476
 11
56.1955822637
 21
-92.778460703
  0
ARC
  5
3A0
100
AcDbEntity
  8
RACCORDO
100
AcDbCircle
 62
7
  6
CONTINUOUS
 10
53.7962081667
 20
-93.2055709618
 40
0.5616994997
100
AcDbArc
 50
305.5512525293
 51
310.2214384287
  0
ARC
  5
3A1
100
AcDbEntity
  8
RACCORDO
100
AcDbCircle
 62
7
  6
CONTINUOUS
 10
53.8044657445
 20
-93.2169797528
 40
0.547616151
100
AcDbArc
 50
300.8698672499
 51
305.5423690517
  0
ARC
  5
3A2
100
AcDbEntity
  8
RACCORDO
100
AcDbCircle
 62
7
  6
CONTINUOUS
 10
28.0815265126
 20
-68.9338410898
 40
0.0759738184
100
AcDbArc
 50
180.0603972715
 51
189.9696736027
  0
SPLINE
  5
3A3
100
AcDbEntity
  8
RACCORDO
100
AcDbSpline
 62
7
  6
CONTINUOUS
 70
0
 71
3
 72
8
 73
4
 74
2
 42
0.0000001
 43
0.0000001
 44
0.0000000001
 12
-0.0001898907
 22
-0.0082708644
 32
0.0
 13
0.0026371903
 23
-0.0078414593
 33
0.0
 40
0.0
 40
0.0
 40
0.0
 40
0.0
 40
1.0
 40
1.0
 40
1.0
 40
1.0
 10
-34.2533094146
 20
-35.0476014392
 30
0.0
 10
-34.2533727115
 20
-35.0503583941
 30
0.0
 10
-34.2529971528
 20
-35.0531744382
 30
0.0
 10
-34.2521180894
 20
-35.055788258
 30
0.0
 11
-34.2533094146
 21
-35.0476014392
 31
0.0
 11
-34.2521180894
 21
-35.055788258
 31
0.0
  0
SPLINE
  5
3A4
100
AcDbEntity
  8
RACCORDO
100
AcDbSpline
 62
7
  6
CONTINUOUS
 70
0
 71
3
 72
11
 73
7
 74
5
 42
0.0000001
 43
0.0000001
 44
0.0000000001
 12
-0.299681524
 22
0.1475650771
 32
0.0
 13
-0.2939897456
 23
-0.1586016938
 33
0.0
 40
0.0
 40
0.0
 40
0.0
 40
0.0
 40
0.2798231701
 40
0.5359571054
 40
0.7731397735
 40
1.0
 40
1.0
 40
1.0
 40
1.0
 10
-38.3707510748
 20
68.5917290895
 30
0.0
 10
-38.3987036861
 20
68.605493132
 30
0.0
 10
-38.454563963
 20
68.6275874448
 30
0.0
 10
-38.5400465144
 20
68.6425722935
 30
0.0
 10
-38.6209245286
 20
68.636980074
 30
0.0
 10
-38.6702716881
 20
68.6190418027
 30
0.0
 10
-38.6925032148
 20
68.6070483306
 30
0.0
 11
-38.3707510748
 21
68.5917290895
 31
0.0
 11
-38.4579592529
 21
68.6253729569
 31
0.0
 11
-38.5423729396
 21
68.6393294275
 31
0.0
 11
-38.6213610988
 21
68.6331549717
 31
0.0
 11
-38.6925032148
 21
68.6070483306
 31
0.0
  0
SPLINE
  5
3A5
100
AcDbEntity
  8
RACCORDO
100
AcDbSpline
 62
7
  6
CONTINUOUS
 70
0
 71
3
 72
11
 73
7
 74
5
 42
0.0000001
 43
0.0000001
 44
0.0000000001
 12
-0.0064027649
 22
1.0264962597
 32
0.0
 13
-0.9153126615
 23
0.4646916164
 33
0.0
 40
0.0
 40
0.0
 40
0.0
 40
0.0
 40
0.246670931
 40
0.5119111179
 40
0.7706382137
 40
1.0
 40
1.0
 40
1.0
 40
1.0
 10
30.2259583994
 20
33.6872488996
 30
0.0
 10
30.2254319408
 20
33.7716511623
 30
0.0
 10
30.195420001
 20
33.9469099805
 30
0.0
 10
30.0894715606
 20
34.1907403391
 30
0.0
 10
29.9347283973
 20
34.3995874938
 30
0.0
 10
29.8010382887
 20
34.5052965325
 30
0.0
 10
29.7310590397
 20
34.5408240323
 30
0.0
 11
30.2259583994
 21
33.6872488996
 31
0.0
 11
30.1871359356
 21
33.9374667812
 31
0.0
 11
30.0794551288
 21
34.1875420185
 31
0.0
 11
29.9193028441
 21
34.3994098997
 31
0.0
 11
29.7310590397
 21
34.5408240323
 31
0.0
  0
SPLINE
  5
3A6
100
AcDbEntity
  8
RACCORDO
100
AcDbSpline
 62
7
  6
CONTINUOUS
 70
0
 71
3
 72
11
 73
7
 74
5
 42
0.0000001
 43
0.0000001
 44
0.0000000001
 12
-0.3888888757
 22
-0.1877728259
 32
0.0
 13
-0.3862571023
 23
0.1931285652
 33
0.0
 40
0.0
 40
0.0
 40
0.0
 40
0.0
 40
0.236631889
 40
0.5012536727
 40
0.7652017156
 40
1.0
 40
1.0
 40
1.0
 40
1.0
 10
30.2259583994
 20
33.6872488993
 30
0.0
 10
30.1952838964
 20
33.6724378864
 30
0.0
 10
30.1253249542
 20
33.6513846199
 30
0.0
 10
30.0150247227
 20
33.6416222941
 30
0.0
 10
29.9050770591
 20
33.6522922308
 30
0.0
 10
29.8356596889
 20
33.6739684339
 30
0.0
 10
29.8054288539
 20
33.6890838525
 30
0.0
 11
30.2259583994
 21
33.6872488993
 31
0.0
 11
30.1287201127
 21
33.655826984
 31
0.0
 11
30.0149429237
 21
33.6451555779
 31
0.0
 11
29.9015555477
 21
33.6568182034
 31
0.0
 11
29.8054288539
 21
33.6890838525
 31
0.0
  0
SPLINE
  5
3A7
100
AcDbEntity
  8
RACCORDO
100
AcDbSpline
 62
7
  6
CONTINUOUS
 70
0
 71
3
 72
11
 73
7
 74
5
 42
0.0000001
 43
0.0000001
 44
0.0000000001
 12
-0.388767541
 22
-0.1870394397
 32
0.0
 13
-0.3858745501
 23
0.1929372554
 33
0.0
 40
0.0
 40
0.0
 40
0.0
 40
0.0
 40
0.2367532794
 40
0.5013779555
 40
0.7652599984
 40
1.0
 40
1.0
 40
1.0
 40
1.0
 10
30.2255697598
 20
-72.1503390434
 30
0.0
 10
30.1948890963
 20
-72.165099777
 30
0.0
 10
30.1249682086
 20
-72.1860744619
 30
0.0
 10
30.0147646081
 20
-72.1957696521
 30
0.0
 10
29.9049479999
 20
-72.1850747817
 30
0.0
 10
29.8356222515
 20
-72.1634134729
 30
0.0
 10
29.805428854
 20
-72.1483167757
 30
0.0
 11
30.2255697598
 21
-72.1503390434
 31
0.0
 11
30.1283463421
 21
-72.181647961
 31
0.0
 11
30.0146745131
 21
-72.1922438107
 31
0.0
 11
29.9014318025
 21
-72.1805564649
 31
0.0
 11
29.805428854
 21
-72.1483167757
 31
0.0
  0
SPLINE
  5
3A8
100
AcDbEntity
  8
RACCORDO
100
AcDbSpline
 62
7
  6
CONTINUOUS
 70
0
 71
3
 72
11
 73
7
 74
5
 42
0.0000001
 43
0.0000001
 44
0.0000000001
 12
-0.3862036935
 22
-0.2022094724
 32
0.0
 13
0.0000000147
 23
-0.4359380273
 33
0.0
 40
0.0
 40
0.0
 40
0.0
 40
0.0
 40
0.2308407489
 40
0.4894506684
 40
0.7538191198
 40
1.0
 40
1.0
 40
1.0
 40
1.0
 10
29.7306774052
 20
34.5406246358
 30
0.0
 10
29.7009602219
 20
34.5250652405
 30
0.0
 10
29.6443920541
 20
34.4796707928
 30
0.0
 10
29.5791165659
 20
34.3905542519
 30
0.0
 10
29.5348257911
 20
34.2869310993
 30
0.0
 10
29.5226292186
 20
34.2126142736
 30
0.0
 10
29.5226292198
 20
34.1768410711
 30
0.0
 11
29.7306774052
 21
34.5406246358
 31
0.0
 11
29.6507567727
 21
34.4794728215
 31
0.0
 11
29.5833250064
 21
34.3891246584
 31
0.0
 11
29.538390999
 21
34.2829969208
 31
0.0
 11
29.5226292198
 21
34.1768410711
 31
0.0
  0
SPLINE
  5
3A9
100
AcDbEntity
  8
RACCORDO
100
AcDbSpline
 62
7
  6
CONTINUOUS
 70
0
 71
3
 72
11
 73
7
 74
5
 42
0.0000001
 43
0.0000001
 44
0.0000000001
 12
-0.3869302045
 22
-0.2017369093
 32
0.0
 13
-0.0000000106
 23
-0.43636311
 33
0.0
 40
0.0
 40
0.0
 40
0.0
 40
0.0
 40
0.2307390512
 40
0.4893391875
 40
0.7537623063
 40
1.0
 40
1.0
 40
1.0
 40
1.0
 10
-38.3707510745
 20
68.5917290893
 30
0.0
 10
-38.4005110439
 20
68.576212895
 30
0.0
 10
-38.4571790579
 20
68.5308451078
 30
0.0
 10
-38.5225731828
 20
68.4416897364
 30
0.0
 10
-38.5669557363
 20
68.3379680151
 30
0.0
 10
-38.5791808938
 20
68.263562477
 30
0.0
 10
-38.5791808947
 20
68.2277461284
 30
0.0
 11
-38.3707510745
 21
68.5917290893
 31
0.0
 11
-38.4507921289
 21
68.5306463405
 31
0.0
 11
-38.5183521283
 21
68.440262075
 31
0.0
 11
-38.5633831926
 21
68.3340275004
 31
0.0
 11
-38.5791808947
 21
68.2277461284
 31
0.0
  0
SPLINE
  5
3AA
100
AcDbEntity
  8
RACCORDO
100
AcDbSpline
 62
7
  6
CONTINUOUS
 70
0
 71
3
 72
11
 73
7
 74
5
 42
0.0000001
 43
0.0000001
 44
0.0000000001
 12
-0.1080069137
 22
-0.1418945729
 32
0.0
 13
-0.1342256889
 23
0.11740114
 33
0.0
 40
0.0
 40
0.0
 40
0.0
 40
0.0
 40
0.2603119456
 40
0.4907623459
 40
0.729164318
 40
1.0
 40
1.0
 40
1.0
 40
1.0
 10
27.9967372599
 20
-69.0023039701
 30
0.0
 10
27.98736543
 20
-69.0146162543
 30
0.0
 10
27.9657307489
 20
-69.0357377421
 30
0.0
 10
27.9219013844
 20
-69.0475740858
 30
0.0
 10
27.8779916343
 20
-69.0357503733
 30
0.0
 10
27.8529576805
 20
-69.0180218713
 30
0.0
 10
27.8408399785
 20
-69.0074230653
 30
0.0
 11
27.9967372599
 21
-69.0023039701
 31
0.0
 11
27.9622016469
 21
-69.0333217596
 31
0.0
 11
27.9224639039
 21
-69.043795703
 31
0.0
 11
27.8810557117
 21
-69.0341673227
 31
0.0
 11
27.8408399785
 21
-69.0074230653
 31
0.0
  0
SPLINE
  5
3AB
100
AcDbEntity
  8
RACCORDO
100
AcDbSpline
 62
7
  6
CONTINUOUS
 70
0
 71
3
 72
11
 73
7
 74
5
 42
0.0000001
 43
0.0000001
 44
0.0000000001
 12
-0.168967103
 22
0.0844844986
 32
0.0
 13
0.000000178
 23
0.1889113877
 33
0.0
 40
0.0
 40
0.0
 40
0.0
 40
0.0
 40
0.2171405963
 40
0.4503764138
 40
0.7102994001
 40
1.0
 40
1.0
 40
1.0
 40
1.0
 10
-36.6621995424
 20
65.0492036561
 30
0.0
 10
-36.6744294149
 20
65.0553186609
 30
0.0
 10
-36.6975630048
 20
65.0729343714
 30
0.0
 10
-36.7223780312
 20
65.1109638515
 30
0.0
 10
-36.7372144438
 20
65.1584824086
 30
0.0
 10
-36.7401647729
 20
65.1932222742
 30
0.0
 10
-36.7401647557
 20
65.211464855
 30
0.0
 11
-36.6621995424
 21
65.0492036561
 31
0.0
 11
-36.6950163164
 21
65.0738151763
 31
0.0
 11
-36.7196824896
 21
65.1103246679
 31
0.0
 11
-36.7349804024
 21
65.1569832227
 31
0.0
 11
-36.7401647557
 21
65.211464855
 31
0.0
  0
SPLINE
  5
3AC
100
AcDbEntity
  8
RACCORDO
100
AcDbSpline
 62
7
  6
CONTINUOUS
 70
0
 71
3
 72
15
 73
11
 74
9
 42
0.0000001
 43
0.0000001
 44
0.0000000001
 12
-0.0000005386
 22
0.4335126626
 32
0.0
 13
0.3877520722
 23
-0.1938596378
 33
0.0
 40
0.0
 40
0.0
 40
0.0
 40
0.0
 40
0.1483180414
 40
0.2831791178
 40
0.4055265014
 40
0.5187912958
 40
0.6287511638
 40
0.7421810886
 40
0.8648057596
 40
1.0
 40
1.0
 40
1.0
 40
1.0
 10
-38.8619805288
 20
68.0266916179
 30
0.0
 10
-38.8619805555
 20
68.0481242009
 30
0.0
 10
-38.8581737034
 20
68.0891292546
 30
0.0
 10
-38.8422701414
 20
68.1459289082
 30
0.0
 10
-38.8159676391
 20
68.193248472
 30
0.0
 10
-38.7799579228
 20
68.2289518937
 30
0.0
 10
-38.7355795399
 20
68.2509139304
 30
0.0
 10
-38.6852892812
 20
68.2579224766
 30
0.0
 10
-38.6316256643
 20
68.2502110369
 30
0.0
 10
-38.5966548436
 20
68.2364823639
 30
0.0
 10
-38.5791808947
 20
68.2277461284
 30
0.0
 11
-38.8619805288
 21
68.0266916179
 31
0.0
 11
-38.8559906078
 21
68.0907097511
 31
0.0
 11
-38.8395321928
 21
68.146809288
 31
0.0
 11
-38.8132131518
 21
68.192857724
 31
0.0
 11
-38.77802628
 21
68.2271048145
 31
0.0
 11
-38.7353051983
 21
68.248252918
 31
0.0
 11
-38.6866688594
 21
68.2555000434
 31
0.0
 11
-38.6339621183
 21
68.2485779276
 31
0.0
 11
-38.5791808947
 21
68.2277461284
 31
0.0
  0
SPLINE
  5
3AD
100
AcDbEntity
  8
RACCORDO
100
AcDbSpline
 62
7
  6
CONTINUOUS
 70
0
 71
3
 72
12
 73
8
 74
6
 42
0.0000001
 43
0.0000001
 44
0.0000000001
 12
0.5224462273
 22
-0.26122214
 32
0.0
 13
0.0000164681
 23
-0.5841122038
 33
0.0
 40
0.0
 40
0.0
 40
0.0
 40
0.0
 40
0.1109174752
 40
0.2309231407
 40
0.4893221405
 40
0.7537633792
 40
1.0
 40
1.0
 40
1.0
 40
1.0
 10
29.5258160715
 20
34.1752476453
 30
0.0
 10
29.5451322104
 20
34.1655896119
 30
0.0
 10
29.5829869236
 20
34.1407579947
 30
0.0
 10
29.6543364502
 20
34.0772864831
 30
0.0
 10
29.7294800924
 20
33.9752557982
 30
0.0
 10
29.7889857751
 20
33.836658295
 30
0.0
 10
29.8054275023
 20
33.7370271242
 30
0.0
 10
29.8054288539
 20
33.6890838525
 30
0.0
 11
29.5258160715
 21
34.1752476453
 31
0.0
 11
29.5805320327
 21
34.1405535385
 31
0.0
 11
29.6330562317
 21
34.094134079
 31
0.0
 11
29.7237269366
 21
33.9734696748
 31
0.0
 11
29.7842080534
 21
33.8313395848
 31
0.0
 11
29.8054288539
 21
33.6890838525
 31
0.0
  0
SPLINE
  5
3AE
100
AcDbEntity
  8
RACCORDO
100
AcDbSpline
 62
7
  6
CONTINUOUS
 70
0
 71
3
 72
11
 73
7
 74
5
 42
0.0000001
 43
0.0000001
 44
0.0000000001
 12
0.0000403501
 22
-0.1443858036
 32
0.0
 13
0.1291425697
 23
-0.064571345
 33
0.0
 40
0.0
 40
0.0
 40
0.0
 40
0.0
 40
0.2065783418
 40
0.4344754237
 40
0.6975324297
 40
1.0
 40
1.0
 40
1.0
 40
1.0
 10
28.0055527364
 20
32.3988283876
 30
0.0
 10
28.0055555148
 20
32.3888860609
 30
0.0
 10
28.0099500267
 20
32.3678170265
 30
0.0
 10
28.0282774761
 20
32.3390605845
 30
0.0
 10
28.0568619954
 20
32.3132477115
 30
0.0
 10
28.0804002222
 20
32.2992725899
 30
0.0
 10
28.093420702
 20
32.2927623439
 30
0.0
 11
28.0055527364
 21
32.3988283876
 31
0.0
 11
28.0113216657
 21
32.3695646172
 31
0.0
 11
28.0283853267
 21
32.3414296322
 31
0.0
 11
28.0561267779
 21
32.3154869778
 31
0.0
 11
28.093420702
 21
32.2927623439
 31
0.0
  0
SPLINE
  5
3AF
100
AcDbEntity
  8
RACCORDO
100
AcDbSpline
 62
7
  6
CONTINUOUS
 70
0
 71
3
 72
15
 73
11
 74
9
 42
0.0000001
 43
0.0000001
 44
0.0000000001
 12
0.0000005433
 22
-0.4373931379
 32
0.0
 13
-0.3912229335
 23
0.1955949217
 33
0.0
 40
0.0
 40
0.0
 40
0.0
 40
0.0
 40
0.1487956607
 40
0.2840505564
 40
0.4066337084
 40
0.5199163178
 40
0.6296853472
 40
0.7427992355
 40
0.8650888082
 40
1.0
 40
1.0
 40
1.0
 40
1.0
 10
29.805428854
 20
-72.1483167749
 30
0.0
 10
29.805428881
 20
-72.1700108419
 30
0.0
 10
29.802278258
 20
-72.211544334
 30
0.0
 10
29.7866459372
 20
-72.2691632509
 30
0.0
 10
29.7605855294
 20
-72.317261838
 30
0.0
 10
29.7246022404
 20
-72.3536595302
 30
0.0
 10
29.6800671509
 20
-72.3761632175
 30
0.0
 10
29.6294730774
 20
-72.3834918883
 30
0.0
 10
29.5754347157
 20
-72.3758695817
 30
0.0
 10
29.5402226705
 20
-72.3620703415
 30
0.0
 10
29.5226292198
 20
-72.3532743602
 30
0.0
 11
29.805428854
 21
-72.1483167749
 31
0.0
 11
29.7999961724
 21
-72.2131718353
 31
0.0
 11
29.7839041392
 21
-72.2701007417
 31
0.0
 11
29.7577735521
 21
-72.3169193093
 31
0.0
 11
29.7226041186
 21
-72.3518222878
 31
0.0
 11
29.6797482046
 21
-72.3734681634
 31
0.0
 11
29.6308533801
 21
-72.3810243112
 31
0.0
 11
29.5778010296
 21
-72.3742066455
 31
0.0
 11
29.5226292198
 21
-72.3532743602
 31
0.0
  0
SPLINE
  5
3B0
100
AcDbEntity
  8
RACCORDO
100
AcDbSpline
 62
7
  6
CONTINUOUS
 70
0
 71
3
 72
11
 73
7
 74
5
 42
0.0000001
 43
0.0000001
 44
0.0000000001
 12
0.4079950368
 22
0.1888863769
 32
0.0
 13
0.0027810966
 23
0.4495890112
 33
0.0
 40
0.0
 40
0.0
 40
0.0
 40
0.0
 40
0.2166761523
 40
0.4494780108
 40
0.7094272567
 40
1.0
 40
1.0
 40
1.0
 40
1.0
 10
30.0354279952
 20
-72.5328482409
 30
0.0
 10
30.0648955935
 20
-72.5192058497
 30
0.0
 10
30.1210038143
 20
-72.4787835992
 30
0.0
 10
30.1814973688
 20
-72.3892806796
 30
0.0
 10
30.2180763112
 20
-72.2764812544
 30
0.0
 10
30.2256890291
 20
-72.1936978327
 30
0.0
 10
30.2259583994
 20
-72.1501517286
 30
0.0
 11
30.0354279952
 21
-72.5328482409
 31
0.0
 11
30.1148588836
 21
-72.4764494677
 31
0.0
 11
30.17493982
 21
-72.3907436019
 31
0.0
 11
30.2126118017
 21
-72.2801089909
 31
0.0
 11
30.2259583994
 21
-72.1501517286
 31
0.0
  0
SPLINE
  5
3B1
100
AcDbEntity
  8
RACCORDO
100
AcDbSpline
 62
7
  6
CONTINUOUS
 70
0
 71
3
 72
11
 73
7
 74
5
 42
0.0000001
 43
0.0000001
 44
0.0000000001
 12
-0.5252088232
 22
0.262603433
 32
0.0
 13
-0.0000165552
 23
0.5872008777
 33
0.0
 40
0.0
 40
0.0
 40
0.0
 40
0.0
 40
0.2296735233
 40
0.4882132692
 40
0.7532075793
 40
1.0
 40
1.0
 40
1.0
 40
1.0
 10
-38.579180894
 20
-38.3023693033
 30
0.0
 10
-38.6193897477
 20
-38.2822649514
 30
0.0
 10
-38.6962236339
 20
-38.2221571403
 30
0.0
 10
-38.7849516907
 20
-38.1028228214
 30
0.0
 10
-38.84531294
 20
-37.9632634724
 30
0.0
 10
-38.8619791669
 20
-37.8629176596
 30
0.0
 10
-38.8619805288
 20
-37.8146120843
 30
0.0
 11
-38.579180894
 21
-38.3023693033
 31
0.0
 11
-38.6874045145
 21
-38.2218952091
 31
0.0
 11
-38.7791555062
 21
-38.1009428273
 31
0.0
 11
-38.8404559405
 21
-37.9579213638
 31
0.0
 11
-38.8619805288
 21
-37.8146120843
 31
0.0
  0
SPLINE
  5
3B2
100
AcDbEntity
  8
RACCORDO
100
AcDbSpline
 62
7
  6
CONTINUOUS
 70
0
 71
3
 72
11
 73
7
 74
5
 42
0.0000001
 43
0.0000001
 44
0.0000000001
 12
-0.0000148491
 22
-0.1443860475
 32
0.0
 13
0.1291428057
 23
-0.0645714076
 33
0.0
 40
0.0
 40
0.0
 40
0.0
 40
0.0
 40
0.206582017
 40
0.4344785876
 40
0.6975252505
 40
1.0
 40
1.0
 40
1.0
 40
1.0
 10
-38.9498484249
 20
-37.7085460638
 30
0.0
 10
-38.9498494474
 20
-37.7184885841
 30
0.0
 10
-38.9454511141
 20
-37.7395584488
 30
0.0
 10
-38.9271229899
 20
-37.7683126846
 30
0.0
 10
-38.8985401486
 20
-37.7941275694
 30
0.0
 10
-38.8750013414
 20
-37.8081016775
 30
0.0
 10
-38.8619805288
 20
-37.8146120843
 30
0.0
 11
-38.9498484249
 21
-37.7085460638
 31
0.0
 11
-38.9440803089
 21
-37.7378105856
 31
0.0
 11
-38.9270152434
 21
-37.7659446961
 31
0.0
 11
-38.8992755781
 21
-37.791887166
 31
0.0
 11
-38.8619805288
 21
-37.8146120843
 31
0.0
  0
SPLINE
  5
3B3
100
AcDbEntity
  8
RACCORDO
100
AcDbSpline
 62
7
  6
CONTINUOUS
 70
0
 71
3
 72
11
 73
7
 74
5
 42
0.0000001
 43
0.0000001
 44
0.0000000001
 12
-0.0000143701
 22
-0.1443860402
 32
0.0
 13
0.1291428036
 23
-0.0645713953
 33
0.0
 40
0.0
 40
0.0
 40
0.0
 40
0.0
 40
0.2065819985
 40
0.434478562
 40
0.6975252468
 40
1.0
 40
1.0
 40
1.0
 40
1.0
 10
-38.949848429
 20
68.1288545566
 30
0.0
 10
-38.9498494186
 20
68.1189120377
 30
0.0
 10
-38.9454511068
 20
68.0978421835
 30
0.0
 10
-38.9271229999
 20
68.0690879292
 30
0.0
 10
-38.8985401452
 20
68.043273061
 30
0.0
 10
-38.8750013414
 20
68.0292989495
 30
0.0
 10
-38.8619805288
 20
68.0227885439
 30
0.0
 11
-38.949848429
 21
68.1288545566
 31
0.0
 11
-38.9440802984
 21
68.099590042
 31
0.0
 11
-38.927015249
 21
68.0714559249
 31
0.0
 11
-38.8992755776
 21
68.0455134598
 31
0.0
 11
-38.8619805288
 21
68.0227885439
 31
0.0
  0
SPLINE
  5
3B4
100
AcDbEntity
  8
RACCORDO
100
AcDbSpline
 62
7
  6
CONTINUOUS
 70
0
 71
3
 72
11
 73
7
 74
5
 42
0.0000001
 43
0.0000001
 44
0.0000000001
 12
-0.1689815347
 22
0.0844616437
 32
0.0
 13
0.0000000046
 23
0.1889140766
 33
0.0
 40
0.0
 40
0.0
 40
0.0
 40
0.0
 40
0.2171654761
 40
0.450392866
 40
0.7103024545
 40
1.0
 40
1.0
 40
1.0
 40
1.0
 10
29.6005990529
 20
-72.5155327382
 30
0.0
 10
29.5883667344
 20
-72.5094186872
 30
0.0
 10
29.5652258341
 20
-72.4918085533
 30
0.0
 10
29.5404179555
 20
-72.4537723716
 30
0.0
 10
29.5255780426
 20
-72.4062569611
 30
0.0
 10
29.5226292193
 20
-72.3715170083
 30
0.0
 10
29.5226292198
 20
-72.3532743602
 30
0.0
 11
29.6005990529
 21
-72.5155327382
 31
0.0
 11
29.567773946
 21
-72.490923523
 31
0.0
 11
29.5431113153
 21
-72.4544128027
 31
0.0
 11
29.5278132496
 21
-72.4077562262
 31
0.0
 11
29.5226292198
 21
-72.3532743602
 31
0.0
  0
SPLINE
  5
3B5
100
AcDbEntity
  8
RACCORDO
100
AcDbSpline
 62
7
  6
CONTINUOUS
 70
0
 71
3
 72
11
 73
7
 74
5
 42
0.0000001
 43
0.0000001
 44
0.0000000001
 12
-0.1689813847
 22
0.0844619638
 32
0.0
 13
-0.0000000064
 23
0.1889140855
 33
0.0
 40
0.0
 40
0.0
 40
0.0
 40
0.0
 40
0.2171653099
 40
0.4503927527
 40
0.7103023951
 40
1.0
 40
1.0
 40
1.0
 40
1.0
 10
-38.5012110801
 20
-38.4646277337
 30
0.0
 10
-38.5134433784
 20
-38.4585136642
 30
0.0
 10
-38.5365842175
 20
-38.4409034775
 30
0.0
 10
-38.5613921671
 20
-38.4028673532
 30
0.0
 10
-38.5762320588
 20
-38.3553519122
 30
0.0
 10
-38.579180894
 20
-38.3206119557
 30
0.0
 10
-38.5791808947
 20
-38.302369303
 30
0.0
 11
-38.5012110801
 21
-38.4646277337
 31
0.0
 11
-38.5340361221
 21
-38.440018481
 31
0.0
 11
-38.5586987893
 21
-38.4035077708
 31
0.0
 11
-38.5739968586
 21
-38.3568511823
 31
0.0
 11
-38.5791808947
 21
-38.302369303
 31
0.0
  0
SPLINE
  5
3B6
100
AcDbEntity
  8
RACCORDO
100
AcDbSpline
 62
7
  6
CONTINUOUS
 70
0
 71
3
 72
8
 73
4
 74
2
 42
0.0000001
 43
0.0000001
 44
0.0000000001
 12
0.0167615633
 22
-0.0117942994
 32
0.0
 13
0.0183203002
 23
-0.0091881502
 33
0.0
 40
0.0
 40
0.0
 40
0.0
 40
0.0
 40
1.0
 40
1.0
 40
1.0
 40
1.0
 10
-34.1441593345
 20
-35.4602966959
 30
0.0
 10
-34.1385721467
 20
-35.4642281291
 30
0.0
 10
-34.1326524492
 20
-35.4677132333
 30
0.0
 10
-34.1265456825
 20
-35.4707759501
 30
0.0
 11
-34.1441593345
 21
-35.4602966959
 31
0.0
 11
-34.1265456825
 21
-35.4707759501
 31
0.0
  0
SPLINE
  5
3B7
100
AcDbEntity
  8
RACCORDO
100
AcDbSpline
 62
7
  6
CONTINUOUS
 70
0
 71
3
 72
8
 73
4
 74
2
 42
0.0000001
 43
0.0000001
 44
0.0000000001
 12
0.0000288411
 22
-0.0226935911
 32
0.0
 13
0.003214114
 23
-0.0224648477
 33
0.0
 40
0.0
 40
0.0
 40
0.0
 40
0.0
 40
1.0
 40
1.0
 40
1.0
 40
1.0
 10
-34.3506385999
 20
-35.0842728401
 30
0.0
 10
-34.3506289862
 20
-35.0918373705
 30
0.0
 10
-34.3501150591
 20
-35.0994220522
 30
0.0
 10
-34.3490436878
 20
-35.1069103348
 30
0.0
 11
-34.3506385999
 21
-35.0842728401
 31
0.0
 11
-34.3490436878
 21
-35.1069103348
 31
0.0
  0
SPLINE
  5
3B8
100
AcDbEntity
  8
RACCORDO
100
AcDbSpline
 62
7
  6
CONTINUOUS
 70
0
 71
3
 72
15
 73
11
 74
9
 42
0.0000001
 43
0.0000001
 44
0.0000000001
 12
-0.5701695407
 22
0.2850660234
 32
0.0
 13
-0.0000145285
 23
-0.637460542
 33
0.0
 40
0.0
 40
0.0
 40
0.0
 40
0.0
 40
0.1348561254
 40
0.2573957507
 40
0.3704723954
 40
0.4799257848
 40
0.5930000782
 40
0.7157264728
 40
0.8513022774
 40
1.0
 40
1.0
 40
1.0
 40
1.0
 10
-36.7401647557
 20
65.211464855
 30
0.0
 10
-36.7657950408
 20
65.2242791548
 30
0.0
 10
-36.817002712
 20
65.2446517929
 30
0.0
 10
-36.8955927597
 20
65.2568694316
 30
0.0
 10
-36.9694882596
 20
65.2472879728
 30
0.0
 10
-37.0345769242
 20
65.2149124166
 30
0.0
 10
-37.0866703029
 20
65.1615264779
 30
0.0
 10
-37.1238006196
 20
65.0908968398
 30
0.0
 10
-37.1456437071
 20
65.006618032
 30
0.0
 10
-37.1499716568
 20
64.9460551936
 30
0.0
 10
-37.1499723769
 20
64.9144588833
 30
0.0
 11
-36.7401647557
 21
65.211464855
 31
0.0
 11
-36.8203849129
 21
65.2423644747
 31
0.0
 11
-36.8977284073
 21
65.2533101756
 31
0.0
 11
-36.9691033852
 21
65.2432397871
 31
0.0
 11
-37.0315564572
 21
65.2121306878
 31
0.0
 11
-37.0824537953
 21
65.1610910455
 31
0.0
 11
-37.1198154656
 21
65.0923557235
 31
0.0
 11
-37.1424537325
 21
65.0089491548
 31
0.0
 11
-37.1499723769
 21
64.9144588833
 31
0.0
  0
SPLINE
  5
3B9
100
AcDbEntity
  8
RACCORDO
100
AcDbSpline
 62
7
  6
CONTINUOUS
 70
0
 71
3
 72
9
 73
5
 74
3
 42
0.0000001
 43
0.0000001
 44
0.0000000001
 12
-0.0912696516
 22
-0.0475859885
 32
0.0
 13
-0.0792739398
 23
-0.0656522511
 33
0.0
 40
0.0
 40
0.0
 40
0.0
 40
0.0
 40
0.240045773
 40
1.0
 40
1.0
 40
1.0
 40
1.0
 10
-34.041209689
 20
-35.4134193532
 30
0.0
 10
-34.0485126537
 20
-35.4172269584
 30
0.0
 10
-34.0784601644
 20
-35.4339963815
 30
0.0
 10
-34.1064641606
 20
-35.4541450482
 30
0.0
 10
-34.1265456825
 20
-35.4707759501
 30
0.0
 11
-34.041209689
 21
-35.4134193532
 31
0.0
 11
-34.0627782113
 21
-35.4254725353
 31
0.0
 11
-34.1265456825
 21
-35.4707759501
 31
0.0
  0
SPLINE
  5
3BA
100
AcDbEntity
  8
RACCORDO
100
AcDbSpline
 62
7
  6
CONTINUOUS
 70
0
 71
3
 72
9
 73
5
 74
3
 42
0.0000001
 43
0.0000001
 44
0.0000000001
 12
-0.1019693292
 22
-0.0404250947
 32
0.0
 13
-0.0914706907
 23
-0.0605396162
 33
0.0
 40
0.0
 40
0.0
 40
0.0
 40
0.0
 40
0.2423598346
 40
1.0
 40
1.0
 40
1.0
 40
1.0
 10
-34.0472142788
 20
-35.4091950539
 30
0.0
 10
-34.0554520354
 20
-35.4124608603
 30
0.0
 10
-34.0890548612
 20
-35.4269034373
 30
0.0
 10
-34.1210401396
 20
-35.4450195992
 30
0.0
 10
-34.1441407627
 20
-35.4603086808
 30
0.0
 11
-34.0472142788
 21
-35.4091950539
 31
0.0
 11
-34.071644974
 21
-35.4196772415
 31
0.0
 11
-34.1441407627
 21
-35.4603086808
 31
0.0
  0
SPLINE
  5
3BB
100
AcDbEntity
  8
RACCORDO
100
AcDbSpline
 62
7
  6
CONTINUOUS
 70
0
 71
3
 72
11
 73
7
 74
5
 42
0.0000001
 43
0.0000001
 44
0.0000000001
 12
0.0000197937
 22
-0.8520140845
 32
0.0
 13
0.7620422334
 23
-0.3810769412
 33
0.0
 40
0.0
 40
0.0
 40
0.0
 40
0.0
 40
0.2467424519
 40
0.5119749011
 40
0.7705534111
 40
1.0
 40
1.0
 40
1.0
 40
1.0
 10
-37.1499723769
 20
-36.4182905757
 30
0.0
 10
-37.1499707489
 20
-36.4883665905
 30
0.0
 10
-37.1270538227
 20
-36.634118666
 30
0.0
 10
-37.04029613
 20
-36.8372172642
 30
0.0
 10
-36.9106692435
 20
-37.0099975489
 30
0.0
 10
-36.7984474194
 20
-37.0959585671
 30
0.0
 10
-36.7401647557
 20
-37.1251041685
 30
0.0
 11
-37.1499723769
 21
-36.4182905757
 31
0.0
 11
-37.1198154674
 21
-36.6263443943
 31
0.0
 11
-37.0315564574
 21
-36.8343783174
 31
0.0
 11
-36.8977284076
 21
-37.0093859317
 31
0.0
 11
-36.7401647557
 21
-37.1251041685
 31
0.0
  0
SPLINE
  5
3BC
100
AcDbEntity
  8
RACCORDO
100
AcDbSpline
 62
7
  6
CONTINUOUS
 70
0
 71
3
 72
9
 73
5
 74
3
 42
0.0000001
 43
0.0000001
 44
0.0000000001
 12
-0.091998554
 22
-0.0596700142
 32
0.0
 13
-0.1008480191
 23
-0.0430571896
 33
0.0
 40
0.0
 40
0.0
 40
0.0
 40
0.0
 40
0.2407744537
 40
1.0
 40
1.0
 40
1.0
 40
1.0
 10
-34.252118425
 20
-35.0557880979
 30
0.0
 10
-34.2595020589
 20
-35.060577103
 30
0.0
 10
-34.290646959
 20
-35.0797254163
 30
0.0
 10
-34.3235226752
 20
-35.0960049736
 30
0.0
 10
-34.349044806
 20
-35.1069016797
 30
0.0
 11
-34.252118425
 21
-35.0557880979
 31
0.0
 11
-34.274600191
 21
-35.0696316438
 31
0.0
 11
-34.349044806
 21
-35.1069016797
 31
0.0
  0
SPLINE
  5
3BD
100
AcDbEntity
  8
RACCORDO
100
AcDbSpline
 62
7
  6
CONTINUOUS
 70
0
 71
3
 72
9
 73
5
 74
3
 42
0.0000001
 43
0.0000001
 44
0.0000000001
 12
-0.093726083
 22
-0.0452541879
 32
0.0
 13
-0.0999960284
 23
-0.0288671866
 33
0.0
 40
0.0
 40
0.0
 40
0.0
 40
0.0
 40
0.2385351264
 40
1.0
 40
1.0
 40
1.0
 40
1.0
 10
-34.2533094146
 20
-35.0476014392
 30
0.0
 10
-34.2607617357
 20
-35.0511996771
 30
0.0
 10
-34.2923703415
 20
-35.0655219972
 30
0.0
 10
-34.3252574454
 20
-35.0769457236
 30
0.0
 10
-34.3506385998
 20
-35.0842728398
 30
0.0
 11
-34.2533094146
 21
-35.0476014392
 31
0.0
 11
-34.2759140065
 21
-35.0578675029
 31
0.0
 11
-34.3506385998
 21
-35.0842728398
 31
0.0
  0
SPLINE
  5
3BE
100
AcDbEntity
  8
RACCORDO
100
AcDbSpline
 62
7
  6
CONTINUOUS
 70
0
 71
3
 72
15
 73
11
 74
9
 42
0.0000001
 43
0.0000001
 44
0.0000000001
 12
0.5701695391
 22
-0.2850667643
 32
0.0
 13
0.0000119423
 23
0.637460872
 33
0.0
 40
0.0
 40
0.0
 40
0.0
 40
0.0
 40
0.1348577594
 40
0.2573968016
 40
0.3704735614
 40
0.4799266635
 40
0.5930014688
 40
0.7157277627
 40
0.8513039798
 40
1.0
 40
1.0
 40
1.0
 40
1.0
 10
27.6836130809
 20
-69.3369930868
 30
0.0
 10
27.7092436764
 20
-69.3498075752
 30
0.0
 10
27.7604505895
 20
-69.370182914
 30
0.0
 10
27.8390413141
 20
-69.3823995545
 30
0.0
 10
27.9129366169
 20
-69.3728177567
 30
0.0
 10
27.9780248508
 20
-69.3404408859
 30
0.0
 10
28.0301173348
 20
-69.2870541192
 30
0.0
 10
28.067247438
 20
-69.2164240944
 30
0.0
 10
28.0890895081
 20
-69.1321454798
 30
0.0
 10
28.0934201101
 20
-69.07158308
 30
0.0
 10
28.093420702
 20
-69.0399871152
 30
0.0
 11
27.6836130809
 21
-69.3369930868
 31
0.0
 11
27.7638335514
 21
-69.3678949146
 31
0.0
 11
27.8411767431
 21
-69.37884039
 31
0.0
 11
27.9125517459
 21
-69.3687693855
 31
0.0
 11
27.9750041858
 21
-69.3376593472
 31
0.0
 11
28.0259010253
 21
-69.286618694
 31
0.0
 11
28.063262162
 21
-69.217883109
 31
0.0
 11
28.0859004086
 21
-69.134476216
 31
0.0
 11
28.093420702
 21
-69.0399871152
 31
0.0
  0
SPLINE
  5
3BF
100
AcDbEntity
  8
RACCORDO
100
AcDbSpline
 62
7
  6
CONTINUOUS
 70
0
 71
3
 72
9
 73
5
 74
3
 42
0.0000001
 43
0.0000001
 44
0.0000000001
 12
0.0000001055
 22
0.204790318
 32
0.0
 13
-0.0542844535
 23
0.1974646106
 33
0.0
 40
0.0
 40
0.0
 40
0.0
 40
0.0
 40
0.2389456905
 40
1.0
 40
1.0
 40
1.0
 40
1.0
 10
28.093420702
 20
32.2927623439
 30
0.0
 10
28.0934207104
 20
32.3090735986
 30
0.0
 10
28.0908608162
 20
32.3773264273
 30
0.0
 10
28.0786001907
 20
32.4451026333
 30
0.0
 10
28.0648290516
 20
32.4951963976
 30
0.0
 11
28.093420702
 21
32.2927623439
 31
0.0
 11
28.0916434953
 21
32.3416638244
 31
0.0
 11
28.0648290516
 21
32.4951963976
 31
0.0
  0
SPLINE
  5
3C0
100
AcDbEntity
  8
RACCORDO
100
AcDbSpline
 62
7
  6
CONTINUOUS
 70
0
 71
3
 72
9
 73
5
 74
3
 42
0.0000001
 43
0.0000001
 44
0.0000000001
 12
-0.1212913385
 22
0.4412082163
 32
0.0
 13
-0.3271261585
 23
0.3199449255
 33
0.0
 40
0.0
 40
0.0
 40
0.0
 40
0.0
 40
0.5065165856
 40
1.0
 40
1.0
 40
1.0
 40
1.0
 10
28.0648290516
 20
32.4951963976
 30
0.0
 10
28.04435036
 20
32.5696894907
 30
0.0
 10
27.9843157457
 20
32.7118399753
 30
0.0
 10
27.891034512
 20
32.8351233265
 30
0.0
 10
27.8372240675
 20
32.8877524979
 30
0.0
 11
28.0648290516
 21
32.4951963976
 31
0.0
 11
27.9750035832
 21
32.708852113
 31
0.0
 11
27.8372240675
 21
32.8877524979
 31
0.0
  0
SPLINE
  5
3C1
100
AcDbEntity
  8
RACCORDO
100
AcDbSpline
 62
7
  6
CONTINUOUS
 70
0
 71
3
 72
9
 73
5
 74
3
 42
0.0000001
 43
0.0000001
 44
0.0000000001
 12
-0.1361306887
 22
0.1331422815
 32
0.0
 13
-0.1703114421
 23
0.0851612837
 33
0.0
 40
0.0
 40
0.0
 40
0.0
 40
0.0
 40
0.2645539582
 40
1.0
 40
1.0
 40
1.0
 40
1.0
 10
27.8372240675
 20
32.8877524979
 30
0.0
 10
27.82521943
 20
32.8994936038
 30
0.0
 10
27.7783713451
 20
32.9423021408
 30
0.0
 10
27.7253647062
 20
32.9786987604
 30
0.0
 10
27.6836130809
 20
32.9995759367
 30
0.0
 11
27.8372240675
 21
32.8877524979
 31
0.0
 11
27.8000007076
 21
32.9216951772
 31
0.0
 11
27.6836130809
 21
32.9995759367
 31
0.0
  0
SPLINE
  5
3C2
100
AcDbEntity
  8
RACCORDO
100
AcDbSpline
 62
7
  6
CONTINUOUS
 70
0
 71
3
 72
11
 73
7
 74
5
 42
0.0000001
 43
0.0000001
 44
0.0000000001
 12
-0.2889262463
 22
-0.2392800289
 32
0.0
 13
-0.0000001166
 23
-0.3751443829
 33
0.0
 40
0.0
 40
0.0
 40
0.0
 40
0.0
 40
0.2439343447
 40
0.5030007007
 40
0.7604735585
 40
1.0
 40
1.0
 40
1.0
 40
1.0
 10
27.8408412811
 20
-69.0074241033
 30
0.0
 10
27.8173482696
 20
-69.026880309
 30
0.0
 10
27.7740972082
 20
-69.0734444422
 30
0.0
 10
27.7246965607
 20
-69.1553772304
 30
0.0
 10
27.6922257242
 20
-69.2447885789
 30
0.0
 10
27.6836130902
 20
-69.3070407538
 30
0.0
 10
27.6836130809
 20
-69.3369930868
 30
0.0
 11
27.8408412811
 21
-69.0074241033
 31
0.0
 11
27.7778856497
 21
-69.0738377934
 31
0.0
 11
27.7274532909
 21
-69.1569157459
 31
0.0
 11
27.6948720147
 21
-69.2478442411
 31
0.0
 11
27.6836130809
 21
-69.3369930868
 31
0.0
  0
SPLINE
  5
3C3
100
AcDbEntity
  8
RACCORDO
100
AcDbSpline
 62
7
  6
CONTINUOUS
 70
0
 71
3
 72
11
 73
7
 74
5
 42
0.0000001
 43
0.0000001
 44
0.0000000001
 12
-0.4342348114
 22
0.1130007242
 32
0.0
 13
0.0937808854
 23
0.4387871701
 33
0.0
 40
0.0
 40
0.0
 40
0.0
 40
0.0
 40
0.2363673836
 40
0.4908126188
 40
0.7509288198
 40
1.0
 40
1.0
 40
1.0
 40
1.0
 10
-36.5829253961
 20
-36.7955386075
 30
0.0
 10
-36.6171383782
 20
-36.786635379
 30
0.0
 10
-36.6852932287
 20
-36.7539811129
 30
0.0
 10
-36.7615064215
 20
-36.6673480512
 30
0.0
 10
-36.7988902023
 20
-36.5564288712
 30
0.0
 10
-36.7956260418
 20
-36.4785560653
 30
0.0
 10
-36.7878400032
 20
-36.4421263192
 30
0.0
 11
-36.5829253961
 21
-36.7955386075
 31
0.0
 11
-36.6785291376
 21
-36.7496247184
 31
0.0
 11
-36.7543206693
 21
-36.6642422603
 31
0.0
 11
-36.7920739579
 21
-36.55380359
 31
0.0
 11
-36.7878400032
 21
-36.4421263192
 31
0.0
  0
SPLINE
  5
3C4
100
AcDbEntity
  8
RACCORDO
100
AcDbSpline
 62
7
  6
CONTINUOUS
 70
0
 71
3
 72
11
 73
7
 74
5
 42
0.0000001
 43
0.0000001
 44
0.0000000001
 12
-0.3552592169
 22
-0.1025545731
 32
0.0
 13
-0.3307282881
 23
0.1653642982
 33
0.0
 40
0.0
 40
0.0
 40
0.0
 40
0.0
 40
0.2517443989
 40
0.5159369745
 40
0.7717524209
 40
1.0
 40
1.0
 40
1.0
 40
1.0
 10
-36.7878403723
 20
-36.4421283777
 30
0.0
 10
-36.8176518783
 20
-36.4507342242
 30
0.0
 10
-36.8806373739
 20
-36.4620833052
 30
0.0
 10
-36.9761302361
 20
-36.4635675859
 30
0.0
 10
-37.0677710772
 20
-36.4502574751
 30
0.0
 10
-37.1248097332
 20
-36.4308719093
 30
0.0
 10
-37.1499723769
 20
-36.4182905757
 30
0.0
 11
-36.7878403723
 21
-36.4421283777
 31
0.0
 11
-36.8793210287
 21
-36.4593437159
 31
0.0
 11
-36.9769973287
 21
-36.4609379419
 31
0.0
 11
-37.0705201593
 21
-36.4467577929
 31
0.0
 11
-37.1499723769
 21
-36.4182905757
 31
0.0
  0
SPLINE
  5
3C5
100
AcDbEntity
  8
RACCORDO
100
AcDbSpline
 62
7
  6
CONTINUOUS
 70
0
 71
3
 72
12
 73
8
 74
6
 42
0.0000001
 43
0.0000001
 44
0.0000000001
 12
-0.0549483499
 22
0.2253710436
 32
0.0
 13
0.231867989
 23
0.0069759662
 33
0.0
 40
0.0
 40
0.0
 40
0.0
 40
0.0
 40
0.2804594286
 40
0.5222262149
 40
0.6353198152
 40
0.7495660118
 40
1.0
 40
1.0
 40
1.0
 40
1.0
 10
-36.787840019
 20
64.8906193222
 30
0.0
 10
-36.7929769466
 20
64.9116884669
 30
0.0
 10
-36.7987313528
 20
64.952158473
 30
0.0
 10
-36.7874704618
 20
65.0020040098
 30
0.0
 10
-36.7651811332
 20
65.031309706
 30
0.0
 10
-36.7347349716
 20
65.0530956132
 30
0.0
 10
-36.7057199508
 20
65.0588204059
 30
0.0
 10
-36.6863640758
 20
65.0594027456
 30
0.0
 11
-36.787840019
 21
64.8906193222
 31
0.0
 11
-36.7948283351
 21
64.9553018963
 31
0.0
 11
-36.7802829267
 21
65.0094662068
 31
0.0
 11
-36.764323886
 21
65.0302884528
 31
0.0
 11
-36.7428466966
 21
65.0458154457
 31
0.0
 11
-36.6863640758
 21
65.0594027456
 31
0.0
  0
SPLINE
  5
3C6
100
AcDbEntity
  8
RACCORDO
100
AcDbSpline
 62
7
  6
CONTINUOUS
 70
0
 71
3
 72
11
 73
7
 74
5
 42
0.0000001
 43
0.0000001
 44
0.0000000001
 12
0.3307283888
 22
-0.1653640404
 32
0.0
 13
0.355259245
 23
0.1025543848
 33
0.0
 40
0.0
 40
0.0
 40
0.0
 40
0.0
 40
0.2282475519
 40
0.484063011
 40
0.7482556034
 40
1.0
 40
1.0
 40
1.0
 40
1.0
 10
-37.1499723769
 20
64.9144588833
 30
0.0
 10
-37.1248097285
 20
64.9018775709
 30
0.0
 10
-37.0677710705
 20
64.8824920366
 30
0.0
 10
-36.9761302359
 20
64.8691819356
 30
0.0
 10
-36.8806373776
 20
64.8706661955
 30
0.0
 10
-36.8176518809
 20
64.8820152506
 30
0.0
 10
-36.7878403728
 20
64.8906210812
 30
0.0
 11
-37.1499723769
 21
64.9144588833
 31
0.0
 11
-37.0705201594
 21
64.8859917127
 31
0.0
 11
-36.976997329
 21
64.8718115746
 31
0.0
 11
-36.879321029
 21
64.8734057815
 31
0.0
 11
-36.7878403728
 21
64.8906210812
 31
0.0
  0
SPLINE
  5
3C7
100
AcDbEntity
  8
RACCORDO
100
AcDbSpline
 62
7
  6
CONTINUOUS
 70
0
 71
3
 72
11
 73
7
 74
5
 42
0.0000001
 43
0.0000001
 44
0.0000000001
 12
0.0000001779
 22
-0.1889142318
 32
0.0
 13
0.1689717606
 23
-0.0844815429
 33
0.0
 40
0.0
 40
0.0
 40
0.0
 40
0.0
 40
0.2897012584
 40
0.5496242293
 40
0.7828596155
 40
1.0
 40
1.0
 40
1.0
 40
1.0
 10
27.6836130808
 20
32.9995759367
 30
0.0
 10
27.683613098
 20
32.9813330398
 30
0.0
 10
27.686563575
 20
32.9465926116
 30
0.0
 10
27.7014005325
 20
32.8990734059
 30
0.0
 10
27.7262164143
 20
32.8610436751
 30
0.0
 10
27.7493507278
 20
32.8434282071
 30
0.0
 10
27.7615809255
 20
32.8373134222
 30
0.0
 11
27.6836130808
 21
32.9995759367
 31
0.0
 11
27.6887977002
 21
32.9450933771
 31
0.0
 11
27.7040961769
 21
32.8984342323
 31
0.0
 11
27.7287631639
 21
32.8619245883
 31
0.0
 11
27.7615809255
 21
32.8373134222
 31
0.0
  0
SPLINE
  5
3C8
100
AcDbEntity
  8
RACCORDO
100
AcDbSpline
 62
7
  6
CONTINUOUS
 70
0
 71
3
 72
10
 73
6
 74
4
 42
0.0000001
 43
0.0000001
 44
0.0000000001
 12
-0.1169948136
 22
0.0584972416
 32
0.0
 13
-0.0225877217
 23
0.1288390799
 33
0.0
 40
0.0
 40
0.0
 40
0.0
 40
0.0
 40
0.2989747133
 40
0.563607985
 40
1.0
 40
1.0
 40
1.0
 40
1.0
 10
28.093420702
 20
-69.0399871151
 30
0.0
 10
28.081761205
 20
-69.0341573831
 30
0.0
 10
28.060424173
 20
-69.021632262
 30
0.0
 10
28.0270012881
 20
-68.9937124167
 30
0.0
 10
28.0099856353
 20
-68.96573565
 30
0.0
 10
28.0066999348
 20
-68.9469942014
 30
0.0
 11
28.093420702
 21
-69.0399871151
 31
0.0
 11
28.0598274569
 21
-69.0199656097
 31
0.0
 11
28.0336560603
 21
-68.9973102704
 31
0.0
 11
28.0066999348
 21
-68.9469942014
 31
0.0
  0
SPLINE
  5
3C9
100
AcDbEntity
  8
RACCORDO
100
AcDbSpline
 62
7
  6
CONTINUOUS
 70
0
 71
3
 72
11
 73
7
 74
5
 42
0.0000001
 43
0.0000001
 44
0.0000000001
 12
-0.0000003533
 22
0.3751444731
 32
0.0
 13
0.2889265506
 23
0.2392798028
 33
0.0
 40
0.0
 40
0.0
 40
0.0
 40
0.0
 40
0.2395264869
 40
0.4969993185
 40
0.7560656446
 40
1.0
 40
1.0
 40
1.0
 40
1.0
 10
-36.7401647557
 20
-37.1251041685
 30
0.0
 10
-36.7401647839
 20
-37.0951518226
 30
0.0
 10
-36.7315522019
 20
-37.0328996184
 30
0.0
 10
-36.6990813686
 20
-36.9434882414
 30
0.0
 10
-36.6496806732
 20
-36.8615554586
 30
0.0
 10
-36.6064295642
 20
-36.8149913495
 30
0.0
 10
-36.5829365269
 20
-36.7955351614
 30
0.0
 11
-36.7401647557
 21
-37.1251041685
 31
0.0
 11
-36.7289058956
 21
-37.0359552746
 31
0.0
 11
-36.6963246294
 21
-36.9450267615
 31
0.0
 11
-36.6458922298
 21
-36.8619488196
 31
0.0
 11
-36.5829365269
 21
-36.7955351614
 31
0.0
  0
SPLINE
  5
3CA
100
AcDbEntity
  8
RACCORDO
100
AcDbSpline
 62
7
  6
CONTINUOUS
 70
0
 71
3
 72
10
 73
6
 74
4
 42
0.0000001
 43
0.0000001
 44
0.0000000001
 12
-0.0195716357
 22
-0.4268926841
 32
0.0
 13
0.3907363717
 23
-0.1730476827
 33
0.0
 40
0.0
 40
0.0
 40
0.0
 40
0.0
 40
0.2487081936
 40
0.5144055266
 40
1.0
 40
1.0
 40
1.0
 40
1.0
 10
-34.3490446225
 20
-35.1069108466
 30
0.0
 10
-34.3506671646
 20
-35.1423014161
 30
0.0
 10
-34.3419832867
 20
-35.2164679563
 30
0.0
 10
-34.28816705
 20
-35.3488559701
 30
0.0
 10
-34.2074085244
 20
-35.4322878489
 30
0.0
 10
-34.1441620502
 20
-35.4602981817
 30
0.0
 11
-34.3490446225
 21
-35.1069108466
 31
0.0
 11
-34.3378287786
 21
-35.2126006298
 31
0.0
 11
-34.2949573645
 21
-35.3177393153
 31
0.0
 11
-34.1441620502
 21
-35.4602981817
 31
0.0
  0
SPLINE
  5
3CB
100
AcDbEntity
  8
RACCORDO
100
AcDbSpline
 62
7
  6
CONTINUOUS
 70
0
 71
3
 72
11
 73
7
 74
5
 42
0.0000001
 43
0.0000001
 44
0.0000000001
 12
0.132042495
 22
-0.3889136643
 32
0.0
 13
0.2820548704
 23
-0.2985533601
 33
0.0
 40
0.0
 40
0.0
 40
0.0
 40
0.0
 40
0.2415272739
 40
0.5166749618
 40
0.7829133103
 40
1.0
 40
1.0
 40
1.0
 40
1.0
 10
-34.2521180894
 20
-35.055788258
 30
0.0
 10
-34.2414874681
 20
-35.0870993437
 30
0.0
 10
-34.2140144052
 20
-35.1524580091
 30
0.0
 10
-34.1642145401
 20
-35.2475011601
 30
0.0
 10
-34.10839038
 20
-35.3351593546
 30
0.0
 10
-34.0676243982
 20
-35.3875910675
 30
0.0
 10
-34.0472142788
 20
-35.4091950544
 30
0.0
 11
-34.2521180894
 21
-35.055788258
 31
0.0
 11
-34.2146238626
 21
-35.1476290482
 31
0.0
 11
-34.1622505233
 21
-35.2477681984
 31
0.0
 11
-34.1031970853
 21
-35.3398000086
 31
0.0
 11
-34.0472142788
 21
-35.4091950544
 31
0.0
  0
SPLINE
  5
3CC
100
AcDbEntity
  8
RACCORDO
100
AcDbSpline
 62
7
  6
CONTINUOUS
 70
0
 71
3
 72
8
 73
4
 74
2
 42
0.0000001
 43
0.0000001
 44
0.0000000001
 12
0.0050630359
 22
-0.0053165277
 32
0.0
 13
0.0066390483
 23
-0.0031341405
 33
0.0
 40
0.0
 40
0.0
 40
0.0
 40
0.0
 40
1.0
 40
1.0
 40
1.0
 40
1.0
 10
-34.0472142788
 20
-35.4091950544
 30
0.0
 10
-34.0455266002
 20
-35.4109672303
 30
0.0
 10
-34.0434227051
 20
-35.4123746397
 30
0.0
 10
-34.041209689
 20
-35.4134193532
 30
0.0
 11
-34.0472142788
 21
-35.4091950544
 31
0.0
 11
-34.041209689
 21
-35.4134193532
 31
0.0
  0
SPLINE
  5
3CD
100
AcDbEntity
  8
RACCORDO
100
AcDbSpline
 62
7
  6
CONTINUOUS
 70
0
 71
3
 72
11
 73
7
 74
5
 42
0.0000001
 43
0.0000001
 44
0.0000000001
 12
-0.0340990352
 22
-0.0214753361
 32
0.0
 13
-0.0380465059
 23
0.0132814778
 33
0.0
 40
0.0
 40
0.0
 40
0.0
 40
0.0
 40
0.1278811211
 40
0.3380002508
 40
0.6303306266
 40
1.0
 40
1.0
 40
1.0
 40
1.0
 10
-32.9866115211
 20
40.2181729174
 30
0.0
 10
-32.9880650621
 20
40.2172574873
 30
0.0
 10
-32.9929370423
 20
40.2170750939
 30
0.0
 10
-33.0011292805
 20
40.218543838
 30
0.0
 10
-33.0124946558
 20
40.2217052908
 30
0.0
 10
-33.0209066571
 20
40.2245288949
 30
0.0
 10
-33.0255948664
 20
40.2261654801
 30
0.0
 11
-32.9866115211
 21
40.2181729174
 31
0.0
 11
-32.9916830743
 21
40.2172583193
 31
0.0
 11
-33.0000638941
 21
40.2184660592
 31
0.0
 11
-33.0114448326
 21
40.221507583
 31
0.0
 11
-33.0255948664
 21
40.2261654801
 31
0.0
  0
SPLINE
  5
3CE
100
AcDbEntity
  8
RACCORDO
100
AcDbSpline
 62
7
  6
CONTINUOUS
 70
0
 71
3
 72
9
 73
5
 74
3
 42
0.0000001
 43
0.0000001
 44
0.0000000001
 12
-0.0441707059
 22
0.0154193464
 32
0.0
 13
-0.0435133037
 23
0.0171872019
 33
0.0
 40
0.0
 40
0.0
 40
0.0
 40
0.0
 40
0.2195340247
 40
1.0
 40
1.0
 40
1.0
 40
1.0
 10
-33.0255948664
 20
40.2261654801
 30
0.0
 10
-33.0288271907
 20
40.2272938371
 30
0.0
 10
-33.0435023687
 20
40.2325722873
 30
0.0
 10
-33.0580363731
 20
40.2382330318
 30
0.0
 10
-33.0693565907
 20
40.2427043739
 30
0.0
 11
-33.0255948664
 21
40.2261654801
 31
0.0
 11
-33.0352637886
 21
40.2296298607
 31
0.0
 11
-33.0693565907
 21
40.2427043739
 31
0.0
  0
SPLINE
  5
3CF
100
AcDbEntity
  8
RACCORDO
100
AcDbSpline
 62
7
  6
CONTINUOUS
 70
0
 71
3
 72
11
 73
7
 74
5
 42
0.0000001
 43
0.0000001
 44
0.0000000001
 12
-0.0340990352
 22
-0.0214753361
 32
0.0
 13
-0.0380465058
 23
0.0132814778
 33
0.0
 40
0.0
 40
0.0
 40
0.0
 40
0.0
 40
0.1278811212
 40
0.3380002509
 40
0.6303306266
 40
1.0
 40
1.0
 40
1.0
 40
1.0
 10
-32.9866115211
 20
-11.7433513097
 30
0.0
 10
-32.9880650621
 20
-11.7442667397
 30
0.0
 10
-32.9929370423
 20
-11.7444491332
 30
0.0
 10
-33.0011292804
 20
-11.7429803891
 30
0.0
 10
-33.0124946557
 20
-11.7398189363
 30
0.0
 10
-33.020906657
 20
-11.7369953322
 30
0.0
 10
-33.0255948663
 20
-11.735358747
 30
0.0
 11
-32.9866115211
 21
-11.7433513097
 31
0.0
 11
-32.9916830743
 21
-11.7442659078
 31
0.0
 11
-33.0000638941
 21
-11.7430581678
 31
0.0
 11
-33.0114448326
 21
-11.7400166441
 31
0.0
 11
-33.0255948663
 21
-11.735358747
 31
0.0
  0
SPLINE
  5
3D0
100
AcDbEntity
  8
RACCORDO
100
AcDbSpline
 62
7
  6
CONTINUOUS
 70
0
 71
3
 72
9
 73
5
 74
3
 42
0.0000001
 43
0.0000001
 44
0.0000000001
 12
-0.044170706
 22
0.0154193464
 32
0.0
 13
-0.0435133037
 23
0.0171872019
 33
0.0
 40
0.0
 40
0.0
 40
0.0
 40
0.0
 40
0.2195340246
 40
1.0
 40
1.0
 40
1.0
 40
1.0
 10
-33.0255948663
 20
-11.735358747
 30
0.0
 10
-33.0288271906
 20
-11.7342303899
 30
0.0
 10
-33.0435023687
 20
-11.7289519398
 30
0.0
 10
-33.0580363731
 20
-11.7232911953
 30
0.0
 10
-33.0693565907
 20
-11.7188198532
 30
0.0
 11
-33.0255948663
 21
-11.735358747
 31
0.0
 11
-33.0352637885
 21
-11.7318943664
 31
0.0
 11
-33.0693565907
 21
-11.7188198532
 31
0.0
  0
SPLINE
  5
3D1
100
AcDbEntity
  8
SMUSSO
100
AcDbSpline
 62
7
  6
CONTINUOUS
 70
0
 71
3
 72
9
 73
5
 74
3
 42
0.0000001
 43
0.0000001
 44
0.0000000001
 12
0.1035878628
 22
-0.0776744869
 32
0.0
 13
0.0
 23
-0.1294749831
 33
0.0
 40
0.0
 40
0.0
 40
0.0
 40
0.0
 40
0.4999919095
 40
1.0
 40
1.0
 40
1.0
 40
1.0
 10
56.4738204179
 20
40.5550328556
 30
0.0
 10
56.4910847824
 20
40.5420873173
 30
0.0
 10
56.5181694005
 20
40.5064941471
 30
0.0
 10
56.530394718
 20
40.4634715897
 30
0.0
 10
56.530394718
 20
40.4418920767
 30
0.0
 11
56.4738204179
 21
40.5550328556
 31
0.0
 11
56.5144542573
 21
40.5046374363
 31
0.0
 11
56.530394718
 21
40.4418920767
 31
0.0
  0
SPLINE
  5
3D2
100
AcDbEntity
  8
RACCORDO
100
AcDbSpline
 62
7
  6
CONTINUOUS
 70
0
 71
3
 72
9
 73
5
 74
3
 42
0.0000001
 43
0.0000001
 44
0.0000000001
 12
-0.1296157438
 22
-0.0640187797
 32
0.0
 13
-0.1445627016
 23
-0.0005200843
 33
0.0
 40
0.0
 40
0.0
 40
0.0
 40
0.0
 40
0.4725459198
 40
1.0
 40
1.0
 40
1.0
 40
1.0
 10
54.5672820808
 20
38.4786342941
 30
0.0
 10
54.5468656172
 20
38.4685503564
 30
0.0
 10
54.5002764628
 20
38.4540825195
 30
0.0
 10
54.4520218277
 20
38.4494268433
 30
0.0
 10
54.4266050988
 20
38.4493354031
 30
0.0
 11
54.5672820808
 21
38.4786342941
 31
0.0
 11
54.5024626863
 21
38.4570679738
 31
0.0
 11
54.4266050988
 21
38.4493354031
 31
0.0
  0
SPLINE
  5
3D3
100
AcDbEntity
  8
RACCORDO
100
AcDbSpline
 62
7
  6
CONTINUOUS
 70
0
 71
3
 72
9
 73
5
 74
3
 42
0.0000001
 43
0.0000001
 44
0.0000000001
 12
-0.1268382264
 22
-0.0648567069
 32
0.0
 13
-0.0715567836
 23
-0.1231826077
 33
0.0
 40
0.0
 40
0.0
 40
0.0
 40
0.0
 40
0.2281550275
 40
1.0
 40
1.0
 40
1.0
 40
1.0
 10
53.5067834527
 20
40.3077238641
 30
0.0
 10
53.497137193
 20
40.3027914028
 30
0.0
 10
53.4569883227
 20
40.2770519261
 30
0.0
 10
53.4257708658
 20
40.2389218435
 30
0.0
 10
53.4073606179
 20
40.2072292181
 30
0.0
 11
53.5067834527
 21
40.3077238641
 31
0.0
 11
53.479281782
 21
40.2904012313
 31
0.0
 11
53.4073606179
 21
40.2072292181
 31
0.0
  0
SPLINE
  5
3D4
100
AcDbEntity
  8
RACCORDO
100
AcDbSpline
 62
7
  6
CONTINUOUS
 70
0
 71
3
 72
9
 73
5
 74
3
 42
0.0000001
 43
0.0000001
 44
0.0000000001
 12
-0.1251880064
 22
-0.0664568249
 32
0.0
 13
-0.0695347561
 23
-0.1235049158
 33
0.0
 40
0.0
 40
0.0
 40
0.0
 40
0.0
 40
0.2271795804
 40
1.0
 40
1.0
 40
1.0
 40
1.0
 10
-53.762566049
 20
93.9423986149
 30
0.0
 10
-53.7720461019
 20
93.9373660704
 30
0.0
 10
-53.8115853077
 20
93.9111326494
 30
0.0
 10
-53.8420443819
 20
93.8727314427
 30
0.0
 10
-53.8599570083
 20
93.8409157357
 30
0.0
 11
-53.762566049
 21
93.9423986149
 31
0.0
 11
-53.7895424716
 21
93.924818689
 31
0.0
 11
-53.8599570083
 21
93.8409157357
 31
0.0
  0
SPLINE
  5
3D5
100
AcDbEntity
  8
RACCORDO
100
AcDbSpline
 62
7
  6
CONTINUOUS
 70
0
 71
3
 72
9
 73
5
 74
3
 42
0.0000001
 43
0.0000001
 44
0.0000000001
 12
0.1304162191
 22
0.1314657212
 32
0.0
 13
0.1661813652
 23
0.0817029982
 33
0.0
 40
0.0
 40
0.0
 40
0.0
 40
0.0
 40
0.2539371476
 40
1.0
 40
1.0
 40
1.0
 40
1.0
 10
-54.6531963565
 20
93.7742419222
 30
0.0
 10
-54.6421571822
 20
93.7853699323
 30
0.0
 10
-54.5969905294
 20
93.8274720108
 30
0.0
 10
-54.5448237492
 20
93.8621090946
 30
0.0
 10
-54.5034965015
 20
93.8824276185
 30
0.0
 11
-54.6531963565
 21
93.7742419222
 31
0.0
 11
-54.6187668035
 21
93.8062711225
 31
0.0
 11
-54.5034965015
 21
93.8824276185
 31
0.0
  0
SPLINE
  5
3D6
100
AcDbEntity
  8
RACCORDO
100
AcDbSpline
 62
7
  6
CONTINUOUS
 70
0
 71
3
 72
9
 73
5
 74
3
 42
0.0000001
 43
0.0000001
 44
0.0000000001
 12
0.1122136989
 22
0.0551698178
 32
0.0
 13
0.1217406303
 23
0.0285454367
 33
0.0
 40
0.0
 40
0.0
 40
0.0
 40
0.0
 40
0.2487387709
 40
1.0
 40
1.0
 40
1.0
 40
1.0
 10
-54.5034965015
 20
93.8824276185
 30
0.0
 10
-54.4941925356
 20
93.8870019094
 30
0.0
 10
-54.456268136
 20
93.9043197115
 30
0.0
 10
-54.4163488876
 20
93.9172306167
 30
0.0
 10
-54.385862549
 20
93.9243789766
 30
0.0
 11
-54.5034965015
 21
93.8824276185
 31
0.0
 11
-54.4752025753
 21
93.895344468
 31
0.0
 11
-54.385862549
 21
93.9243789766
 31
0.0
  0
SPLINE
  5
3D7
100
AcDbEntity
  8
RACCORDO
100
AcDbSpline
 62
7
  6
CONTINUOUS
 70
0
 71
3
 72
10
 73
6
 74
4
 42
0.0000001
 43
0.0000001
 44
0.0000000001
 12
0.5273557992
 22
0.1236530609
 32
0.0
 13
0.4854463462
 23
-0.2402832982
 33
0.0
 40
0.0
 40
0.0
 40
0.0
 40
0.0
 40
0.2284259663
 40
0.4692849783
 40
1.0
 40
1.0
 40
1.0
 40
1.0
 10
-54.385862549
 20
93.9243789766
 30
0.0
 10
-54.3457086297
 20
93.9337941666
 30
0.0
 10
-54.2608816373
 20
93.94415352
 30
0.0
 10
-54.0799975073
 20
93.9307246806
 30
0.0
 10
-53.9458576408
 20
93.883408879
 30
0.0
 10
-53.8599797514
 20
93.8409015604
 30
0.0
 11
-54.385862549
 21
93.9243789766
 31
0.0
 11
-54.2631149801
 21
93.9399315223
 31
0.0
 11
-54.1329565735
 21
93.9310159918
 31
0.0
 11
-53.8599797514
 21
93.8409015604
 31
0.0
  0
SPLINE
  5
3D8
100
AcDbEntity
  8
RACCORDO
100
AcDbSpline
 62
7
  6
CONTINUOUS
 70
0
 71
3
 72
12
 73
8
 74
6
 42
0.0000001
 43
0.0000001
 44
0.0000000001
 12
1.8885230376
 22
-0.9542114187
 32
0.0
 13
0.0087679592
 23
-2.1158832241
 33
0.0
 40
0.0
 40
0.0
 40
0.0
 40
0.0
 40
0.2293158139
 40
0.3564965913
 40
0.4884357851
 40
0.7534945798
 40
1.0
 40
1.0
 40
1.0
 40
1.0
 10
53.4073501631
 20
40.2072365705
 30
0.0
 10
53.5517062289
 20
40.1342979812
 30
0.0
 10
53.7537000149
 20
39.9752098583
 30
0.0
 10
53.9781185005
 20
39.7135684335
 30
0.0
 10
54.1825755685
 20
39.4043362193
 30
0.0
 10
54.3646233541
 20
38.9842690575
 30
0.0
 10
54.4258596068
 20
38.6231839572
 30
0.0
 10
54.4265800567
 20
38.4493250628
 30
0.0
 11
53.4073501631
 21
40.2072365705
 31
0.0
 11
53.7957660056
 21
39.9164419053
 31
0.0
 11
53.9715993347
 21
39.7127300549
 31
0.0
 11
54.1259535123
 21
39.480112649
 31
0.0
 11
54.3474592918
 21
38.9648702232
 31
0.0
 11
54.4265800567
 21
38.4493250628
 31
0.0
  0
SPLINE
  5
3D9
100
AcDbEntity
  8
RACCORDO
100
AcDbSpline
 62
7
  6
CONTINUOUS
 70
0
 71
3
 72
11
 73
7
 74
5
 42
0.0000001
 43
0.0000001
 44
0.0000000001
 12
-0.0033350266
 22
-0.7796137123
 32
0.0
 13
-0.5953918374
 23
-0.5033062912
 33
0.0
 40
0.0
 40
0.0
 40
0.0
 40
0.0
 40
0.2842660033
 40
0.5444063227
 40
0.7813586416
 40
1.0
 40
1.0
 40
1.0
 40
1.0
 10
54.4265800316
 20
-92.925787086
 30
0.0
 10
54.4262640201
 20
-92.999659644
 30
0.0
 10
54.4156225151
 20
-93.1414401382
 30
0.0
 10
54.3649525629
 20
-93.3393443444
 30
0.0
 10
54.2814386048
 20
-93.5073079941
 30
0.0
 10
54.2023143567
 20
-93.5977779316
 30
0.0
 10
54.15892193
 20
-93.634459122
 30
0.0
 11
54.4265800316
 21
-92.925787086
 31
0.0
 11
54.408426747
 21
-93.1466620517
 31
0.0
 11
54.3563922412
 21
-93.3426840842
 31
0.0
 11
54.2722787149
 21
-93.5071565252
 31
0.0
 11
54.15892193
 21
-93.634459122
 31
0.0
  0
SPLINE
  5
3DA
100
AcDbEntity
  8
RACCORDO
100
AcDbSpline
 62
7
  6
CONTINUOUS
 70
0
 71
3
 72
9
 73
5
 74
3
 42
0.0000001
 43
0.0000001
 44
0.0000000001
 12
-0.1580031163
 22
-0.0944224215
 32
0.0
 13
-0.1803219912
 23
-0.0369399234
 33
0.0
 40
0.0
 40
0.0
 40
0.0
 40
0.0
 40
0.7473402965
 40
1.0
 40
1.0
 40
1.0
 40
1.0
 10
54.0854420669
 20
-93.6870177887
 30
0.0
 10
54.0460813683
 20
-93.7105396822
 30
0.0
 10
53.9889877947
 20
-93.7353711377
 30
0.0
 10
53.9294002052
 20
-93.7500956822
 30
0.0
 10
53.9142135049
 20
-93.7532067589
 30
0.0
 11
54.0854420669
 21
-93.6870177887
 31
0.0
 11
53.9593517603
 21
-93.74200989
 31
0.0
 11
53.9142135049
 21
-93.7532067589
 31
0.0
  0
SPLINE
  5
3DB
100
AcDbEntity
  8
RACCORDO
100
AcDbSpline
 62
7
  6
CONTINUOUS
 70
0
 71
3
 72
12
 73
8
 74
6
 42
0.0000001
 43
0.0000001
 44
0.0000000001
 12
1.9633967361
 22
-0.9950029506
 32
0.0
 13
0.0117885298
 23
-2.2010948743
 33
0.0
 40
0.0
 40
0.0
 40
0.0
 40
0.0
 40
0.2292669978
 40
0.3564564271
 40
0.4884145475
 40
0.7535121809
 40
1.0
 40
1.0
 40
1.0
 40
1.0
 10
53.5067582139
 20
40.3077111473
 30
0.0
 10
53.6568055723
 20
40.2316707009
 30
0.0
 10
53.8667298516
 20
40.0659956024
 30
0.0
 10
54.1000479463
 20
39.7937218319
 30
0.0
 10
54.3127134025
 20
39.4719630417
 30
0.0
 10
54.5022306299
 20
39.0350300279
 30
0.0
 10
54.5662883129
 20
38.6594692929
 30
0.0
 10
54.5672568892
 20
38.4786216012
 30
0.0
 11
53.5067582139
 21
40.3077111473
 31
0.0
 11
53.9104455305
 21
40.0048848213
 31
0.0
 11
54.0932725624
 21
39.7928662207
 31
0.0
 11
54.253828602
 21
39.5508192393
 31
0.0
 11
54.4844574945
 21
39.0148171736
 31
0.0
 11
54.5672568892
 21
38.4786216012
 31
0.0
  0
SPLINE
  5
3DC
100
AcDbEntity
  8
RACCORDO
100
AcDbSpline
 62
7
  6
CONTINUOUS
 70
0
 71
3
 72
11
 73
7
 74
5
 42
0.0000001
 43
0.0000001
 44
0.0000000001
 12
-0.0052578212
 22
-0.9629295814
 32
0.0
 13
-0.8737143784
 23
-0.4048261458
 33
0.0
 40
0.0
 40
0.0
 40
0.0
 40
0.0
 40
0.2904259677
 40
0.5503705496
 40
0.7832136423
 40
1.0
 40
1.0
 40
1.0
 40
1.0
 10
54.567256842
 20
-92.8989630217
 30
0.0
 10
54.5667478394
 20
-92.9921829402
 30
0.0
 10
54.5506298967
 20
-93.1694558723
 30
0.0
 10
54.4724308813
 20
-93.4110673146
 30
0.0
 10
54.3429155472
 20
-93.6028584836
 30
0.0
 10
54.2227239017
 20
-93.6894952539
 30
0.0
 10
54.1595874491
 20
-93.7187488491
 30
0.0
 11
54.567256842
 21
-92.8989630217
 31
0.0
 11
54.5389238125
 21
-93.1771880207
 31
0.0
 11
54.45838763
 21
-93.414190236
 31
0.0
 11
54.3297612224
 21
-93.597840838
 31
0.0
 11
54.1595874491
 21
-93.7187488491
 31
0.0
  0
SPLINE
  5
3DD
100
AcDbEntity
  8
RACCORDO
100
AcDbSpline
 62
7
  6
CONTINUOUS
 70
0
 71
3
 72
11
 73
7
 74
5
 42
0.0000001
 43
0.0000001
 44
0.0000000001
 12
0.629345763
 22
0.3380435504
 32
0.0
 13
0.6406312132
 23
-0.3161347499
 33
0.0
 40
0.0
 40
0.0
 40
0.0
 40
0.0
 40
0.2269698587
 40
0.4642106629
 40
0.7202992514
 40
1.0
 40
1.0
 40
1.0
 40
1.0
 10
-54.4507031929
 20
93.975946262
 30
0.0
 10
-54.40308902
 20
94.0015214943
 30
0.0
 10
-54.2974556544
 20
94.0397236605
 30
0.0
 10
-54.1244490006
 20
94.051436102
 30
0.0
 10
-53.9416920686
 20
94.0192304685
 30
0.0
 10
-53.8223187195
 20
93.9718598652
 30
0.0
 10
-53.7625903762
 20
93.9423854898
 30
0.0
 11
-54.4507031929
 21
93.975946262
 31
0.0
 11
-54.2983909906
 21
94.0315503156
 31
0.0
 11
-54.1294062112
 21
94.0445213864
 31
0.0
 11
-53.9489411412
 21
94.0144917765
 31
0.0
 11
-53.7625903762
 21
93.9423854898
 31
0.0
  0
SPLINE
  5
3DE
100
AcDbEntity
  8
RACCORDO
100
AcDbSpline
 62
7
  6
CONTINUOUS
 70
0
 71
3
 72
9
 73
5
 74
3
 42
0.0000001
 43
0.0000001
 44
0.0000000001
 12
-0.1303561077
 22
-0.0613833444
 32
0.0
 13
-0.1440762997
 23
0.0016277784
 33
0.0
 40
0.0
 40
0.0
 40
0.0
 40
0.0
 40
0.471484887
 40
1.0
 40
1.0
 40
1.0
 40
1.0
 10
54.5672820808
 20
-92.8989513656
 30
0.0
 10
54.5467951026
 20
-92.908598472
 30
0.0
 10
54.5001180097
 20
-92.9221801783
 30
0.0
 10
54.4519623823
 20
-92.9260634908
 30
0.0
 10
54.426580215
 20
-92.9257767223
 30
0.0
 11
54.5672820808
 21
-92.8989513656
 31
0.0
 11
54.5024513396
 21
-92.919249677
 31
0.0
 11
54.426580215
 21
-92.9257767223
 31
0.0
  0
SPLINE
  5
3DF
100
AcDbEntity
  8
SMUSSO
100
AcDbSpline
 62
7
  6
CONTINUOUS
 70
0
 71
3
 72
11
 73
7
 74
5
 42
0.0000001
 43
0.0000001
 44
0.0000000001
 12
0.5211626276
 22
-0.3908665127
 32
0.0
 13
0.0000000002
 23
-0.6514500097
 33
0.0
 40
0.0
 40
0.0
 40
0.0
 40
0.0
 40
0.2409429556
 40
0.5000138533
 40
0.7590645364
 40
1.0
 40
1.0
 40
1.0
 40
1.0
 10
53.6313219509
 20
39.543671666
 30
0.0
 10
53.6731787722
 20
39.5122794884
 30
0.0
 10
53.750716881
 20
39.4344015384
 30
0.0
 10
53.8395545629
 20
39.2942663406
 30
0.0
 10
53.8983505381
 20
39.1391097599
 30
0.0
 10
53.9140996276
 20
39.0303558537
 30
0.0
 10
53.9140996276
 20
38.978036717
 30
0.0
 11
53.6313219509
 21
39.543671666
 31
0.0
 11
53.7434896014
 21
39.4338737657
 31
0.0
 11
53.8344301675
 21
39.2916988268
 31
0.0
 11
53.8935850351
 21
39.1336477066
 31
0.0
 11
53.9140996276
 21
38.978036717
 31
0.0
  0
SPLINE
  5
3E0
100
AcDbEntity
  8
SMUSSO
100
AcDbSpline
 62
7
  6
CONTINUOUS
 70
0
 71
3
 72
11
 73
7
 74
5
 42
0.0000001
 43
0.0000001
 44
0.0000000001
 12
0.4148400136
 22
0.2074023934
 32
0.0
 13
0.4148329686
 23
-0.2074164841
 33
0.0
 40
0.0
 40
0.0
 40
0.0
 40
0.0
 40
0.2271114177
 40
0.4646734057
 40
0.720774934
 40
1.0
 40
1.0
 40
1.0
 40
1.0
 10
-55.5689795737
 20
94.0368432414
 30
0.0
 10
-55.5375746058
 20
94.0525443919
 30
0.0
 10
-55.4683696572
 20
94.075574877
 30
0.0
 10
-55.3559269641
 20
94.0811992403
 30
0.0
 10
-55.2375893712
 20
94.0589646912
 30
0.0
 10
-55.160376619
 20
94.0277468535
 30
0.0
 10
-55.1217660313
 20
94.0084415597
 30
0.0
 11
-55.5689795737
 21
94.0368432414
 31
0.0
 11
-55.4691412975
 21
94.0704215354
 31
0.0
 11
-55.3591497581
 21
94.076873731
 31
0.0
 11
-55.2422173128
 21
94.0560097788
 31
0.0
 11
-55.1217660313
 21
94.0084415597
 31
0.0
  0
SPLINE
  5
3E1
100
AcDbEntity
  8
SMUSSO
100
AcDbSpline
 62
7
  6
CONTINUOUS
 70
0
 71
3
 72
11
 73
7
 74
5
 42
0.0000001
 43
0.0000001
 44
0.0000000001
 12
-0.0000000006
 22
-0.6297215488
 32
0.0
 13
-0.5632496416
 23
-0.2816009062
 33
0.0
 40
0.0
 40
0.0
 40
0.0
 40
0.0
 40
0.2897538845
 40
0.5495823905
 40
0.7828465249
 40
1.0
 40
1.0
 40
1.0
 40
1.0
 10
53.9140996276
 20
-94.0506085333
 30
0.0
 10
53.9140996276
 20
-94.111429955
 30
0.0
 10
53.9042866397
 20
-94.2272306046
 30
0.0
 10
53.8547855353
 20
-94.3856052912
 30
0.0
 10
53.7721271301
 20
-94.5124044465
 30
0.0
 10
53.6949769278
 20
-94.5710986897
 30
0.0
 10
53.6542063888
 20
-94.5914822282
 30
0.0
 11
53.9140996276
 21
-94.0506085333
 31
0.0
 11
53.8968202885
 21
-94.2322527802
 31
0.0
 11
53.8458291872
 21
-94.3877239483
 31
0.0
 11
53.7636193205
 21
-94.5094557703
 31
0.0
 11
53.6542063888
 21
-94.5914822282
 31
0.0
  0
SPLINE
  5
3E2
100
AcDbEntity
  8
SMUSSO
100
AcDbSpline
 62
7
  6
CONTINUOUS
 70
0
 71
3
 72
9
 73
5
 74
3
 42
0.0000001
 43
0.0000001
 44
0.0000000001
 12
0.1491936393
 22
-0.0745968198
 32
0.0
 13
0.1334429877
 23
-0.1000819493
 33
0.0
 40
0.0
 40
0.0
 40
0.0
 40
0.0
 40
0.2413231767
 40
1.0
 40
1.0
 40
1.0
 40
1.0
 10
53.2069928464
 20
39.8440621208
 30
0.0
 10
53.2189941408
 20
39.8380614736
 30
0.0
 10
53.2680988081
 20
39.8119504164
 30
0.0
 10
53.3146676038
 20
39.7811646767
 30
0.0
 10
53.3484143045
 20
39.7558547249
 30
0.0
 11
53.2069928464
 21
39.8440621208
 31
0.0
 11
53.2425466482
 21
39.8251868282
 31
0.0
 11
53.3484143045
 21
39.7558547249
 31
0.0
  0
SPLINE
  5
3E3
100
AcDbEntity
  8
SMUSSO
100
AcDbSpline
 62
7
  6
CONTINUOUS
 70
0
 71
3
 72
11
 73
7
 74
5
 42
0.0000001
 43
0.0000001
 44
0.0000000001
 12
1.0424533899
 22
-0.7818377651
 32
0.0
 13
0.0000000004
 23
-1.3030653709
 33
0.0
 40
0.0
 40
0.0
 40
0.0
 40
0.0
 40
0.2409256216
 40
0.4999974992
 40
0.7590695335
 40
1.0
 40
1.0
 40
1.0
 40
1.0
 10
53.3484143045
 20
39.7558547249
 30
0.0
 10
53.4321322148
 20
39.6930664751
 30
0.0
 10
53.5872618847
 20
39.5373374516
 30
0.0
 10
53.7649658962
 20
39.2570270528
 30
0.0
 10
53.8825945289
 20
38.9466761762
 30
0.0
 10
53.9140996276
 20
38.729132709
 30
0.0
 10
53.9140996276
 20
38.6244833264
 30
0.0
 11
53.3484143045
 21
39.7558547249
 31
0.0
 11
53.5727911176
 21
39.5362766724
 31
0.0
 11
53.7547138139
 21
39.2519010141
 31
0.0
 11
53.873062356
 21
38.9357378554
 31
0.0
 11
53.9140996276
 21
38.6244833264
 31
0.0
  0
ELLIPSE
  5
3E4
100
AcDbEntity
  8
RACCORDO
100
AcDbEllipse
 62
7
  6
CONTINUOUS
 10
-37.4985074641
 20
68.4558576565
 30
0.0
 11
-0.313181275
 21
0.626269159
 31
0.0
 40
0.6121897086
 41
-0.6846338794
 42
0.0188552051
  0
ELLIPSE
  5
3E5
100
AcDbEntity
  8
RACCORDO
100
AcDbEllipse
 62
7
  6
CONTINUOUS
 10
30.6339868109
 20
-71.4853703775
 30
0.0
 11
-0.313181275
 21
0.626269159
 31
0.0
 40
0.6121897086
 41
-3.1605525579
 42
-2.2557347926
  0
ELLIPSE
  5
3E6
100
AcDbEntity
  8
RACCORDO
100
AcDbEllipse
 62
7
  6
CONTINUOUS
 10
30.6339868109
 20
34.389610519
 30
0.0
 11
-0.3130130858
 21
0.6261196575
 31
0.0
 40
0.6125552124
 41
-2.255296188
 42
-0.6848044477
  0
ELLIPSE
  5
3E7
100
AcDbEntity
  8
RACCORDO
100
AcDbEllipse
 62
7
  6
CONTINUOUS
 10
-33.3714117691
 20
-34.8253283577
 30
0.0
 11
-0.1341484654
 21
0.2683369961
 31
0.0
 40
0.6125552124
 41
0.8862964655
 42
2.4567882058
  0
ELLIPSE
  5
3E8
100
AcDbEntity
  8
RACCORDO
100
AcDbEllipse
 62
7
  6
CONTINUOUS
 10
-33.6896098206
 20
-34.9764814524
 30
0.0
 11
-0.1341484654
 21
0.2683369961
 31
0.0
 40
0.6125552124
 41
0.8862964655
 42
2.4567882058
  0
ELLIPSE
  5
3E9
100
AcDbEntity
  8
0
100
AcDbEllipse
 62
7
  6
CONTINUOUS
 10
-30.7132860104
 20
-10.0823425194
 30
0.0
 11
-0.0891456483
 21
0.1797268471
 31
0.0
 40
0.6110058077
 41
-3.080440706
 42
-2.2526829854
  0
ELLIPSE
  5
3EA
100
AcDbEntity
  8
0
100
AcDbEllipse
 62
7
  6
CONTINUOUS
 10
-30.7132860104
 20
41.8791817077
 30
0.0
 11
-0.0891456483
 21
0.1797268471
 31
0.0
 40
0.6110058077
 41
-3.080440706
 42
-2.2526829854
  0
ELLIPSE
  5
3EB
100
AcDbEntity
  8
0
100
AcDbEllipse
 62
7
  6
CONTINUOUS
 10
-21.1880817322
 20
-39.2198125478
 30
0.0
 11
-0.0903365947
 21
0.1789673014
 31
0.0
 40
0.6118980814
 41
-0.6882303478
 42
-0.0534222123
  0
ELLIPSE
  5
3EC
100
AcDbEntity
  8
0
100
AcDbEllipse
 62
7
  6
CONTINUOUS
 10
-17.0719800057
 20
-41.9803583659
 30
0.0
 11
-0.0903365947
 21
0.1789673014
 31
0.0
 40
0.6118980814
 41
-3.0879513311
 42
-2.2605477526
  0
ELLIPSE
  5
3ED
100
AcDbEntity
  8
0
100
AcDbEllipse
 62
7
  6
CONTINUOUS
 10
22.7939600576
 20
-61.2108334427
 30
0.0
 11
-0.0903365947
 21
0.1789673014
 31
0.0
 40
0.6118980814
 41
-0.6882303478
 42
-0.0534222123
  0
ELLIPSE
  5
3EE
100
AcDbEntity
  8
RACCORDO
100
AcDbEllipse
 62
7
  6
CONTINUOUS
 10
18.0146746842
 20
-60.8577055165
 30
0.0
 11
0.1379861541
 21
0.2664038768
 31
0.0
 40
0.6229838795
 41
6.2919624783
 42
6.9593374368
  0
ELLIPSE
  5
3EF
100
AcDbEntity
  8
0
100
AcDbEllipse
 62
7
  6
CONTINUOUS
 10
-30.7132860104
 20
-5.0411680397
 30
0.0
 11
-0.0889021624
 21
0.1795146163
 31
0.0
 40
0.6128267509
 41
-2.2504677204
 42
-0.6811924717
  0
ELLIPSE
  5
3F0
100
AcDbEntity
  8
0
100
AcDbEllipse
 62
7
  6
CONTINUOUS
 10
-31.2868707392
 20
-4.7543756753
 30
0.0
 11
-0.0891456483
 21
0.1797268471
 31
0.0
 40
0.6110058077
 41
-0.6803655806
 42
-0.0610993631
  0
ELLIPSE
  5
3F1
100
AcDbEntity
  8
0
100
AcDbEllipse
 62
7
  6
CONTINUOUS
 10
-30.7132860104
 20
46.9203561873
 30
0.0
 11
-0.0889021624
 21
0.1795146163
 31
0.0
 40
0.6128267509
 41
-2.2504677204
 42
-0.6811924717
  0
ELLIPSE
  5
3F2
100
AcDbEntity
  8
0
100
AcDbEllipse
 62
7
  6
CONTINUOUS
 10
-31.2868707392
 20
47.2071485517
 30
0.0
 11
-0.0891456483
 21
0.1797268471
 31
0.0
 40
0.6110058077
 41
-0.6803655806
 42
-0.0610993631
  0
ELLIPSE
  5
3F3
100
AcDbEntity
  8
0
100
AcDbEllipse
 62
7
  6
CONTINUOUS
 10
-17.0719800057
 20
-41.277863411
 30
0.0
 11
-0.0900992683
 21
0.1787520981
 31
0.0
 40
0.6137275756
 41
-2.2583825133
 42
-0.6891072646
  0
ELLIPSE
  5
3F4
100
AcDbEntity
  8
0
100
AcDbEllipse
 62
7
  6
CONTINUOUS
 10
26.9100617841
 20
-63.9713792608
 30
0.0
 11
-0.0903365947
 21
0.1789673014
 31
0.0
 40
0.6118980814
 41
-2.9330414672
 42
-2.2605477526
  0
ELLIPSE
  5
3F5
100
AcDbEntity
  8
0
100
AcDbEllipse
 62
7
  6
CONTINUOUS
 10
26.9100617841
 20
-63.2688843059
 30
0.0
 11
-0.0900992683
 21
0.1787520981
 31
0.0
 40
0.6137275756
 41
-2.2583825133
 42
-0.6891072646
  0
ELLIPSE
  5
3F6
100
AcDbEntity
  8
RACCORDO
100
AcDbEllipse
 62
7
  6
CONTINUOUS
 10
-33.2851585308
 20
53.9918922697
 30
0.0
 11
0.2999918237
 21
0.0043377328
 31
0.0
 40
0.5106100819
 41
5.5078574022
 42
6.0515880746
  0
ELLIPSE
  5
3F7
100
AcDbEntity
  8
RACCORDO
100
AcDbEllipse
 62
7
  6
CONTINUOUS
 10
-33.2851585308
 20
36.671384194
 30
0.0
 11
0.2999918237
 21
0.0043377328
 31
0.0
 40
0.5106100819
 41
5.5078574022
 42
6.0515880746
  0
ELLIPSE
  5
3F8
100
AcDbEntity
  8
RACCORDO
100
AcDbEllipse
 62
7
  6
CONTINUOUS
 10
-33.2851585308
 20
19.3508761183
 30
0.0
 11
0.2999918237
 21
0.0043377328
 31
0.0
 40
0.5106100819
 41
5.5078574022
 42
6.0515880746
  0
ELLIPSE
  5
3F9
100
AcDbEntity
  8
RACCORDO
100
AcDbEllipse
 62
7
  6
CONTINUOUS
 10
-33.2851585308
 20
2.0303680426
 30
0.0
 11
0.2999918237
 21
0.0043377328
 31
0.0
 40
0.5106100819
 41
5.5078574022
 42
6.0515880746
  0
ELLIPSE
  5
3FA
100
AcDbEntity
  8
RACCORDO
100
AcDbEllipse
 62
7
  6
CONTINUOUS
 10
-33.2851585308
 20
-15.2901400331
 30
0.0
 11
0.2999918237
 21
0.0043377328
 31
0.0
 40
0.5106100819
 41
5.5078574022
 42
6.0515880746
  0
ELLIPSE
  5
3FB
100
AcDbEntity
  8
RACCORDO
100
AcDbEllipse
 62
7
  6
CONTINUOUS
 10
19.1760256495
 20
-61.4383809991
 30
0.0
 11
0.1304891768
 21
0.2701542511
 31
0.0
 40
0.6016116119
 41
-0.0083403185
 42
0.3595437777
  0
ELLIPSE
  5
3FC
100
AcDbEntity
  8
RACCORDO
100
AcDbEllipse
 62
7
  6
CONTINUOUS
 10
-20.9941515418
 20
-41.3532924035
 30
0.0
 11
0.1549889321
 21
0.257462725
 31
0.0
 40
0.6636722472
 41
0.0518426205
 42
0.4197510013
  0
ELLIPSE
  5
3FD
100
AcDbEntity
  8
RACCORDO
100
AcDbEllipse
 62
7
  6
CONTINUOUS
 10
18.7193129464
 20
-61.2100246476
 30
0.0
 11
0.1379861541
 21
0.2664038768
 31
0.0
 40
0.6229838795
 41
5.9220023235
 42
6.6598446138
  0
ELLIPSE
  5
3FE
100
AcDbEntity
  8
RACCORDO
100
AcDbEllipse
 62
7
  6
CONTINUOUS
 10
21.6249627691
 20
-62.662849559
 30
0.0
 11
0.1170451071
 21
0.2766776858
 31
0.0
 40
0.5572482653
 41
5.361723529
 42
6.9150665633
  0
ELLIPSE
  5
3FF
100
AcDbEntity
  8
RACCORDO
100
AcDbEllipse
 62
7
  6
CONTINUOUS
 10
5.7150601925
 20
-54.7078982706
 30
0.0
 11
0.1170451071
 21
0.2766776858
 31
0.0
 40
0.5572482653
 41
5.361723529
 42
6.9150665633
  0
ELLIPSE
  5
400
100
AcDbEntity
  8
RACCORDO
100
AcDbEllipse
 62
7
  6
CONTINUOUS
 10
55.5402836561
 20
-91.4288577602
 30
0.0
 11
-0.6711027321
 21
1.3420053406
 31
0.0
 40
0.6121897086
 41
-3.1605244876
 42
-2.2557347926
  0
ELLIPSE
  5
401
100
AcDbEntity
  8
RACCORDO
100
AcDbEllipse
 62
7
  6
CONTINUOUS
 10
55.5402836561
 20
40.0334027744
 30
0.0
 11
-0.6707423268
 21
1.3416849804
 31
0.0
 40
0.6125552124
 41
4.0278891191
 42
5.5983808594
  0
ELLIPSE
  5
402
100
AcDbEntity
  8
RACCORDO
100
AcDbEllipse
 62
7
  6
CONTINUOUS
 10
-51.7982025915
 20
93.7026458982
 30
0.0
 11
-0.6711027321
 21
1.3420053406
 31
0.0
 40
0.6121897086
 41
-0.6846338794
 42
0.0189908098
  0
ELLIPSE
  5
403
100
AcDbEntity
  8
SMUSSO
100
AcDbEllipse
 62
7
  6
CONTINUOUS
 10
-56.4181284635
 20
92.4942349398
 30
0.0
 11
-0.268640788
 21
0.9802821504
 31
0.0
 40
0.3951602023
 41
0.1790466627
 42
0.9644448261
  0
ELLIPSE
  5
404
100
AcDbEntity
  8
SMUSSO
100
AcDbEllipse
 62
7
  6
CONTINUOUS
 10
-56.4181284635
 20
-40.1808569199
 30
0.0
 11
-0.6685268303
 21
0.7774608711
 31
0.0
 40
0.423927136
 41
1.5651843117
 42
2.3505824751
  0
ELLIPSE
  5
405
100
AcDbEntity
  8
SMUSSO
100
AcDbEllipse
 62
7
  6
CONTINUOUS
 10
-56.4181284635
 20
-40.1808569199
 30
0.0
 11
-0.268640788
 21
0.9802821504
 31
0.0
 40
0.3951602023
 41
0.9644448261
 42
1.7498429895
  0
ELLIPSE
  5
406
100
AcDbEntity
  8
SMUSSO
100
AcDbEllipse
 62
7
  6
CONTINUOUS
 10
51.9106304143
 20
-94.3452363588
 30
0.0
 11
0.7972192175
 21
-0.6616331853
 31
0.0
 40
0.76072271
 41
-0.2222500336
 42
0.5631481298
  0
ELLIPSE
  5
407
100
AcDbEntity
  8
SMUSSO
100
AcDbEllipse
 62
7
  6
CONTINUOUS
 10
51.9106304143
 20
-94.3452363588
 30
0.0
 11
-0.6685268303
 21
0.7774608711
 31
0.0
 40
0.423927136
 41
2.3505824751
 42
3.1359806385
  0
ELLIPSE
  5
408
100
AcDbEntity
  8
SMUSSO
100
AcDbEllipse
 62
7
  6
CONTINUOUS
 10
51.9106304143
 20
38.3298555009
 30
0.0
 11
-0.0351548098
 21
1.0451726698
 31
0.0
 40
0.7123478368
 41
-1.1543313489
 42
-0.3689331855
  0
ELLIPSE
  5
409
100
AcDbEntity
  8
SMUSSO
100
AcDbEllipse
 62
7
  6
CONTINUOUS
 10
51.9106304143
 20
38.3298555009
 30
0.0
 11
0.7972192175
 21
-0.6616331853
 31
0.0
 40
0.76072271
 41
0.5631481298
 42
1.3485462932
  0
ELLIPSE
  5
40A
100
AcDbEntity
  8
SMUSSO
100
AcDbEllipse
 62
7
  6
CONTINUOUS
 10
-56.4181284635
 20
92.4942349398
 30
0.0
 11
-0.0351548098
 21
1.0451726698
 31
0.0
 40
0.7123478368
 41
-0.3689331855
 42
0.4164649779
  0
ENDSEC
  0
SECTION
  2
OBJECTS
  0
DICTIONARY
  5
C
100
AcDbDictionary
280
0
281
1
  3
ACAD_GROUP
350
D
  3
ACAD_MLINESTYLE
350
17
  3
ACAD_LAYOUT
350
1A
  3
ACAD_PLOTSETTINGS
350
19
  3
ACAD_PLOTSTYLENAME
350
E
  0
DICTIONARY
  5
D
102
{ACAD_REACTORS
330
C
102
}
100
AcDbDictionary
280
0
281
1
  0
ACDBDICTIONARYWDFLT
  5
E
102
{ACAD_REACTORS
330
C
102
}
100
AcDbDictionary
281
1
  3
Normal
350
F
100
AcDbDictionaryWithDefault
340
F
  0
DICTIONARY
  5
17
102
{ACAD_REACTORS
330
C
102
}
100
AcDbDictionary
280
0
281
1
  3
Standard
350
18
  0
DICTIONARY
  5
19
102
{ACAD_REACTORS
330
C
102
}
100
AcDbDictionary
281
1
  0
DICTIONARY
  5
1A
102
{ACAD_REACTORS
330
C
102
}
100
AcDbDictionary
281
1
  3
Model
350
40B
  3
Layout1
350
40C
  0
ACDBPLACEHOLDER
  5
F
102
{ACAD_REACTORS
330
E
102
}
  0
MLINESTYLE
  5
18
102
{ACAD_REACTORS
330
17
102
}
100
AcDbMlineStyle
  2
STANDARD
 70
0
  3

 62
256
 51
90.0
 52
90.0
 71
2
 49
0.5
 62
256
  6
BYLAYER
 49
-0.5
 62
256
  6
BYLAYER
  0
LAYOUT
  5
40B
102
{ACAD_REACTORS
330
1A
102
}
100
AcDbPlotSettings
  1

  2
none_device
  4
ISO_A4_(297.00_x_210.00_MM)
  6

 40
0.0
 41
0.0
 42
0.0
 43
0.0
 44
297.0
 45
210.0
 46
0.0
 47
0.0
 48
0.0
 49
0.0
140
0.0
141
0.0
142
1.0
143
1.0
 70
1024
 72
1
 73
0
 74
0
  7

 75
0
147
1.0
148
0.0
149
0.0
100
AcDbLayout
  1
Model
 70
0
 71
0
 10
0.0
 20
0.0
 11
297.0
 21
210.0
 12
0.0
 22
0.0
 32
0.0
 14
0.0
 24
0.0
 34
0.0
 15
0.0
 25
0.0
 35
0.0
146
0.0
 13
0.0
 23
0.0
 33
0.0
 16
1.0
 26
0.0
 36
0.0
 17
0.0
 27
1.0
 37
0.0
 76
0
330
216
345
0
346
0
  0
LAYOUT
  5
40C
102
{ACAD_REACTORS
330
1A
102
}
100
AcDbPlotSettings
  1

  2
none_device
  4
ISO_A4_(297.00_x_210.00_MM)
  6

 40
0.0
 41
0.0
 42
0.0
 43
0.0
 44
297.0
 45
210.0
 46
0.0
 47
0.0
 48
0.0
 49
0.0
140
0.0
141
0.0
142
1.0
143
1.0
 70
0
 72
1
 73
0
 74
0
  7

 75
0
147
1.0
148
0.0
149
0.0
100
AcDbLayout
  1
Layout1
 70
0
 71
1
 10
0.0
 20
0.0
 11
297.0
 21
210.0
 12
0.0
 22
0.0
 32
0.0
 14
0.0
 24
0.0
 34
0.0
 15
0.0
 25
0.0
 35
0.0
146
0.0
 13
0.0
 23
0.0
 33
0.0
 16
1.0
 26
0.0
 36
0.0
 17
0.0
 27
1.0
 37
0.0
 76
0
330
217
345
0
346
0
  0
ENDSEC
  0
EOF
