  0
SECTION
  2
HEADER
  9
$ACADVER
  1
AC1024
  9
$DWGCODEPAGE
  3
ANSI_1252
  9
$EXTMAX
 10
297.0
 20
210.0
 30
0.0
  9
$EXTMIN
 10
0.0
 20
0.0
 30
0.0
  9
$LIMMIN
 10
0.0
 20
0.0
  9
$LIMMAX
 10
297.0
 20
210.0
  9
$VIEWCTR
 10
148.5
 20
105.0
  9
$VIEWSIZE
 40
210.0
  9
$CLAYER
  8
0
  9
$LTSCALE
 40
16.335
  9
$CELTYPE
  6
BYLAYER
  9
$DIMSCALE
 40
1.0
  9
$DIMASZ
 40
3.0
  9
$DIMEXO
 40
0.5
  9
$DIMDLI
 40
11.286
  9
$DIMEXE
 40
1.5
  9
$DIMCEN
 40
2.673
  9
$DIMLFAC
 40
1.0
  9
$DIMBLK
  1
_FILLED
  9
$DIMALT
 70
0
  9
$DIMALTF
 40
0.0393700787
  9
$DIMTXT
 40
3.0
  9
$DIMTOL
 70
1
  9
$DIMLIM
 70
0
  9
$DIMTFAC
 40
1.0
  9
$DIMTP
 40
0.01
  9
$DIMTM
 40
0.01
  9
$DIMGAP
 40
0.625
  9
$DIMDSEP
 70
44
  9
$AUNITS
 70
0
  9
$PDMODE
 70
3
  9
$PDSIZE
 40
3.0
  9
$HANDSEED
  5
2F1
  9
$TILEMODE
 70
1
  9
$MEASUREMENT
 70
1
  9
$INSUNITS
 70
4
  0
ENDSEC
  0
SECTION
  2
CLASSES
  0
CLASS
  1
ACDBDICTIONARYWDFLT
  2
AcDbDictionaryWithDefault
  3
AutoCAD 2000
 90
0
 91
1
280
0
281
0
  0
CLASS
  1
ACDBPLACEHOLDER
  2
AcDbPlaceHolder
  3
AutoCAD 2000
 90
0
 91
1
280
0
281
0
  0
CLASS
  1
LAYOUT
  2
AcDbLayout
  3
AutoCAD 2000
 90
0
 91
0
280
0
281
0
  0
ENDSEC
  0
SECTION
  2
TABLES
  0
TABLE
  2
VPORT
  5
8
100
AcDbSymbolTable
 70
2
  0
VPORT
  5
1F4
100
AcDbSymbolTableRecord
100
AcDbViewportTableRecord
  2
*ACTIVE
 70
0
 10
0.0
 20
0.0
 11
1.0
 21
1.0
 12
148.5
 22
105.0
 13
0.0
 23
0.0
 14
1.0
 24
1.0
 15
0.0
 25
0.0
 16
0.0
 26
0.0
 36
1.0
 17
0.0
 27
0.0
 37
0.0
 40
210.0
 41
1.4142857143
 42
50.0
 43
0.0
 44
0.0
 50
0.0
 51
0.0
 71
0
 72
100
 73
1
 74
1
 75
0
 76
0
 77
0
 78
0
  0
ENDTAB
  0
TABLE
  2
LTYPE
  5
5
100
AcDbSymbolTable
 70
6
  0
LTYPE
  5
14
100
AcDbSymbolTableRecord
100
AcDbLinetypeTableRecord
  2
BYBLOCK
 70
0
  3

 72
65
 73
0
 40
0.0
  0
LTYPE
  5
15
100
AcDbSymbolTableRecord
100
AcDbLinetypeTableRecord
  2
BYLAYER
 70
0
  3

 72
65
 73
0
 40
0.0
  0
LTYPE
  5
16
100
AcDbSymbolTableRecord
100
AcDbLinetypeTableRecord
  2
CONTINUOUS
 70
64
  3
Solid line
 72
65
 73
0
 40
0.0
  0
LTYPE
  5
1F5
100
AcDbSymbolTableRecord
100
AcDbLinetypeTableRecord
  2
CENTER
 70
64
  3
____ _ ____ _ ____ _ ____ _ ____ _ ____ _ ____
 72
65
 73
4
 40
0.6
 49
0.375
 74
0
 49
-0.075
 74
0
 49
0.075
 74
0
 49
-0.075
 74
0
  0
LTYPE
  5
1F6
100
AcDbSymbolTableRecord
100
AcDbLinetypeTableRecord
  2
HIDDEN
 70
64
  3
- - - - - - - - - - - - - - - - - - - -
 72
65
 73
2
 40
0.2
 49
0.1
 74
0
 49
-0.1
 74
0
  0
LTYPE
  5
1F7
100
AcDbSymbolTableRecord
100
AcDbLinetypeTableRecord
  2
PHANTOM
 70
64
  3
_____ _ _ _____ _ _ _____ _ _ _____
 72
65
 73
6
 40
0.8
 49
0.45
 74
0
 49
-0.05
 74
0
 49
0.1
 74
0
 49
-0.05
 74
0
 49
0.1
 74
0
 49
-0.05
 74
0
  0
LTYPE
  5
1F8
100
AcDbSymbolTableRecord
100
AcDbLinetypeTableRecord
  2
DOT
 70
64
  3
. . . . . . . . . . . . . . . . . . . .
 72
65
 73
2
 40
0.2
 49
0.1
 74
0
 49
-0.1
 74
0
  0
LTYPE
  5
1F9
100
AcDbSymbolTableRecord
100
AcDbLinetypeTableRecord
  2
DASHED
 70
64
  3
- - - - - - - - - - - - - - - - - - - -
 72
65
 73
2
 40
0.2
 49
0.1
 74
0
 49
-0.1
 74
0
  0
ENDTAB
  0
TABLE
  2
LAYER
  5
2
100
AcDbSymbolTable
 70
36
  0
LAYER
  5
10
100
AcDbSymbolTableRecord
100
AcDbLayerTableRecord
  2
0
 70
0
 62
7
  6
CONTINUOUS
370
-3
390
F
  0
LAYER
  5
1FA
100
AcDbSymbolTableRecord
100
AcDbLayerTableRecord
  2
DEFAULT_1
 70
0
 62
7
  6
CENTER
370
-3
390
F
  0
LAYER
  5
1FB
100
AcDbSymbolTableRecord
100
AcDbLayerTableRecord
  2
DEFAULT_2
 70
0
 62
7
  6
HIDDEN
370
-3
390
F
  0
LAYER
  5
1FC
100
AcDbSymbolTableRecord
100
AcDbLayerTableRecord
  2
DEFAULT_3
 70
0
 62
7
  6
PHANTOM
370
-3
390
F
  0
LAYER
  5
1FD
100
AcDbSymbolTableRecord
100
AcDbLayerTableRecord
  2
ASSI
 70
0
 62
7
  6
CONTINUOUS
370
-3
390
F
  0
LAYER
  5
1FE
100
AcDbSymbolTableRecord
100
AcDbLayerTableRecord
  2
COORDINATE
 70
0
 62
7
  6
CONTINUOUS
370
-3
390
F
  0
LAYER
  5
1FF
100
AcDbSymbolTableRecord
100
AcDbLayerTableRecord
  2
COORD_ORIGINE
 70
0
 62
7
  6
CONTINUOUS
370
-3
390
F
  0
LAYER
  5
200
100
AcDbSymbolTableRecord
100
AcDbLayerTableRecord
  2
COPY_PUBLISH
 70
0
 62
7
  6
CONTINUOUS
370
-3
390
F
  0
LAYER
  5
201
100
AcDbSymbolTableRecord
100
AcDbLayerTableRecord
  2
COSMETIC
 70
0
 62
7
  6
CONTINUOUS
370
-3
390
F
  0
LAYER
  5
202
100
AcDbSymbolTableRecord
100
AcDbLayerTableRecord
  2
COSMETICI
 70
0
 62
7
  6
CONTINUOUS
370
-3
390
F
  0
LAYER
  5
203
100
AcDbSymbolTableRecord
100
AcDbLayerTableRecord
  2
CURVE
 70
0
 62
7
  6
CONTINUOUS
370
-3
390
F
  0
LAYER
  5
204
100
AcDbSymbolTableRecord
100
AcDbLayerTableRecord
  2
CURVE_TASSELLI
 70
0
 62
7
  6
CONTINUOUS
370
-3
390
F
  0
LAYER
  5
205
100
AcDbSymbolTableRecord
100
AcDbLayerTableRecord
  2
DRAFT
 70
0
 62
7
  6
CONTINUOUS
370
-3
390
F
  0
LAYER
  5
206
100
AcDbSymbolTableRecord
100
AcDbLayerTableRecord
  2
IMPORT_IGES
 70
0
 62
7
  6
CONTINUOUS
370
-3
390
F
  0
LAYER
  5
207
100
AcDbSymbolTableRecord
100
AcDbLayerTableRecord
  2
INTFCLR_2
 70
0
 62
7
  6
CONTINUOUS
370
-3
390
F
  0
LAYER
  5
208
100
AcDbSymbolTableRecord
100
AcDbLayerTableRecord
  2
INTF_1
 70
0
 62
7
  6
CONTINUOUS
370
-3
390
F
  0
LAYER
  5
209
100
AcDbSymbolTableRecord
100
AcDbLayerTableRecord
  2
INTF_21
 70
0
 62
7
  6
CONTINUOUS
370
-3
390
F
  0
LAYER
  5
20A
100
AcDbSymbolTableRecord
100
AcDbLayerTableRecord
  2
INTF_6
 70
0
 62
7
  6
CONTINUOUS
370
-3
390
F
  0
LAYER
  5
20B
100
AcDbSymbolTableRecord
100
AcDbLayerTableRecord
  2
INTF_7
 70
0
 62
7
  6
CONTINUOUS
370
-3
390
F
  0
LAYER
  5
20C
100
AcDbSymbolTableRecord
100
AcDbLayerTableRecord
  2
INTF_CYAN
 70
0
 62
7
  6
CONTINUOUS
370
-3
390
F
  0
LAYER
  5
20D
100
AcDbSymbolTableRecord
100
AcDbLayerTableRecord
  2
LIVELLO_1
 70
0
 62
7
  6
CONTINUOUS
370
-3
390
F
  0
LAYER
  5
20E
100
AcDbSymbolTableRecord
100
AcDbLayerTableRecord
  2
NOTE
 70
0
 62
7
  6
CONTINUOUS
370
-3
390
F
  0
LAYER
  5
20F
100
AcDbSymbolTableRecord
100
AcDbLayerTableRecord
  2
PIANI
 70
0
 62
7
  6
CONTINUOUS
370
-3
390
F
  0
LAYER
  5
210
100
AcDbSymbolTableRecord
100
AcDbLayerTableRecord
  2
PIANI_ORIGINE
 70
0
 62
7
  6
CONTINUOUS
370
-3
390
F
  0
LAYER
  5
211
100
AcDbSymbolTableRecord
100
AcDbLayerTableRecord
  2
PIANI_RIFERIMENTO
 70
0
 62
7
  6
CONTINUOUS
370
-3
390
F
  0
LAYER
  5
212
100
AcDbSymbolTableRecord
100
AcDbLayerTableRecord
  2
PUNTI
 70
0
 62
7
  6
CONTINUOUS
370
-3
390
F
  0
LAYER
  5
213
100
AcDbSymbolTableRecord
100
AcDbLayerTableRecord
  2
RACCORDO
 70
0
 62
7
  6
CONTINUOUS
370
-3
390
F
  0
LAYER
  5
214
100
AcDbSymbolTableRecord
100
AcDbLayerTableRecord
  2
RGB__255__255__255__
 70
0
 62
7
  6
CONTINUOUS
370
-3
390
F
  0
LAYER
  5
215
100
AcDbSymbolTableRecord
100
AcDbLayerTableRecord
  2
RGB____0____0____0__
 70
0
 62
7
  6
CONTINUOUS
370
-3
390
F
  0
LAYER
  5
216
100
AcDbSymbolTableRecord
100
AcDbLayerTableRecord
  2
SIMBOLI
 70
0
 62
7
  6
CONTINUOUS
370
-3
390
F
  0
LAYER
  5
217
100
AcDbSymbolTableRecord
100
AcDbLayerTableRecord
  2
SMUSSO
 70
0
 62
7
  6
CONTINUOUS
370
-3
390
F
  0
LAYER
  5
218
100
AcDbSymbolTableRecord
100
AcDbLayerTableRecord
  2
SNAPLINE
 70
0
 62
7
  6
CONTINUOUS
370
-3
390
F
  0
LAYER
  5
219
100
AcDbSymbolTableRecord
100
AcDbLayerTableRecord
  2
SUPERFICI
 70
0
 62
7
  6
CONTINUOUS
370
-3
390
F
  0
LAYER
  5
21A
100
AcDbSymbolTableRecord
100
AcDbLayerTableRecord
  2
TRASH
 70
0
 62
7
  6
CONTINUOUS
370
-3
390
F
  0
LAYER
  5
21B
100
AcDbSymbolTableRecord
100
AcDbLayerTableRecord
  2
WHITE
 70
0
 62
7
  6
CONTINUOUS
370
-3
390
F
  0
LAYER
  5
21C
100
AcDbSymbolTableRecord
100
AcDbLayerTableRecord
  2
XSEC_DATUMS
 70
0
 62
7
  6
CONTINUOUS
370
-3
390
F
  0
ENDTAB
  0
TABLE
  2
STYLE
  5
3
100
AcDbSymbolTable
 70
1
  0
STYLE
  5
11
100
AcDbSymbolTableRecord
100
AcDbTextStyleTableRecord
  2
STANDARD
 70
0
 40
0.0
 41
0.8
 50
0.0
 71
0
 42
0.2
  3
txt
  4

  0
STYLE
  5
21D
100
AcDbSymbolTableRecord
100
AcDbTextStyleTableRecord
  2
TEXTSTYLE_1
 70
0
 40
0.0
 41
0.8
 50
0.0
 71
0
 42
0.2
  3
gdt
  4

  0
ENDTAB
  0
TABLE
  2
VIEW
  5
6
100
AcDbSymbolTable
 70
0
  0
ENDTAB
  0
TABLE
  2
UCS
  5
7
100
AcDbSymbolTable
 70
0
  0
ENDTAB
  0
TABLE
  2
APPID
  5
9
100
AcDbSymbolTable
 70
1
  0
APPID
  5
21E
100
AcDbSymbolTableRecord
100
AcDbRegAppTableRecord
  2
ACAD
 70
0
  0
ENDTAB
  0
TABLE
  2
BLOCK_RECORD
  5
1
100
AcDbSymbolTable
 70
0
  0
BLOCK_RECORD
  5
21F
100
AcDbSymbolTableRecord
100
AcDbBlockTableRecord
  2
*Model_Space
  0
BLOCK_RECORD
  5
220
100
AcDbSymbolTableRecord
100
AcDbBlockTableRecord
  2
*Paper_Space
  0
BLOCK_RECORD
  5
221
100
AcDbSymbolTableRecord
100
AcDbBlockTableRecord
  2
_FILLED
  0
ENDTAB
  0
TABLE
  2
DIMSTYLE
  5
A
100
AcDbSymbolTable
 70
1
100
AcDbDimStyleTable
 71
0
  0
DIMSTYLE
105
222
100
AcDbSymbolTableRecord
100
AcDbDimStyleTableRecord
  2
STANDARD
 70
0
  3

  4

 40
1.0
 41
3.0
 42
0.5
 43
0.38
 44
1.5
 45
0.0
 46
0.0
 47
0.01
 48
0.01
140
3.0
141
0.09
142
0.0
143
25.4
144
1.0
145
0.0
146
1.0
147
0.625
 71
1
 72
0
 73
0
 74
0
 75
0
 76
0
 77
1
 78
8
 79
2
170
0
171
1
172
0
173
0
174
0
175
0
176
0
177
0
178
0
270
2
179
2
271
2
272
2
273
2
274
2
275
0
280
0
281
0
282
0
283
1
284
8
285
0
286
0
287
3
288
0
340
11
278
44
341
221
342
221
343
221
344
221
  0
ENDTAB
  0
ENDSEC
  0
SECTION
  2
BLOCKS
  0
BLOCK
  5
20
100
AcDbEntity
  8
0
100
AcDbBlockBegin
  2
*Model_Space
 70
0
 10
0.0
 20
0.0
 30
0.0
  3
*Model_Space
  1

  0
ENDBLK
  5
21
100
AcDbEntity
  8
0
100
AcDbBlockEnd
  0
BLOCK
  5
1C
100
AcDbEntity
  8
0
100
AcDbBlockBegin
  2
*Paper_Space
 70
0
 10
0.0
 20
0.0
 30
0.0
  3
*Paper_Space
  1

  0
ENDBLK
  5
1D
100
AcDbEntity
  8
0
100
AcDbBlockEnd
  0
BLOCK
  5
223
100
AcDbEntity
  8
0
100
AcDbBlockBegin
  2
_FILLED
 70
64
 10
0.0
 20
0.0
  3
_FILLED
  1

  0
SOLID
  5
224
100
AcDbEntity
  8
0
  6
BYBLOCK
 62
0
100
AcDbTrace
 10
0.0
 20
0.0
 11
-1.0
 21
0.3166666667
 12
-1.0
 22
-0.3166666667
 13
-1.0
 23
-0.3166666667
  0
ENDBLK
  5
225
100
AcDbEntity
  8
0
  6
BYBLOCK
 62
0
100
AcDbBlockEnd
  0
ENDSEC
  0
SECTION
  2
ENTITIES
  0
LINE
  5
226
100
AcDbEntity
  8
0
100
AcDbLine
 62
7
  6
CONTINUOUS
 10
111.2484863905
 20
163.2609523006
 11
115.0363001777
 21
165.7645191919
  0
LINE
  5
227
100
AcDbEntity
  8
0
100
AcDbLine
 62
7
  6
CONTINUOUS
 10
111.9560236598
 20
163.6693964945
 11
115.743837447
 21
166.1729633858
  0
LINE
  5
228
100
AcDbEntity
  8
0
100
AcDbLine
 62
7
  6
CONTINUOUS
 10
111.9352600457
 20
163.6565571435
 11
111.9560236598
 21
163.6693964945
  0
LINE
  5
229
100
AcDbEntity
  8
0
100
AcDbLine
 62
7
  6
CONTINUOUS
 10
115.0363001777
 20
165.7645191919
 11
115.743837447
 21
166.1729633858
  0
LINE
  5
22A
100
AcDbEntity
  8
0
100
AcDbLine
 62
7
  6
CONTINUOUS
 10
111.9352600457
 20
163.6565571435
 11
111.248861698
 21
163.2603159391
  0
LINE
  5
22B
100
AcDbEntity
  8
0
100
AcDbLine
 62
7
  6
CONTINUOUS
 10
111.5525707458
 20
162.2413287051
 11
111.2735948117
 21
162.0802826295
  0
LINE
  5
22C
100
AcDbEntity
  8
CURVE
100
AcDbLine
 62
250
  6
CONTINUOUS
 10
177.0033306662
 20
61.6072022258
 11
175.7449298449
 21
61.3305794259
  0
LINE
  5
22D
100
AcDbEntity
  8
CURVE
100
AcDbLine
 62
250
  6
CONTINUOUS
 10
175.7449298449
 20
61.7563164211
 11
177.5731210216
 21
62.0846096136
  0
LINE
  5
22E
100
AcDbEntity
  8
CURVE
100
AcDbLine
 62
250
  6
CONTINUOUS
 10
176.2472703738
 20
65.8152809936
 11
176.9257355011
 21
65.9684555735
  0
LINE
  5
22F
100
AcDbEntity
  8
CURVE
100
AcDbLine
 62
250
  6
CONTINUOUS
 10
177.2081491957
 20
66.0333675126
 11
177.5731210216
 21
66.1123187243
  0
LINE
  5
230
100
AcDbEntity
  8
CURVE
100
AcDbLine
 62
250
  6
CONTINUOUS
 10
177.5731210216
 20
65.6909131038
 11
175.7449298449
 21
65.3467485457
  0
LINE
  5
231
100
AcDbEntity
  8
CURVE
100
AcDbLine
 62
250
  6
CONTINUOUS
 10
176.7599471246
 20
64.1477894072
 11
175.7449298449
 21
64.0273097172
  0
LINE
  5
232
100
AcDbEntity
  8
CURVE
100
AcDbLine
 62
250
  6
CONTINUOUS
 10
176.3843231321
 20
64.4796414703
 11
177.5731210216
 21
64.6131698891
  0
LINE
  5
233
100
AcDbEntity
  8
0
100
AcDbLine
 62
7
  6
CONTINUOUS
 10
111.5525707458
 20
162.2413287051
 11
111.9352600457
 21
163.6565571435
  0
LINE
  5
234
100
AcDbEntity
  8
0
100
AcDbLine
 62
7
  6
CONTINUOUS
 10
173.1755170169
 20
55.5072549622
 11
174.5924761478
 21
55.1310755063
  0
LINE
  5
235
100
AcDbEntity
  8
0
100
AcDbLine
 62
7
  6
CONTINUOUS
 10
111.2735948117
 20
91.2486490302
 11
111.5525707458
 21
90.7654485387
  0
LINE
  5
236
100
AcDbEntity
  8
0
100
AcDbLine
 62
7
  6
CONTINUOUS
 10
111.2735948117
 20
91.2486490302
 11
111.248861698
 21
91.7048846077
  0
LINE
  5
237
100
AcDbEntity
  8
0
100
AcDbLine
 62
7
  6
CONTINUOUS
 10
111.5525707458
 20
90.7654485387
 11
111.9352600457
 21
90.5160077966
  0
LINE
  5
238
100
AcDbEntity
  8
0
100
AcDbLine
 62
7
  6
CONTINUOUS
 10
111.2735948117
 20
162.0802826295
 11
111.248861698
 21
163.2603159391
  0
LINE
  5
239
100
AcDbEntity
  8
0
100
AcDbLine
 62
7
  6
CONTINUOUS
 10
111.248861698
 20
91.7048846077
 11
111.2484863905
 21
91.7290774684
  0
LINE
  5
23A
100
AcDbEntity
  8
0
100
AcDbLine
 62
7
  6
CONTINUOUS
 10
111.2484863905
 20
163.2609523006
 11
111.2484863905
 21
91.7290774684
  0
LINE
  5
23B
100
AcDbEntity
  8
0
100
AcDbLine
 62
7
  6
CONTINUOUS
 10
111.2735948117
 20
162.0802826295
 11
111.2735948117
 21
91.2486490302
  0
LINE
  5
23C
100
AcDbEntity
  8
0
100
AcDbLine
 62
7
  6
CONTINUOUS
 10
111.9560236598
 20
90.503586971
 11
173.9064402304
 21
54.7341928642
  0
LINE
  5
23D
100
AcDbEntity
  8
0
100
AcDbLine
 62
7
  6
CONTINUOUS
 10
111.5525707458
 20
90.7654485387
 11
172.8965410828
 21
55.3462088866
  0
LINE
  5
23E
100
AcDbEntity
  8
0
100
AcDbLine
 62
7
  6
CONTINUOUS
 10
111.9560236598
 20
90.503586971
 11
111.9352600457
 21
90.5160077966
  0
LINE
  5
23F
100
AcDbEntity
  8
0
100
AcDbLine
 62
7
  6
CONTINUOUS
 10
172.8965410828
 20
55.3462088866
 11
173.9060778002
 21
54.7348343019
  0
LWPOLYLINE
  5
240
100
AcDbEntity
  8
0
100
AcDbPolyline
 62
250
  6
CONTINUOUS
 90
28
 70
0
 10
127.4106688484
 20
117.3471215261
 10
127.4191357466
 20
117.9201570084
 10
127.4444170565
 20
118.4817787478
 10
127.4865127782
 20
119.0319867443
 10
127.5455153629
 20
119.5714904633
 10
127.6213323594
 20
120.0995804395
 10
127.7136864139
 20
120.6141282761
 10
127.8226231268
 20
121.114951446
 10
127.9480968978
 20
121.6022324764
 10
128.0896935725
 20
122.0743905529
 10
128.2474758221
 20
122.5314110787
 10
128.4213809754
 20
122.9733086506
 10
128.6108068643
 20
123.3985462439
 10
128.8158022691
 20
123.8070545086
 10
129.0363184095
 20
124.1989027948
 10
129.2716067765
 20
124.5727621278
 10
129.5217204408
 20
124.9285758065
 10
129.7866063316
 20
125.2664005321
 10
130.065356728
 20
125.5850774335
 10
130.3580181221
 20
125.8845392852
 10
130.6645440218
 20
126.1648533127
 10
130.9838872288
 20
126.4250623222
 10
131.3160915522
 20
126.6650976456
 10
131.661113183
 20
126.8850279509
 10
132.0177734964
 20
127.0841020487
 10
132.3861123532
 20
127.2622486914
 10
132.7660898926
 20
127.4195391267
 10
133.1564079074
 20
127.5554359071
  0
LWPOLYLINE
  5
241
100
AcDbEntity
  8
0
100
AcDbPolyline
 62
250
  6
CONTINUOUS
 90
24
 70
0
 10
127.6935115609
 20
117.3471215261
 10
127.7024496571
 20
117.9332204936
 10
127.7292530607
 20
118.5082839743
 10
127.7738891228
 20
119.071611335
 10
127.8363034693
 20
119.622516248
 10
127.9164200642
 20
120.1603275054
 10
128.0141413003
 20
120.6843898387
 10
128.1293481327
 20
121.1940647886
 10
128.2619001974
 20
121.688731349
 10
128.4116359636
 20
122.1677867163
 10
128.5783730263
 20
122.6306473295
 10
128.7619082053
 20
123.0767491744
 10
128.9620177061
 20
123.505548396
 10
129.1784575447
 20
123.9165223858
 10
129.4109640858
 20
124.3091707458
 10
129.6592542408
 20
124.6830154826
 10
129.9230255398
 20
125.0376011782
 10
130.2019565816
 20
125.3724957795
 10
130.4957076779
 20
125.6872914281
 10
130.8039210511
 20
125.9816046559
 10
131.1262211222
 20
126.2550767662
 10
131.4622150976
 20
126.5073744537
 10
131.8114935846
 20
126.7381903108
 10
131.9904759476
 20
126.8451613948
  0
LWPOLYLINE
  5
242
100
AcDbEntity
  8
0
100
AcDbPolyline
 62
7
  6
CONTINUOUS
 90
21
 70
0
 10
132.3284568159
 20
126.9492080654
 10
132.0058955748
 20
126.6755138825
 10
131.6977846901
 20
126.3813536673
 10
131.4041769354
 20
126.0666526765
 10
131.1250195371
 20
125.7314856533
 10
130.8613307579
 20
125.3770751629
 10
130.6131670901
 20
125.0033509267
 10
130.3804720415
 20
124.6103832233
 10
130.1640943971
 20
124.1996054532
 10
129.9640937494
 20
123.7709525727
 10
129.780410506
 20
123.3244896254
 10
129.6137146753
 20
122.8618451427
 10
129.4640682965
 20
122.3829600286
 10
129.3314093305
 20
121.8878933789
 10
129.2162216678
 20
121.3784510135
 10
129.1185691151
 20
120.8545804311
 10
129.0383878657
 20
120.316334133
 10
128.9759703913
 20
119.7656754419
 10
128.9314141823
 20
119.2032587991
 10
128.9046217481
 20
118.6284297633
 10
128.8955930889
 20
118.0411883347
  0
LINE
  5
243
100
AcDbEntity
  8
0
100
AcDbLine
 62
7
  6
CONTINUOUS
 10
132.6040377724
 20
127.1561839049
 11
132.3284568159
 21
126.9492080654
  0
LWPOLYLINE
  5
244
100
AcDbEntity
  8
0
100
AcDbPolyline
 62
250
  6
CONTINUOUS
 90
67
 70
0
 10
133.1564079074
 20
127.5554359071
 10
133.5571018835
 20
127.6698658787
 10
133.9681363351
 20
127.7629021955
 10
134.3881065973
 20
127.8342268724
 10
134.8170431971
 20
127.8837656054
 10
135.2549156074
 20
127.9115926985
 10
135.700227583
 20
127.9176130796
 10
136.1530045403
 20
127.9017521523
 10
136.6132210627
 20
127.864084513
 10
137.0793046558
 20
127.8047388789
 10
137.5512754001
 20
127.7236410977
 10
138.029113215
 20
127.6208653217
 10
138.5111853641
 20
127.4967627247
 10
138.9975063464
 20
127.3512603466
 10
139.4880616628
 20
127.1844311476
 10
139.9811750803
 20
126.9968451816
 10
140.4768553436
 20
126.7884314431
 10
140.9750937078
 20
126.5592609377
 10
141.4741877053
 20
126.310116736
 10
141.9741402602
 20
126.0409305124
 10
142.4749484483
 20
125.7517705925
 10
142.9749010293
 20
125.4436250235
 10
143.4739950791
 20
125.1164288566
 10
143.9722335217
 20
124.7702470406
 10
144.4679138892
 20
124.4062624691
 10
144.9610274367
 20
124.024414235
 10
145.4515829091
 20
123.6247632455
 10
145.9379040729
 20
123.2086751156
 10
146.4199764292
 20
122.7760936283
 10
146.8978144771
 20
122.3270750006
 10
147.3697854795
 20
121.8631534989
 10
147.8358693567
 20
121.3842781585
 10
148.2960861886
 20
120.890499944
 10
148.7488634779
 20
120.3835060151
 10
149.1941758077
 20
119.8632511263
 10
149.6320485949
 20
119.329780523
 10
150.0609855935
 20
118.7849171018
 10
150.4809562771
 20
118.2286218096
 10
150.8919911721
 20
117.6609336995
 10
151.2926856119
 20
117.0837928273
 10
151.6830041074
 20
116.4971670231
 10
152.0629821477
 20
115.9010884568
 10
152.4313215336
 20
115.2975936934
 10
152.7879824158
 20
114.686657494
 10
153.1330046436
 20
114.0683050974
 10
153.4652095656
 20
113.4446487855
 10
153.7845533548
 20
112.8156705158
 10
154.0910798382
 20
112.1813883308
 10
154.3837418458
 20
111.5439686393
 10
154.6624929089
 20
110.9033978454
 10
154.9273794961
 20
110.259689545
 10
155.177493843
 20
109.6150509346
 10
155.4127828413
 20
108.9694867119
 10
155.6332995992
 20
108.3229921791
 10
155.8382956766
 20
107.6777604393
 10
156.0277223273
 20
107.0337783997
 10
156.2016282975
 20
106.3910591531
 10
156.3594113856
 20
105.7518350818
 10
156.5010089375
 20
105.1161637829
 10
156.6264836073
 20
104.4839876593
 10
156.7354211558
 20
103.8573663019
 10
156.8277759272
 20
103.2361711063
 10
156.9035935772
 20
102.6205306769
 10
156.9625968347
 20
102.0128904178
 10
157.0046932758
 20
101.4140654635
 10
157.0299753243
 20
100.8232406795
 10
157.0384429802
 20
100.2404160656
  0
LWPOLYLINE
  5
245
100
AcDbEntity
  8
0
100
AcDbPolyline
 62
7
  6
CONTINUOUS
 90
67
 70
0
 10
128.8955930889
 20
118.0411883347
 10
128.9046217481
 20
117.4435208368
 10
128.9314141823
 20
116.8377525697
 10
128.9759703913
 20
116.2238835335
 10
129.0383878657
 20
115.6011467075
 10
129.1185691151
 20
114.9703091124
 10
129.2162216678
 20
114.3336718099
 10
129.3314093305
 20
113.6912136189
 10
129.4640682965
 20
113.0429557205
 10
129.6137146753
 20
112.3912627191
 10
129.780410506
 20
111.7361220695
 10
129.9640937494
 20
111.077546317
 10
130.1640943971
 20
110.4179377017
 10
130.3804720415
 20
109.7572924515
 10
130.6131670901
 20
109.0956143386
 10
130.8613307579
 20
108.4353169194
 10
131.1250195371
 20
107.7764052363
 10
131.4041769354
 20
107.1188742469
 10
131.6977846901
 20
106.4651223805
 10
132.0058955748
 20
105.8151634387
 10
132.3284568159
 20
105.16898362
 10
132.6642918295
 20
104.5289399486
 10
133.0134490923
 20
103.8950548343
 10
133.3758801277
 20
103.2673058675
 10
133.7502629215
 20
102.6479828436
 10
134.1366411224
 20
102.0371165348
 10
134.5349710818
 20
101.4346761689
 10
134.9437998397
 20
100.8428592251
 10
135.3631657383
 20
100.2617045009
 10
135.7930304353
 20
99.6911731987
 10
136.2318259437
 20
99.1333464053
 10
136.6795848795
 20
98.5882705185
 10
137.1362746266
 20
98.0558991403
 10
137.6002293502
 20
97.5381741644
 10
138.0714755824
 20
97.0351490804
 10
138.5499867912
 20
96.5467703985
 10
139.0340175449
 20
96.0748195432
 10
139.5235880013
 20
95.6193565101
 10
140.0186780028
 20
95.1803213035
 10
140.5174816444
 20
94.7593153612
 10
141.0200124887
 20
94.3564045273
 10
141.5262569731
 20
93.9715229576
 10
142.0343685056
 20
93.6060745575
 10
142.5443539046
 20
93.2601302982
 10
143.0562063516
 20
92.9336192085
 10
143.5680587986
 20
92.6277322797
 10
144.0799112455
 20
92.3425448328
 10
144.5917636925
 20
92.0779815468
 10
145.1017490915
 20
91.8350074505
 10
145.609860624
 20
91.6137013892
 10
146.1161051084
 20
91.4139845177
 10
146.6186359527
 20
91.236585329
 10
147.1174395943
 20
91.0815853289
 10
147.6125295958
 20
90.9489030117
 10
148.1021000522
 20
90.8390223533
 10
148.5861308059
 20
90.7520266268
 10
149.0646420147
 20
90.6878325591
 10
149.5358882469
 20
90.6466743064
 10
149.9998429705
 20
90.6286359969
 10
150.4565327176
 20
90.6336335024
 10
150.9042916534
 20
90.6616485938
 10
151.3430871618
 20
90.7127653329
 10
151.7729518588
 20
90.7868996578
 10
152.1923177574
 20
90.8837811541
 10
152.6011465153
 20
91.003492896
 10
152.9994764747
 20
91.1459518093
 10
153.3203844523
 20
91.2827328042
  0
LINE
  5
246
100
AcDbEntity
  8
0
100
AcDbLine
 62
7
  6
CONTINUOUS
 10
140.88105303
 20
94.5061347214
 11
140.710278971
 21
94.6047375228
  0
LINE
  5
247
100
AcDbEntity
  8
0
100
AcDbLine
 62
7
  6
CONTINUOUS
 10
141.1285404035
 20
94.5265602876
 11
140.067252937
 21
95.1393225332
  0
LINE
  5
248
100
AcDbEntity
  8
0
100
AcDbLine
 62
7
  6
CONTINUOUS
 10
141.2346064206
 20
94.7102720181
 11
139.3002211406
 21
95.8271618352
  0
LINE
  5
249
100
AcDbEntity
  8
0
100
AcDbLine
 62
7
  6
CONTINUOUS
 10
141.4820937941
 20
94.7306975842
 11
138.8596084825
 21
96.2448758992
  0
LINE
  5
24A
100
AcDbEntity
  8
0
100
AcDbLine
 62
7
  6
CONTINUOUS
 10
141.5881598112
 20
94.9144093148
 11
138.2750935847
 21
96.8273322315
  0
LINE
  5
24B
100
AcDbEntity
  8
0
100
AcDbLine
 62
7
  6
CONTINUOUS
 10
141.8356471846
 20
94.9348348809
 11
137.9223893172
 21
97.1942890925
  0
LINE
  5
24C
100
AcDbEntity
  8
0
100
AcDbLine
 62
250
  6
CONTINUOUS
 10
142.1204261319
 20
94.8929910254
 11
137.8740888736
 21
97.3447729392
  0
LINE
  5
24D
100
AcDbEntity
  8
0
100
AcDbLine
 62
250
  6
CONTINUOUS
 10
142.1870984878
 20
94.9316929368
 11
137.9481360265
 21
97.3792167353
  0
LINE
  5
24E
100
AcDbEntity
  8
0
100
AcDbLine
 62
7
  6
CONTINUOUS
 10
139.5337377597
 20
97.8970426884
 11
143.3597391503
 21
95.6879574366
  0
LINE
  5
24F
100
AcDbEntity
  8
0
100
AcDbLine
 62
250
  6
CONTINUOUS
 10
143.3669467591
 20
95.5445077832
 11
143.3669467591
 21
95.1371381454
  0
LINE
  5
250
100
AcDbEntity
  8
0
100
AcDbLine
 62
7
  6
CONTINUOUS
 10
143.418317794
 20
95.6110852901
 11
143.418317794
 21
95.1676834401
  0
LINE
  5
251
100
AcDbEntity
  8
0
100
AcDbLine
 62
7
  6
CONTINUOUS
 10
173.9064402304
 20
127.9000023877
 11
177.9683732152
 21
130.2452962898
  0
LINE
  5
252
100
AcDbEntity
  8
0
100
AcDbLine
 62
7
  6
CONTINUOUS
 10
111.2484863905
 20
163.2609523006
 11
111.248861698
 21
163.2603159391
  0
LINE
  5
253
100
AcDbEntity
  8
0
100
AcDbLine
 62
7
  6
CONTINUOUS
 10
173.9060778002
 20
54.7348343019
 11
173.9064402304
 21
54.7341928642
  0
LINE
  5
254
100
AcDbEntity
  8
0
100
AcDbLine
 62
7
  6
CONTINUOUS
 10
140.8659305371
 20
94.4799417953
 11
140.88105303
 21
94.5061347214
  0
LINE
  5
255
100
AcDbEntity
  8
0
100
AcDbLine
 62
7
  6
CONTINUOUS
 10
141.1285404035
 20
94.5265602876
 11
141.2346064206
 21
94.7102720181
  0
LINE
  5
256
100
AcDbEntity
  8
0
100
AcDbLine
 62
7
  6
CONTINUOUS
 10
141.4820937941
 20
94.7306975842
 11
141.5881598112
 21
94.9144093148
  0
LINE
  5
257
100
AcDbEntity
  8
0
100
AcDbLine
 62
7
  6
CONTINUOUS
 10
174.6139774997
 20
126.6745118903
 11
178.6759104845
 21
129.0198057924
  0
LINE
  5
258
100
AcDbEntity
  8
0
100
AcDbLine
 62
7
  6
CONTINUOUS
 10
172.8965410828
 20
126.822089053
 11
173.9060778002
 21
127.8753836488
  0
LINE
  5
259
100
AcDbEntity
  8
0
100
AcDbLine
 62
7
  6
CONTINUOUS
 10
137.8117659872
 20
97.3123723917
 11
137.8740888736
 21
97.3447729392
  0
LINE
  5
25A
100
AcDbEntity
  8
0
100
AcDbLine
 62
7
  6
CONTINUOUS
 10
173.1755170169
 20
126.3388885615
 11
174.5924761478
 21
126.6865068377
  0
LWPOLYLINE
  5
25B
100
AcDbEntity
  8
0
100
AcDbPolyline
 62
7
  6
CONTINUOUS
 90
70
 70
0
 10
156.9798643364
 20
100.3220709843
 10
156.9713622063
 20
100.9035244043
 10
156.9458539693
 20
101.4944208495
 10
156.9033525545
 20
102.0940679487
 10
156.8438885704
 20
102.7017914017
 10
156.7675186053
 20
103.3168473954
 10
156.6743329823
 20
103.9384228843
 10
156.5644464575
 20
104.5657247064
 10
156.4379747086
 20
105.1980726231
 10
156.2950394257
 20
105.8348156264
 10
156.1357859768
 20
106.4752488551
 10
155.9603998622
 20
107.1185770677
 10
155.7690872549
 20
107.7640111529
 10
155.5620717608
 20
108.4107743714
 10
155.3395849452
 20
109.0581240961
 10
155.1018736682
 20
109.7053214542
 10
154.8492025681
 20
110.3516239471
 10
154.5818683757
 20
110.9962530008
 10
154.3001932885
 20
111.6384185726
 10
154.0045078746
 20
112.2773587351
 10
153.6951532082
 20
112.9123294656
 10
153.37249498
 20
113.5425745399
 10
153.0369116333
 20
114.1673510632
 10
152.6887945992
 20
114.7859275044
 10
152.3285529573
 20
115.3975750104
 10
151.9566055375
 20
116.0015810408
 10
151.5733922356
 20
116.5972305615
 10
151.1793761269
 20
117.1838054228
 10
150.7750263123
 20
117.7606111982
 10
150.3608146282
 20
118.3269792871
 10
149.9372281968
 20
118.8822480926
 10
149.5047617282
 20
119.4257736129
 10
149.0639303792
 20
119.9569134443
 10
148.615269407
 20
120.4750297448
 10
148.1593139747
 20
120.9795134819
 10
147.6965995618
 20
121.469781673
 10
147.2276771585
 20
121.9452604421
 10
146.7531044425
 20
122.4053951302
 10
146.2734420192
 20
122.8496535742
 10
145.7892573742
 20
123.2775219365
 10
145.3011223659
 20
123.688507009
 10
144.8096192782
 20
124.0821313456
 10
144.3153411338
 20
124.4579342523
 10
143.8188948207
 20
124.8154709819
 10
143.3208521379
 20
125.1543471937
 10
142.8217606837
 20
125.4742047793
 10
142.3221971925
 20
125.7746857958
 10
141.8227750922
 20
126.0554339337
 10
141.3241021342
 20
126.3161229865
 10
140.826828555
 20
126.5564335069
 10
140.3314937547
 20
126.7761264845
 10
139.8385436837
 20
126.9750149837
 10
139.3485505209
 20
127.1528702293
 10
138.8621237445
 20
127.3094743715
 10
138.3797692617
 20
127.444665495
 10
137.9021251695
 20
127.5582655765
 10
137.429711967
 20
127.6501529982
 10
136.9628645643
 20
127.7202468004
 10
136.5020564249
 20
127.7684384713
 10
136.0479526685
 20
127.7946217303
 10
135.6011697191
 20
127.7987363806
 10
135.1623172501
 20
127.7807626281
 10
134.7318493816
 20
127.7407053789
 10
134.3101329968
 20
127.6785677893
 10
133.8976384003
 20
127.5943722121
 10
133.4948977973
 20
127.4881790466
 10
133.102355267
 20
127.3600554945
 10
132.7204647286
 20
127.2100929369
 10
132.3496914477
 20
127.0384142354
 10
131.9904759476
 20
126.8451613948
  0
LWPOLYLINE
  5
25C
100
AcDbEntity
  8
0
100
AcDbPolyline
 62
250
  6
CONTINUOUS
 90
20
 70
0
 10
157.0384429802
 20
100.2404160656
 10
157.029976082
 20
99.6673805833
 10
157.0046947721
 20
99.1057588439
 10
156.9625990504
 20
98.5555508474
 10
156.9035964657
 20
98.0160471284
 10
156.8277794692
 20
97.4879571522
 10
156.7354254147
 20
96.9734093156
 10
156.6264887018
 20
96.4725861457
 10
156.5010149308
 20
95.9853051152
 10
156.3594182561
 20
95.5131470388
 10
156.2016360065
 20
95.056126513
 10
156.0277308532
 20
94.6142289411
 10
155.8383049643
 20
94.1889913478
 10
155.6333095595
 20
93.7804830831
 10
155.4127934191
 20
93.3886347969
 10
155.1775050521
 20
93.0147754639
 10
154.9273913878
 20
92.6589617852
 10
154.6625054969
 20
92.3211370596
 10
154.3837551006
 20
92.0024601582
 10
154.0910937065
 20
91.7029983065
  0
LINE
  5
25D
100
AcDbEntity
  8
0
100
AcDbLine
 62
250
  6
CONTINUOUS
 10
141.529255136
 20
93.9693665928
 11
141.7584123111
 21
94.1922540816
  0
LINE
  5
25E
100
AcDbEntity
  8
0
100
AcDbLine
 62
7
  6
CONTINUOUS
 10
141.5513328952
 20
93.9534876347
 11
141.8553765844
 21
94.2492127601
  0
LINE
  5
25F
100
AcDbEntity
  8
0
100
AcDbLine
 62
7
  6
CONTINUOUS
 10
142.1204261319
 20
94.8929910254
 11
141.1406369835
 21
94.2646975629
  0
LINE
  5
260
100
AcDbEntity
  8
0
100
AcDbLine
 62
7
  6
CONTINUOUS
 10
141.4636618829
 20
94.0191120126
 11
143.3669467591
 21
95.1371381454
  0
LINE
  5
261
100
AcDbEntity
  8
0
100
AcDbLine
 62
7
  6
CONTINUOUS
 10
140.88105303
 20
94.5061347214
 11
141.0224743863
 21
94.5877896401
  0
LINE
  5
262
100
AcDbEntity
  8
0
100
AcDbLine
 62
7
  6
CONTINUOUS
 10
141.2346064206
 20
94.7102720181
 11
141.3760277769
 21
94.7919269368
  0
LINE
  5
263
100
AcDbEntity
  8
0
100
AcDbLine
 62
7
  6
CONTINUOUS
 10
141.5881598112
 20
94.9144093148
 11
141.7295811675
 21
94.9960642334
  0
LINE
  5
264
100
AcDbEntity
  8
0
100
AcDbLine
 62
7
  6
CONTINUOUS
 10
141.8356471846
 20
94.9348348809
 11
140.9420709772
 21
94.4188951779
  0
LINE
  5
265
100
AcDbEntity
  8
0
100
AcDbLine
 62
7
  6
CONTINUOUS
 10
143.3669467591
 20
95.5445077832
 11
142.1870984878
 21
94.9316929368
  0
LINE
  5
266
100
AcDbEntity
  8
0
100
AcDbLine
 62
7
  6
CONTINUOUS
 10
137.9481360265
 20
97.3792167353
 11
139.2584902822
 21
97.916679062
  0
LWPOLYLINE
  5
267
100
AcDbEntity
  8
0
100
AcDbPolyline
 62
250
  6
CONTINUOUS
 90
75
 70
0
 10
154.0910937065
 20
91.7029983065
 10
153.7845678068
 20
91.422684279
 10
153.4652245998
 20
91.1624752695
 10
153.1330202764
 20
90.9224399461
 10
152.7879986456
 20
90.7025096408
 10
152.4313383322
 20
90.503435543
 10
152.0629994754
 20
90.3252889003
 10
151.683021936
 20
90.167998465
 10
151.2927039212
 20
90.0321016846
 10
150.8920099451
 20
89.917671713
 10
150.4809754935
 20
89.8246353962
 10
150.0610052313
 20
89.7533107192
 10
149.6320686315
 20
89.7037719863
 10
149.1941962212
 20
89.6759448932
 10
148.7488842456
 20
89.6699245121
 10
148.2961072883
 20
89.6857854394
 10
147.8358907658
 20
89.7234530787
 10
147.3698071728
 20
89.7827987128
 10
146.8978364285
 20
89.8638964939
 10
146.4199986136
 20
89.96667227
 10
145.9379264645
 20
90.090774867
 10
145.4516054822
 20
90.2362772451
 10
144.9610501657
 20
90.4031064441
 10
144.4679367483
 20
90.5906924101
 10
143.972256485
 20
90.7991061486
 10
143.4740181208
 20
91.028276654
 10
142.9749241233
 20
91.2774208557
 10
142.4749715684
 20
91.5466070793
 10
141.9741633803
 20
91.8357669992
 10
141.4742107993
 20
92.1439125682
 10
140.9751167495
 20
92.4711087351
 10
140.4768783069
 20
92.8172905511
 10
139.9811979394
 20
93.1812751226
 10
139.4880843919
 20
93.5631233567
 10
138.9975289195
 20
93.9627743462
 10
138.5112077557
 20
94.3788624761
 10
138.0291353994
 20
94.8114439634
 10
137.5512973515
 20
95.260462591
 10
137.0793263491
 20
95.7243840928
 10
136.6132424719
 20
96.2032594332
 10
136.15302564
 20
96.6970376477
 10
135.7002483507
 20
97.2040315766
 10
135.2549360209
 20
97.7242864654
 10
134.8170632337
 20
98.2577570687
 10
134.3881262351
 20
98.8026204899
 10
133.9681555515
 20
99.3589157821
 10
133.5571206565
 20
99.9266038922
 10
133.1564262167
 20
100.5037447644
 10
132.7661077212
 20
101.0903705686
 10
132.3861296809
 20
101.6864491349
 10
132.017790295
 20
102.2899438983
 10
131.6611294127
 20
102.9008800977
 10
131.316107185
 20
103.5192324943
 10
130.9839022629
 20
104.1428888062
 10
130.6645584738
 20
104.7718670759
 10
130.3580319904
 20
105.4061492609
 10
130.0653699828
 20
106.0435689524
 10
129.7866189197
 20
106.6841397463
 10
129.5217323325
 20
107.3278480466
 10
129.2716179856
 20
107.9724866571
 10
129.0363289873
 20
108.6180508798
 10
128.8158122294
 20
109.2645454126
 10
128.610816152
 20
109.9097771524
 10
128.4213895013
 20
110.553759192
 10
128.2474835311
 20
111.1964784386
 10
128.089700443
 20
111.8357025099
 10
127.9481028911
 20
112.4713738088
 10
127.8226282213
 20
113.1035499324
 10
127.7136906728
 20
113.7301712898
 10
127.6213359014
 20
114.3513664854
 10
127.5455182514
 20
114.9670069148
 10
127.4865149939
 20
115.5746471739
 10
127.4444185528
 20
116.1734721282
 10
127.4191365043
 20
116.7642969122
 10
127.4106688484
 20
117.3471215261
  0
LWPOLYLINE
  5
268
100
AcDbEntity
  8
0
100
AcDbPolyline
 62
7
  6
CONTINUOUS
 90
25
 70
0
 10
152.7414785934
 20
90.9056860342
 10
153.0727947463
 20
91.1098689131
 10
153.3924120272
 20
91.3330215139
 10
153.7000275538
 20
91.5748818384
 10
153.9953752435
 20
91.8351934533
 10
154.2781461634
 20
92.1136364019
 10
154.5479973458
 20
92.4098078891
 10
154.804643128
 20
92.7233072299
 10
155.0478849173
 20
93.0538007021
 10
155.2775292978
 20
93.4009445254
 10
155.4933418245
 20
93.7643017082
 10
155.6951372867
 20
94.1434716177
 10
155.8827943226
 20
94.5381584154
 10
156.0561255737
 20
94.9479192786
 10
156.2149558241
 20
95.3722847998
 10
156.3591753748
 20
95.8109253152
 10
156.4886320159
 20
96.263366225
 10
156.6031849126
 20
96.7290984665
 10
156.7027400386
 20
97.2077456326
 10
156.7871846749
 20
97.6988089447
 10
156.8564163008
 20
98.2017371756
 10
156.9103623354
 20
98.7160755598
 10
156.9489535892
 20
99.241304052
 10
156.9721328879
 20
99.7768281648
 10
156.9798643364
 20
100.3220709843
  0
LWPOLYLINE
  5
269
100
AcDbEntity
  8
0
100
AcDbPolyline
 62
250
  6
CONTINUOUS
 90
69
 70
0
 10
152.7414785934
 20
90.9056860342
 10
152.5583234669
 20
90.803604278
 10
152.1837682215
 20
90.6165691707
 10
151.7972515885
 20
90.4517796729
 10
151.3992444568
 20
90.3094365345
 10
150.9902316971
 20
90.1897131602
 10
150.5707116182
 20
90.092755412
 10
150.1411953492
 20
90.0186814207
 10
149.7022061736
 20
89.9675814324
 10
149.2542789205
 20
89.9395177063
 10
148.7979593283
 20
89.9345244372
 10
148.3338033653
 20
89.95260771
 10
147.8623765363
 20
89.9937454927
 10
147.3842531987
 20
90.0578876654
 10
146.9000158767
 20
90.14495608
 10
146.4102545416
 20
90.2548446555
 10
145.9155658883
 20
90.3874195097
 10
145.4165526134
 20
90.5425191216
 10
144.9138226858
 20
90.7199545271
 10
144.4079886048
 20
90.9195095482
 10
143.8996666489
 20
91.1409410589
 10
143.3894761283
 20
91.3839792803
 10
142.8780386318
 20
91.6483281077
 10
142.3659772681
 20
91.9336654725
 10
141.8539159044
 20
92.2396437354
 10
141.3424784079
 20
92.5658901095
 10
140.8322878873
 20
92.9120071132
 10
140.3239659315
 20
93.2775730556
 10
139.8181318506
 20
93.6621425522
 10
139.3154019231
 20
94.065247066
 10
138.8163886481
 20
94.4863954759
 10
138.3216999948
 20
94.925074679
 10
137.8319386596
 20
95.3807502172
 10
137.3477013375
 20
95.8528669246
 10
136.8695779999
 20
96.3408495978
 10
136.3981511711
 20
96.8441037005
 10
135.9339952083
 20
97.3620160993
 10
135.4776756165
 20
97.8939557951
 10
135.0297483638
 20
98.4392746851
 10
134.5907591886
 20
98.9973083695
 10
134.16124292
 20
99.5673769816
 10
133.7417228411
 20
100.1487860014
 10
133.3327100808
 20
100.7408270594
 10
132.9347029483
 20
101.3427788587
 10
132.5481863144
 20
101.9539080776
 10
132.1736310682
 20
102.5734701955
 10
131.8114935778
 20
103.2007103333
 10
131.4622150912
 20
103.8348642322
 10
131.126221118
 20
104.4751593368
 10
130.8039210498
 20
105.1208154848
 10
130.4957076791
 20
105.771045785
 10
130.2019565852
 20
106.4250578308
 10
129.9230255455
 20
107.0820550022
 10
129.6592542459
 20
107.7412371828
 10
129.4109640868
 20
108.4018011771
 10
129.1784575402
 20
109.0629422789
 10
128.9620176967
 20
109.7238555856
 10
128.7619081919
 20
110.3837362591
 10
128.5783730096
 20
111.041779945
 10
128.411635945
 20
111.6971843528
 10
128.2619001781
 20
112.3491508417
 10
128.1293481138
 20
112.9968852133
 10
128.0141412838
 20
113.6395981266
 10
127.9164200519
 20
114.2765064824
 10
127.8363034615
 20
114.9068343563
 10
127.7738891185
 20
115.5298137731
 10
127.7292530587
 20
116.1446857229
 10
127.7024496566
 20
116.7507010855
 10
127.6935115609
 20
117.3471215261
  0
LWPOLYLINE
  5
26A
100
AcDbEntity
  8
CURVE
100
AcDbPolyline
 62
250
  6
CONTINUOUS
 90
73
 70
0
 10
176.7089347417
 20
68.1245398038
 10
176.7077917634
 20
68.1308758618
 10
176.7060397426
 20
68.1366796609
 10
176.7037462844
 20
68.142004681
 10
176.700978994
 20
68.1469044023
 10
176.6978054768
 20
68.1514323049
 10
176.6942933379
 20
68.1556418687
 10
176.6905101827
 20
68.159586574
 10
176.6865236164
 20
68.1633199008
 10
176.6824012442
 20
68.1668953291
 10
176.6782106713
 20
68.1703663391
 10
176.6676175094
 20
68.1788513829
 10
176.6569665253
 20
68.1869659147
 10
176.6462036726
 20
68.1946624659
 10
176.635274905
 20
68.2018935679
 10
176.6241261759
 20
68.2086117523
 10
176.6127034391
 20
68.2147695504
 10
176.6009526481
 20
68.2203194937
 10
176.5888197566
 20
68.2252141136
 10
176.5752418694
 20
68.22972143
 10
176.561192502
 20
68.233419957
 10
176.5467089272
 20
68.2363206919
 10
176.5318284178
 20
68.2384346321
 10
176.5165882468
 20
68.2397727748
 10
176.5010256868
 20
68.2403461175
 10
176.4851780108
 20
68.2401656575
 10
176.4690824915
 20
68.2392423922
 10
176.4527764018
 20
68.2375873189
 10
176.4362970145
 20
68.235211435
 10
176.4196920536
 20
68.2321292316
 10
176.4029608947
 20
68.2283518114
 10
176.3861131187
 20
68.2238924898
 10
176.369158307
 20
68.2187645824
 10
176.3521060407
 20
68.2129814047
 10
176.3349659009
 20
68.206556272
 10
176.3152777994
 20
68.1984428884
 10
176.2955123771
 20
68.189534628
 10
176.2756946331
 20
68.1798581805
 10
176.2558495665
 20
68.1694402354
 10
176.2360021764
 20
68.1583074825
 10
176.2161774618
 20
68.1464866112
 10
176.196892939
 20
68.1343174212
 10
176.177677164
 20
68.1215078989
 10
176.1585535584
 20
68.1080465589
 10
176.1395455439
 20
68.0939219159
 10
176.1206765421
 20
68.0791224847
 10
176.1038536158
 20
68.0652362544
 10
176.0871823859
 20
68.0508018436
 10
176.0706832966
 20
68.0358256029
 10
176.0543767921
 20
68.0203138828
 10
176.0382833166
 20
68.0042730338
 10
176.0210301944
 20
67.9862208959
 10
176.0040824601
 20
67.9675832191
 10
175.9874688158
 20
67.9483940018
 10
175.9712179636
 20
67.9286872422
 10
175.9553586057
 20
67.9084969388
 10
175.939919444
 20
67.8878570896
 10
175.9249291806
 20
67.8668016932
 10
175.9104165178
 20
67.8453647478
 10
175.8971718251
 20
67.8247977154
 10
175.8843891651
 20
67.8039451209
 10
175.8720789333
 20
67.7828314274
 10
175.8602515255
 20
67.7614810983
 10
175.8489173375
 20
67.7399185969
 10
175.838086765
 20
67.7181683865
 10
175.8277702038
 20
67.6962549304
 10
175.8205861456
 20
67.680195115
 10
175.8137200759
 20
67.6640820817
 10
175.807211365
 20
67.647936348
 10
175.8010993831
 20
67.6317784314
 10
175.7954235004
 20
67.6156288494
 10
175.790223087
 20
67.5995081194
 10
175.7855375132
 20
67.5834367589
  0
LWPOLYLINE
  5
26B
100
AcDbEntity
  8
CURVE
100
AcDbPolyline
 62
250
  6
CONTINUOUS
 90
22
 70
0
 10
176.0563805931
 20
67.0880796022
 10
176.0541529245
 20
67.1017558302
 10
176.0520261445
 20
67.115504468
 10
176.0500172955
 20
67.1293372758
 10
176.0481434201
 20
67.1432660134
 10
176.0464215606
 20
67.1573024408
 10
176.0448687597
 20
67.1714583181
 10
176.0433985712
 20
67.1868812532
 10
176.0421452464
 20
67.2024520169
 10
176.0411088557
 20
67.2181655886
 10
176.0402894696
 20
67.2340169478
 10
176.0396871588
 20
67.2500010738
 10
176.0393019937
 20
67.2661129463
 10
176.0391340449
 20
67.2823475445
 10
176.0391833829
 20
67.298699848
 10
176.0394500784
 20
67.3151648363
 10
176.0399342018
 20
67.3317374887
 10
176.0406358237
 20
67.3484127848
 10
176.0415550146
 20
67.365185704
 10
176.0426918452
 20
67.3820512258
 10
176.0440463858
 20
67.3990043296
 10
176.0456187072
 20
67.4160399948
  0
LINE
  5
26C
100
AcDbEntity
  8
0
100
AcDbLine
 62
7
  6
CONTINUOUS
 10
173.1755170169
 20
55.5072549622
 11
173.1755170169
 21
126.3388885615
  0
LINE
  5
26D
100
AcDbEntity
  8
0
100
AcDbLine
 62
7
  6
CONTINUOUS
 10
174.6139774997
 20
55.1426370581
 11
174.6139774997
 21
126.6745118903
  0
LINE
  5
26E
100
AcDbEntity
  8
CURVE
100
AcDbLine
 62
250
  6
CONTINUOUS
 10
175.7448208732
 20
62.3403867114
 11
175.7448208732
 21
61.9143582362
  0
LINE
  5
26F
100
AcDbEntity
  8
CURVE
100
AcDbLine
 62
250
  6
CONTINUOUS
 10
175.7449298449
 20
60.0778086614
 11
175.7449298449
 21
60.5406068754
  0
LINE
  5
270
100
AcDbEntity
  8
CURVE
100
AcDbLine
 62
250
  6
CONTINUOUS
 10
175.7449298449
 20
61.3305794259
 11
175.7449298449
 21
61.7563164211
  0
LINE
  5
271
100
AcDbEntity
  8
CURVE
100
AcDbLine
 62
250
  6
CONTINUOUS
 10
175.7449298449
 20
62.7540765746
 11
175.7449298449
 21
63.1797523346
  0
LINE
  5
272
100
AcDbEntity
  8
CURVE
100
AcDbLine
 62
250
  6
CONTINUOUS
 10
175.7449298449
 20
64.0273097172
 11
175.7449298449
 21
64.4488231117
  0
LINE
  5
273
100
AcDbEntity
  8
CURVE
100
AcDbLine
 62
250
  6
CONTINUOUS
 10
175.7449298449
 20
65.3467485457
 11
175.7449298449
 21
65.7588798802
  0
LINE
  5
274
100
AcDbEntity
  8
0
100
AcDbLine
 62
7
  6
CONTINUOUS
 10
173.9064402304
 20
127.9000023877
 11
173.9060778002
 21
127.8753836488
  0
LINE
  5
275
100
AcDbEntity
  8
0
100
AcDbLine
 62
7
  6
CONTINUOUS
 10
174.5924761478
 20
126.6865068377
 11
174.6139774997
 21
126.6745118903
  0
LINE
  5
276
100
AcDbEntity
  8
0
100
AcDbLine
 62
7
  6
CONTINUOUS
 10
172.8965410828
 20
126.822089053
 11
111.5525707458
 21
162.2413287051
  0
LINE
  5
277
100
AcDbEntity
  8
0
100
AcDbLine
 62
7
  6
CONTINUOUS
 10
173.9064402304
 20
127.9000023877
 11
111.9560236598
 21
163.6693964945
  0
LINE
  5
278
100
AcDbEntity
  8
CURVE
100
AcDbLine
 62
250
  6
CONTINUOUS
 10
176.5582546297
 20
67.6017708788
 11
176.5582546297
 21
67.3582998876
  0
LINE
  5
279
100
AcDbEntity
  8
CURVE
100
AcDbLine
 62
250
  6
CONTINUOUS
 10
176.8576681175
 20
67.5336373132
 11
176.8576681175
 21
67.762063548
  0
LINE
  5
27A
100
AcDbEntity
  8
CURVE
100
AcDbLine
 62
250
  6
CONTINUOUS
 10
176.9257355011
 20
65.9684555735
 11
176.9257355011
 21
66.3763477944
  0
LINE
  5
27B
100
AcDbEntity
  8
CURVE
100
AcDbLine
 62
250
  6
CONTINUOUS
 10
177.2081491957
 20
66.613547209
 11
177.2081491957
 21
66.0333675126
  0
LINE
  5
27C
100
AcDbEntity
  8
CURVE
100
AcDbLine
 62
250
  6
CONTINUOUS
 10
177.5731210216
 20
67.3694363765
 11
177.5731210216
 21
66.9204201807
  0
LINE
  5
27D
100
AcDbEntity
  8
CURVE
100
AcDbLine
 62
250
  6
CONTINUOUS
 10
177.5731210216
 20
66.1123187243
 11
177.5731210216
 21
65.6909131038
  0
LINE
  5
27E
100
AcDbEntity
  8
CURVE
100
AcDbLine
 62
250
  6
CONTINUOUS
 10
177.5731210216
 20
65.6240147952
 11
177.5731210216
 21
65.2072459095
  0
LINE
  5
27F
100
AcDbEntity
  8
CURVE
100
AcDbLine
 62
250
  6
CONTINUOUS
 10
177.5731210216
 20
64.6131698891
 11
177.5731210216
 21
64.5534189613
  0
LINE
  5
280
100
AcDbEntity
  8
CURVE
100
AcDbLine
 62
250
  6
CONTINUOUS
 10
177.5731210216
 20
63.961699274
 11
177.5731210216
 21
63.5541287424
  0
LINE
  5
281
100
AcDbEntity
  8
CURVE
100
AcDbLine
 62
250
  6
CONTINUOUS
 10
177.5731210216
 20
62.0846096136
 11
177.5731210216
 21
61.7091720862
  0
LINE
  5
282
100
AcDbEntity
  8
CURVE
100
AcDbLine
 62
250
  6
CONTINUOUS
 10
177.5731210216
 20
62.898756216
 11
177.5731210216
 21
63.3247846911
  0
LINE
  5
283
100
AcDbEntity
  8
CURVE
100
AcDbLine
 62
250
  6
CONTINUOUS
 10
177.5731210336
 20
67.4945391114
 11
177.5731210336
 21
67.9188532778
  0
LINE
  5
284
100
AcDbEntity
  8
CURVE
100
AcDbLine
 62
250
  6
CONTINUOUS
 10
177.5731210336
 20
68.5712569704
 11
177.5731210336
 21
68.9810467484
  0
LINE
  5
285
100
AcDbEntity
  8
0
100
AcDbLine
 62
7
  6
CONTINUOUS
 10
178.6759104845
 20
57.1714155723
 11
178.6759104845
 21
129.0198057924
  0
LWPOLYLINE
  5
286
100
AcDbEntity
  8
CURVE
100
AcDbPolyline
 62
250
  6
CONTINUOUS
 90
48
 70
0
 10
176.8576681175
 20
67.762063548
 10
176.8577427192
 20
67.7686633123
 10
176.8579673379
 20
67.7753554959
 10
176.8583431944
 20
67.7821340048
 10
176.8588715091
 20
67.788992745
 10
176.8595535028
 20
67.7959256225
 10
176.860390396
 20
67.8029265433
 10
176.8613834093
 20
67.8099894134
 10
176.8625337634
 20
67.8171081389
 10
176.8638426788
 20
67.8242766256
 10
176.8653113762
 20
67.8314887797
 10
176.8669410762
 20
67.8387385071
 10
176.8687329994
 20
67.8460197139
 10
176.8706883664
 20
67.853326306
 10
176.8728083978
 20
67.8606521894
 10
176.8750943142
 20
67.8679912703
 10
176.8775473363
 20
67.8753374544
 10
176.8801686847
 20
67.882684648
 10
176.8830317692
 20
67.8902140581
 10
176.8860676179
 20
67.8977337253
 10
176.8892706988
 20
67.9052392536
 10
176.8926354798
 20
67.9127262472
 10
176.896156429
 20
67.9201903101
 10
176.8998280143
 20
67.9276270464
 10
176.9036447037
 20
67.9350320602
 10
176.9076009652
 20
67.9424009555
 10
176.9116912669
 20
67.9497293366
 10
176.9159100766
 20
67.9570128074
 10
176.9202518624
 20
67.964246972
 10
176.9247110922
 20
67.9714274345
 10
176.9292822341
 20
67.9785497991
 10
176.933959756
 20
67.9856096697
 10
176.938738126
 20
67.9926026506
 10
176.9436118119
 20
67.9995243456
 10
176.9485752819
 20
68.0063703591
 10
176.9536230039
 20
68.0131362949
 10
176.9587494458
 20
68.0198177573
 10
176.9639490758
 20
68.0264103502
 10
176.9692163616
 20
68.0329096779
 10
176.9745457715
 20
68.0393113443
 10
176.9799317732
 20
68.0456109536
 10
176.9853688349
 20
68.0518041099
 10
176.9908514245
 20
68.0578864171
 10
176.99637401
 20
68.0638534795
 10
177.0019310594
 20
68.0697009011
 10
177.0075170406
 20
68.0754242859
 10
177.0131264217
 20
68.0810192381
 10
177.0187536707
 20
68.0864813618
  0
LINE
  5
287
100
AcDbEntity
  8
0
100
AcDbLine
 62
7
  6
CONTINUOUS
 10
177.9683732152
 20
130.2452962898
 11
115.743837447
 21
166.1729633858
  0
LINE
  5
288
100
AcDbEntity
  8
0
100
AcDbLine
 62
7
  6
CONTINUOUS
 10
173.1755170169
 20
126.3388885615
 11
172.8965410828
 21
126.822089053
  0
LINE
  5
289
100
AcDbEntity
  8
0
100
AcDbLine
 62
7
  6
CONTINUOUS
 10
174.5924761478
 20
126.6865068377
 11
173.9060778002
 21
127.8753836488
  0
LWPOLYLINE
  5
28A
100
AcDbEntity
  8
CURVE
100
AcDbPolyline
 62
250
  6
CONTINUOUS
 90
49
 70
0
 10
176.0456187072
 20
67.4160399948
 10
176.0465250957
 20
67.4243360653
 10
176.0476205398
 20
67.4327344599
 10
176.0489045079
 20
67.4412262923
 10
176.0503764687
 20
67.4498026763
 10
176.0520358905
 20
67.4584547256
 10
176.053882242
 20
67.467173554
 10
176.0559149916
 20
67.4759502752
 10
176.0581336079
 20
67.484776003
 10
176.0605375593
 20
67.4936418511
 10
176.0631263145
 20
67.5025389332
 10
176.0658993418
 20
67.5114583632
 10
176.06885611
 20
67.5203912547
 10
176.0719960873
 20
67.5293287214
 10
176.0753187425
 20
67.5382618772
 10
176.078823544
 20
67.5471818358
 10
176.0825099602
 20
67.5560797108
 10
176.0863774599
 20
67.5649466162
 10
176.0904255114
 20
67.5737736655
 10
176.0946535832
 20
67.5825519726
 10
176.099061144
 20
67.5912726511
 10
176.1036476622
 20
67.5999268149
 10
176.1084126063
 20
67.6085055777
 10
176.1133554449
 20
67.6170000532
 10
176.1184756465
 20
67.6254013552
 10
176.1237423678
 20
67.6336564612
 10
176.1291757574
 20
67.6418036853
 10
176.1347675529
 20
67.649836108
 10
176.1405094922
 20
67.6577468101
 10
176.1463933129
 20
67.6655288721
 10
176.1524107528
 20
67.6731753749
 10
176.1585535495
 20
67.6806793989
 10
176.1648134409
 20
67.6880340249
 10
176.1711821646
 20
67.6952323335
 10
176.1776514583
 20
67.7022674053
 10
176.1842130598
 20
67.7091323212
 10
176.1908587068
 20
67.7158201615
 10
176.1975801371
 20
67.7223240072
 10
176.2043690883
 20
67.7286369387
 10
176.2112172981
 20
67.7347520368
 10
176.2181165044
 20
67.7406623821
 10
176.2250584448
 20
67.7463610553
 10
176.232034857
 20
67.751841137
 10
176.2390374788
 20
67.7570957079
 10
176.2460580478
 20
67.7621178486
 10
176.2530883019
 20
67.7669006398
 10
176.2601199788
 20
67.7714371622
 10
176.2671448161
 20
67.7757204964
 10
176.2741545515
 20
67.779743723
  0
LINE
  5
28B
100
AcDbEntity
  8
0
100
AcDbLine
 62
7
  6
CONTINUOUS
 10
177.9683732152
 20
130.2452962898
 11
178.6759104845
 21
129.0198057924
  0
LWPOLYLINE
  5
28C
100
AcDbEntity
  8
CURVE
100
AcDbPolyline
 62
250
  6
CONTINUOUS
 90
32
 70
0
 10
175.7855375132
 20
67.5834367589
 10
175.7779348
 20
67.5546821546
 10
175.7709857725
 20
67.526042743
 10
175.7646587206
 20
67.4975223618
 10
175.7589219339
 20
67.4691248488
 10
175.7537437022
 20
67.4408540414
 10
175.7490923153
 20
67.4127137775
 10
175.7449360628
 20
67.3847078947
 10
175.7412432346
 20
67.3568402306
 10
175.7379821204
 20
67.3291146228
 10
175.7351210099
 20
67.3015349091
 10
175.7326281929
 20
67.274104927
 10
175.7304719591
 20
67.2468285143
 10
175.7278064157
 20
67.2060985401
 10
175.7258028978
 20
67.1657139687
 10
175.7244338062
 20
67.1256641472
 10
175.723671542
 20
67.085938423
 10
175.7234885061
 20
67.0465261431
 10
175.7238570995
 20
67.0074166548
 10
175.724749723
 20
66.9685993053
 10
175.7261387776
 20
66.9300634419
 10
175.7279966643
 20
66.8917984116
 10
175.730295784
 20
66.8537935617
 10
175.7330085377
 20
66.8160382394
 10
175.7361073263
 20
66.7785217919
 10
175.7395645507
 20
66.7412335665
 10
175.743352612
 20
66.7041629102
 10
175.747443911
 20
66.6672991704
 10
175.7518108486
 20
66.6306316941
 10
175.7564258259
 20
66.5941498287
 10
175.7612612438
 20
66.5578429213
 10
175.7662895032
 20
66.5217003191
  0
LINE
  5
28D
100
AcDbEntity
  8
CURVE
100
AcDbLine
 62
7
  6
CONTINUOUS
 10
175.8229825524
 20
67.6848461348
 11
176.3496799933
 21
68.2115435758
  0
LINE
  5
28E
100
AcDbEntity
  8
CURVE
100
AcDbLine
 62
7
  6
CONTINUOUS
 10
175.7472885734
 20
67.3991414418
 11
176.5767445451
 21
68.2285974135
  0
LINE
  5
28F
100
AcDbEntity
  8
CURVE
100
AcDbLine
 62
7
  6
CONTINUOUS
 10
175.7266686951
 20
67.1685108495
 11
176.0644812918
 21
67.5063234462
  0
LINE
  5
290
100
AcDbEntity
  8
CURVE
100
AcDbLine
 62
7
  6
CONTINUOUS
 10
176.3763358269
 20
67.8181779813
 11
176.7021981671
 21
68.1440403216
  0
LINE
  5
291
100
AcDbEntity
  8
CURVE
100
AcDbLine
 62
7
  6
CONTINUOUS
 10
176.7385210045
 20
68.1803631589
 11
177.371497245
 21
68.8133393994
  0
LINE
  5
292
100
AcDbEntity
  8
CURVE
100
AcDbLine
 62
7
  6
CONTINUOUS
 10
175.7256165286
 20
66.957447969
 11
176.0393171961
 21
67.2711486365
  0
LINE
  5
293
100
AcDbEntity
  8
CURVE
100
AcDbLine
 62
7
  6
CONTINUOUS
 10
176.5273464735
 20
67.7591779139
 11
177.5731210336
 21
68.804952474
  0
LINE
  5
294
100
AcDbEntity
  8
CURVE
100
AcDbLine
 62
7
  6
CONTINUOUS
 10
175.7379001202
 20
66.7597208466
 11
176.07778173
 21
67.0996024564
  0
LINE
  5
295
100
AcDbEntity
  8
CURVE
100
AcDbLine
 62
7
  6
CONTINUOUS
 10
176.5582546297
 20
67.5800753561
 11
176.8944930766
 21
67.916313803
  0
LINE
  5
296
100
AcDbEntity
  8
CURVE
100
AcDbLine
 62
7
  6
CONTINUOUS
 10
177.3991555969
 20
68.4209763233
 11
177.5731210336
 21
68.59494176
  0
LWPOLYLINE
  5
297
100
AcDbEntity
  8
CURVE
100
AcDbPolyline
 62
250
  6
CONTINUOUS
 90
59
 70
0
 10
176.2741545515
 20
67.779743723
 10
176.2820922682
 20
67.7840409878
 10
176.2900913668
 20
67.7881457853
 10
176.2981408918
 20
67.792052117
 10
176.3062298877
 20
67.7957539843
 10
176.3143473989
 20
67.7992453888
 10
176.3224824697
 20
67.8025203319
 10
176.3306241447
 20
67.8055728151
 10
176.3387614682
 20
67.8083968398
 10
176.3468834848
 20
67.8109864075
 10
176.3549792387
 20
67.8133355197
 10
176.3630377745
 20
67.8154381778
 10
176.3710481365
 20
67.8172883834
 10
176.3789993693
 20
67.8188801378
 10
176.3868805171
 20
67.8202074426
 10
176.3946806246
 20
67.8212642993
 10
176.402388736
 20
67.8220447092
 10
176.4099938958
 20
67.822542674
 10
176.4174851484
 20
67.8227521949
 10
176.4248515383
 20
67.8226672736
 10
176.4320821099
 20
67.8222819114
 10
176.4391659076
 20
67.82159011
 10
176.4460919758
 20
67.8205858706
 10
176.452849359
 20
67.8192631948
 10
176.4594271016
 20
67.8176160841
 10
176.465814248
 20
67.8156385399
 10
176.4719998427
 20
67.8133245637
 10
176.4779729301
 20
67.810668157
 10
176.4837225546
 20
67.8076633212
 10
176.4892377606
 20
67.8043040578
 10
176.4945075926
 20
67.8005843684
 10
176.4994580705
 20
67.7965588354
 10
176.5041643854
 20
67.7921899963
 10
176.5086318571
 20
67.7874911816
 10
176.5128658052
 20
67.782475722
 10
176.5168715493
 20
67.7771569481
 10
176.5206544092
 20
67.7715481906
 10
176.5242197045
 20
67.76566278
 10
176.5275727548
 20
67.7595140471
 10
176.53071888
 20
67.7531153224
 10
176.5336633996
 20
67.7464799367
 10
176.5364116333
 20
67.7396212205
 10
176.5389689008
 20
67.7325525045
 10
176.5413405217
 20
67.7252871194
 10
176.5435318158
 20
67.7178383957
 10
176.5455481027
 20
67.7102196642
 10
176.5473947021
 20
67.7024442554
 10
176.5490769336
 20
67.6945255
 10
176.550600117
 20
67.6864767287
 10
176.5519695718
 20
67.678311272
 10
176.5531906179
 20
67.6700424607
 10
176.5542685748
 20
67.6616836254
 10
176.5552087622
 20
67.6532480966
 10
176.5560164999
 20
67.6447492051
 10
176.5566971074
 20
67.6362002815
 10
176.5572559045
 20
67.6276146564
 10
176.5576982108
 20
67.6190056605
 10
176.558029346
 20
67.6103866244
 10
176.5582546297
 20
67.6017708788
  0
LINE
  5
298
100
AcDbEntity
  8
CURVE
100
AcDbLine
 62
250
  6
CONTINUOUS
 10
176.7197377558
 20
68.1303563899
 11
176.7089347417
 21
68.1245398038
  0
LINE
  5
299
100
AcDbEntity
  8
CURVE
100
AcDbLine
 62
7
  6
CONTINUOUS
 10
175.7596974036
 20
66.571507416
 11
176.5327664828
 21
67.3445764952
  0
LINE
  5
29A
100
AcDbEntity
  8
CURVE
100
AcDbLine
 62
7
  6
CONTINUOUS
 10
176.5582546297
 20
67.3700646421
 11
176.8576681175
 21
67.6694781299
  0
LINE
  5
29B
100
AcDbEntity
  8
CURVE
100
AcDbLine
 62
7
  6
CONTINUOUS
 10
176.0990863257
 20
66.7008856241
 11
177.0183559784
 21
67.6201552768
  0
LINE
  5
29C
100
AcDbEntity
  8
CURVE
100
AcDbLine
 62
7
  6
CONTINUOUS
 10
176.5540710785
 20
66.9458596629
 11
177.4733407312
 21
67.8651293156
  0
LINE
  5
29D
100
AcDbEntity
  8
CURVE
100
AcDbLine
 62
7
  6
CONTINUOUS
 10
177.0090558313
 20
67.1908337017
 11
177.5731210336
 21
67.754898904
  0
LINE
  5
29E
100
AcDbEntity
  8
CURVE
100
AcDbLine
 62
7
  6
CONTINUOUS
 10
175.7449298449
 20
65.7166970012
 11
176.099277631
 21
66.0710447873
  0
LINE
  5
29F
100
AcDbEntity
  8
CURVE
100
AcDbLine
 62
7
  6
CONTINUOUS
 10
177.4640405841
 20
67.4358077405
 11
177.5731210336
 21
67.54488819
  0
LINE
  5
2A0
100
AcDbEntity
  8
CURVE
100
AcDbLine
 62
7
  6
CONTINUOUS
 10
175.7449298449
 20
65.5066862872
 11
177.5731210216
 21
67.3348774639
  0
LINE
  5
2A1
100
AcDbEntity
  8
CURVE
100
AcDbLine
 62
7
  6
CONTINUOUS
 10
175.8066153735
 20
65.3583611018
 11
176.2682781032
 21
65.8200238315
  0
LINE
  5
2A2
100
AcDbEntity
  8
CURVE
100
AcDbLine
 62
7
  6
CONTINUOUS
 10
176.3412679801
 20
65.8930137084
 11
177.5731210216
 21
67.1248667499
  0
LINE
  5
2A3
100
AcDbEntity
  8
CURVE
100
AcDbLine
 62
7
  6
CONTINUOUS
 10
176.0653302305
 20
65.4070652448
 11
176.5395278839
 21
65.8812628982
  0
LINE
  5
2A4
100
AcDbEntity
  8
CURVE
100
AcDbLine
 62
7
  6
CONTINUOUS
 10
176.9257355011
 20
66.2674705154
 11
177.2081491957
 21
66.54988421
  0
LINE
  5
2A5
100
AcDbEntity
  8
CURVE
100
AcDbLine
 62
7
  6
CONTINUOUS
 10
176.3240450875
 20
65.4557693877
 11
176.8107776647
 21
65.942501965
  0
LINE
  5
2A6
100
AcDbEntity
  8
CURVE
100
AcDbLine
 62
7
  6
CONTINUOUS
 10
176.9257355011
 20
66.0574598014
 11
177.2081491957
 21
66.339873496
  0
LINE
  5
2A7
100
AcDbEntity
  8
CURVE
100
AcDbLine
 62
7
  6
CONTINUOUS
 10
176.5827599444
 20
65.5044735307
 11
177.2081491957
 21
66.129862782
  0
LINE
  5
2A8
100
AcDbEntity
  8
CURVE
100
AcDbLine
 62
7
  6
CONTINUOUS
 10
176.8414748014
 20
65.5531776737
 11
177.3529986822
 21
66.0647015545
  0
LINE
  5
2A9
100
AcDbEntity
  8
CURVE
100
AcDbLine
 62
7
  6
CONTINUOUS
 10
175.7449298449
 20
64.2466220031
 11
176.3110287262
 21
64.8127208845
  0
LINE
  5
2AA
100
AcDbEntity
  8
CURVE
100
AcDbLine
 62
7
  6
CONTINUOUS
 10
177.1001896584
 20
65.6018818167
 11
177.5731210216
 21
66.0748131798
  0
LINE
  5
2AB
100
AcDbEntity
  8
CURVE
100
AcDbLine
 62
7
  6
CONTINUOUS
 10
175.7449298449
 20
64.0366112891
 11
176.8989920224
 21
65.1906734666
  0
LINE
  5
2AC
100
AcDbEntity
  8
CURVE
100
AcDbLine
 62
7
  6
CONTINUOUS
 10
177.3589045154
 20
65.6505859596
 11
177.5731210216
 21
65.8648024658
  0
LINE
  5
2AD
100
AcDbEntity
  8
CURVE
100
AcDbLine
 62
7
  6
CONTINUOUS
 10
175.9726712498
 20
64.05434198
 11
176.3996976388
 21
64.481368369
  0
LINE
  5
2AE
100
AcDbEntity
  8
CURVE
100
AcDbLine
 62
7
  6
CONTINUOUS
 10
176.4195019655
 20
64.5011726957
 11
177.4869553185
 21
65.5686260487
  0
LINE
  5
2AF
100
AcDbEntity
  8
CURVE
100
AcDbLine
 62
7
  6
CONTINUOUS
 10
176.2109669973
 20
64.0826270136
 11
176.6362820378
 21
64.5079420541
  0
LINE
  5
2B0
100
AcDbEntity
  8
CURVE
100
AcDbLine
 62
7
  6
CONTINUOUS
 10
176.9608372629
 20
64.8324972792
 11
177.5731210216
 21
65.4447810378
  0
LINE
  5
2B1
100
AcDbEntity
  8
CURVE
100
AcDbLine
 62
7
  6
CONTINUOUS
 10
176.4492627449
 20
64.1109120471
 11
176.8728664369
 21
64.5345157391
  0
LINE
  5
2B2
100
AcDbEntity
  8
CURVE
100
AcDbLine
 62
7
  6
CONTINUOUS
 10
177.5021725604
 20
65.1638218626
 11
177.5731210216
 21
65.2347703238
  0
LINE
  5
2B3
100
AcDbEntity
  8
CURVE
100
AcDbLine
 62
7
  6
CONTINUOUS
 10
176.6875584925
 20
64.1391970807
 11
177.109450836
 21
64.5610894242
  0
LINE
  5
2B4
100
AcDbEntity
  8
CURVE
100
AcDbLine
 62
7
  6
CONTINUOUS
 10
175.7449298449
 20
62.9865577191
 11
177.3460352351
 21
64.5876631092
  0
LINE
  5
2B5
100
AcDbEntity
  8
CURVE
100
AcDbLine
 62
7
  6
CONTINUOUS
 10
175.7449298449
 20
62.776547005
 11
177.5731210216
 21
64.6047381817
  0
LINE
  5
2B6
100
AcDbEntity
  8
CURVE
100
AcDbLine
 62
7
  6
CONTINUOUS
 10
176.0784056578
 20
62.9000121039
 11
176.7691194335
 21
63.5907258797
  0
LINE
  5
2B7
100
AcDbEntity
  8
CURVE
100
AcDbLine
 62
7
  6
CONTINUOUS
 10
176.4518373932
 20
63.0634331253
 11
177.1590454246
 21
63.7706411567
  0
LINE
  5
2B8
100
AcDbEntity
  8
CURVE
100
AcDbLine
 62
7
  6
CONTINUOUS
 10
175.7448208732
 20
62.1464058913
 11
176.1650771247
 21
62.5666621429
  0
LINE
  5
2B9
100
AcDbEntity
  8
CURVE
100
AcDbLine
 62
7
  6
CONTINUOUS
 10
176.8252691287
 20
63.2268541468
 11
177.5489714156
 21
63.9505564337
  0
LINE
  5
2BA
100
AcDbEntity
  8
CURVE
100
AcDbLine
 62
7
  6
CONTINUOUS
 10
175.7448208732
 20
61.9363951773
 11
176.6200618775
 21
62.8116361817
  0
LINE
  5
2BB
100
AcDbEntity
  8
CURVE
100
AcDbLine
 62
7
  6
CONTINUOUS
 10
177.1987008641
 20
63.3902751682
 11
177.5731210216
 21
63.7646953257
  0
LINE
  5
2BC
100
AcDbEntity
  8
CURVE
100
AcDbLine
 62
7
  6
CONTINUOUS
 10
175.7449298449
 20
61.726493435
 11
175.7812803972
 21
61.7628439873
  0
LINE
  5
2BD
100
AcDbEntity
  8
CURVE
100
AcDbLine
 62
7
  6
CONTINUOUS
 10
176.1520629561
 20
62.1336265462
 11
177.0750466303
 21
63.0566102205
  0
LINE
  5
2BE
100
AcDbEntity
  8
CURVE
100
AcDbLine
 62
7
  6
CONTINUOUS
 10
177.5721325996
 20
63.5536961897
 11
177.5731210216
 21
63.5546846117
  0
LINE
  5
2BF
100
AcDbEntity
  8
CURVE
100
AcDbLine
 62
7
  6
CONTINUOUS
 10
175.7449298449
 20
61.516482721
 11
176.0372576292
 21
61.8088105053
  0
LINE
  5
2C0
100
AcDbEntity
  8
CURVE
100
AcDbLine
 62
7
  6
CONTINUOUS
 10
176.6070477089
 20
62.378600585
 11
177.5300313832
 21
63.3015842592
  0
LINE
  5
2C1
100
AcDbEntity
  8
CURVE
100
AcDbLine
 62
7
  6
CONTINUOUS
 10
175.7758296971
 20
61.3373718591
 11
176.2932348613
 21
61.8547770233
  0
LINE
  5
2C2
100
AcDbEntity
  8
CURVE
100
AcDbLine
 62
7
  6
CONTINUOUS
 10
177.0620324617
 20
62.6235746238
 11
177.5731210216
 21
63.1346631836
  0
LINE
  5
2C3
100
AcDbEntity
  8
CURVE
100
AcDbLine
 62
7
  6
CONTINUOUS
 10
176.0450123934
 20
61.3965438415
 11
176.5492120933
 21
61.9007435414
  0
LINE
  5
2C4
100
AcDbEntity
  8
CURVE
100
AcDbLine
 62
7
  6
CONTINUOUS
 10
177.5170172145
 20
62.8685486626
 11
177.5731210216
 21
62.9246524696
  0
LINE
  5
2C5
100
AcDbEntity
  8
CURVE
100
AcDbLine
 62
7
  6
CONTINUOUS
 10
176.3141950898
 20
61.4557158238
 11
176.8051893254
 21
61.9467100594
  0
LINE
  5
2C6
100
AcDbEntity
  8
CURVE
100
AcDbLine
 62
7
  6
CONTINUOUS
 10
176.5833777861
 20
61.5148878062
 11
177.0611665574
 21
61.9926765775
  0
LINE
  5
2C7
100
AcDbEntity
  8
CURVE
100
AcDbLine
 62
250
  6
CONTINUOUS
 10
177.5731210216
 20
64.5534189613
 11
176.3793470015
 21
63.4108814561
  0
LINE
  5
2C8
100
AcDbEntity
  8
CURVE
100
AcDbLine
 62
250
  6
CONTINUOUS
 10
175.7449298449
 20
63.1797523346
 11
176.7599471246
 21
64.1477894072
  0
LWPOLYLINE
  5
2C9
100
AcDbEntity
  8
CURVE
100
AcDbPolyline
 62
250
  6
CONTINUOUS
 90
7
 70
0
 10
177.0187536707
 20
68.0864813618
 10
177.0440533365
 20
68.1104585049
 10
177.0694832918
 20
68.1340837006
 10
177.0950291372
 20
68.1573950916
 10
177.1206764731
 20
68.1804308204
 10
177.1464109
 20
68.2032290295
 10
177.1722180186
 20
68.2258278613
  0
LINE
  5
2CA
100
AcDbEntity
  8
CURVE
100
AcDbLine
 62
250
  6
CONTINUOUS
 10
175.7449298449
 20
65.7588798802
 11
177.5731210216
 21
67.3694363765
  0
LINE
  5
2CB
100
AcDbEntity
  8
CURVE
100
AcDbLine
 62
250
  6
CONTINUOUS
 10
177.1722180186
 20
68.2258278613
 11
177.2239927324
 21
68.2705799636
  0
LINE
  5
2CC
100
AcDbEntity
  8
CURVE
100
AcDbLine
 62
250
  6
CONTINUOUS
 10
177.3277808814
 20
68.359369913
 11
177.5731210336
 21
68.5712569704
  0
LWPOLYLINE
  5
2CD
100
AcDbEntity
  8
CURVE
100
AcDbPolyline
 62
250
  6
CONTINUOUS
 90
44
 70
0
 10
177.0216963326
 20
68.5212556174
 10
177.0075271686
 20
68.5090815017
 10
176.9932925931
 20
68.4966567836
 10
176.9789631828
 20
68.4839044608
 10
176.9710883127
 20
68.4767759948
 10
176.9631843191
 20
68.4695292448
 10
176.9552591459
 20
68.4621666247
 10
176.9473207368
 20
68.454690549
 10
176.9393770359
 20
68.4471034316
 10
176.9314359871
 20
68.4394076869
 10
176.9235055341
 20
68.431605729
 10
176.9155936211
 20
68.4236999721
 10
176.9077081917
 20
68.4156928305
 10
176.8998571901
 20
68.4075867182
 10
176.8920485599
 20
68.3993840494
 10
176.8842902453
 20
68.3910872385
 10
176.87659019
 20
68.3826986994
 10
176.8689563379
 20
68.3742208466
 10
176.861396633
 20
68.365656094
 10
176.8539190192
 20
68.357006856
 10
176.8465314404
 20
68.3482755466
 10
176.8392418404
 20
68.3394645802
 10
176.8320581632
 20
68.3305763709
 10
176.8249883527
 20
68.3216133328
 10
176.8180403528
 20
68.3125778802
 10
176.8112221074
 20
68.3034724272
 10
176.8045415603
 20
68.2942993881
 10
176.7980066555
 20
68.285061177
 10
176.791625337
 20
68.2757602082
 10
176.7854055485
 20
68.2663988957
 10
176.779355234
 20
68.2569796538
 10
176.7734823375
 20
68.2475048968
 10
176.7677948027
 20
68.2379770387
 10
176.7623005737
 20
68.2283984937
 10
176.7570075942
 20
68.2187716761
 10
176.7519238083
 20
68.2090990001
 10
176.7470571598
 20
68.1993828798
 10
176.7424155926
 20
68.1896257294
 10
176.7380070506
 20
68.1798299631
 10
176.7338394778
 20
68.1699979951
 10
176.729920818
 20
68.1601322396
 10
176.7262590151
 20
68.1502351108
 10
176.7228620131
 20
68.1403090228
 10
176.7197377558
 20
68.1303563899
  0
LINE
  5
2CE
100
AcDbEntity
  8
CURVE
100
AcDbLine
 62
250
  6
CONTINUOUS
 10
177.2239927324
 20
68.2705799636
 11
177.3277808814
 21
68.359369913
  0
LINE
  5
2CF
100
AcDbEntity
  8
CURVE
100
AcDbLine
 62
250
  6
CONTINUOUS
 10
177.0499561201
 20
68.5451600503
 11
177.0216963326
 21
68.5212556174
  0
LINE
  5
2D0
100
AcDbEntity
  8
CURVE
100
AcDbLine
 62
250
  6
CONTINUOUS
 10
177.5731210216
 20
66.9204201807
 11
177.2081491957
 21
66.613547209
  0
LINE
  5
2D1
100
AcDbEntity
  8
CURVE
100
AcDbLine
 62
250
  6
CONTINUOUS
 10
177.2104485324
 20
68.6796362221
 11
177.0499561201
 21
68.5451600503
  0
LINE
  5
2D2
100
AcDbEntity
  8
CURVE
100
AcDbLine
 62
250
  6
CONTINUOUS
 10
177.5731210336
 20
68.9810467484
 11
177.507851305
 21
68.9264667755
  0
LINE
  5
2D3
100
AcDbEntity
  8
CURVE
100
AcDbLine
 62
250
  6
CONTINUOUS
 10
177.507851305
 20
68.9264667755
 11
177.2104485324
 21
68.6796362221
  0
LINE
  5
2D4
100
AcDbEntity
  8
CURVE
100
AcDbLine
 62
250
  6
CONTINUOUS
 10
176.9257355011
 20
66.3763477944
 11
176.2472703738
 21
65.8152809936
  0
LINE
  5
2D5
100
AcDbEntity
  8
CURVE
100
AcDbLine
 62
250
  6
CONTINUOUS
 10
175.7449298449
 20
64.4488231117
 11
177.5731210216
 21
65.6240147952
  0
LINE
  5
2D6
100
AcDbEntity
  8
CURVE
100
AcDbLine
 62
250
  6
CONTINUOUS
 10
177.5731210216
 20
65.2072459095
 11
176.3843231321
 21
64.4796414703
  0
LINE
  5
2D7
100
AcDbEntity
  8
CURVE
100
AcDbLine
 62
250
  6
CONTINUOUS
 10
177.5731210336
 20
67.9188532778
 11
176.8576681175
 21
67.5336373132
  0
LINE
  5
2D8
100
AcDbEntity
  8
CURVE
100
AcDbLine
 62
250
  6
CONTINUOUS
 10
176.5582546297
 20
67.3582998876
 11
176.0563805931
 21
67.0880796022
  0
LINE
  5
2D9
100
AcDbEntity
  8
CURVE
100
AcDbLine
 62
250
  6
CONTINUOUS
 10
175.7662895032
 20
66.5217003191
 11
177.5731210336
 21
67.4945391114
  0
LINE
  5
2DA
100
AcDbEntity
  8
CURVE
100
AcDbLine
 62
250
  6
CONTINUOUS
 10
177.5731210216
 20
63.3247846911
 11
175.7448208732
 21
62.3403867114
  0
LINE
  5
2DB
100
AcDbEntity
  8
CURVE
100
AcDbLine
 62
250
  6
CONTINUOUS
 10
176.3793470015
 20
63.4108814561
 11
177.5731210216
 21
63.961699274
  0
LINE
  5
2DC
100
AcDbEntity
  8
CURVE
100
AcDbLine
 62
250
  6
CONTINUOUS
 10
177.5731210216
 20
63.5541287424
 11
175.7449298449
 21
62.7540765746
  0
LINE
  5
2DD
100
AcDbEntity
  8
CURVE
100
AcDbLine
 62
7
  6
CONTINUOUS
 10
175.7449298449
 20
60.4664291509
 11
176.2315964088
 21
60.9530957148
  0
LINE
  5
2DE
100
AcDbEntity
  8
CURVE
100
AcDbLine
 62
7
  6
CONTINUOUS
 10
176.8525604825
 20
61.5740597885
 11
177.3171437895
 21
62.0386430955
  0
LINE
  5
2DF
100
AcDbEntity
  8
CURVE
100
AcDbLine
 62
7
  6
CONTINUOUS
 10
175.7449298449
 20
60.2564184369
 11
177.5731210216
 21
62.0846096136
  0
LINE
  5
2E0
100
AcDbEntity
  8
CURVE
100
AcDbLine
 62
7
  6
CONTINUOUS
 10
176.0365905387
 20
60.3380684167
 11
177.5731210216
 21
61.8745988996
  0
LINE
  5
2E1
100
AcDbEntity
  8
CURVE
100
AcDbLine
 62
250
  6
CONTINUOUS
 10
177.5731210216
 20
61.7091720862
 11
175.7449298449
 21
60.0778086614
  0
LINE
  5
2E2
100
AcDbEntity
  8
CURVE
100
AcDbLine
 62
250
  6
CONTINUOUS
 10
175.7449298449
 20
60.5406068754
 11
177.0033306662
 21
61.6072022258
  0
LINE
  5
2E3
100
AcDbEntity
  8
0
100
AcDbLine
 62
7
  6
CONTINUOUS
 10
172.8965410828
 20
55.3462088866
 11
173.1755170169
 21
55.5072549622
  0
LINE
  5
2E4
100
AcDbEntity
  8
0
100
AcDbLine
 62
7
  6
CONTINUOUS
 10
173.9060778002
 20
54.7348343019
 11
174.5924761478
 21
55.1310755063
  0
LINE
  5
2E5
100
AcDbEntity
  8
0
100
AcDbLine
 62
7
  6
CONTINUOUS
 10
178.6759104845
 20
57.1714155723
 11
177.9683732152
 21
56.7629713785
  0
LINE
  5
2E6
100
AcDbEntity
  8
CURVE
100
AcDbLine
 62
250
  6
CONTINUOUS
 10
175.7448208732
 20
61.9143582362
 11
177.5731210216
 21
62.898756216
  0
LINE
  5
2E7
100
AcDbEntity
  8
0
100
AcDbLine
 62
7
  6
CONTINUOUS
 10
174.6139774997
 20
55.1426370581
 11
174.5924761478
 21
55.1310755063
  0
LINE
  5
2E8
100
AcDbEntity
  8
0
100
AcDbLine
 62
7
  6
CONTINUOUS
 10
174.6139774997
 20
55.1426370581
 11
178.6759104845
 21
57.1714155723
  0
LINE
  5
2E9
100
AcDbEntity
  8
0
100
AcDbLine
 62
7
  6
CONTINUOUS
 10
173.9064402304
 20
54.7341928642
 11
177.9683732152
 21
56.7629713785
  0
ELLIPSE
  5
2EA
100
AcDbEntity
  8
0
100
AcDbEllipse
 62
7
  6
CONTINUOUS
 10
143.218317794
 20
95.0512670892
 30
0.0
 11
0.1999995634
 21
0.1164181051
 31
0.0
 40
0.0035896273
 41
-0.7351277754
 42
-0.6748017824
  0
ELLIPSE
  5
2EB
100
AcDbEntity
  8
0
100
AcDbEllipse
 62
7
  6
CONTINUOUS
 10
139.3923164035
 20
97.8317171753
 30
0.0
 11
0.1998333781
 21
-0.0157785196
 31
0.0
 40
0.5172961965
 41
0.8262203412
 42
2.3446567905
  0
ELLIPSE
  5
2EC
100
AcDbEntity
  8
0
100
AcDbEllipse
 62
7
  6
CONTINUOUS
 10
137.8740888736
 20
96.5283026624
 30
0.0
 11
0.5413005334
 21
0.8416911418
 31
0.0
 40
0.6067084637
 41
0.7148472392
 42
0.8145158917
  0
ELLIPSE
  5
2ED
100
AcDbEntity
  8
0
100
AcDbEllipse
 62
7
  6
CONTINUOUS
 10
143.218317794
 20
95.6226319235
 30
0.0
 11
0.1998333781
 21
-0.0157785196
 31
0.0
 40
0.5172961965
 41
-0.692216108
 42
0.8262203412
  0
ELLIPSE
  5
2EE
100
AcDbEntity
  8
0
100
AcDbEllipse
 62
7
  6
CONTINUOUS
 10
142.1204261319
 20
94.0765207486
 30
0.0
 11
0.4625183445
 21
0.8873459255
 31
0.0
 40
0.5463614449
 41
0.662201126
 42
0.7618697785
  0
ENDSEC
  0
SECTION
  2
OBJECTS
  0
DICTIONARY
  5
C
100
AcDbDictionary
280
0
281
1
  3
ACAD_GROUP
350
D
  3
ACAD_MLINESTYLE
350
17
  3
ACAD_LAYOUT
350
1A
  3
ACAD_PLOTSETTINGS
350
19
  3
ACAD_PLOTSTYLENAME
350
E
  0
DICTIONARY
  5
D
102
{ACAD_REACTORS
330
C
102
}
100
AcDbDictionary
280
0
281
1
  0
ACDBDICTIONARYWDFLT
  5
E
102
{ACAD_REACTORS
330
C
102
}
100
AcDbDictionary
281
1
  3
Normal
350
F
100
AcDbDictionaryWithDefault
340
F
  0
DICTIONARY
  5
17
102
{ACAD_REACTORS
330
C
102
}
100
AcDbDictionary
280
0
281
1
  3
Standard
350
18
  0
DICTIONARY
  5
19
102
{ACAD_REACTORS
330
C
102
}
100
AcDbDictionary
281
1
  0
DICTIONARY
  5
1A
102
{ACAD_REACTORS
330
C
102
}
100
AcDbDictionary
281
1
  3
Model
350
2EF
  3
Layout1
350
2F0
  0
ACDBPLACEHOLDER
  5
F
102
{ACAD_REACTORS
330
E
102
}
  0
MLINESTYLE
  5
18
102
{ACAD_REACTORS
330
17
102
}
100
AcDbMlineStyle
  2
STANDARD
 70
0
  3

 62
256
 51
90.0
 52
90.0
 71
2
 49
0.5
 62
256
  6
BYLAYER
 49
-0.5
 62
256
  6
BYLAYER
  0
LAYOUT
  5
2EF
102
{ACAD_REACTORS
330
1A
102
}
100
AcDbPlotSettings
  1

  2
none_device
  4
ISO_A4_(297.00_x_210.00_MM)
  6

 40
0.0
 41
0.0
 42
0.0
 43
0.0
 44
297.0
 45
210.0
 46
0.0
 47
0.0
 48
0.0
 49
0.0
140
0.0
141
0.0
142
1.0
143
1.0
 70
1024
 72
1
 73
0
 74
0
  7

 75
0
147
1.0
148
0.0
149
0.0
100
AcDbLayout
  1
Model
 70
0
 71
0
 10
0.0
 20
0.0
 11
297.0
 21
210.0
 12
0.0
 22
0.0
 32
0.0
 14
0.0
 24
0.0
 34
0.0
 15
0.0
 25
0.0
 35
0.0
146
0.0
 13
0.0
 23
0.0
 33
0.0
 16
1.0
 26
0.0
 36
0.0
 17
0.0
 27
1.0
 37
0.0
 76
0
330
21F
345
0
346
0
  0
LAYOUT
  5
2F0
102
{ACAD_REACTORS
330
1A
102
}
100
AcDbPlotSettings
  1

  2
none_device
  4
ISO_A4_(297.00_x_210.00_MM)
  6

 40
0.0
 41
0.0
 42
0.0
 43
0.0
 44
297.0
 45
210.0
 46
0.0
 47
0.0
 48
0.0
 49
0.0
140
0.0
141
0.0
142
1.0
143
1.0
 70
0
 72
1
 73
0
 74
0
  7

 75
0
147
1.0
148
0.0
149
0.0
100
AcDbLayout
  1
Layout1
 70
0
 71
1
 10
0.0
 20
0.0
 11
297.0
 21
210.0
 12
0.0
 22
0.0
 32
0.0
 14
0.0
 24
0.0
 34
0.0
 15
0.0
 25
0.0
 35
0.0
146
0.0
 13
0.0
 23
0.0
 33
0.0
 16
1.0
 26
0.0
 36
0.0
 17
0.0
 27
1.0
 37
0.0
 76
0
330
220
345
0
346
0
  0
ENDSEC
  0
EOF
