  0
SECTION
  2
HEADER
  9
$ACADVER
  1
AC1024
  9
$DWGCODEPAGE
  3
ANSI_1252
  9
$EXTMAX
 10
297.0
 20
210.0
 30
0.0
  9
$EXTMIN
 10
0.0
 20
0.0
 30
0.0
  9
$LIMMIN
 10
0.0
 20
0.0
  9
$LIMMAX
 10
297.0
 20
210.0
  9
$VIEWCTR
 10
148.5
 20
105.0
  9
$VIEWSIZE
 40
210.0
  9
$CLAYER
  8
0
  9
$LTSCALE
 40
16.335
  9
$CELTYPE
  6
BYLAYER
  9
$DIMSCALE
 40
1.0
  9
$DIMASZ
 40
3.0
  9
$DIMEXO
 40
0.5
  9
$DIMDLI
 40
11.286
  9
$DIMEXE
 40
1.5
  9
$DIMCEN
 40
2.673
  9
$DIMLFAC
 40
1.0
  9
$DIMBLK
  1
_FILLED
  9
$DIMALT
 70
0
  9
$DIMALTF
 40
0.0393700787
  9
$DIMTXT
 40
3.0
  9
$DIMTOL
 70
1
  9
$DIMLIM
 70
0
  9
$DIMTFAC
 40
1.0
  9
$DIMTP
 40
0.01
  9
$DIMTM
 40
0.01
  9
$DIMGAP
 40
0.625
  9
$DIMDSEP
 70
44
  9
$AUNITS
 70
0
  9
$PDMODE
 70
3
  9
$PDSIZE
 40
3.0
  9
$HANDSEED
  5
3B0
  9
$TILEMODE
 70
1
  9
$MEASUREMENT
 70
1
  9
$INSUNITS
 70
4
  0
ENDSEC
  0
SECTION
  2
CLASSES
  0
CLASS
  1
ACDBDICTIONARYWDFLT
  2
AcDbDictionaryWithDefault
  3
AutoCAD 2000
 90
0
 91
1
280
0
281
0
  0
CLASS
  1
ACDBPLACEHOLDER
  2
AcDbPlaceHolder
  3
AutoCAD 2000
 90
0
 91
1
280
0
281
0
  0
CLASS
  1
LAYOUT
  2
AcDbLayout
  3
AutoCAD 2000
 90
0
 91
0
280
0
281
0
  0
ENDSEC
  0
SECTION
  2
TABLES
  0
TABLE
  2
VPORT
  5
8
100
AcDbSymbolTable
 70
2
  0
VPORT
  5
1F4
100
AcDbSymbolTableRecord
100
AcDbViewportTableRecord
  2
*ACTIVE
 70
0
 10
0.0
 20
0.0
 11
1.0
 21
1.0
 12
148.5
 22
105.0
 13
0.0
 23
0.0
 14
1.0
 24
1.0
 15
0.0
 25
0.0
 16
0.0
 26
0.0
 36
1.0
 17
0.0
 27
0.0
 37
0.0
 40
210.0
 41
1.4142857143
 42
50.0
 43
0.0
 44
0.0
 50
0.0
 51
0.0
 71
0
 72
100
 73
1
 74
1
 75
0
 76
0
 77
0
 78
0
  0
ENDTAB
  0
TABLE
  2
LTYPE
  5
5
100
AcDbSymbolTable
 70
6
  0
LTYPE
  5
14
100
AcDbSymbolTableRecord
100
AcDbLinetypeTableRecord
  2
BYBLOCK
 70
0
  3

 72
65
 73
0
 40
0.0
  0
LTYPE
  5
15
100
AcDbSymbolTableRecord
100
AcDbLinetypeTableRecord
  2
BYLAYER
 70
0
  3

 72
65
 73
0
 40
0.0
  0
LTYPE
  5
16
100
AcDbSymbolTableRecord
100
AcDbLinetypeTableRecord
  2
CONTINUOUS
 70
64
  3
Solid line
 72
65
 73
0
 40
0.0
  0
LTYPE
  5
1F5
100
AcDbSymbolTableRecord
100
AcDbLinetypeTableRecord
  2
CENTER
 70
64
  3
____ _ ____ _ ____ _ ____ _ ____ _ ____ _ ____
 72
65
 73
4
 40
0.6
 49
0.375
 74
0
 49
-0.075
 74
0
 49
0.075
 74
0
 49
-0.075
 74
0
  0
LTYPE
  5
1F6
100
AcDbSymbolTableRecord
100
AcDbLinetypeTableRecord
  2
HIDDEN
 70
64
  3
- - - - - - - - - - - - - - - - - - - -
 72
65
 73
2
 40
0.2
 49
0.1
 74
0
 49
-0.1
 74
0
  0
LTYPE
  5
1F7
100
AcDbSymbolTableRecord
100
AcDbLinetypeTableRecord
  2
PHANTOM
 70
64
  3
_____ _ _ _____ _ _ _____ _ _ _____
 72
65
 73
6
 40
0.8
 49
0.45
 74
0
 49
-0.05
 74
0
 49
0.1
 74
0
 49
-0.05
 74
0
 49
0.1
 74
0
 49
-0.05
 74
0
  0
LTYPE
  5
1F8
100
AcDbSymbolTableRecord
100
AcDbLinetypeTableRecord
  2
DOT
 70
64
  3
. . . . . . . . . . . . . . . . . . . .
 72
65
 73
2
 40
0.2
 49
0.1
 74
0
 49
-0.1
 74
0
  0
LTYPE
  5
1F9
100
AcDbSymbolTableRecord
100
AcDbLinetypeTableRecord
  2
DASHED
 70
64
  3
- - - - - - - - - - - - - - - - - - - -
 72
65
 73
2
 40
0.2
 49
0.1
 74
0
 49
-0.1
 74
0
  0
ENDTAB
  0
TABLE
  2
LAYER
  5
2
100
AcDbSymbolTable
 70
36
  0
LAYER
  5
10
100
AcDbSymbolTableRecord
100
AcDbLayerTableRecord
  2
0
 70
0
 62
7
  6
CONTINUOUS
370
-3
390
F
  0
LAYER
  5
1FA
100
AcDbSymbolTableRecord
100
AcDbLayerTableRecord
  2
DEFAULT_1
 70
0
 62
7
  6
CENTER
370
-3
390
F
  0
LAYER
  5
1FB
100
AcDbSymbolTableRecord
100
AcDbLayerTableRecord
  2
DEFAULT_2
 70
0
 62
7
  6
HIDDEN
370
-3
390
F
  0
LAYER
  5
1FC
100
AcDbSymbolTableRecord
100
AcDbLayerTableRecord
  2
DEFAULT_3
 70
0
 62
7
  6
PHANTOM
370
-3
390
F
  0
LAYER
  5
1FD
100
AcDbSymbolTableRecord
100
AcDbLayerTableRecord
  2
ASSI
 70
0
 62
7
  6
CONTINUOUS
370
-3
390
F
  0
LAYER
  5
1FE
100
AcDbSymbolTableRecord
100
AcDbLayerTableRecord
  2
COORDINATE
 70
0
 62
7
  6
CONTINUOUS
370
-3
390
F
  0
LAYER
  5
1FF
100
AcDbSymbolTableRecord
100
AcDbLayerTableRecord
  2
COORD_ORIGINE
 70
0
 62
7
  6
CONTINUOUS
370
-3
390
F
  0
LAYER
  5
200
100
AcDbSymbolTableRecord
100
AcDbLayerTableRecord
  2
COPY_PUBLISH
 70
0
 62
7
  6
CONTINUOUS
370
-3
390
F
  0
LAYER
  5
201
100
AcDbSymbolTableRecord
100
AcDbLayerTableRecord
  2
COSMETIC
 70
0
 62
7
  6
CONTINUOUS
370
-3
390
F
  0
LAYER
  5
202
100
AcDbSymbolTableRecord
100
AcDbLayerTableRecord
  2
COSMETICI
 70
0
 62
7
  6
CONTINUOUS
370
-3
390
F
  0
LAYER
  5
203
100
AcDbSymbolTableRecord
100
AcDbLayerTableRecord
  2
CURVE
 70
0
 62
7
  6
CONTINUOUS
370
-3
390
F
  0
LAYER
  5
204
100
AcDbSymbolTableRecord
100
AcDbLayerTableRecord
  2
CURVE_TASSELLI
 70
0
 62
7
  6
CONTINUOUS
370
-3
390
F
  0
LAYER
  5
205
100
AcDbSymbolTableRecord
100
AcDbLayerTableRecord
  2
DRAFT
 70
0
 62
7
  6
CONTINUOUS
370
-3
390
F
  0
LAYER
  5
206
100
AcDbSymbolTableRecord
100
AcDbLayerTableRecord
  2
IMPORT_IGES
 70
0
 62
7
  6
CONTINUOUS
370
-3
390
F
  0
LAYER
  5
207
100
AcDbSymbolTableRecord
100
AcDbLayerTableRecord
  2
INTFCLR_2
 70
0
 62
7
  6
CONTINUOUS
370
-3
390
F
  0
LAYER
  5
208
100
AcDbSymbolTableRecord
100
AcDbLayerTableRecord
  2
INTF_1
 70
0
 62
7
  6
CONTINUOUS
370
-3
390
F
  0
LAYER
  5
209
100
AcDbSymbolTableRecord
100
AcDbLayerTableRecord
  2
INTF_21
 70
0
 62
7
  6
CONTINUOUS
370
-3
390
F
  0
LAYER
  5
20A
100
AcDbSymbolTableRecord
100
AcDbLayerTableRecord
  2
INTF_7
 70
0
 62
7
  6
CONTINUOUS
370
-3
390
F
  0
LAYER
  5
20B
100
AcDbSymbolTableRecord
100
AcDbLayerTableRecord
  2
INTF_CYAN
 70
0
 62
7
  6
CONTINUOUS
370
-3
390
F
  0
LAYER
  5
20C
100
AcDbSymbolTableRecord
100
AcDbLayerTableRecord
  2
NOTE
 70
0
 62
7
  6
CONTINUOUS
370
-3
390
F
  0
LAYER
  5
20D
100
AcDbSymbolTableRecord
100
AcDbLayerTableRecord
  2
PIANI
 70
0
 62
7
  6
CONTINUOUS
370
-3
390
F
  0
LAYER
  5
20E
100
AcDbSymbolTableRecord
100
AcDbLayerTableRecord
  2
PIANI_ORIGINE
 70
0
 62
7
  6
CONTINUOUS
370
-3
390
F
  0
LAYER
  5
20F
100
AcDbSymbolTableRecord
100
AcDbLayerTableRecord
  2
PIANI_RIFERIMENTO
 70
0
 62
7
  6
CONTINUOUS
370
-3
390
F
  0
LAYER
  5
210
100
AcDbSymbolTableRecord
100
AcDbLayerTableRecord
  2
PUNTI
 70
0
 62
7
  6
CONTINUOUS
370
-3
390
F
  0
LAYER
  5
211
100
AcDbSymbolTableRecord
100
AcDbLayerTableRecord
  2
RACCORDO
 70
0
 62
7
  6
CONTINUOUS
370
-3
390
F
  0
LAYER
  5
212
100
AcDbSymbolTableRecord
100
AcDbLayerTableRecord
  2
RGB__255__255__255__
 70
0
 62
7
  6
CONTINUOUS
370
-3
390
F
  0
LAYER
  5
213
100
AcDbSymbolTableRecord
100
AcDbLayerTableRecord
  2
RGB____0____0____0__
 70
0
 62
7
  6
CONTINUOUS
370
-3
390
F
  0
LAYER
  5
214
100
AcDbSymbolTableRecord
100
AcDbLayerTableRecord
  2
SIMBOLI
 70
0
 62
7
  6
CONTINUOUS
370
-3
390
F
  0
LAYER
  5
215
100
AcDbSymbolTableRecord
100
AcDbLayerTableRecord
  2
SMUSSO
 70
0
 62
7
  6
CONTINUOUS
370
-3
390
F
  0
LAYER
  5
216
100
AcDbSymbolTableRecord
100
AcDbLayerTableRecord
  2
SNAPLINE
 70
0
 62
7
  6
CONTINUOUS
370
-3
390
F
  0
LAYER
  5
217
100
AcDbSymbolTableRecord
100
AcDbLayerTableRecord
  2
SUPERFICI
 70
0
 62
7
  6
CONTINUOUS
370
-3
390
F
  0
LAYER
  5
218
100
AcDbSymbolTableRecord
100
AcDbLayerTableRecord
  2
TRASH
 70
0
 62
7
  6
CONTINUOUS
370
-3
390
F
  0
LAYER
  5
219
100
AcDbSymbolTableRecord
100
AcDbLayerTableRecord
  2
XSEC_DATUMS
 70
0
 62
7
  6
CONTINUOUS
370
-3
390
F
  0
ENDTAB
  0
TABLE
  2
STYLE
  5
3
100
AcDbSymbolTable
 70
1
  0
STYLE
  5
11
100
AcDbSymbolTableRecord
100
AcDbTextStyleTableRecord
  2
STANDARD
 70
0
 40
0.0
 41
0.8
 50
0.0
 71
0
 42
0.2
  3
txt
  4

  0
STYLE
  5
21A
100
AcDbSymbolTableRecord
100
AcDbTextStyleTableRecord
  2
TEXTSTYLE_1
 70
0
 40
0.0
 41
0.8
 50
0.0
 71
0
 42
0.2
  3
gdt
  4

  0
ENDTAB
  0
TABLE
  2
VIEW
  5
6
100
AcDbSymbolTable
 70
0
  0
ENDTAB
  0
TABLE
  2
UCS
  5
7
100
AcDbSymbolTable
 70
0
  0
ENDTAB
  0
TABLE
  2
APPID
  5
9
100
AcDbSymbolTable
 70
1
  0
APPID
  5
21B
100
AcDbSymbolTableRecord
100
AcDbRegAppTableRecord
  2
ACAD
 70
0
  0
ENDTAB
  0
TABLE
  2
BLOCK_RECORD
  5
1
100
AcDbSymbolTable
 70
0
  0
BLOCK_RECORD
  5
21C
100
AcDbSymbolTableRecord
100
AcDbBlockTableRecord
  2
*Model_Space
  0
BLOCK_RECORD
  5
21D
100
AcDbSymbolTableRecord
100
AcDbBlockTableRecord
  2
*Paper_Space
  0
BLOCK_RECORD
  5
21E
100
AcDbSymbolTableRecord
100
AcDbBlockTableRecord
  2
_FILLED
  0
ENDTAB
  0
TABLE
  2
DIMSTYLE
  5
A
100
AcDbSymbolTable
 70
1
100
AcDbDimStyleTable
 71
0
  0
DIMSTYLE
105
21F
100
AcDbSymbolTableRecord
100
AcDbDimStyleTableRecord
  2
STANDARD
 70
0
  3

  4

 40
1.0
 41
3.0
 42
0.5
 43
0.38
 44
1.5
 45
0.0
 46
0.0
 47
0.01
 48
0.01
140
3.0
141
0.09
142
0.0
143
25.4
144
1.0
145
0.0
146
1.0
147
0.625
 71
1
 72
0
 73
0
 74
0
 75
0
 76
0
 77
1
 78
8
 79
2
170
0
171
1
172
0
173
0
174
0
175
0
176
0
177
0
178
0
270
2
179
2
271
2
272
2
273
2
274
2
275
0
280
0
281
0
282
0
283
1
284
8
285
0
286
0
287
3
288
0
340
11
278
44
341
21E
342
21E
343
21E
344
21E
  0
ENDTAB
  0
ENDSEC
  0
SECTION
  2
BLOCKS
  0
BLOCK
  5
20
100
AcDbEntity
  8
0
100
AcDbBlockBegin
  2
*Model_Space
 70
0
 10
0.0
 20
0.0
 30
0.0
  3
*Model_Space
  1

  0
ENDBLK
  5
21
100
AcDbEntity
  8
0
100
AcDbBlockEnd
  0
BLOCK
  5
1C
100
AcDbEntity
  8
0
100
AcDbBlockBegin
  2
*Paper_Space
 70
0
 10
0.0
 20
0.0
 30
0.0
  3
*Paper_Space
  1

  0
ENDBLK
  5
1D
100
AcDbEntity
  8
0
100
AcDbBlockEnd
  0
BLOCK
  5
220
100
AcDbEntity
  8
0
100
AcDbBlockBegin
  2
_FILLED
 70
64
 10
0.0
 20
0.0
  3
_FILLED
  1

  0
SOLID
  5
221
100
AcDbEntity
  8
0
  6
BYBLOCK
 62
0
100
AcDbTrace
 10
0.0
 20
0.0
 11
-1.0
 21
0.3166666667
 12
-1.0
 22
-0.3166666667
 13
-1.0
 23
-0.3166666667
  0
ENDBLK
  5
222
100
AcDbEntity
  8
0
  6
BYBLOCK
 62
0
100
AcDbBlockEnd
  0
ENDSEC
  0
SECTION
  2
ENTITIES
  0
LINE
  5
223
100
AcDbEntity
  8
ASSI
100
AcDbLine
 62
7
  6
CONTINUOUS
 10
-33.713712047
 20
52.8073741756
 11
-29.9258982598
 21
55.3109410669
  0
LINE
  5
224
100
AcDbEntity
  8
ASSI
100
AcDbLine
 62
7
  6
CONTINUOUS
 10
-33.0061747777
 20
53.2158183695
 11
-29.2183609905
 21
55.7193852608
  0
LINE
  5
225
100
AcDbEntity
  8
ASSI
100
AcDbLine
 62
7
  6
CONTINUOUS
 10
-33.0269383918
 20
53.2029790185
 11
-33.0061747777
 21
53.2158183695
  0
LINE
  5
226
100
AcDbEntity
  8
ASSI
100
AcDbLine
 62
7
  6
CONTINUOUS
 10
-29.9258982598
 20
55.3109410669
 11
-29.2183609905
 21
55.7193852608
  0
LINE
  5
227
100
AcDbEntity
  8
ASSI
100
AcDbLine
 62
7
  6
CONTINUOUS
 10
-33.0269383918
 20
53.2029790185
 11
-33.7133367395
 21
52.8067378141
  0
LINE
  5
228
100
AcDbEntity
  8
ASSI
100
AcDbLine
 62
7
  6
CONTINUOUS
 10
-33.4096276917
 20
51.7877505801
 11
-33.6886036258
 21
51.6267045045
  0
LINE
  5
229
100
AcDbEntity
  8
CURVE
100
AcDbLine
 62
250
  6
CONTINUOUS
 10
32.0411322287
 20
-48.8463758992
 11
30.7827314074
 21
-49.1229986991
  0
LINE
  5
22A
100
AcDbEntity
  8
CURVE
100
AcDbLine
 62
250
  6
CONTINUOUS
 10
30.7827314074
 20
-48.6972617039
 11
32.6109225841
 21
-48.3689685114
  0
LINE
  5
22B
100
AcDbEntity
  8
CURVE
100
AcDbLine
 62
250
  6
CONTINUOUS
 10
31.2850719363
 20
-44.6382971314
 11
31.9635370636
 21
-44.4851225515
  0
LINE
  5
22C
100
AcDbEntity
  8
CURVE
100
AcDbLine
 62
250
  6
CONTINUOUS
 10
32.2459507582
 20
-44.4202106124
 11
32.6109225841
 21
-44.3412594007
  0
LINE
  5
22D
100
AcDbEntity
  8
CURVE
100
AcDbLine
 62
250
  6
CONTINUOUS
 10
32.6109225841
 20
-44.7626650212
 11
30.7827314074
 21
-45.1068295793
  0
LINE
  5
22E
100
AcDbEntity
  8
CURVE
100
AcDbLine
 62
250
  6
CONTINUOUS
 10
31.7977486871
 20
-46.3057887178
 11
30.7827314074
 21
-46.4262684078
  0
LINE
  5
22F
100
AcDbEntity
  8
CURVE
100
AcDbLine
 62
250
  6
CONTINUOUS
 10
31.4221246946
 20
-45.9739366547
 11
32.6109225841
 21
-45.8404082359
  0
LINE
  5
230
100
AcDbEntity
  8
ASSI
100
AcDbLine
 62
7
  6
CONTINUOUS
 10
-33.4096276917
 20
51.7877505801
 11
-33.0269383918
 21
53.2029790185
  0
LINE
  5
231
100
AcDbEntity
  8
ASSI
100
AcDbLine
 62
7
  6
CONTINUOUS
 10
28.2133185794
 20
-54.9463231628
 11
29.6302777103
 21
-55.3225026187
  0
LINE
  5
232
100
AcDbEntity
  8
ASSI
100
AcDbLine
 62
7
  6
CONTINUOUS
 10
-33.6886036258
 20
-19.2049290948
 11
-33.4096276917
 21
-19.6881295863
  0
LINE
  5
233
100
AcDbEntity
  8
ASSI
100
AcDbLine
 62
7
  6
CONTINUOUS
 10
-33.6886036258
 20
-19.2049290948
 11
-33.7133367395
 21
-18.7486935173
  0
LINE
  5
234
100
AcDbEntity
  8
ASSI
100
AcDbLine
 62
7
  6
CONTINUOUS
 10
-33.4096276917
 20
-19.6881295863
 11
-33.0269383918
 21
-19.9375703284
  0
LINE
  5
235
100
AcDbEntity
  8
ASSI
100
AcDbLine
 62
7
  6
CONTINUOUS
 10
-33.6886036258
 20
51.6267045045
 11
-33.7133367395
 21
52.8067378141
  0
LINE
  5
236
100
AcDbEntity
  8
ASSI
100
AcDbLine
 62
7
  6
CONTINUOUS
 10
-33.7133367395
 20
-18.7486935173
 11
-33.713712047
 21
-18.7245006566
  0
LINE
  5
237
100
AcDbEntity
  8
ASSI
100
AcDbLine
 62
7
  6
CONTINUOUS
 10
-33.713712047
 20
52.8073741756
 11
-33.713712047
 21
-18.7245006566
  0
LINE
  5
238
100
AcDbEntity
  8
ASSI
100
AcDbLine
 62
7
  6
CONTINUOUS
 10
-33.6886036258
 20
51.6267045045
 11
-33.6886036258
 21
-19.2049290948
  0
LWPOLYLINE
  5
239
100
AcDbEntity
  8
ASSI
100
AcDbPolyline
 62
7
  6
CONTINUOUS
 90
13
 70
0
 10
-18.5401953526
 20
26.0446807249
 10
-18.5395385203
 20
26.0449638194
 10
-18.5344325045
 20
26.0466966436
 10
-18.5274670558
 20
26.0481081656
 10
-18.5184282529
 20
26.0488691816
 10
-18.5072130766
 20
26.048631711
 10
-18.493843814
 20
26.0470734454
 10
-18.4783501151
 20
26.0439010353
 10
-18.461067216
 20
26.0389227606
 10
-18.4425748476
 20
26.0321417457
 10
-18.4232328132
 20
26.0236162031
 10
-18.4031965959
 20
26.0133618483
 10
-18.3941541445
 20
26.0082818562
  0
LINE
  5
23A
100
AcDbEntity
  8
ASSI
100
AcDbLine
 62
250
  6
CONTINUOUS
 10
-18.6566133208
 20
25.8092373266
 11
-18.3073685941
 21
25.9581728667
  0
LINE
  5
23B
100
AcDbEntity
  8
ASSI
100
AcDbLine
 62
7
  6
CONTINUOUS
 10
-33.0061747777
 20
-19.949991154
 11
28.9442417929
 21
-55.7193852608
  0
LINE
  5
23C
100
AcDbEntity
  8
ASSI
100
AcDbLine
 62
7
  6
CONTINUOUS
 10
-33.4096276917
 20
-19.6881295863
 11
27.9343426453
 21
-55.1073692384
  0
LINE
  5
23D
100
AcDbEntity
  8
ASSI
100
AcDbLine
 62
7
  6
CONTINUOUS
 10
-33.0061747777
 20
-19.949991154
 11
-33.0269383918
 21
-19.9375703284
  0
LINE
  5
23E
100
AcDbEntity
  8
ASSI
100
AcDbLine
 62
7
  6
CONTINUOUS
 10
27.9343426453
 20
-55.1073692384
 11
28.9438793627
 21
-55.7187438231
  0
LWPOLYLINE
  5
23F
100
AcDbEntity
  8
0
100
AcDbPolyline
 62
7
  6
CONTINUOUS
 90
13
 70
0
 10
-16.4884151678
 20
21.5834401431
 10
-16.4735709857
 20
21.5933149388
 10
-16.4551925004
 20
21.6077011036
 10
-16.4380088502
 20
21.6237686221
 10
-16.4222237548
 20
21.6413756462
 10
-16.4079790528
 20
21.6603983603
 10
-16.3953678272
 20
21.6807633257
 10
-16.384520809
 20
21.7023228708
 10
-16.3755703389
 20
21.7248606708
 10
-16.3685858675
 20
21.7482327355
 10
-16.363625638
 20
21.7722893276
 10
-16.3607379907
 20
21.7968195337
 10
-16.3599220999
 20
21.8186865176
  0
LINE
  5
240
100
AcDbEntity
  8
0
100
AcDbLine
 62
250
  6
CONTINUOUS
 10
-17.1626208594
 20
21.2654511851
 11
-16.4300871369
 21
21.7184610273
  0
LINE
  5
241
100
AcDbEntity
  8
0
100
AcDbLine
 62
7
  6
CONTINUOUS
 10
-17.2221382954
 20
21.1296947201
 11
-16.4883502648
 21
21.5834802453
  0
LWPOLYLINE
  5
242
100
AcDbEntity
  8
0
100
AcDbPolyline
 62
7
  6
CONTINUOUS
 90
11
 70
0
 10
-16.4520148569
 20
15.1482323384
 10
-16.4498955043
 20
15.1498813314
 10
-16.4318377394
 20
15.1656026145
 10
-16.4153923963
 20
15.1830818194
 10
-16.4008083401
 20
15.2020958657
 10
-16.3882287217
 20
15.2225194684
 10
-16.3778092056
 20
15.2441570447
 10
-16.3696934605
 20
15.2667418822
 10
-16.3639772042
 20
15.2900342206
 10
-16.3607258286
 20
15.3138230435
 10
-16.3599285442
 20
15.3329747535
  0
LINE
  5
243
100
AcDbEntity
  8
0
100
AcDbLine
 62
250
  6
CONTINUOUS
 10
-16.5041086061
 20
15.1696018666
 11
-16.4300871369
 21
15.2265411997
  0
LINE
  5
244
100
AcDbEntity
  8
0
100
AcDbLine
 62
7
  6
CONTINUOUS
 10
-16.526034762
 20
15.0912942085
 11
-16.4520133196
 21
15.148233521
  0
LINE
  5
245
100
AcDbEntity
  8
0
100
AcDbLine
 62
250
  6
CONTINUOUS
 10
-16.6421868626
 20
16.2959655831
 11
-17.2538924872
 21
15.9427732092
  0
LINE
  5
246
100
AcDbEntity
  8
0
100
AcDbLine
 62
250
  6
CONTINUOUS
 10
-16.4300871369
 20
15.9285980825
 11
-17.1626208594
 21
15.5056408397
  0
LINE
  5
247
100
AcDbEntity
  8
ASSI
100
AcDbLine
 62
250
  6
CONTINUOUS
 10
-18.9292464829
 20
-10.4366946412
 11
-18.9292464829
 21
25.8147343786
  0
LINE
  5
248
100
AcDbEntity
  8
ASSI
100
AcDbLine
 62
250
  6
CONTINUOUS
 10
-18.6566133208
 20
-10.4421916931
 11
-18.6566133208
 21
25.8092373266
  0
LINE
  5
249
100
AcDbEntity
  8
ASSI
100
AcDbLine
 62
7
  6
CONTINUOUS
 10
-17.5868849281
 20
25.5421746277
 11
-17.5868849281
 21
-9.824551728
  0
LINE
  5
24A
100
AcDbEntity
  8
ASSI
100
AcDbLine
 62
250
  6
CONTINUOUS
 10
-17.376537697
 20
25.4207227728
 11
-17.376537697
 21
-9.7030811397
  0
LINE
  5
24B
100
AcDbEntity
  8
ASSI
100
AcDbLine
 62
7
  6
CONTINUOUS
 10
-17.2538924872
 20
25.3499089657
 11
-17.2538924872
 21
-9.5136810116
  0
LINE
  5
24C
100
AcDbEntity
  8
0
100
AcDbLine
 62
7
  6
CONTINUOUS
 10
-17.1626208594
 20
-9.866398569
 11
-17.1626208594
 21
-3.681410665
  0
LINE
  5
24D
100
AcDbEntity
  8
0
100
AcDbLine
 62
7
  6
CONTINUOUS
 10
-17.1626208594
 20
2.0783996804
 11
-17.1626208594
 21
15.5056408397
  0
LINE
  5
24E
100
AcDbEntity
  8
0
100
AcDbLine
 62
7
  6
CONTINUOUS
 10
-17.1626208594
 20
21.2654511851
 11
-17.1626208594
 21
25.2972098717
  0
LWPOLYLINE
  5
24F
100
AcDbEntity
  8
0
100
AcDbPolyline
 62
7
  6
CONTINUOUS
 90
20
 70
0
 10
-16.687205247
 20
14.7775297499
 10
-16.6871459006
 20
14.7824023789
 10
-16.6863754542
 20
14.7964700922
 10
-16.6845627922
 20
14.8124629183
 10
-16.6815358235
 20
14.8302449649
 10
-16.6772341062
 20
14.8493070653
 10
-16.6716149805
 20
14.8693731987
 10
-16.6646498302
 20
14.8902239613
 10
-16.6564305558
 20
14.9113924034
 10
-16.6470371623
 20
14.9325868795
 10
-16.6365556358
 20
14.9535744342
 10
-16.6251708212
 20
14.9739861718
 10
-16.6130426492
 20
14.9935796374
 10
-16.6003276282
 20
15.0121701357
 10
-16.5872527307
 20
15.0295097494
 10
-16.5740022138
 20
15.0454600454
 10
-16.5607848024
 20
15.0598930968
 10
-16.5478987738
 20
15.0726257464
 10
-16.5355350886
 20
15.0836345926
 10
-16.5260310208
 20
15.0912970866
  0
LINE
  5
250
100
AcDbEntity
  8
ASSI
100
AcDbLine
 62
250
  6
CONTINUOUS
 10
12.9601924232
 20
-29.4193939744
 11
-18.4354774696
 21
-11.2919276584
  0
LINE
  5
251
100
AcDbEntity
  8
ASSI
100
AcDbLine
 62
250
  6
CONTINUOUS
 10
13.0917487244
 20
-29.1805387356
 11
-18.3039211685
 21
-11.0530724197
  0
LINE
  5
252
100
AcDbEntity
  8
ASSI
100
AcDbLine
 62
7
  6
CONTINUOUS
 10
-17.2341927758
 20
-10.4354324546
 11
13.3953827927
 21
-28.1205655091
  0
LINE
  5
253
100
AcDbEntity
  8
ASSI
100
AcDbLine
 62
250
  6
CONTINUOUS
 10
-17.0238455447
 20
-10.3139618663
 11
13.3953827927
 21
-27.8776430658
  0
LINE
  5
254
100
AcDbEntity
  8
ASSI
100
AcDbLine
 62
7
  6
CONTINUOUS
 10
-16.7984961025
 20
-10.3024367351
 11
13.3953827927
 21
-27.736003991
  0
LINE
  5
255
100
AcDbEntity
  8
0
100
AcDbLine
 62
7
  6
CONTINUOUS
 10
10.4145436069
 20
-25.9501709401
 11
6.5254563103
 21
-23.7046606768
  0
LINE
  5
256
100
AcDbEntity
  8
0
100
AcDbLine
 62
7
  6
CONTINUOUS
 10
-5.4953589698
 20
-16.7639925902
 11
-9.3844462664
 21
-14.5184823269
  0
LINE
  5
257
100
AcDbEntity
  8
0
100
AcDbLine
 62
7
  6
CONTINUOUS
 10
10.6620309803
 20
-25.9297453739
 11
6.6668776666
 21
-23.6230057581
  0
LINE
  5
258
100
AcDbEntity
  8
0
100
AcDbLine
 62
7
  6
CONTINUOUS
 10
-5.2478715964
 20
-16.7435670241
 11
-9.2430249101
 21
-14.4368274083
  0
LINE
  5
259
100
AcDbEntity
  8
0
100
AcDbLine
 62
7
  6
CONTINUOUS
 10
10.7680969975
 20
-25.7460336434
 11
6.8790097009
 21
-23.5005233801
  0
LINE
  5
25A
100
AcDbEntity
  8
0
100
AcDbLine
 62
7
  6
CONTINUOUS
 10
-5.1418055792
 20
-16.5598552936
 11
-9.0308928758
 21
-14.3143450303
  0
LWPOLYLINE
  5
25B
100
AcDbEntity
  8
ASSI
100
AcDbPolyline
 62
7
  6
CONTINUOUS
 90
27
 70
0
 10
-16.7985266867
 20
-10.3024190805
 10
-16.81736641
 20
-10.2909420935
 10
-16.838771898
 20
-10.2765219692
 10
-16.8618804047
 20
-10.2593898678
 10
-16.8862682739
 20
-10.2396010328
 10
-16.9116833292
 20
-10.2171304938
 10
-16.9378803963
 20
-10.1919719933
 10
-16.9644595748
 20
-10.1643125256
 10
-16.9911710219
 20
-10.1342410002
 10
-17.0177521366
 20
-10.1018880681
 10
-17.0438252156
 20
-10.0675818247
 10
-17.0691620227
 20
-10.0315239934
 10
-17.0935339925
 20
-9.9939487892
 10
-17.1166238646
 20
-9.9552966011
 10
-17.1382609598
 20
-9.9158496195
 10
-17.1582911877
 20
-9.8758995625
 10
-17.1764990037
 20
-9.8359444912
 10
-17.192802145
 20
-9.7962999893
 10
-17.2071466984
 20
-9.7572633273
 10
-17.2194459487
 20
-9.719324717
 10
-17.2297252149
 20
-9.682774309
 10
-17.2380397846
 20
-9.6478676517
 10
-17.2444365854
 20
-9.6150386673
 10
-17.2490502548
 20
-9.5844896282
 10
-17.2520345145
 20
-9.5564212962
 10
-17.2535615635
 20
-9.5312231216
 10
-17.2538924898
 20
-9.5137106183
  0
LWPOLYLINE
  5
25C
100
AcDbEntity
  8
0
100
AcDbPolyline
 62
7
  6
CONTINUOUS
 90
14
 70
0
 10
-16.359922146
 20
-3.1582808
 10
-16.3611706437
 20
-3.1309006119
 10
-16.3646571688
 20
-3.1049021596
 10
-16.3703385421
 20
-3.0791620222
 10
-16.3781995764
 20
-3.0537334283
 10
-16.387971214
 20
-3.0292986717
 10
-16.3997534359
 20
-3.0054973195
 10
-16.4136432151
 20
-2.9822953646
 10
-16.4290912225
 20
-2.9606276667
 10
-16.4460933958
 20
-2.9404125727
 10
-16.464920554
 20
-2.9214157961
 10
-16.4850803054
 20
-2.9042268425
 10
-16.5064899453
 20
-2.8889124738
 10
-16.520367456
 20
-2.8803923989
  0
LWPOLYLINE
  5
25D
100
AcDbEntity
  8
0
100
AcDbPolyline
 62
7
  6
CONTINUOUS
 90
14
 70
0
 10
-16.359922146
 20
16.0287707046
 10
-16.3611706437
 20
16.0561508927
 10
-16.3646571688
 20
16.0821493451
 10
-16.3703385421
 20
16.1078894824
 10
-16.3781995764
 20
16.1333180764
 10
-16.387971214
 20
16.157752833
 10
-16.3997534359
 20
16.1815541851
 10
-16.4136432151
 20
16.20475614
 10
-16.4290912225
 20
16.2264238379
 10
-16.4460933958
 20
16.2466389319
 10
-16.464920554
 20
16.2656357086
 10
-16.4850803054
 20
16.2828246621
 10
-16.5064899453
 20
16.2981390308
 10
-16.520367456
 20
16.3066591057
  0
LWPOLYLINE
  5
25E
100
AcDbEntity
  8
0
100
AcDbPolyline
 62
7
  6
CONTINUOUS
 90
15
 70
0
 10
-16.3599287541
 20
3.3275783746
 10
-16.3599427551
 20
3.330020201
 10
-16.3612894854
 20
3.3513534276
 10
-16.364813334
 20
3.3724097106
 10
-16.3704844127
 20
3.3930229784
 10
-16.3782276881
 20
3.4129307024
 10
-16.3879516067
 20
3.4319329304
 10
-16.3996250131
 20
3.4499599212
 10
-16.4132019455
 20
3.4668778236
 10
-16.4284674831
 20
3.4823896138
 10
-16.4451558004
 20
3.4962706526
 10
-16.463164422
 20
3.5084955117
 10
-16.4822175318
 20
3.5189579432
 10
-16.501878029
 20
3.5275582468
 10
-16.5045323525
 20
3.5285675853
  0
LINE
  5
25F
100
AcDbEntity
  8
0
100
AcDbLine
 62
250
  6
CONTINUOUS
 10
-16.7433372862
 20
3.3881193505
 11
-16.7433372862
 21
14.6973023322
  0
LINE
  5
260
100
AcDbEntity
  8
0
100
AcDbLine
 62
7
  6
CONTINUOUS
 10
-16.6872052462
 20
3.4683367579
 11
-16.6872052462
 21
14.7775197395
  0
LINE
  5
261
100
AcDbEntity
  8
0
100
AcDbLine
 62
250
  6
CONTINUOUS
 10
-16.4300871369
 20
24.8742540812
 11
-16.4300871369
 21
21.7184610273
  0
LINE
  5
262
100
AcDbEntity
  8
0
100
AcDbLine
 62
250
  6
CONTINUOUS
 10
-16.4300871369
 20
15.9285980825
 11
-16.4300871369
 21
15.2265411997
  0
LINE
  5
263
100
AcDbEntity
  8
0
100
AcDbLine
 62
250
  6
CONTINUOUS
 10
-16.4300871369
 20
3.2334664054
 11
-16.4300871369
 21
2.5314095226
  0
LINE
  5
264
100
AcDbEntity
  8
0
100
AcDbLine
 62
250
  6
CONTINUOUS
 10
-16.4300871369
 20
-3.2584534222
 11
-16.4300871369
 21
-10.5151514546
  0
LINE
  5
265
100
AcDbEntity
  8
0
100
AcDbLine
 62
7
  6
CONTINUOUS
 10
-16.359922087
 20
24.8337416607
 11
-16.359922087
 21
21.8187327956
  0
LINE
  5
266
100
AcDbEntity
  8
0
100
AcDbLine
 62
7
  6
CONTINUOUS
 10
-16.359922087
 20
16.0288698418
 11
-16.359922087
 21
15.3329373411
  0
LINE
  5
267
100
AcDbEntity
  8
0
100
AcDbLine
 62
7
  6
CONTINUOUS
 10
-16.359922087
 20
3.3276149313
 11
-16.359922087
 21
2.631681291
  0
LINE
  5
268
100
AcDbEntity
  8
0
100
AcDbLine
 62
7
  6
CONTINUOUS
 10
-16.359922087
 20
-3.1581816628
 11
-16.359922087
 21
-10.555663875
  0
LINE
  5
269
100
AcDbEntity
  8
0
100
AcDbLine
 62
7
  6
CONTINUOUS
 10
11.0155843709
 20
-25.7256080773
 11
7.0204310572
 21
-23.4188684615
  0
LINE
  5
26A
100
AcDbEntity
  8
0
100
AcDbLine
 62
7
  6
CONTINUOUS
 10
-4.8943182058
 20
-16.5394297274
 11
-8.8894715195
 21
-14.2326901116
  0
LINE
  5
26B
100
AcDbEntity
  8
0
100
AcDbLine
 62
7
  6
CONTINUOUS
 10
11.1216503881
 20
-25.5418963468
 11
7.2325630915
 21
-23.2963860835
  0
LINE
  5
26C
100
AcDbEntity
  8
0
100
AcDbLine
 62
7
  6
CONTINUOUS
 10
-4.7882521886
 20
-16.3557179969
 11
-8.6773394852
 21
-14.1102077336
  0
LINE
  5
26D
100
AcDbEntity
  8
0
100
AcDbLine
 62
7
  6
CONTINUOUS
 10
11.3691377615
 20
-25.5214707806
 11
7.3739844478
 21
-23.2147311648
  0
LINE
  5
26E
100
AcDbEntity
  8
0
100
AcDbLine
 62
7
  6
CONTINUOUS
 10
-4.5407648152
 20
-16.3352924307
 11
-8.5359181289
 21
-14.0285528149
  0
LINE
  5
26F
100
AcDbEntity
  8
0
100
AcDbLine
 62
7
  6
CONTINUOUS
 10
11.4752037786
 20
-25.3377590501
 11
7.5861164821
 21
-23.0922487868
  0
LINE
  5
270
100
AcDbEntity
  8
0
100
AcDbLine
 62
7
  6
CONTINUOUS
 10
-4.4346987981
 20
-16.1515807002
 11
-8.3237860946
 21
-13.9060704369
  0
LINE
  5
271
100
AcDbEntity
  8
0
100
AcDbLine
 62
7
  6
CONTINUOUS
 10
11.7226911521
 20
-25.317333484
 11
7.7275378384
 21
-23.0105938681
  0
LINE
  5
272
100
AcDbEntity
  8
0
100
AcDbLine
 62
7
  6
CONTINUOUS
 10
-4.1872114246
 20
-16.1311551341
 11
-8.1823647383
 21
-13.8244155183
  0
LINE
  5
273
100
AcDbEntity
  8
0
100
AcDbLine
 62
7
  6
CONTINUOUS
 10
11.8287571692
 20
-25.1336217534
 11
7.9396698727
 21
-22.8881114901
  0
LINE
  5
274
100
AcDbEntity
  8
0
100
AcDbLine
 62
7
  6
CONTINUOUS
 10
-4.0811454075
 20
-15.9474434036
 11
-7.970232704
 21
-13.7019331403
  0
LINE
  5
275
100
AcDbEntity
  8
0
100
AcDbLine
 62
7
  6
CONTINUOUS
 10
12.0762445427
 20
-25.1131961873
 11
8.081091229
 21
-22.8064565715
  0
LINE
  5
276
100
AcDbEntity
  8
0
100
AcDbLine
 62
7
  6
CONTINUOUS
 10
-3.833658034
 20
-15.9270178374
 11
-7.8288113477
 21
-13.6202782216
  0
LINE
  5
277
100
AcDbEntity
  8
0
100
AcDbLine
 62
7
  6
CONTINUOUS
 10
12.1823105598
 20
-24.9294844568
 11
8.2932232633
 21
-22.6839741935
  0
LINE
  5
278
100
AcDbEntity
  8
0
100
AcDbLine
 62
7
  6
CONTINUOUS
 10
-3.7275920169
 20
-15.7433061069
 11
-7.6166793134
 21
-13.4977958436
  0
LINE
  5
279
100
AcDbEntity
  8
0
100
AcDbLine
 62
7
  6
CONTINUOUS
 10
12.4297979332
 20
-24.9090588906
 11
8.4346446195
 21
-22.6023192748
  0
LINE
  5
27A
100
AcDbEntity
  8
0
100
AcDbLine
 62
7
  6
CONTINUOUS
 10
-3.4801046434
 20
-15.7228805408
 11
-7.4752579572
 21
-13.4161409249
  0
LINE
  5
27B
100
AcDbEntity
  8
0
100
AcDbLine
 62
7
  6
CONTINUOUS
 10
12.5358639504
 20
-24.7253471601
 11
8.6467766539
 21
-22.4798368968
  0
LINE
  5
27C
100
AcDbEntity
  8
0
100
AcDbLine
 62
7
  6
CONTINUOUS
 10
-3.3740386263
 20
-15.5391688102
 11
-7.2631259228
 21
-13.2936585469
  0
LINE
  5
27D
100
AcDbEntity
  8
0
100
AcDbLine
 62
7
  6
CONTINUOUS
 10
12.7833513238
 20
-24.704921594
 11
8.7881980101
 21
-22.3981819781
  0
LINE
  5
27E
100
AcDbEntity
  8
0
100
AcDbLine
 62
7
  6
CONTINUOUS
 10
-3.1265512529
 20
-15.5187432441
 11
-7.1217045666
 21
-13.2120036283
  0
LINE
  5
27F
100
AcDbEntity
  8
0
100
AcDbLine
 62
250
  6
CONTINUOUS
 10
13.0681302711
 20
-24.7467654495
 11
8.8217930128
 21
-22.2949835357
  0
LINE
  5
280
100
AcDbEntity
  8
0
100
AcDbLine
 62
250
  6
CONTINUOUS
 10
-2.8417723056
 20
-15.5605870996
 11
-7.0881095639
 21
-13.1088051858
  0
LINE
  5
281
100
AcDbEntity
  8
0
100
AcDbLine
 62
250
  6
CONTINUOUS
 10
13.134802627
 20
-24.7080635381
 11
8.8958401657
 21
-22.2605397396
  0
LINE
  5
282
100
AcDbEntity
  8
0
100
AcDbLine
 62
250
  6
CONTINUOUS
 10
-2.7750999497
 20
-15.5218851882
 11
-7.014062411
 21
-13.0743613897
  0
LINE
  5
283
100
AcDbEntity
  8
0
100
AcDbLine
 62
7
  6
CONTINUOUS
 10
-5.4284606778
 20
-12.5565354366
 11
-1.6024592872
 21
-14.7656206884
  0
LINE
  5
284
100
AcDbEntity
  8
0
100
AcDbLine
 62
7
  6
CONTINUOUS
 10
10.4814418989
 20
-21.7427137864
 11
13.3953827927
 21
-23.4251867382
  0
LWPOLYLINE
  5
285
100
AcDbEntity
  8
0
100
AcDbPolyline
 62
7
  6
CONTINUOUS
 90
8
 70
0
 10
-16.6830764958
 20
3.4346668313
 10
-16.6828644076
 20
3.4342589601
 10
-16.6830947912
 20
3.4348748833
 10
-16.6839402835
 20
3.4375879562
 10
-16.6850450951
 20
3.4423717241
 10
-16.6860962998
 20
3.4490124873
 10
-16.6868740274
 20
3.4573833504
 10
-16.6872052476
 20
3.4683234823
  0
LWPOLYLINE
  5
286
100
AcDbEntity
  8
0
100
AcDbPolyline
 62
7
  6
CONTINUOUS
 90
13
 70
0
 10
-16.4884151678
 20
2.3963886384
 10
-16.4735709857
 20
2.4062634342
 10
-16.4551925004
 20
2.420649599
 10
-16.4380088502
 20
2.4367171174
 10
-16.4222237548
 20
2.4543241416
 10
-16.4079790528
 20
2.4733468557
 10
-16.3953678272
 20
2.493711821
 10
-16.384520809
 20
2.5152713662
 10
-16.3755703389
 20
2.5378091662
 10
-16.3685858675
 20
2.5611812309
 10
-16.363625638
 20
2.5852378229
 10
-16.3607379907
 20
2.6097680291
 10
-16.3599220999
 20
2.631635013
  0
LINE
  5
287
100
AcDbEntity
  8
0
100
AcDbLine
 62
250
  6
CONTINUOUS
 10
-17.1626208594
 20
2.0783996804
 11
-16.4300871369
 21
2.5314095226
  0
LINE
  5
288
100
AcDbEntity
  8
0
100
AcDbLine
 62
7
  6
CONTINUOUS
 10
-17.2221382954
 20
1.9426432155
 11
-16.4883502648
 21
2.3964287407
  0
LINE
  5
289
100
AcDbEntity
  8
0
100
AcDbLine
 62
250
  6
CONTINUOUS
 10
-16.5785916166
 20
3.4983374459
 11
-16.6526130858
 21
3.4667615767
  0
LINE
  5
28A
100
AcDbEntity
  8
0
100
AcDbLine
 62
250
  6
CONTINUOUS
 10
-16.4300871369
 20
3.2334664054
 11
-16.5041086061
 21
3.2018905363
  0
LINE
  5
28B
100
AcDbEntity
  8
0
100
AcDbLine
 62
250
  6
CONTINUOUS
 10
-17.2538924872
 20
-2.5378947603
 11
-16.6421868626
 21
-2.8910859215
  0
LINE
  5
28C
100
AcDbEntity
  8
0
100
AcDbLine
 62
7
  6
CONTINUOUS
 10
-17.2538924872
 20
-2.4568641441
 11
-16.5202659635
 21
-2.8804509043
  0
LINE
  5
28D
100
AcDbEntity
  8
0
100
AcDbLine
 62
250
  6
CONTINUOUS
 10
-16.6421868626
 20
-2.8910859215
 11
-17.2538924872
 21
-3.2442782954
  0
LINE
  5
28E
100
AcDbEntity
  8
0
100
AcDbLine
 62
250
  6
CONTINUOUS
 10
-16.4300871369
 20
-3.2584534222
 11
-17.1626208594
 21
-3.681410665
  0
LINE
  5
28F
100
AcDbEntity
  8
0
100
AcDbLine
 62
250
  6
CONTINUOUS
 10
-1.5952516784
 20
-14.9090703418
 11
-1.5952516784
 21
-15.3164399796
  0
LINE
  5
290
100
AcDbEntity
  8
0
100
AcDbLine
 62
7
  6
CONTINUOUS
 10
-1.5438806435
 20
-14.8424928349
 11
-1.5438806435
 21
-15.2858946849
  0
LINE
  5
291
100
AcDbEntity
  8
0
100
AcDbLine
 62
7
  6
CONTINUOUS
 10
-9.4124764001
 20
-14.5670319427
 11
-9.3844462664
 21
-14.5184823269
  0
LINE
  5
292
100
AcDbEntity
  8
0
100
AcDbLine
 62
7
  6
CONTINUOUS
 10
-9.1369588929
 20
-14.4980567608
 11
-9.0308928758
 21
-14.3143450303
  0
LINE
  5
293
100
AcDbEntity
  8
0
100
AcDbLine
 62
7
  6
CONTINUOUS
 10
-8.7834055023
 20
-14.2939194641
 11
-8.6773394852
 21
-14.1102077336
  0
LINE
  5
294
100
AcDbEntity
  8
0
100
AcDbLine
 62
7
  6
CONTINUOUS
 10
-8.4298521118
 20
-14.0897821674
 11
-8.3237860946
 21
-13.9060704369
  0
LINE
  5
295
100
AcDbEntity
  8
0
100
AcDbLine
 62
7
  6
CONTINUOUS
 10
-8.0762987212
 20
-13.8856448708
 11
-7.970232704
 21
-13.7019331403
  0
LINE
  5
296
100
AcDbEntity
  8
0
100
AcDbLine
 62
7
  6
CONTINUOUS
 10
-7.7227453306
 20
-13.6815075741
 11
-7.6166793134
 21
-13.4977958436
  0
LINE
  5
297
100
AcDbEntity
  8
0
100
AcDbLine
 62
7
  6
CONTINUOUS
 10
-7.36919194
 20
-13.4773702775
 11
-7.2631259228
 21
-13.2936585469
  0
LINE
  5
298
100
AcDbEntity
  8
ASSI
100
AcDbLine
 62
7
  6
CONTINUOUS
 10
28.9442417929
 20
17.4464242627
 11
33.0061747777
 21
19.7917181648
  0
LINE
  5
299
100
AcDbEntity
  8
ASSI
100
AcDbLine
 62
250
  6
CONTINUOUS
 10
-18.6566133208
 20
-10.4421916931
 11
-17.376537697
 21
-9.7030811397
  0
LINE
  5
29A
100
AcDbEntity
  8
ASSI
100
AcDbLine
 62
250
  6
CONTINUOUS
 10
-18.3039211685
 20
-11.0530724197
 11
-17.0238455447
 21
-10.3139618663
  0
LINE
  5
29B
100
AcDbEntity
  8
0
100
AcDbLine
 62
250
  6
CONTINUOUS
 10
-16.6834811914
 20
3.4782997402
 11
-16.6526130858
 21
3.4667615767
  0
LINE
  5
29C
100
AcDbEntity
  8
0
100
AcDbLine
 62
250
  6
CONTINUOUS
 10
-16.6872052462
 20
3.5662541031
 11
-16.5792032676
 21
3.5258841335
  0
LINE
  5
29D
100
AcDbEntity
  8
0
100
AcDbLine
 62
7
  6
CONTINUOUS
 10
-16.6872052462
 20
3.5968487345
 11
-16.5045409619
 21
3.5285708039
  0
LINE
  5
29E
100
AcDbEntity
  8
ASSI
100
AcDbLine
 62
7
  6
CONTINUOUS
 10
-33.713712047
 20
52.8073741756
 11
-33.7133367395
 21
52.8067378141
  0
LINE
  5
29F
100
AcDbEntity
  8
ASSI
100
AcDbLine
 62
7
  6
CONTINUOUS
 10
28.9438793627
 20
-55.7187438231
 11
28.9442417929
 21
-55.7193852608
  0
LINE
  5
2A0
100
AcDbEntity
  8
0
100
AcDbLine
 62
7
  6
CONTINUOUS
 10
-5.5233891036
 20
-16.812542206
 11
-5.4953589698
 21
-16.7639925902
  0
LINE
  5
2A1
100
AcDbEntity
  8
0
100
AcDbLine
 62
7
  6
CONTINUOUS
 10
-5.2478715964
 20
-16.7435670241
 11
-5.1418055792
 21
-16.5598552936
  0
LINE
  5
2A2
100
AcDbEntity
  8
0
100
AcDbLine
 62
7
  6
CONTINUOUS
 10
-4.8943182058
 20
-16.5394297274
 11
-4.7882521886
 21
-16.3557179969
  0
LINE
  5
2A3
100
AcDbEntity
  8
0
100
AcDbLine
 62
7
  6
CONTINUOUS
 10
-4.5407648152
 20
-16.3352924307
 11
-4.4346987981
 21
-16.1515807002
  0
LINE
  5
2A4
100
AcDbEntity
  8
0
100
AcDbLine
 62
7
  6
CONTINUOUS
 10
-4.1872114246
 20
-16.1311551341
 11
-4.0811454075
 21
-15.9474434036
  0
LINE
  5
2A5
100
AcDbEntity
  8
0
100
AcDbLine
 62
7
  6
CONTINUOUS
 10
-3.833658034
 20
-15.9270178374
 11
-3.7275920169
 21
-15.7433061069
  0
LINE
  5
2A6
100
AcDbEntity
  8
0
100
AcDbLine
 62
7
  6
CONTINUOUS
 10
-3.4801046434
 20
-15.7228805408
 11
-3.3740386263
 21
-15.5391688102
  0
LINE
  5
2A7
100
AcDbEntity
  8
ASSI
100
AcDbLine
 62
7
  6
CONTINUOUS
 10
29.6517790622
 20
16.2209337653
 11
33.713712047
 21
18.5662276674
  0
LINE
  5
2A8
100
AcDbEntity
  8
ASSI
100
AcDbLine
 62
7
  6
CONTINUOUS
 10
27.9343426453
 20
16.368510928
 11
28.9438793627
 21
17.4218055238
  0
LINE
  5
2A9
100
AcDbEntity
  8
0
100
AcDbLine
 62
7
  6
CONTINUOUS
 10
-9.3844462664
 20
-14.5184823269
 11
-9.2430249101
 21
-14.4368274083
  0
LINE
  5
2AA
100
AcDbEntity
  8
0
100
AcDbLine
 62
7
  6
CONTINUOUS
 10
-9.0308928758
 20
-14.3143450303
 11
-8.8894715195
 21
-14.2326901116
  0
LINE
  5
2AB
100
AcDbEntity
  8
0
100
AcDbLine
 62
7
  6
CONTINUOUS
 10
-8.6773394852
 20
-14.1102077336
 11
-8.5359181289
 21
-14.0285528149
  0
LINE
  5
2AC
100
AcDbEntity
  8
0
100
AcDbLine
 62
7
  6
CONTINUOUS
 10
-8.3237860946
 20
-13.9060704369
 11
-8.1823647383
 21
-13.8244155183
  0
LINE
  5
2AD
100
AcDbEntity
  8
0
100
AcDbLine
 62
7
  6
CONTINUOUS
 10
-7.970232704
 20
-13.7019331403
 11
-7.8288113477
 21
-13.6202782216
  0
LINE
  5
2AE
100
AcDbEntity
  8
0
100
AcDbLine
 62
7
  6
CONTINUOUS
 10
-7.6166793134
 20
-13.4977958436
 11
-7.4752579572
 21
-13.4161409249
  0
LINE
  5
2AF
100
AcDbEntity
  8
0
100
AcDbLine
 62
7
  6
CONTINUOUS
 10
-7.2631259228
 20
-13.2936585469
 11
-7.1217045666
 21
-13.2120036283
  0
LINE
  5
2B0
100
AcDbEntity
  8
0
100
AcDbLine
 62
7
  6
CONTINUOUS
 10
-9.6401599894
 20
-14.4355702918
 11
-7.0881095639
 21
-13.1088051858
  0
LINE
  5
2B1
100
AcDbEntity
  8
ASSI
100
AcDbLine
 62
7
  6
CONTINUOUS
 10
28.2133185794
 20
15.8853104365
 11
29.6302777103
 21
16.2329287127
  0
LINE
  5
2B2
100
AcDbEntity
  8
0
100
AcDbLine
 62
250
  6
CONTINUOUS
 10
-17.2538924872
 20
16.6491567443
 11
-16.6421868626
 21
16.2959655831
  0
LINE
  5
2B3
100
AcDbEntity
  8
0
100
AcDbLine
 62
7
  6
CONTINUOUS
 10
-17.2538924872
 20
16.7301873606
 11
-16.5202659635
 21
16.3066006003
  0
LINE
  5
2B4
100
AcDbEntity
  8
ASSI
100
AcDbLine
 62
7
  6
CONTINUOUS
 10
13.3953827927
 20
7.1987309015
 11
13.3953827927
 21
-29.052698119
  0
LINE
  5
2B5
100
AcDbEntity
  8
ASSI
100
AcDbLine
 62
250
  6
CONTINUOUS
 10
13.4539614365
 20
7.1170759829
 11
13.4539614365
 21
-29.1343530369
  0
LINE
  5
2B6
100
AcDbEntity
  8
0
100
AcDbLine
 62
250
  6
CONTINUOUS
 10
-3.5397310914
 20
-16.5880776332
 11
-3.2037861264
 21
-16.2613240434
  0
LINE
  5
2B7
100
AcDbEntity
  8
0
100
AcDbLine
 62
7
  6
CONTINUOUS
 10
-3.5358062339
 20
-16.6216128339
 11
-3.1068218531
 21
-16.2043653649
  0
LINE
  5
2B8
100
AcDbEntity
  8
0
100
AcDbLine
 62
7
  6
CONTINUOUS
 10
-2.8417723056
 20
-15.5605870996
 11
-5.13964883
 21
-17.0341090306
  0
LINE
  5
2B9
100
AcDbEntity
  8
0
100
AcDbLine
 62
7
  6
CONTINUOUS
 10
-4.8268261193
 20
-17.2147289432
 11
-1.5952516784
 21
-15.3164399796
  0
LINE
  5
2BA
100
AcDbEntity
  8
0
100
AcDbLine
 62
7
  6
CONTINUOUS
 10
-3.5944205795
 20
-16.6660768421
 11
-4.6830491731
 21
-17.2977439499
  0
LINE
  5
2BB
100
AcDbEntity
  8
0
100
AcDbLine
 62
250
  6
CONTINUOUS
 10
-3.5397310914
 20
-16.5880776332
 11
-4.7234051709
 21
-17.2744429026
  0
LINE
  5
2BC
100
AcDbEntity
  8
0
100
AcDbLine
 62
7
  6
CONTINUOUS
 10
-5.4953589698
 20
-16.7639925902
 11
-5.3539376136
 21
-16.6823376716
  0
LINE
  5
2BD
100
AcDbEntity
  8
0
100
AcDbLine
 62
7
  6
CONTINUOUS
 10
-5.1418055792
 20
-16.5598552936
 11
-5.000384223
 21
-16.4782003749
  0
LINE
  5
2BE
100
AcDbEntity
  8
0
100
AcDbLine
 62
7
  6
CONTINUOUS
 10
-4.7882521886
 20
-16.3557179969
 11
-4.6468308324
 21
-16.2740630782
  0
LINE
  5
2BF
100
AcDbEntity
  8
0
100
AcDbLine
 62
7
  6
CONTINUOUS
 10
-4.4346987981
 20
-16.1515807002
 11
-4.2932774418
 21
-16.0699257816
  0
LINE
  5
2C0
100
AcDbEntity
  8
0
100
AcDbLine
 62
7
  6
CONTINUOUS
 10
-4.0811454075
 20
-15.9474434036
 11
-3.9397240512
 21
-15.8657884849
  0
LINE
  5
2C1
100
AcDbEntity
  8
0
100
AcDbLine
 62
7
  6
CONTINUOUS
 10
-3.7275920169
 20
-15.7433061069
 11
-3.5861706606
 21
-15.6616511882
  0
LINE
  5
2C2
100
AcDbEntity
  8
0
100
AcDbLine
 62
7
  6
CONTINUOUS
 10
-3.3740386263
 20
-15.5391688102
 11
-3.23261727
 21
-15.4575138916
  0
LINE
  5
2C3
100
AcDbEntity
  8
0
100
AcDbLine
 62
7
  6
CONTINUOUS
 10
-3.1265512529
 20
-15.5187432441
 11
-5.4453607614
 21
-16.8575947928
  0
LINE
  5
2C4
100
AcDbEntity
  8
0
100
AcDbLine
 62
7
  6
CONTINUOUS
 10
-1.5952516784
 20
-14.9090703418
 11
-2.7750999497
 21
-15.5218851882
  0
LINE
  5
2C5
100
AcDbEntity
  8
0
100
AcDbLine
 62
7
  6
CONTINUOUS
 10
-7.014062411
 20
-13.0743613897
 11
-5.7037081553
 21
-12.536899063
  0
LINE
  5
2C6
100
AcDbEntity
  8
ASSI
100
AcDbLine
 62
7
  6
CONTINUOUS
 10
-18.3940609454
 20
26.0082279438
 11
13.0016089481
 21
7.8807616274
  0
LINE
  5
2C7
100
AcDbEntity
  8
ASSI
100
AcDbLine
 62
250
  6
CONTINUOUS
 10
-18.4354774696
 20
26.0997753161
 11
12.9601924232
 21
7.9723090001
  0
LWPOLYLINE
  5
2C8
100
AcDbEntity
  8
ASSI
100
AcDbPolyline
 62
7
  6
CONTINUOUS
 90
24
 70
0
 10
13.0016532308
 20
7.8807360818
 10
13.0197736811
 20
7.8697263838
 10
13.04375174
 20
7.8535199035
 10
13.0686281261
 20
7.834761128
 10
13.0940036779
 20
7.8135708521
 10
13.1196475817
 20
7.789994121
 10
13.1453460869
 20
7.7640911908
 10
13.1707619401
 20
7.7360838878
 10
13.1956810412
 20
7.7061132646
 10
13.2198974043
 20
7.6743425388
 10
13.2431268611
 20
7.6410794036
 10
13.2651877886
 20
7.606542051
 10
13.2859163337
 20
7.5709600252
 10
13.3051018784
 20
7.5346932544
 10
13.3226226403
 20
7.497998678
 10
13.33837675
 20
7.4611399683
 10
13.3522366048
 20
7.4245105905
 10
13.3641581231
 20
7.3883715317
 10
13.3741191644
 20
7.3529823136
 10
13.3820905495
 20
7.3187426268
 10
13.3881204012
 20
7.2858724472
 10
13.3922771891
 20
7.2545965196
 10
13.3946477298
 20
7.2253161342
 10
13.3953828194
 20
7.1987905823
  0
LWPOLYLINE
  5
2C9
100
AcDbEntity
  8
ASSI
100
AcDbPolyline
 62
7
  6
CONTINUOUS
 90
12
 70
0
 10
13.3953828918
 20
-29.052813102
 10
13.3952843271
 20
-29.0621182641
 10
13.3941928
 20
-29.0847499437
 10
13.3919384369
 20
-29.1059141529
 10
13.3885851419
 20
-29.1254661861
 10
13.384262166
 20
-29.1430604065
 10
13.379257332
 20
-29.1581858229
 10
13.3739063196
 20
-29.1706457911
 10
13.3684811372
 20
-29.1805601273
 10
13.3632771449
 20
-29.1880676261
 10
13.3585488962
 20
-29.1934325075
 10
13.3544771511
 20
-29.197008967
  0
LINE
  5
2CA
100
AcDbEntity
  8
0
100
AcDbLine
 62
7
  6
CONTINUOUS
 10
6.4974261766
 20
-23.7532102926
 11
6.5254563103
 21
-23.7046606768
  0
LINE
  5
2CB
100
AcDbEntity
  8
0
100
AcDbLine
 62
7
  6
CONTINUOUS
 10
6.7729436838
 20
-23.6842351106
 11
6.8790097009
 21
-23.5005233801
  0
LINE
  5
2CC
100
AcDbEntity
  8
0
100
AcDbLine
 62
7
  6
CONTINUOUS
 10
7.1264970743
 20
-23.480097814
 11
7.2325630915
 21
-23.2963860835
  0
LINE
  5
2CD
100
AcDbEntity
  8
0
100
AcDbLine
 62
7
  6
CONTINUOUS
 10
7.4800504649
 20
-23.2759605173
 11
7.5861164821
 21
-23.0922487868
  0
LINE
  5
2CE
100
AcDbEntity
  8
0
100
AcDbLine
 62
7
  6
CONTINUOUS
 10
7.8336038555
 20
-23.0718232207
 11
7.9396698727
 21
-22.8881114901
  0
LINE
  5
2CF
100
AcDbEntity
  8
0
100
AcDbLine
 62
7
  6
CONTINUOUS
 10
8.1871572461
 20
-22.867685924
 11
8.2932232633
 21
-22.6839741935
  0
LINE
  5
2D0
100
AcDbEntity
  8
0
100
AcDbLine
 62
7
  6
CONTINUOUS
 10
8.5407106367
 20
-22.6635486273
 11
8.6467766539
 21
-22.4798368968
  0
LINE
  5
2D1
100
AcDbEntity
  8
0
100
AcDbLine
 62
7
  6
CONTINUOUS
 10
10.3865134731
 20
-25.9987205559
 11
10.4145436069
 21
-25.9501709401
  0
LINE
  5
2D2
100
AcDbEntity
  8
0
100
AcDbLine
 62
7
  6
CONTINUOUS
 10
10.6620309803
 20
-25.9297453739
 11
10.7680969975
 21
-25.7460336434
  0
LINE
  5
2D3
100
AcDbEntity
  8
0
100
AcDbLine
 62
7
  6
CONTINUOUS
 10
11.0155843709
 20
-25.7256080773
 11
11.1216503881
 21
-25.5418963468
  0
LINE
  5
2D4
100
AcDbEntity
  8
0
100
AcDbLine
 62
7
  6
CONTINUOUS
 10
11.3691377615
 20
-25.5214707806
 11
11.4752037786
 21
-25.3377590501
  0
LINE
  5
2D5
100
AcDbEntity
  8
0
100
AcDbLine
 62
7
  6
CONTINUOUS
 10
11.7226911521
 20
-25.317333484
 11
11.8287571692
 21
-25.1336217534
  0
LINE
  5
2D6
100
AcDbEntity
  8
0
100
AcDbLine
 62
7
  6
CONTINUOUS
 10
12.0762445427
 20
-25.1131961873
 11
12.1823105598
 21
-24.9294844568
  0
LINE
  5
2D7
100
AcDbEntity
  8
0
100
AcDbLine
 62
7
  6
CONTINUOUS
 10
12.4297979332
 20
-24.9090588906
 11
12.5358639504
 21
-24.7253471601
  0
LINE
  5
2D8
100
AcDbEntity
  8
0
100
AcDbLine
 62
7
  6
CONTINUOUS
 10
6.5254563103
 20
-23.7046606768
 11
6.6668776666
 21
-23.6230057581
  0
LINE
  5
2D9
100
AcDbEntity
  8
0
100
AcDbLine
 62
7
  6
CONTINUOUS
 10
6.8790097009
 20
-23.5005233801
 11
7.0204310572
 21
-23.4188684615
  0
LINE
  5
2DA
100
AcDbEntity
  8
0
100
AcDbLine
 62
7
  6
CONTINUOUS
 10
7.2325630915
 20
-23.2963860835
 11
7.3739844478
 21
-23.2147311648
  0
LINE
  5
2DB
100
AcDbEntity
  8
0
100
AcDbLine
 62
7
  6
CONTINUOUS
 10
7.5861164821
 20
-23.0922487868
 11
7.7275378384
 21
-23.0105938681
  0
LINE
  5
2DC
100
AcDbEntity
  8
0
100
AcDbLine
 62
7
  6
CONTINUOUS
 10
7.9396698727
 20
-22.8881114901
 11
8.081091229
 21
-22.8064565715
  0
LINE
  5
2DD
100
AcDbEntity
  8
0
100
AcDbLine
 62
7
  6
CONTINUOUS
 10
8.2932232633
 20
-22.6839741935
 11
8.4346446195
 21
-22.6023192748
  0
LINE
  5
2DE
100
AcDbEntity
  8
0
100
AcDbLine
 62
7
  6
CONTINUOUS
 10
8.6467766539
 20
-22.4798368968
 11
8.7881980101
 21
-22.3981819781
  0
LINE
  5
2DF
100
AcDbEntity
  8
0
100
AcDbLine
 62
7
  6
CONTINUOUS
 10
6.2697425873
 20
-23.6217486417
 11
8.8217930128
 21
-22.2949835357
  0
LINE
  5
2E0
100
AcDbEntity
  8
0
100
AcDbLine
 62
7
  6
CONTINUOUS
 10
8.8958401657
 20
-22.2605397396
 11
10.2061944214
 21
-21.7230774129
  0
LINE
  5
2E1
100
AcDbEntity
  8
ASSI
100
AcDbLine
 62
7
  6
CONTINUOUS
 10
28.2133185794
 20
-54.9463231628
 11
28.2133185794
 21
15.8853104365
  0
LINE
  5
2E2
100
AcDbEntity
  8
ASSI
100
AcDbLine
 62
7
  6
CONTINUOUS
 10
29.6517790622
 20
-55.3109410669
 11
29.6517790622
 21
16.2209337653
  0
LINE
  5
2E3
100
AcDbEntity
  8
CURVE
100
AcDbLine
 62
250
  6
CONTINUOUS
 10
30.7826224357
 20
-48.1131914136
 11
30.7826224357
 21
-48.5392198888
  0
LINE
  5
2E4
100
AcDbEntity
  8
CURVE
100
AcDbLine
 62
250
  6
CONTINUOUS
 10
30.7827314074
 20
-50.3757694636
 11
30.7827314074
 21
-49.9129712496
  0
LINE
  5
2E5
100
AcDbEntity
  8
CURVE
100
AcDbLine
 62
250
  6
CONTINUOUS
 10
30.7827314074
 20
-49.1229986991
 11
30.7827314074
 21
-48.6972617039
  0
LINE
  5
2E6
100
AcDbEntity
  8
CURVE
100
AcDbLine
 62
250
  6
CONTINUOUS
 10
30.7827314074
 20
-47.6995015504
 11
30.7827314074
 21
-47.2738257904
  0
LINE
  5
2E7
100
AcDbEntity
  8
CURVE
100
AcDbLine
 62
250
  6
CONTINUOUS
 10
30.7827314074
 20
-46.4262684078
 11
30.7827314074
 21
-46.0047550133
  0
LINE
  5
2E8
100
AcDbEntity
  8
CURVE
100
AcDbLine
 62
250
  6
CONTINUOUS
 10
30.7827314074
 20
-45.1068295793
 11
30.7827314074
 21
-44.6946982448
  0
LINE
  5
2E9
100
AcDbEntity
  8
ASSI
100
AcDbLine
 62
7
  6
CONTINUOUS
 10
28.9442417929
 20
17.4464242627
 11
28.9438793627
 21
17.4218055238
  0
LINE
  5
2EA
100
AcDbEntity
  8
0
100
AcDbLine
 62
7
  6
CONTINUOUS
 10
13.0681302711
 20
-24.7467654495
 11
10.7702537467
 21
-26.2202873805
  0
LINE
  5
2EB
100
AcDbEntity
  8
0
100
AcDbLine
 62
7
  6
CONTINUOUS
 10
11.0830764574
 20
-26.400907293
 11
13.1028090135
 21
-25.214477554
  0
LINE
  5
2EC
100
AcDbEntity
  8
0
100
AcDbLine
 62
7
  6
CONTINUOUS
 10
10.4145436069
 20
-25.9501709401
 11
10.5559649631
 21
-25.8685160214
  0
LINE
  5
2ED
100
AcDbEntity
  8
0
100
AcDbLine
 62
7
  6
CONTINUOUS
 10
10.7680969975
 20
-25.7460336434
 11
10.9095183537
 21
-25.6643787248
  0
LINE
  5
2EE
100
AcDbEntity
  8
0
100
AcDbLine
 62
7
  6
CONTINUOUS
 10
11.1216503881
 20
-25.5418963468
 11
11.2630717443
 21
-25.4602414281
  0
LINE
  5
2EF
100
AcDbEntity
  8
0
100
AcDbLine
 62
7
  6
CONTINUOUS
 10
11.4752037786
 20
-25.3377590501
 11
11.6166251349
 21
-25.2561041314
  0
LINE
  5
2F0
100
AcDbEntity
  8
0
100
AcDbLine
 62
7
  6
CONTINUOUS
 10
11.8287571692
 20
-25.1336217534
 11
11.9701785255
 21
-25.0519668348
  0
LINE
  5
2F1
100
AcDbEntity
  8
0
100
AcDbLine
 62
7
  6
CONTINUOUS
 10
12.1823105598
 20
-24.9294844568
 11
12.3237319161
 21
-24.8478295381
  0
LINE
  5
2F2
100
AcDbEntity
  8
0
100
AcDbLine
 62
7
  6
CONTINUOUS
 10
12.5358639504
 20
-24.7253471601
 11
12.6772853067
 21
-24.6436922414
  0
LINE
  5
2F3
100
AcDbEntity
  8
0
100
AcDbLine
 62
7
  6
CONTINUOUS
 10
12.7833513238
 20
-24.704921594
 11
10.4645418153
 21
-26.0437731427
  0
LINE
  5
2F4
100
AcDbEntity
  8
0
100
AcDbLine
 62
7
  6
CONTINUOUS
 10
13.3953827927
 20
-24.5727178347
 11
13.134802627
 21
-24.7080635381
  0
LINE
  5
2F5
100
AcDbEntity
  8
ASSI
100
AcDbLine
 62
7
  6
CONTINUOUS
 10
29.6302777103
 20
16.2329287127
 11
29.6517790622
 21
16.2209337653
  0
LINE
  5
2F6
100
AcDbEntity
  8
ASSI
100
AcDbLine
 62
7
  6
CONTINUOUS
 10
27.9343426453
 20
16.368510928
 11
-33.4096276917
 21
51.7877505801
  0
LINE
  5
2F7
100
AcDbEntity
  8
ASSI
100
AcDbLine
 62
7
  6
CONTINUOUS
 10
28.9442417929
 20
17.4464242627
 11
-33.0061747777
 21
53.2158183695
  0
LINE
  5
2F8
100
AcDbEntity
  8
CURVE
100
AcDbLine
 62
250
  6
CONTINUOUS
 10
31.5960561922
 20
-42.8518072462
 11
31.5960561922
 21
-43.0952782374
  0
LINE
  5
2F9
100
AcDbEntity
  8
CURVE
100
AcDbLine
 62
250
  6
CONTINUOUS
 10
31.89546968
 20
-42.9199408118
 11
31.89546968
 21
-42.691514577
  0
LINE
  5
2FA
100
AcDbEntity
  8
CURVE
100
AcDbLine
 62
250
  6
CONTINUOUS
 10
31.9635370636
 20
-44.4851225515
 11
31.9635370636
 21
-44.0772303306
  0
LINE
  5
2FB
100
AcDbEntity
  8
CURVE
100
AcDbLine
 62
250
  6
CONTINUOUS
 10
32.2459507582
 20
-43.840030916
 11
32.2459507582
 21
-44.4202106124
  0
LINE
  5
2FC
100
AcDbEntity
  8
CURVE
100
AcDbLine
 62
250
  6
CONTINUOUS
 10
32.6109225841
 20
-47.554821909
 11
32.6109225841
 21
-47.1287934339
  0
LINE
  5
2FD
100
AcDbEntity
  8
CURVE
100
AcDbLine
 62
250
  6
CONTINUOUS
 10
32.6109225961
 20
-42.9590390137
 11
32.6109225961
 21
-42.5347248472
  0
LINE
  5
2FE
100
AcDbEntity
  8
CURVE
100
AcDbLine
 62
250
  6
CONTINUOUS
 10
32.6109225961
 20
-41.8823211546
 11
32.6109225961
 21
-41.4725313766
  0
LINE
  5
2FF
100
AcDbEntity
  8
CURVE
100
AcDbLine
 62
250
  6
CONTINUOUS
 10
32.6109225841
 20
-43.0841417485
 11
32.6109225841
 21
-43.5331579443
  0
LINE
  5
300
100
AcDbEntity
  8
CURVE
100
AcDbLine
 62
250
  6
CONTINUOUS
 10
32.6109225841
 20
-44.3412594007
 11
32.6109225841
 21
-44.7626650212
  0
LINE
  5
301
100
AcDbEntity
  8
CURVE
100
AcDbLine
 62
250
  6
CONTINUOUS
 10
32.6109225841
 20
-44.8295633298
 11
32.6109225841
 21
-45.2463322155
  0
LINE
  5
302
100
AcDbEntity
  8
CURVE
100
AcDbLine
 62
250
  6
CONTINUOUS
 10
32.6109225841
 20
-45.8404082359
 11
32.6109225841
 21
-45.9001591637
  0
LINE
  5
303
100
AcDbEntity
  8
CURVE
100
AcDbLine
 62
250
  6
CONTINUOUS
 10
32.6109225841
 20
-46.491878851
 11
32.6109225841
 21
-46.8994493826
  0
LINE
  5
304
100
AcDbEntity
  8
CURVE
100
AcDbLine
 62
250
  6
CONTINUOUS
 10
32.6109225841
 20
-48.3689685114
 11
32.6109225841
 21
-48.7444060388
  0
LINE
  5
305
100
AcDbEntity
  8
ASSI
100
AcDbLine
 62
7
  6
CONTINUOUS
 10
33.713712047
 20
-53.2821625527
 11
33.713712047
 21
18.5662276674
  0
LINE
  5
306
100
AcDbEntity
  8
ASSI
100
AcDbLine
 62
250
  6
CONTINUOUS
 10
13.0917487244
 20
-29.1805387356
 11
13.3953827927
 21
-28.9525032516
  0
LINE
  5
307
100
AcDbEntity
  8
ASSI
100
AcDbLine
 62
7
  6
CONTINUOUS
 10
13.3542662908
 20
-29.1971660014
 11
13.3538739692
 21
-29.1974597568
  0
LINE
  5
308
100
AcDbEntity
  8
ASSI
100
AcDbLine
 62
7
  6
CONTINUOUS
 10
33.0061747777
 20
19.7917181648
 11
-29.2183609905
 21
55.7193852608
  0
LINE
  5
309
100
AcDbEntity
  8
ASSI
100
AcDbLine
 62
7
  6
CONTINUOUS
 10
28.2133185794
 20
15.8853104365
 11
27.9343426453
 21
16.368510928
  0
LINE
  5
30A
100
AcDbEntity
  8
ASSI
100
AcDbLine
 62
7
  6
CONTINUOUS
 10
29.6302777103
 20
16.2329287127
 11
28.9438793627
 21
17.4218055238
  0
LINE
  5
30B
100
AcDbEntity
  8
ASSI
100
AcDbLine
 62
7
  6
CONTINUOUS
 10
33.0061747777
 20
19.7917181648
 11
33.713712047
 21
18.5662276674
  0
LINE
  5
30C
100
AcDbEntity
  8
CURVE
100
AcDbLine
 62
7
  6
CONTINUOUS
 10
30.8607841149
 20
-42.7687319902
 11
31.3874815558
 21
-42.2420345492
  0
LINE
  5
30D
100
AcDbEntity
  8
CURVE
100
AcDbLine
 62
7
  6
CONTINUOUS
 10
30.7850901359
 20
-43.0544366832
 11
31.6145461076
 21
-42.2249807115
  0
LINE
  5
30E
100
AcDbEntity
  8
CURVE
100
AcDbLine
 62
7
  6
CONTINUOUS
 10
30.7644702576
 20
-43.2850672755
 11
31.1022828543
 21
-42.9472546788
  0
LINE
  5
30F
100
AcDbEntity
  8
CURVE
100
AcDbLine
 62
7
  6
CONTINUOUS
 10
31.4141373894
 20
-42.6354001437
 11
31.7399997296
 21
-42.3095378034
  0
LINE
  5
310
100
AcDbEntity
  8
CURVE
100
AcDbLine
 62
7
  6
CONTINUOUS
 10
31.776322567
 20
-42.2732149661
 11
32.4092988075
 21
-41.6402387256
  0
LINE
  5
311
100
AcDbEntity
  8
CURVE
100
AcDbLine
 62
7
  6
CONTINUOUS
 10
30.7634180911
 20
-43.496130156
 11
31.0771187586
 21
-43.1824294885
  0
LINE
  5
312
100
AcDbEntity
  8
CURVE
100
AcDbLine
 62
7
  6
CONTINUOUS
 10
31.565148036
 20
-42.6944002111
 11
32.6109225961
 21
-41.648625651
  0
LINE
  5
313
100
AcDbEntity
  8
CURVE
100
AcDbLine
 62
7
  6
CONTINUOUS
 10
30.7757016827
 20
-43.6938572784
 11
31.1155832925
 21
-43.3539756686
  0
LINE
  5
314
100
AcDbEntity
  8
CURVE
100
AcDbLine
 62
7
  6
CONTINUOUS
 10
31.5960561922
 20
-42.8735027689
 11
31.9322946391
 21
-42.537264322
  0
LINE
  5
315
100
AcDbEntity
  8
CURVE
100
AcDbLine
 62
7
  6
CONTINUOUS
 10
32.4369571594
 20
-42.0326018017
 11
32.6109225961
 21
-41.858636365
  0
LINE
  5
316
100
AcDbEntity
  8
CURVE
100
AcDbLine
 62
250
  6
CONTINUOUS
 10
31.7575393183
 20
-42.3232217351
 11
31.7467363042
 21
-42.3290383212
  0
LINE
  5
317
100
AcDbEntity
  8
CURVE
100
AcDbLine
 62
7
  6
CONTINUOUS
 10
30.7974989661
 20
-43.882070709
 11
31.5705680453
 21
-43.1090016298
  0
LINE
  5
318
100
AcDbEntity
  8
CURVE
100
AcDbLine
 62
7
  6
CONTINUOUS
 10
31.5960561922
 20
-43.0835134829
 11
31.89546968
 21
-42.7840999951
  0
LINE
  5
319
100
AcDbEntity
  8
CURVE
100
AcDbLine
 62
7
  6
CONTINUOUS
 10
31.1368878882
 20
-43.7526925009
 11
32.0561575409
 21
-42.8334228482
  0
LINE
  5
31A
100
AcDbEntity
  8
CURVE
100
AcDbLine
 62
7
  6
CONTINUOUS
 10
31.591872641
 20
-43.5077184621
 11
32.5111422937
 21
-42.5884488094
  0
LINE
  5
31B
100
AcDbEntity
  8
CURVE
100
AcDbLine
 62
7
  6
CONTINUOUS
 10
32.0468573938
 20
-43.2627444233
 11
32.6109225961
 21
-42.698679221
  0
LINE
  5
31C
100
AcDbEntity
  8
CURVE
100
AcDbLine
 62
7
  6
CONTINUOUS
 10
30.7827314074
 20
-44.7368811238
 11
31.1370791935
 21
-44.3825333377
  0
LINE
  5
31D
100
AcDbEntity
  8
CURVE
100
AcDbLine
 62
7
  6
CONTINUOUS
 10
32.5018421466
 20
-43.0177703845
 11
32.6109225961
 21
-42.908689935
  0
LINE
  5
31E
100
AcDbEntity
  8
CURVE
100
AcDbLine
 62
7
  6
CONTINUOUS
 10
30.7827314074
 20
-44.9468918378
 11
32.6109225841
 21
-43.1187006611
  0
LINE
  5
31F
100
AcDbEntity
  8
CURVE
100
AcDbLine
 62
7
  6
CONTINUOUS
 10
30.844416936
 20
-45.0952170232
 11
31.3060796657
 21
-44.6335542935
  0
LINE
  5
320
100
AcDbEntity
  8
CURVE
100
AcDbLine
 62
7
  6
CONTINUOUS
 10
31.3790695426
 20
-44.5605644166
 11
32.6109225841
 21
-43.3287113751
  0
LINE
  5
321
100
AcDbEntity
  8
CURVE
100
AcDbLine
 62
7
  6
CONTINUOUS
 10
31.103131793
 20
-45.0465128802
 11
31.5773294464
 21
-44.5723152268
  0
LINE
  5
322
100
AcDbEntity
  8
CURVE
100
AcDbLine
 62
7
  6
CONTINUOUS
 10
31.9635370636
 20
-44.1861076096
 11
32.2459507582
 21
-43.903693915
  0
LINE
  5
323
100
AcDbEntity
  8
CURVE
100
AcDbLine
 62
7
  6
CONTINUOUS
 10
31.36184665
 20
-44.9978087373
 11
31.8485792272
 21
-44.51107616
  0
LINE
  5
324
100
AcDbEntity
  8
CURVE
100
AcDbLine
 62
7
  6
CONTINUOUS
 10
31.9635370636
 20
-44.3961183236
 11
32.2459507582
 21
-44.113704629
  0
LINE
  5
325
100
AcDbEntity
  8
CURVE
100
AcDbLine
 62
7
  6
CONTINUOUS
 10
31.6205615069
 20
-44.9491045943
 11
32.2459507582
 21
-44.323715343
  0
LINE
  5
326
100
AcDbEntity
  8
CURVE
100
AcDbLine
 62
7
  6
CONTINUOUS
 10
31.8792763639
 20
-44.9004004513
 11
32.3908002447
 21
-44.3888765705
  0
LINE
  5
327
100
AcDbEntity
  8
CURVE
100
AcDbLine
 62
7
  6
CONTINUOUS
 10
30.7827314074
 20
-46.2069561219
 11
31.3488302887
 21
-45.6408572405
  0
LINE
  5
328
100
AcDbEntity
  8
CURVE
100
AcDbLine
 62
7
  6
CONTINUOUS
 10
32.1379912209
 20
-44.8516963083
 11
32.6109225841
 21
-44.3787649452
  0
LINE
  5
329
100
AcDbEntity
  8
CURVE
100
AcDbLine
 62
7
  6
CONTINUOUS
 10
30.7827314074
 20
-46.4169668359
 11
31.9367935849
 21
-45.2629046584
  0
LINE
  5
32A
100
AcDbEntity
  8
CURVE
100
AcDbLine
 62
7
  6
CONTINUOUS
 10
32.3967060779
 20
-44.8029921654
 11
32.6109225841
 21
-44.5887756592
  0
LINE
  5
32B
100
AcDbEntity
  8
CURVE
100
AcDbLine
 62
7
  6
CONTINUOUS
 10
31.0104728123
 20
-46.399236145
 11
31.4374992013
 21
-45.972209756
  0
LINE
  5
32C
100
AcDbEntity
  8
CURVE
100
AcDbLine
 62
7
  6
CONTINUOUS
 10
31.457303528
 20
-45.9524054293
 11
32.524756881
 21
-44.8849520763
  0
LINE
  5
32D
100
AcDbEntity
  8
CURVE
100
AcDbLine
 62
7
  6
CONTINUOUS
 10
31.2487685598
 20
-46.3709511114
 11
31.6740836003
 21
-45.9456360709
  0
LINE
  5
32E
100
AcDbEntity
  8
CURVE
100
AcDbLine
 62
7
  6
CONTINUOUS
 10
31.9986388254
 20
-45.6210808458
 11
32.6109225841
 21
-45.0087970872
  0
LINE
  5
32F
100
AcDbEntity
  8
CURVE
100
AcDbLine
 62
7
  6
CONTINUOUS
 10
31.4870643074
 20
-46.3426660779
 11
31.9106679994
 21
-45.9190623859
  0
LINE
  5
330
100
AcDbEntity
  8
CURVE
100
AcDbLine
 62
7
  6
CONTINUOUS
 10
32.5399741229
 20
-45.2897562624
 11
32.6109225841
 21
-45.2188078012
  0
LINE
  5
331
100
AcDbEntity
  8
CURVE
100
AcDbLine
 62
7
  6
CONTINUOUS
 10
31.725360055
 20
-46.3143810443
 11
32.1472523985
 21
-45.8924887008
  0
LINE
  5
332
100
AcDbEntity
  8
CURVE
100
AcDbLine
 62
7
  6
CONTINUOUS
 10
30.7827314074
 20
-47.4670204059
 11
32.3838367976
 21
-45.8659150158
  0
LINE
  5
333
100
AcDbEntity
  8
CURVE
100
AcDbLine
 62
7
  6
CONTINUOUS
 10
30.7827314074
 20
-47.67703112
 11
32.6109225841
 21
-45.8488399433
  0
LINE
  5
334
100
AcDbEntity
  8
CURVE
100
AcDbLine
 62
7
  6
CONTINUOUS
 10
31.1162072203
 20
-47.5535660211
 11
31.806920996
 21
-46.8628522453
  0
LINE
  5
335
100
AcDbEntity
  8
CURVE
100
AcDbLine
 62
7
  6
CONTINUOUS
 10
31.4896389557
 20
-47.3901449997
 11
32.1968469871
 21
-46.6829369683
  0
LINE
  5
336
100
AcDbEntity
  8
CURVE
100
AcDbLine
 62
7
  6
CONTINUOUS
 10
30.7826224357
 20
-48.3071722337
 11
31.2028786872
 21
-47.8869159821
  0
LINE
  5
337
100
AcDbEntity
  8
CURVE
100
AcDbLine
 62
7
  6
CONTINUOUS
 10
31.8630706912
 20
-47.2267239782
 11
32.5867729781
 21
-46.5030216913
  0
LINE
  5
338
100
AcDbEntity
  8
CURVE
100
AcDbLine
 62
7
  6
CONTINUOUS
 10
30.7826224357
 20
-48.5171829477
 11
31.65786344
 21
-47.6419419433
  0
LINE
  5
339
100
AcDbEntity
  8
CURVE
100
AcDbLine
 62
7
  6
CONTINUOUS
 10
32.2365024266
 20
-47.0633029568
 11
32.6109225841
 21
-46.6888827993
  0
LINE
  5
33A
100
AcDbEntity
  8
CURVE
100
AcDbLine
 62
7
  6
CONTINUOUS
 10
30.7827314074
 20
-48.72708469
 11
30.8190819597
 21
-48.6907341377
  0
LINE
  5
33B
100
AcDbEntity
  8
CURVE
100
AcDbLine
 62
7
  6
CONTINUOUS
 10
31.1898645186
 20
-48.3199515788
 11
32.1128481928
 21
-47.3969679045
  0
LINE
  5
33C
100
AcDbEntity
  8
CURVE
100
AcDbLine
 62
7
  6
CONTINUOUS
 10
32.6099341621
 20
-46.8998819353
 11
32.6109225841
 21
-46.8988935133
  0
LINE
  5
33D
100
AcDbEntity
  8
CURVE
100
AcDbLine
 62
7
  6
CONTINUOUS
 10
30.7827314074
 20
-48.937095404
 11
31.0750591917
 21
-48.6447676197
  0
LINE
  5
33E
100
AcDbEntity
  8
CURVE
100
AcDbLine
 62
7
  6
CONTINUOUS
 10
31.6448492714
 20
-48.07497754
 11
32.5678329457
 21
-47.1519938658
  0
LINE
  5
33F
100
AcDbEntity
  8
CURVE
100
AcDbLine
 62
7
  6
CONTINUOUS
 10
30.8136312596
 20
-49.1162062659
 11
31.3310364238
 21
-48.5988011017
  0
LINE
  5
340
100
AcDbEntity
  8
CURVE
100
AcDbLine
 62
7
  6
CONTINUOUS
 10
32.0998340242
 20
-47.8300035012
 11
32.6109225841
 21
-47.3189149414
  0
LINE
  5
341
100
AcDbEntity
  8
CURVE
100
AcDbLine
 62
7
  6
CONTINUOUS
 10
31.0828139559
 20
-49.0570342835
 11
31.5870136558
 21
-48.5528345836
  0
LINE
  5
342
100
AcDbEntity
  8
CURVE
100
AcDbLine
 62
7
  6
CONTINUOUS
 10
32.554818777
 20
-47.5850294624
 11
32.6109225841
 21
-47.5289256554
  0
LINE
  5
343
100
AcDbEntity
  8
CURVE
100
AcDbLine
 62
7
  6
CONTINUOUS
 10
31.3519966523
 20
-48.9978623012
 11
31.8429908879
 21
-48.5068680656
  0
LINE
  5
344
100
AcDbEntity
  8
CURVE
100
AcDbLine
 62
7
  6
CONTINUOUS
 10
31.6211793486
 20
-48.9386903188
 11
32.0989681199
 21
-48.4609015475
  0
LINE
  5
345
100
AcDbEntity
  8
CURVE
100
AcDbLine
 62
250
  6
CONTINUOUS
 10
32.6109225841
 20
-45.9001591637
 11
31.417148564
 21
-47.0426966689
  0
LINE
  5
346
100
AcDbEntity
  8
CURVE
100
AcDbLine
 62
250
  6
CONTINUOUS
 10
30.7827314074
 20
-47.2738257904
 11
31.7977486871
 21
-46.3057887178
  0
LINE
  5
347
100
AcDbEntity
  8
CURVE
100
AcDbLine
 62
250
  6
CONTINUOUS
 10
30.7827314074
 20
-44.6946982448
 11
32.6109225841
 21
-43.0841417485
  0
LINE
  5
348
100
AcDbEntity
  8
CURVE
100
AcDbLine
 62
250
  6
CONTINUOUS
 10
32.6109225841
 20
-43.5331579443
 11
32.2459507582
 21
-43.840030916
  0
LINE
  5
349
100
AcDbEntity
  8
CURVE
100
AcDbLine
 62
250
  6
CONTINUOUS
 10
31.9635370636
 20
-44.0772303306
 11
31.2850719363
 21
-44.6382971314
  0
LINE
  5
34A
100
AcDbEntity
  8
CURVE
100
AcDbLine
 62
250
  6
CONTINUOUS
 10
30.7827314074
 20
-46.0047550133
 11
32.6109225841
 21
-44.8295633298
  0
LINE
  5
34B
100
AcDbEntity
  8
CURVE
100
AcDbLine
 62
250
  6
CONTINUOUS
 10
32.6109225841
 20
-45.2463322155
 11
31.4221246946
 21
-45.9739366547
  0
LINE
  5
34C
100
AcDbEntity
  8
CURVE
100
AcDbLine
 62
250
  6
CONTINUOUS
 10
32.6109225961
 20
-42.5347248472
 11
31.89546968
 21
-42.9199408118
  0
LINE
  5
34D
100
AcDbEntity
  8
CURVE
100
AcDbLine
 62
250
  6
CONTINUOUS
 10
31.5960561922
 20
-43.0952782374
 11
31.0941821556
 21
-43.3654985228
  0
LINE
  5
34E
100
AcDbEntity
  8
CURVE
100
AcDbLine
 62
250
  6
CONTINUOUS
 10
30.8040910657
 20
-43.9318778059
 11
32.6109225961
 21
-42.9590390137
  0
LINE
  5
34F
100
AcDbEntity
  8
CURVE
100
AcDbLine
 62
250
  6
CONTINUOUS
 10
32.6109225841
 20
-47.1287934339
 11
30.7826224357
 21
-48.1131914136
  0
LINE
  5
350
100
AcDbEntity
  8
CURVE
100
AcDbLine
 62
250
  6
CONTINUOUS
 10
31.417148564
 20
-47.0426966689
 11
32.6109225841
 21
-46.491878851
  0
LINE
  5
351
100
AcDbEntity
  8
CURVE
100
AcDbLine
 62
250
  6
CONTINUOUS
 10
32.6109225841
 20
-46.8994493826
 11
30.7827314074
 21
-47.6995015504
  0
LINE
  5
352
100
AcDbEntity
  8
CURVE
100
AcDbLine
 62
7
  6
CONTINUOUS
 10
30.7827314074
 20
-49.9871489741
 11
31.2693979713
 21
-49.5004824102
  0
LINE
  5
353
100
AcDbEntity
  8
CURVE
100
AcDbLine
 62
7
  6
CONTINUOUS
 10
31.890362045
 20
-48.8795183365
 11
32.354945352
 21
-48.4149350295
  0
LINE
  5
354
100
AcDbEntity
  8
CURVE
100
AcDbLine
 62
7
  6
CONTINUOUS
 10
30.7827314074
 20
-50.1971596881
 11
32.6109225841
 21
-48.3689685114
  0
LINE
  5
355
100
AcDbEntity
  8
CURVE
100
AcDbLine
 62
7
  6
CONTINUOUS
 10
31.0743921012
 20
-50.1155097083
 11
32.6109225841
 21
-48.5789792254
  0
LINE
  5
356
100
AcDbEntity
  8
CURVE
100
AcDbLine
 62
250
  6
CONTINUOUS
 10
32.6109225841
 20
-48.7444060388
 11
30.7827314074
 21
-50.3757694636
  0
LINE
  5
357
100
AcDbEntity
  8
CURVE
100
AcDbLine
 62
250
  6
CONTINUOUS
 10
30.7827314074
 20
-49.9129712496
 11
32.0411322287
 21
-48.8463758992
  0
LINE
  5
358
100
AcDbEntity
  8
ASSI
100
AcDbLine
 62
7
  6
CONTINUOUS
 10
27.9343426453
 20
-55.1073692384
 11
28.2133185794
 21
-54.9463231628
  0
LINE
  5
359
100
AcDbEntity
  8
ASSI
100
AcDbLine
 62
7
  6
CONTINUOUS
 10
28.9438793627
 20
-55.7187438231
 11
29.6302777103
 21
-55.3225026187
  0
LINE
  5
35A
100
AcDbEntity
  8
ASSI
100
AcDbLine
 62
7
  6
CONTINUOUS
 10
33.713712047
 20
-53.2821625527
 11
33.0061747777
 21
-53.6906067465
  0
LINE
  5
35B
100
AcDbEntity
  8
CURVE
100
AcDbLine
 62
250
  6
CONTINUOUS
 10
30.7826224357
 20
-48.5392198888
 11
32.6109225841
 21
-47.554821909
  0
LINE
  5
35C
100
AcDbEntity
  8
ASSI
100
AcDbLine
 62
7
  6
CONTINUOUS
 10
29.6517790622
 20
-55.3109410669
 11
29.6302777103
 21
-55.3225026187
  0
LINE
  5
35D
100
AcDbEntity
  8
ASSI
100
AcDbLine
 62
7
  6
CONTINUOUS
 10
29.6517790622
 20
-55.3109410669
 11
33.713712047
 21
-53.2821625527
  0
LINE
  5
35E
100
AcDbEntity
  8
ASSI
100
AcDbLine
 62
7
  6
CONTINUOUS
 10
28.9442417929
 20
-55.7193852608
 11
33.0061747777
 21
-53.6906067465
  0
ARC
  5
35F
100
AcDbEntity
  8
0
100
AcDbCircle
 62
250
  6
CONTINUOUS
 10
-16.1753364126
 20
14.7484289349
 40
0.5343959438
100
AcDbArc
 50
131.2656118023
 51
134.5866854845
  0
ARC
  5
360
100
AcDbEntity
  8
0
100
AcDbCircle
 62
250
  6
CONTINUOUS
 10
-16.2114810721
 20
14.7897662547
 40
0.4794851048
100
AcDbArc
 50
127.6108623855
 51
131.2770303212
  0
ARC
  5
361
100
AcDbEntity
  8
0
100
AcDbCircle
 62
7
  6
CONTINUOUS
 10
-3.7451399819
 20
-16.4064289163
 40
0.3
100
AcDbArc
 50
300.1089856529
 51
314.2001404966
  0
ARC
  5
362
100
AcDbEntity
  8
0
100
AcDbCircle
 62
250
  6
CONTINUOUS
 10
-3.6448047133
 20
-16.5792697252
 40
0.1003697724
100
AcDbArc
 50
300.1329191527
 51
304.4937070439
  0
ARC
  5
363
100
AcDbEntity
  8
0
100
AcDbCircle
 62
250
  6
CONTINUOUS
 10
-16.5409227421
 20
2.481439234
 40
0.0999532366
100
AcDbArc
 50
301.7336154005
 51
303.954838937
  0
ARC
  5
364
100
AcDbEntity
  8
0
100
AcDbCircle
 62
250
  6
CONTINUOUS
 10
-16.5409227421
 20
21.6684907387
 40
0.0999532367
100
AcDbArc
 50
301.7336154008
 51
303.9548389369
  0
ARC
  5
365
100
AcDbEntity
  8
0
100
AcDbCircle
 62
250
  6
CONTINUOUS
 10
-16.4549549786
 20
15.332938292
 40
0.0950228338
100
AcDbArc
 50
355.4908156177
 51
0.0004229823
  0
SPLINE
  5
366
100
AcDbEntity
  8
0
100
AcDbSpline
 62
250
  6
CONTINUOUS
 70
0
 71
3
 72
11
 73
7
 74
0
 42
0.0000001
 43
0.0000001
 44
0.0000000001
 40
0.0
 40
0.0
 40
0.0
 40
0.0
 40
0.2135230831
 40
0.4447979518
 40
0.7056236396
 40
1.0
 40
1.0
 40
1.0
 40
1.0
 10
-16.3599324338
 20
3.3275846551
 30
0.0
 10
-16.3599345319
 20
3.3188555501
 30
0.0
 10
-16.3633364616
 20
3.3005464555
 30
0.0
 10
-16.3778002612
 20
3.2751134275
 30
0.0
 10
-16.4006280699
 20
3.2520767121
 30
0.0
 10
-16.4196104677
 20
3.239388267
 30
0.0
 10
-16.4300871369
 20
3.2334664054
 30
0.0
  0
SPLINE
  5
367
100
AcDbEntity
  8
0
100
AcDbSpline
 62
250
  6
CONTINUOUS
 70
0
 71
3
 72
9
 73
5
 74
0
 42
0.0000001
 43
0.0000001
 44
0.0000000001
 40
0.0
 40
0.0
 40
0.0
 40
0.0
 40
0.4810829056
 40
1.0
 40
1.0
 40
1.0
 40
1.0
 10
-16.5045423796
 20
3.5285670116
 30
0.0
 10
-16.5159587048
 20
3.5328359775
 30
0.0
 10
-16.5417893006
 20
3.5366743892
 30
0.0
 10
-16.5669709839
 20
3.5307020884
 30
0.0
 10
-16.5792032676
 20
3.5258841335
 30
0.0
  0
SPLINE
  5
368
100
AcDbEntity
  8
0
100
AcDbSpline
 62
250
  6
CONTINUOUS
 70
0
 71
3
 72
11
 73
7
 74
0
 42
0.0000001
 43
0.0000001
 44
0.0000000001
 40
0.0
 40
0.0
 40
0.0
 40
0.0
 40
0.2187182252
 40
0.4522864215
 40
0.7114901518
 40
1.0
 40
1.0
 40
1.0
 40
1.0
 10
-16.359933156
 20
2.6316350146
 30
0.0
 10
-16.3599374595
 20
2.6223320542
 30
0.0
 10
-16.3632770366
 20
2.6029687624
 30
0.0
 10
-16.3776629442
 20
2.5758849795
 30
0.0
 10
-16.4004522849
 20
2.5513039225
 30
0.0
 10
-16.4195546965
 20
2.5377068934
 30
0.0
 10
-16.4300871369
 20
2.5314095224
 30
0.0
  0
SPLINE
  5
369
100
AcDbEntity
  8
0
100
AcDbSpline
 62
250
  6
CONTINUOUS
 70
0
 71
3
 72
11
 73
7
 74
0
 42
0.0000001
 43
0.0000001
 44
0.0000000001
 40
0.0
 40
0.0
 40
0.0
 40
0.0
 40
0.2187065998
 40
0.4522834144
 40
0.7114952418
 40
1.0
 40
1.0
 40
1.0
 40
1.0
 10
-16.5203729772
 20
-2.8804019708
 30
0.0
 10
-16.5284307888
 20
-2.8757635413
 30
0.0
 10
-16.546864286
 20
-2.8689917606
 30
0.0
 10
-16.5774960964
 20
-2.8679239458
 30
0.0
 10
-16.6101591611
 20
-2.875374267
 30
0.0
 10
-16.6314732208
 20
-2.885115936
 30
0.0
 10
-16.6421868626
 20
-2.8910859215
 30
0.0
  0
SPLINE
  5
36A
100
AcDbEntity
  8
0
100
AcDbSpline
 62
250
  6
CONTINUOUS
 70
0
 71
3
 72
11
 73
7
 74
0
 42
0.0000001
 43
0.0000001
 44
0.0000000001
 40
0.0
 40
0.0
 40
0.0
 40
0.0
 40
0.2187168115
 40
0.4522948518
 40
0.7115022157
 40
1.0
 40
1.0
 40
1.0
 40
1.0
 10
-16.3599331971
 20
-3.158280796
 30
0.0
 10
-16.359943362
 20
-3.1675798799
 30
0.0
 10
-16.3632923739
 20
-3.1869332429
 30
0.0
 10
-16.3776812693
 20
-3.2140011038
 30
0.0
 10
-16.4004648316
 20
-3.2385683819
 30
0.0
 10
-16.4195594518
 20
-3.2521588957
 30
0.0
 10
-16.4300871369
 20
-3.2584534222
 30
0.0
  0
SPLINE
  5
36B
100
AcDbEntity
  8
0
100
AcDbSpline
 62
250
  6
CONTINUOUS
 70
0
 71
3
 72
11
 73
7
 74
0
 42
0.0000001
 43
0.0000001
 44
0.0000000001
 40
0.0
 40
0.0
 40
0.0
 40
0.0
 40
0.2187182252
 40
0.4522864215
 40
0.7114901518
 40
1.0
 40
1.0
 40
1.0
 40
1.0
 10
-16.359933156
 20
21.8186865193
 30
0.0
 10
-16.3599374595
 20
21.8093835588
 30
0.0
 10
-16.3632770366
 20
21.790020267
 30
0.0
 10
-16.3776629442
 20
21.7629364842
 30
0.0
 10
-16.4004522849
 20
21.7383554271
 30
0.0
 10
-16.4195546965
 20
21.724758398
 30
0.0
 10
-16.4300871369
 20
21.718461027
 30
0.0
  0
SPLINE
  5
36C
100
AcDbEntity
  8
0
100
AcDbSpline
 62
250
  6
CONTINUOUS
 70
0
 71
3
 72
11
 73
7
 74
0
 42
0.0000001
 43
0.0000001
 44
0.0000000001
 40
0.0
 40
0.0
 40
0.0
 40
0.0
 40
0.2187065998
 40
0.4522834144
 40
0.7114952418
 40
1.0
 40
1.0
 40
1.0
 40
1.0
 10
-16.5203729772
 20
16.3066495339
 30
0.0
 10
-16.5284307888
 20
16.3112879633
 30
0.0
 10
-16.546864286
 20
16.318059744
 30
0.0
 10
-16.5774960964
 20
16.3191275588
 30
0.0
 10
-16.6101591611
 20
16.3116772376
 30
0.0
 10
-16.6314732208
 20
16.3019355686
 30
0.0
 10
-16.6421868626
 20
16.2959655831
 30
0.0
  0
SPLINE
  5
36D
100
AcDbEntity
  8
0
100
AcDbSpline
 62
250
  6
CONTINUOUS
 70
0
 71
3
 72
11
 73
7
 74
0
 42
0.0000001
 43
0.0000001
 44
0.0000000001
 40
0.0
 40
0.0
 40
0.0
 40
0.0
 40
0.2187168115
 40
0.4522948518
 40
0.7115022157
 40
1.0
 40
1.0
 40
1.0
 40
1.0
 10
-16.3599331971
 20
16.0287707086
 30
0.0
 10
-16.359943362
 20
16.0194716248
 30
0.0
 10
-16.3632923739
 20
16.0001182617
 30
0.0
 10
-16.3776812693
 20
15.9730504008
 30
0.0
 10
-16.4004648316
 20
15.9484831227
 30
0.0
 10
-16.4195594518
 20
15.9348926089
 30
0.0
 10
-16.4300871369
 20
15.9285980825
 30
0.0
  0
SPLINE
  5
36E
100
AcDbEntity
  8
0
100
AcDbSpline
 62
250
  6
CONTINUOUS
 70
0
 71
3
 72
15
 73
11
 74
0
 42
0.0000001
 43
0.0000001
 44
0.0000000001
 40
0.0
 40
0.0
 40
0.0
 40
0.0
 40
0.1360630255
 40
0.2584608452
 40
0.3709966103
 40
0.4800038841
 40
0.5925998902
 40
0.7147437852
 40
0.8502016602
 40
1.0
 40
1.0
 40
1.0
 40
1.0
 10
-16.5041086061
 20
3.2018905363
 30
0.0
 10
-16.5197677185
 20
3.1952124731
 30
0.0
 10
-16.5507457477
 20
3.1850683476
 30
0.0
 10
-16.5974638395
 20
3.1809150482
 30
0.0
 10
-16.6403572153
 20
3.1892483463
 30
0.0
 10
-16.6774611302
 20
3.2100434997
 30
0.0
 10
-16.7070082757
 20
3.2421651509
 30
0.0
 10
-16.7282095852
 20
3.2838744996
 30
0.0
 10
-16.7408131515
 20
3.3335970931
 30
0.0
 10
-16.7433360432
 20
3.3693772049
 30
0.0
 10
-16.7433372862
 20
3.3881193505
 30
0.0
  0
SPLINE
  5
36F
100
AcDbEntity
  8
0
100
AcDbSpline
 62
250
  6
CONTINUOUS
 70
0
 71
3
 72
9
 73
5
 74
0
 42
0.0000001
 43
0.0000001
 44
0.0000000001
 40
0.0
 40
0.0
 40
0.0
 40
0.0
 40
0.2335424333
 40
1.0
 40
1.0
 40
1.0
 40
1.0
 10
-16.7433372862
 20
14.6973023322
 30
0.0
 10
-16.7433365987
 20
14.7106079434
 30
0.0
 10
-16.7404474918
 20
14.7675734849
 30
0.0
 10
-16.7273525488
 20
14.8237673527
 30
0.0
 10
-16.7133669259
 20
14.8651345199
 30
0.0
  0
SPLINE
  5
370
100
AcDbEntity
  8
0
100
AcDbSpline
 62
250
  6
CONTINUOUS
 70
0
 71
3
 72
9
 73
5
 74
0
 42
0.0000001
 43
0.0000001
 44
0.0000000001
 40
0.0
 40
0.0
 40
0.0
 40
0.0
 40
0.2472658035
 40
1.0
 40
1.0
 40
1.0
 40
1.0
 10
-16.7133669259
 20
14.8651345199
 30
0.0
 10
-16.7076424813
 20
14.8820664834
 30
0.0
 10
-16.6816930637
 20
14.9495630462
 30
0.0
 10
-16.6453480811
 20
15.013078843
 30
0.0
 10
-16.6129439945
 20
15.0567884096
 30
0.0
  0
SPLINE
  5
371
100
AcDbEntity
  8
0
100
AcDbSpline
 62
250
  6
CONTINUOUS
 70
0
 71
3
 72
9
 73
5
 74
0
 42
0.0000001
 43
0.0000001
 44
0.0000000001
 40
0.0
 40
0.0
 40
0.0
 40
0.0
 40
0.2552143832
 40
1.0
 40
1.0
 40
1.0
 40
1.0
 10
-16.6129439945
 20
15.0567884096
 30
0.0
 10
-16.6081030866
 20
15.0633182646
 30
0.0
 10
-16.5886740316
 20
15.0885566986
 30
0.0
 10
-16.5673771843
 20
15.1123753369
 30
0.0
 10
-16.5504757236
 20
15.1290199517
 30
0.0
  0
SPLINE
  5
372
100
AcDbEntity
  8
0
100
AcDbSpline
 62
250
  6
CONTINUOUS
 70
0
 71
3
 72
9
 73
5
 74
0
 42
0.0000001
 43
0.0000001
 44
0.0000000001
 40
0.0
 40
0.0
 40
0.0
 40
0.0
 40
0.480833352
 40
1.0
 40
1.0
 40
1.0
 40
1.0
 10
-3.5879637336
 20
-16.6619933266
 30
0.0
 10
-3.5787300109
 20
-16.6556491604
 30
0.0
 10
-3.561693156
 20
-16.6390844461
 30
0.0
 10
-3.5504927145
 20
-16.618289789
 30
0.0
 10
-3.5460048149
 20
-16.6070568674
 30
0.0
  0
SPLINE
  5
373
100
AcDbEntity
  8
0
100
AcDbSpline
 62
250
  6
CONTINUOUS
 70
0
 71
3
 72
8
 73
4
 74
0
 42
0.0000001
 43
0.0000001
 44
0.0000000001
 40
0.0
 40
0.0
 40
0.0
 40
0.0
 40
1.0
 40
1.0
 40
1.0
 40
1.0
 10
-3.5460048149
 20
-16.6070568674
 30
0.0
 10
-3.5435327077
 20
-16.6008693432
 30
0.0
 10
-3.5414531797
 20
-16.5945143391
 30
0.0
 10
-3.5397310914
 20
-16.5880776332
 30
0.0
  0
SPLINE
  5
374
100
AcDbEntity
  8
0
100
AcDbSpline
 62
250
  6
CONTINUOUS
 70
0
 71
3
 72
11
 73
7
 74
0
 42
0.0000001
 43
0.0000001
 44
0.0000000001
 40
0.0
 40
0.0
 40
0.0
 40
0.0
 40
0.2990309843
 40
0.4993301613
 40
0.6997315772
 40
1.0
 40
1.0
 40
1.0
 40
1.0
 10
-16.5792032676
 20
3.5258841335
 30
0.0
 10
-16.5753407194
 20
3.5244398383
 30
0.0
 10
-16.5689720065
 20
3.5216985042
 30
0.0
 10
-16.5628863807
 20
3.512502718
 30
0.0
 10
-16.5685219037
 20
3.5029970504
 30
0.0
 10
-16.5747830704
 20
3.4999626461
 30
0.0
 10
-16.5785916166
 20
3.4983374459
 30
0.0
  0
SPLINE
  5
375
100
AcDbEntity
  8
0
100
AcDbSpline
 62
250
  6
CONTINUOUS
 70
0
 71
3
 72
11
 73
7
 74
0
 42
0.0000001
 43
0.0000001
 44
0.0000000001
 40
0.0
 40
0.0
 40
0.0
 40
0.0
 40
0.2376470096
 40
0.4999264134
 40
0.7622342743
 40
1.0
 40
1.0
 40
1.0
 40
1.0
 10
-16.6421868626
 20
-2.8910859215
 30
0.0
 10
-16.6117498101
 20
-2.9081603034
 30
0.0
 10
-16.5541523434
 20
-2.9556730035
 30
0.0
 10
-16.4872312247
 20
-3.0465009318
 30
0.0
 10
-16.4420129238
 20
-3.149880279
 30
0.0
 10
-16.4296536391
 20
-3.2235395581
 30
0.0
 10
-16.4300871369
 20
-3.2584534222
 30
0.0
  0
SPLINE
  5
376
100
AcDbEntity
  8
0
100
AcDbSpline
 62
250
  6
CONTINUOUS
 70
0
 71
3
 72
10
 73
6
 74
0
 42
0.0000001
 43
0.0000001
 44
0.0000000001
 40
0.0
 40
0.0
 40
0.0
 40
0.0
 40
0.5461320017
 40
0.7809237128
 40
1.0
 40
1.0
 40
1.0
 40
1.0
 10
-16.4300871369
 20
2.5314095226
 30
0.0
 10
-16.4297471676
 20
2.5042756749
 30
0.0
 10
-16.4348689751
 20
2.4642952072
 30
0.0
 10
-16.4593704487
 20
2.4204377379
 30
0.0
 10
-16.476065717
 20
2.4046100622
 30
0.0
 10
-16.4850949338
 20
2.3985302156
 30
0.0
  0
SPLINE
  5
377
100
AcDbEntity
  8
0
100
AcDbSpline
 62
250
  6
CONTINUOUS
 70
0
 71
3
 72
10
 73
6
 74
0
 42
0.0000001
 43
0.0000001
 44
0.0000000001
 40
0.0
 40
0.0
 40
0.0
 40
0.0
 40
0.5461320017
 40
0.7809237128
 40
1.0
 40
1.0
 40
1.0
 40
1.0
 10
-16.4300871369
 20
21.7184610273
 30
0.0
 10
-16.4297471676
 20
21.6913271796
 30
0.0
 10
-16.4348689751
 20
21.6513467118
 30
0.0
 10
-16.4593704487
 20
21.6074892426
 30
0.0
 10
-16.476065717
 20
21.5916615668
 30
0.0
 10
-16.4850949338
 20
21.5855817202
 30
0.0
  0
SPLINE
  5
378
100
AcDbEntity
  8
0
100
AcDbSpline
 62
250
  6
CONTINUOUS
 70
0
 71
3
 72
11
 73
7
 74
0
 42
0.0000001
 43
0.0000001
 44
0.0000000001
 40
0.0
 40
0.0
 40
0.0
 40
0.0
 40
0.2376470096
 40
0.4999264134
 40
0.7622342743
 40
1.0
 40
1.0
 40
1.0
 40
1.0
 10
-16.6421868626
 20
16.2959655831
 30
0.0
 10
-16.6117498101
 20
16.2788912012
 30
0.0
 10
-16.5541523434
 20
16.2313785011
 30
0.0
 10
-16.4872312247
 20
16.1405505728
 30
0.0
 10
-16.4420129238
 20
16.0371712256
 30
0.0
 10
-16.4296536391
 20
15.9635119466
 30
0.0
 10
-16.4300871369
 20
15.9285980825
 30
0.0
  0
SPLINE
  5
379
100
AcDbEntity
  8
0
100
AcDbSpline
 62
250
  6
CONTINUOUS
 70
0
 71
3
 72
9
 73
5
 74
0
 42
0.0000001
 43
0.0000001
 44
0.0000000001
 40
0.0
 40
0.0
 40
0.0
 40
0.0
 40
0.5411478038
 40
1.0
 40
1.0
 40
1.0
 40
1.0
 10
-16.4300871369
 20
15.2265411997
 30
0.0
 10
-16.4110989555
 20
15.2385156306
 30
0.0
 10
-16.3785239639
 20
15.2659969552
 30
0.0
 10
-16.3617226502
 20
15.3064919351
 30
0.0
 10
-16.3602262648
 20
15.3254677015
 30
0.0
  0
SPLINE
  5
37A
100
AcDbEntity
  8
0
100
AcDbSpline
 62
250
  6
CONTINUOUS
 70
0
 71
3
 72
10
 73
6
 74
0
 42
0.0000001
 43
0.0000001
 44
0.0000000001
 40
0.0
 40
0.0
 40
0.0
 40
0.0
 40
0.3606046617
 40
0.6415408527
 40
1.0
 40
1.0
 40
1.0
 40
1.0
 10
-3.5397310914
 20
-16.5880776332
 30
0.0
 10
-3.5380161205
 20
-16.5919150248
 30
0.0
 10
-3.5352203415
 20
-16.5989613008
 30
0.0
 10
-3.5322688489
 20
-16.6099073666
 30
0.0
 10
-3.53281306
 20
-16.6186994638
 30
0.0
 10
-3.5358073569
 20
-16.6216134449
 30
0.0
  0
SPLINE
  5
37B
100
AcDbEntity
  8
0
100
AcDbSpline
 62
250
  6
CONTINUOUS
 70
0
 71
3
 72
9
 73
5
 74
0
 42
0.0000001
 43
0.0000001
 44
0.0000000001
 40
0.0
 40
0.0
 40
0.0
 40
0.0
 40
0.2727125121
 40
1.0
 40
1.0
 40
1.0
 40
1.0
 10
-16.6526130858
 20
3.4667615767
 30
0.0
 10
-16.6555703184
 20
3.4653956022
 30
0.0
 10
-16.6665575565
 20
3.4607302631
 30
0.0
 10
-16.6782273342
 20
3.4574680994
 30
0.0
 10
-16.6868581536
 20
3.4564796777
 30
0.0
  0
SPLINE
  5
37C
100
AcDbEntity
  8
0
100
AcDbSpline
 62
250
  6
CONTINUOUS
 70
0
 71
3
 72
9
 73
5
 74
0
 42
0.0000001
 43
0.0000001
 44
0.0000000001
 40
0.0
 40
0.0
 40
0.0
 40
0.0
 40
0.5609471573
 40
1.0
 40
1.0
 40
1.0
 40
1.0
 10
-16.4300871369
 20
15.2265411997
 30
0.0
 10
-16.4279980685
 20
15.2109452455
 30
0.0
 10
-16.4272988854
 20
15.1821316607
 30
0.0
 10
-16.4422455158
 20
15.155735051
 30
0.0
 10
-16.4520140771
 20
15.1482345062
 30
0.0
  0
SPLINE
  5
37D
100
AcDbEntity
  8
0
100
AcDbSpline
 62
250
  6
CONTINUOUS
 70
0
 71
3
 72
9
 73
5
 74
0
 42
0.0000001
 43
0.0000001
 44
0.0000000001
 40
0.0
 40
0.0
 40
0.0
 40
0.0
 40
0.5609450405
 40
1.0
 40
1.0
 40
1.0
 40
1.0
 10
-16.5041086061
 20
15.1696018666
 30
0.0
 10
-16.5020196507
 20
15.1540068081
 30
0.0
 10
-16.5013204782
 20
15.1251949634
 30
0.0
 10
-16.5162644095
 20
15.0987991833
 30
0.0
 10
-16.5260317758
 20
15.0912980686
 30
0.0
  0
SPLINE
  5
37E
100
AcDbEntity
  8
0
100
AcDbSpline
 62
250
  6
CONTINUOUS
 70
0
 71
3
 72
10
 73
6
 74
0
 42
0.0000001
 43
0.0000001
 44
0.0000000001
 40
0.0
 40
0.0
 40
0.0
 40
0.0
 40
0.5463748857
 40
0.7806295633
 40
1.0
 40
1.0
 40
1.0
 40
1.0
 10
-16.7433372862
 20
14.6973023322
 30
0.0
 10
-16.7274220075
 20
14.7068181127
 30
0.0
 10
-16.705999488
 20
14.7242304272
 30
0.0
 10
-16.6898791189
 20
14.7545716451
 30
0.0
 10
-16.687213429
 20
14.7700746575
 30
0.0
 10
-16.6872140945
 20
14.7775197392
 30
0.0
  0
SPLINE
  5
37F
100
AcDbEntity
  8
0
100
AcDbSpline
 62
250
  6
CONTINUOUS
 70
0
 71
3
 72
10
 73
6
 74
0
 42
0.0000001
 43
0.0000001
 44
0.0000000001
 40
0.0
 40
0.0
 40
0.0
 40
0.0
 40
0.5463727476
 40
0.7806302654
 40
1.0
 40
1.0
 40
1.0
 40
1.0
 10
-16.7433372862
 20
3.3881193505
 30
0.0
 10
-16.7274240984
 20
3.3976338809
 30
0.0
 10
-16.7060043216
 20
3.4150433592
 30
0.0
 10
-16.6898829661
 20
3.4453788555
 30
0.0
 10
-16.6872149027
 20
3.4608793738
 30
0.0
 10
-16.6872140946
 20
3.4683234826
 30
0.0
  0
SPLINE
  5
380
100
AcDbEntity
  8
0
100
AcDbSpline
 62
250
  6
CONTINUOUS
 70
0
 71
3
 72
11
 73
7
 74
0
 42
0.0000001
 43
0.0000001
 44
0.0000000001
 40
0.0
 40
0.0
 40
0.0
 40
0.0
 40
0.2510505071
 40
0.452206147
 40
0.6514885724
 40
1.0
 40
1.0
 40
1.0
 40
1.0
 10
-16.5041086061
 20
3.2018905363
 30
0.0
 10
-16.5010182891
 20
3.2286566494
 30
0.0
 10
-16.5049181248
 20
3.2781130765
 30
0.0
 10
-16.5279566011
 20
3.3446884254
 30
0.0
 10
-16.5693958086
 20
3.4135852238
 30
0.0
 10
-16.6172205219
 20
3.4546612856
 30
0.0
 10
-16.6526130858
 20
3.4667615767
 30
0.0
  0
SPLINE
  5
381
100
AcDbEntity
  8
0
100
AcDbSpline
 62
250
  6
CONTINUOUS
 70
0
 71
3
 72
11
 73
7
 74
0
 42
0.0000001
 43
0.0000001
 44
0.0000000001
 40
0.0
 40
0.0
 40
0.0
 40
0.0
 40
0.2510505029
 40
0.4522061426
 40
0.6514885695
 40
1.0
 40
1.0
 40
1.0
 40
1.0
 10
-16.4300871369
 20
3.2334664054
 30
0.0
 10
-16.4269968208
 20
3.260232518
 30
0.0
 10
-16.4308966575
 20
3.3096889441
 30
0.0
 10
-16.4539351341
 20
3.3762642921
 30
0.0
 10
-16.4953743409
 20
3.4451610907
 30
0.0
 10
-16.543199053
 20
3.4862371538
 30
0.0
 10
-16.5785916166
 20
3.4983374459
 30
0.0
  0
SPLINE
  5
382
100
AcDbEntity
  8
ASSI
100
AcDbSpline
 62
250
  6
CONTINUOUS
 70
0
 71
3
 72
11
 73
7
 74
0
 42
0.0000001
 43
0.0000001
 44
0.0000000001
 40
0.0
 40
0.0
 40
0.0
 40
0.0
 40
0.2352368979
 40
0.4957630114
 40
0.7585769504
 40
1.0
 40
1.0
 40
1.0
 40
1.0
 10
-18.4354774696
 20
-11.2919276584
 30
0.0
 10
-18.4354774699
 20
-11.269839662
 30
0.0
 10
-18.4275611301
 20
-11.2232525957
 30
0.0
 10
-18.3996272376
 20
-11.1571976105
 30
0.0
 10
-18.3583374065
 20
-11.0978464182
 30
0.0
 10
-18.3228570781
 20
-11.0655346978
 30
0.0
 10
-18.3039211685
 20
-11.0530724197
 30
0.0
  0
SPLINE
  5
383
100
AcDbEntity
  8
ASSI
100
AcDbSpline
 62
250
  6
CONTINUOUS
 70
0
 71
3
 72
11
 73
7
 74
0
 42
0.0000001
 43
0.0000001
 44
0.0000000001
 40
0.0
 40
0.0
 40
0.0
 40
0.0
 40
0.2352426717
 40
0.4957692017
 40
0.7585802677
 40
1.0
 40
1.0
 40
1.0
 40
1.0
 10
-18.9292464829
 20
-10.4366946412
 30
0.0
 10
-18.9101174214
 20
-10.4477395215
 30
0.0
 10
-18.8658132394
 20
-10.4641789112
 30
0.0
 10
-18.7946401978
 20
-10.4730159652
 30
0.0
 10
-18.7225956226
 20
-10.4669329824
 30
0.0
 10
-18.6768732808
 20
-10.4523604763
 30
0.0
 10
-18.6566133208
 20
-10.4421916931
 30
0.0
  0
SPLINE
  5
384
100
AcDbEntity
  8
ASSI
100
AcDbSpline
 62
250
  6
CONTINUOUS
 70
0
 71
3
 72
11
 73
7
 74
0
 42
0.0000001
 43
0.0000001
 44
0.0000000001
 40
0.0
 40
0.0
 40
0.0
 40
0.0
 40
0.2352427605
 40
0.4957693383
 40
0.7585803421
 40
1.0
 40
1.0
 40
1.0
 40
1.0
 10
-18.9292464829
 20
25.8147343786
 30
0.0
 10
-18.9101174141
 20
25.8036894943
 30
0.0
 10
-18.8658132181
 20
25.7872501042
 30
0.0
 10
-18.7946401691
 20
25.7784130547
 30
0.0
 10
-18.7225956029
 20
25.7844960426
 30
0.0
 10
-18.6768732747
 20
25.799068547
 30
0.0
 10
-18.6566133208
 20
25.8092373266
 30
0.0
  0
SPLINE
  5
385
100
AcDbEntity
  8
ASSI
100
AcDbSpline
 62
250
  6
CONTINUOUS
 70
0
 71
3
 72
9
 73
5
 74
0
 42
0.0000001
 43
0.0000001
 44
0.0000000001
 40
0.0
 40
0.0
 40
0.0
 40
0.0
 40
0.5507664996
 40
1.0
 40
1.0
 40
1.0
 40
1.0
 10
-18.4354774696
 20
26.0997753161
 30
0.0
 10
-18.4354774696
 20
26.0806963136
 30
0.0
 10
-18.4308511462
 20
26.0452493076
 30
0.0
 10
-18.4076205041
 20
26.0160810423
 30
0.0
 10
-18.3941537742
 20
26.0082824968
 30
0.0
  0
SPLINE
  5
386
100
AcDbEntity
  8
ASSI
100
AcDbSpline
 62
250
  6
CONTINUOUS
 70
0
 71
3
 72
9
 73
5
 74
0
 42
0.0000001
 43
0.0000001
 44
0.0000000001
 40
0.0
 40
0.0
 40
0.0
 40
0.0
 40
0.5507963236
 40
1.0
 40
1.0
 40
1.0
 40
1.0
 10
12.9601924232
 20
7.9723090001
 30
0.0
 10
12.9601924234
 20
7.9532101131
 30
0.0
 10
12.9648261919
 20
7.9177240042
 30
0.0
 10
12.9881175628
 20
7.8885461761
 30
0.0
 10
13.0016093359
 20
7.8807622992
 30
0.0
  0
SPLINE
  5
387
100
AcDbEntity
  8
ASSI
100
AcDbSpline
 62
250
  6
CONTINUOUS
 70
0
 71
3
 72
9
 73
5
 74
0
 42
0.0000001
 43
0.0000001
 44
0.0000000001
 40
0.0
 40
0.0
 40
0.0
 40
0.0
 40
0.5507892328
 40
1.0
 40
1.0
 40
1.0
 40
1.0
 10
13.4539614365
 20
7.1170759829
 30
0.0
 10
13.4374195512
 20
7.1266270601
 30
0.0
 10
13.4090015643
 20
7.1483873164
 30
0.0
 10
13.395378279
 20
7.1831523864
 30
0.0
 10
13.3953835707
 20
7.1987309014
 30
0.0
  0
SPLINE
  5
388
100
AcDbEntity
  8
ASSI
100
AcDbSpline
 62
250
  6
CONTINUOUS
 70
0
 71
3
 72
9
 73
5
 74
0
 42
0.0000001
 43
0.0000001
 44
0.0000000001
 40
0.0
 40
0.0
 40
0.0
 40
0.0
 40
0.5507574967
 40
1.0
 40
1.0
 40
1.0
 40
1.0
 10
13.4539614365
 20
-29.1343530369
 30
0.0
 10
13.4374379376
 20
-29.124812576
 30
0.0
 10
13.409052137
 20
-29.1030800844
 30
0.0
 10
13.3954052772
 20
-29.068376283
 30
0.0
 10
13.3953836307
 20
-29.0528131017
 30
0.0
  0
SPLINE
  5
389
100
AcDbEntity
  8
ASSI
100
AcDbSpline
 62
250
  6
CONTINUOUS
 70
0
 71
3
 72
11
 73
7
 74
0
 42
0.0000001
 43
0.0000001
 44
0.0000000001
 40
0.0
 40
0.0
 40
0.0
 40
0.0
 40
0.2352368085
 40
0.495762875
 40
0.7585768772
 40
1.0
 40
1.0
 40
1.0
 40
1.0
 10
12.9601924232
 20
-29.4193939744
 30
0.0
 10
12.9601924232
 20
-29.3973059864
 30
0.0
 10
12.9681087571
 20
-29.3507189329
 30
0.0
 10
12.996042642
 20
-29.2846639519
 30
0.0
 10
13.0373324738
 20
-29.22531275
 30
0.0
 10
13.0728128093
 20
-29.1930010179
 30
0.0
 10
13.0917487244
 20
-29.1805387356
 30
0.0
  0
SPLINE
  5
38A
100
AcDbEntity
  8
ASSI
100
AcDbSpline
 62
250
  6
CONTINUOUS
 70
0
 71
3
 72
11
 73
7
 74
0
 42
0.0000001
 43
0.0000001
 44
0.0000000001
 40
0.0
 40
0.0
 40
0.0
 40
0.0
 40
0.2372145508
 40
0.500004835
 40
0.7627951139
 40
1.0
 40
1.0
 40
1.0
 40
1.0
 10
-18.4354774696
 20
-11.2919276584
 30
0.0
 10
-18.5055732497
 20
-11.2514490801
 30
0.0
 10
-18.6383168384
 20
-11.1398951737
 30
0.0
 10
-18.7932326306
 20
-10.9283163093
 30
0.0
 10
-18.8990065467
 20
-10.6883690014
 30
0.0
 10
-18.9292409793
 20
-10.5176353588
 30
0.0
 10
-18.9292464829
 20
-10.4366946412
 30
0.0
  0
SPLINE
  5
38B
100
AcDbEntity
  8
ASSI
100
AcDbSpline
 62
250
  6
CONTINUOUS
 70
0
 71
3
 72
9
 73
5
 74
0
 42
0.0000001
 43
0.0000001
 44
0.0000000001
 40
0.0
 40
0.0
 40
0.0
 40
0.0
 40
0.2572359305
 40
1.0
 40
1.0
 40
1.0
 40
1.0
 10
13.4539614365
 20
-29.1343530369
 30
0.0
 10
13.4539610564
 20
-29.1414163472
 30
0.0
 10
13.4535163256
 20
-29.1688714929
 30
0.0
 10
13.4512628835
 20
-29.196309242
 30
0.0
 10
13.4484125765
 20
-29.2165042692
 30
0.0
  0
SPLINE
  5
38C
100
AcDbEntity
  8
ASSI
100
AcDbSpline
 62
250
  6
CONTINUOUS
 70
0
 71
3
 72
15
 73
11
 74
0
 42
0.0000001
 43
0.0000001
 44
0.0000000001
 40
0.0
 40
0.0
 40
0.0
 40
0.0
 40
0.1363795884
 40
0.2596617118
 40
0.3733903855
 40
0.4832215192
 40
0.5959398641
 40
0.7174775164
 40
0.8517181004
 40
1.0
 40
1.0
 40
1.0
 40
1.0
 10
13.4484125765
 20
-29.2165042692
 30
0.0
 10
13.4442755744
 20
-29.2458158021
 30
0.0
 10
13.4316328079
 20
-29.3011769748
 30
0.0
 10
13.3964443521
 20
-29.3750489815
 30
0.0
 10
13.3464799111
 20
-29.4327922053
 30
0.0
 10
13.2831361523
 20
-29.4714545162
 30
0.0
 10
13.2094303135
 20
-29.4891135597
 30
0.0
 10
13.1286696754
 20
-29.4857875284
 30
0.0
 10
13.0435375482
 20
-29.4623843015
 30
0.0
 10
12.9880665381
 20
-29.4354856119
 30
0.0
 10
12.9601924232
 20
-29.4193939744
 30
0.0
  0
SPLINE
  5
38D
100
AcDbEntity
  8
ASSI
100
AcDbSpline
 62
250
  6
CONTINUOUS
 70
0
 71
3
 72
11
 73
7
 74
0
 42
0.0000001
 43
0.0000001
 44
0.0000000001
 40
0.0
 40
0.0
 40
0.0
 40
0.0
 40
0.2216875365
 40
0.4565289827
 40
0.7144758747
 40
1.0
 40
1.0
 40
1.0
 40
1.0
 10
-17.2538938904
 20
-9.5137106181
 30
0.0
 10
-17.253901041
 20
-9.5310378551
 30
0.0
 10
-17.2596521233
 20
-9.5669280954
 30
0.0
 10
-17.2845498988
 20
-9.6176609197
 30
0.0
 10
-17.3243003487
 20
-9.6643703647
 30
0.0
 10
-17.3579479756
 20
-9.6907336929
 30
0.0
 10
-17.376537697
 20
-9.7030811397
 30
0.0
  0
SPLINE
  5
38E
100
AcDbEntity
  8
ASSI
100
AcDbSpline
 62
250
  6
CONTINUOUS
 70
0
 71
3
 72
11
 73
7
 74
0
 42
0.0000001
 43
0.0000001
 44
0.0000000001
 40
0.0
 40
0.0
 40
0.0
 40
0.0
 40
0.2216781853
 40
0.4565156297
 40
0.7144656787
 40
1.0
 40
1.0
 40
1.0
 40
1.0
 10
-16.7985273861
 20
-10.3024202922
 30
0.0
 10
-16.813536086
 20
-10.2937633983
 30
0.0
 10
-16.8474927597
 20
-10.2808003141
 30
0.0
 10
-16.9038766128
 20
-10.2769995326
 30
0.0
 10
-16.9642028574
 20
-10.2880739867
 30
0.0
 10
-17.0038575449
 20
-10.3040349153
 30
0.0
 10
-17.0238455447
 20
-10.3139618663
 30
0.0
  0
SPLINE
  5
38F
100
AcDbEntity
  8
ASSI
100
AcDbSpline
 62
250
  6
CONTINUOUS
 70
0
 71
3
 72
11
 73
7
 74
0
 42
0.0000001
 43
0.0000001
 44
0.0000000001
 40
0.0
 40
0.0
 40
0.0
 40
0.0
 40
0.2204123995
 40
0.4516594944
 40
0.7091463183
 40
1.0
 40
1.0
 40
1.0
 40
1.0
 10
13.3538721282
 20
-29.1974600893
 30
0.0
 10
13.3374855847
 20
-29.2096894233
 30
0.0
 10
13.2987879721
 20
-29.228615671
 30
0.0
 10
13.2319601077
 20
-29.2339603373
 30
0.0
 10
13.1606524788
 20
-29.217522432
 30
0.0
 10
13.1147585257
 20
-29.1946294989
 30
0.0
 10
13.0917487244
 20
-29.1805387356
 30
0.0
  0
SPLINE
  5
390
100
AcDbEntity
  8
ASSI
100
AcDbSpline
 62
250
  6
CONTINUOUS
 70
0
 71
3
 72
11
 73
7
 74
0
 42
0.0000001
 43
0.0000001
 44
0.0000000001
 40
0.0
 40
0.0
 40
0.0
 40
0.0
 40
0.2908552356
 40
0.5483350067
 40
0.7795813668
 40
1.0
 40
1.0
 40
1.0
 40
1.0
 10
-18.6566133208
 20
25.8092373266
 30
0.0
 10
-18.6573104981
 20
25.8362064321
 30
0.0
 10
-18.6541881191
 20
25.8873909467
 30
0.0
 10
-18.6327710633
 20
25.9573538274
 30
0.0
 10
-18.5947326523
 20
26.0125479879
 30
0.0
 10
-18.558998065
 20
26.0365956447
 30
0.0
 10
-18.5402160848
 20
26.0446719913
 30
0.0
  0
SPLINE
  5
391
100
AcDbEntity
  8
ASSI
100
AcDbSpline
 62
250
  6
CONTINUOUS
 70
0
 71
3
 72
9
 73
5
 74
0
 42
0.0000001
 43
0.0000001
 44
0.0000000001
 40
0.0
 40
0.0
 40
0.0
 40
0.0
 40
0.2404854647
 40
1.0
 40
1.0
 40
1.0
 40
1.0
 10
12.9601924232
 20
7.9723090001
 30
0.0
 10
12.9695481947
 20
7.9669064239
 30
0.0
 10
13.0078948801
 20
7.943481829
 30
0.0
 10
13.0440293284
 20
7.9165032586
 30
0.0
 10
13.0701545232
 20
7.8945558252
 30
0.0
  0
SPLINE
  5
392
100
AcDbEntity
  8
ASSI
100
AcDbSpline
 62
250
  6
CONTINUOUS
 70
0
 71
3
 72
10
 73
6
 74
0
 42
0.0000001
 43
0.0000001
 44
0.0000000001
 40
0.0
 40
0.0
 40
0.0
 40
0.0
 40
0.2422951226
 40
0.4976012511
 40
1.0
 40
1.0
 40
1.0
 40
1.0
 10
13.0701545232
 20
7.8945558252
 30
0.0
 10
13.1139414891
 20
7.8577709698
 30
0.0
 10
13.1967775033
 20
7.773451442
 30
0.0
 10
13.3339412895
 20
7.5808881444
 30
0.0
 10
13.40563527
 20
7.4127229185
 30
0.0
 10
13.4322373449
 20
7.2971669266
 30
0.0
  0
SPLINE
  5
393
100
AcDbEntity
  8
ASSI
100
AcDbSpline
 62
250
  6
CONTINUOUS
 70
0
 71
3
 72
9
 73
5
 74
0
 42
0.0000001
 43
0.0000001
 44
0.0000000001
 40
0.0
 40
0.0
 40
0.0
 40
0.0
 40
0.2615644173
 40
1.0
 40
1.0
 40
1.0
 40
1.0
 10
13.4322373449
 20
7.2971669266
 30
0.0
 10
13.4357895358
 20
7.2817366663
 30
0.0
 10
13.4478927057
 20
7.222428698
 30
0.0
 10
13.4539589817
 20
7.1617773327
 30
0.0
 10
13.4539614365
 20
7.1170759829
 30
0.0
  0
SPLINE
  5
394
100
AcDbEntity
  8
ASSI
100
AcDbSpline
 62
250
  6
CONTINUOUS
 70
0
 71
3
 72
11
 73
7
 74
0
 42
0.0000001
 43
0.0000001
 44
0.0000000001
 40
0.0
 40
0.0
 40
0.0
 40
0.0
 40
0.2379396518
 40
0.5000046215
 40
0.7620696883
 40
1.0
 40
1.0
 40
1.0
 40
1.0
 10
-18.3039211685
 20
-11.0530724197
 30
0.0
 10
-18.3550710725
 20
-11.0252328406
 30
0.0
 10
-18.4520470525
 20
-10.9471027585
 30
0.0
 10
-18.5641825329
 20
-10.7960763548
 30
0.0
 10
-18.6389068058
 20
-10.6234531851
 30
0.0
 10
-18.6580801568
 20
-10.5004062702
 30
0.0
 10
-18.6566133208
 20
-10.4421916931
 30
0.0
  0
SPLINE
  5
395
100
AcDbEntity
  8
ASSI
100
AcDbSpline
 62
250
  6
CONTINUOUS
 70
0
 71
3
 72
15
 73
11
 74
0
 42
0.0000001
 43
0.0000001
 44
0.0000000001
 40
0.0
 40
0.0
 40
0.0
 40
0.0
 40
0.1448760975
 40
0.2745417134
 40
0.3911244663
 40
0.499987846
 40
0.6088536092
 40
0.7254442625
 40
0.8551191911
 40
1.0
 40
1.0
 40
1.0
 40
1.0
 10
-18.9292464829
 20
25.8147343786
 30
0.0
 10
-18.9292441518
 20
25.8501371253
 30
0.0
 10
-18.9239137396
 20
25.917457041
 30
0.0
 10
-18.8967375993
 20
26.0099571947
 30
0.0
 10
-18.8508699409
 20
26.0850895763
 30
0.0
 10
-18.7871480726
 20
26.1387498231
 30
0.0
 10
-18.7088111455
 20
26.1670967424
 30
0.0
 10
-18.6208059582
 20
26.1692448334
 30
0.0
 10
-18.5271065447
 20
26.1465240289
 30
0.0
 10
-18.466138623
 20
26.1174764368
 30
0.0
 10
-18.4354774696
 20
26.0997753161
 30
0.0
  0
SPLINE
  5
396
100
AcDbEntity
  8
ASSI
100
AcDbSpline
 62
250
  6
CONTINUOUS
 70
0
 71
3
 72
11
 73
7
 74
0
 42
0.0000001
 43
0.0000001
 44
0.0000000001
 40
0.0
 40
0.0
 40
0.0
 40
0.0
 40
0.2349266851
 40
0.4999859806
 40
0.76504736
 40
1.0
 40
1.0
 40
1.0
 40
1.0
 10
-17.376537697
 20
-9.7030811397
 30
0.0
 10
-17.37328517
 20
-9.7597717374
 30
0.0
 10
-17.3465464017
 20
-9.8792662599
 30
0.0
 10
-17.2691823801
 20
-10.0483419159
 30
0.0
 10
-17.1614382359
 20
-10.1998846918
 30
0.0
 10
-17.0713193416
 20
-10.2827953149
 30
0.0
 10
-17.0238455447
 20
-10.3139618663
 30
0.0
  0
SPLINE
  5
397
100
AcDbEntity
  8
CURVE
100
AcDbSpline
 62
250
  6
CONTINUOUS
 70
0
 71
3
 72
9
 73
5
 74
0
 42
0.0000001
 43
0.0000001
 44
0.0000000001
 40
0.0
 40
0.0
 40
0.0
 40
0.0
 40
0.5206208722
 40
1.0
 40
1.0
 40
1.0
 40
1.0
 10
31.311956114
 20
-42.673834402
 30
0.0
 10
31.3909898517
 20
-42.6299194129
 30
0.0
 10
31.5636382742
 20
-42.5992931402
 30
0.0
 10
31.5944309669
 20
-42.7714504488
 30
0.0
 10
31.5960561922
 20
-42.8518072462
 30
0.0
  0
SPLINE
  5
398
100
AcDbEntity
  8
CURVE
100
AcDbSpline
 62
250
  6
CONTINUOUS
 70
0
 71
3
 72
9
 73
5
 74
0
 42
0.0000001
 43
0.0000001
 44
0.0000000001
 40
0.0
 40
0.0
 40
0.0
 40
0.0
 40
0.5013510385
 40
1.0
 40
1.0
 40
1.0
 40
1.0
 10
31.0834202697
 20
-43.0375381302
 30
0.0
 10
31.0899137386
 20
-42.9716025595
 30
0.0
 10
31.1391682954
 20
-42.818791936
 30
0.0
 10
31.2559606702
 20
-42.7049613334
 30
0.0
 10
31.311956114
 20
-42.673834402
 30
0.0
  0
SPLINE
  5
399
100
AcDbEntity
  8
CURVE
100
AcDbSpline
 62
250
  6
CONTINUOUS
 70
0
 71
3
 72
9
 73
5
 74
0
 42
0.0000001
 43
0.0000001
 44
0.0000000001
 40
0.0
 40
0.0
 40
0.0
 40
0.0
 40
0.2703953699
 40
1.0
 40
1.0
 40
1.0
 40
1.0
 10
31.0941821556
 20
-43.3654985228
 30
0.0
 10
31.0896372916
 20
-43.3382106368
 30
0.0
 10
31.0746895961
 20
-43.2359463649
 30
0.0
 10
31.0750140937
 20
-43.1229144926
 30
0.0
 10
31.0834202697
 20
-43.0375381302
 30
0.0
  0
SPLINE
  5
39A
100
AcDbEntity
  8
CURVE
100
AcDbSpline
 62
250
  6
CONTINUOUS
 70
0
 71
3
 72
9
 73
5
 74
0
 42
0.0000001
 43
0.0000001
 44
0.0000000001
 40
0.0
 40
0.0
 40
0.0
 40
0.0
 40
0.2957417834
 40
1.0
 40
1.0
 40
1.0
 40
1.0
 10
30.8233390757
 20
-42.8701413661
 30
0.0
 10
30.791578571
 20
-42.9853850522
 30
0.0
 10
30.7398070553
 20
-43.3660250887
 30
0.0
 10
30.7716930226
 20
-43.7034724693
 30
0.0
 10
30.8040910657
 20
-43.9318778059
 30
0.0
  0
SPLINE
  5
39B
100
AcDbEntity
  8
CURVE
100
AcDbSpline
 62
250
  6
CONTINUOUS
 70
0
 71
3
 72
17
 73
13
 74
0
 42
0.0000001
 43
0.0000001
 44
0.0000000001
 40
0.0
 40
0.0
 40
0.0
 40
0.0
 40
0.0559780952
 40
0.1687540387
 40
0.321006234
 40
0.4122750837
 40
0.516613223
 40
0.6013931059
 40
0.6776022439
 40
0.8103422694
 40
0.9200404832
 40
1.0
 40
1.0
 40
1.0
 40
1.0
 10
31.7467363042
 20
-42.3290383212
 30
0.0
 10
31.7440165647
 20
-42.3069716071
 30
0.0
 10
31.7018199754
 20
-42.2698782308
 30
0.0
 10
31.6213815043
 20
-42.2139952678
 30
0.0
 10
31.4975589668
 20
-42.2076265337
 30
0.0
 10
31.3683840331
 20
-42.2446406605
 30
0.0
 10
31.2611715346
 20
-42.2993095393
 30
0.0
 10
31.1610359307
 20
-42.3693341917
 30
0.0
 10
31.05463404
 20
-42.4656669913
 30
0.0
 10
30.9503578674
 20
-42.5951435492
 30
0.0
 10
30.8688111613
 20
-42.7425890946
 30
0.0
 10
30.8336408138
 20
-42.8327150808
 30
0.0
 10
30.8233390757
 20
-42.8701413661
 30
0.0
  0
SPLINE
  5
39C
100
AcDbEntity
  8
CURVE
100
AcDbSpline
 62
250
  6
CONTINUOUS
 70
0
 71
3
 72
9
 73
5
 74
0
 42
0.0000001
 43
0.0000001
 44
0.0000000001
 40
0.0
 40
0.0
 40
0.0
 40
0.0
 40
0.2426586216
 40
1.0
 40
1.0
 40
1.0
 40
1.0
 10
32.116108905
 20
-41.8845920253
 30
0.0
 10
32.0828876024
 20
-41.9125829217
 30
0.0
 10
31.9487318869
 20
-42.0234103325
 30
0.0
 10
31.7973424778
 20
-42.1903537264
 30
0.0
 10
31.7575393183
 20
-42.3232217351
 30
0.0
  0
SPLINE
  5
39D
100
AcDbEntity
  8
CURVE
100
AcDbSpline
 62
250
  6
CONTINUOUS
 70
0
 71
3
 72
9
 73
5
 74
0
 42
0.0000001
 43
0.0000001
 44
0.0000000001
 40
0.0
 40
0.0
 40
0.0
 40
0.0
 40
0.1980141723
 40
1.0
 40
1.0
 40
1.0
 40
1.0
 10
32.6109225961
 20
-41.4725313766
 30
0.0
 10
32.578327284
 20
-41.4999645292
 30
0.0
 10
32.4133462758
 20
-41.6371673779
 30
0.0
 10
32.2480962628
 20
-41.773382783
 30
0.0
 10
32.116108905
 20
-41.8845920253
 30
0.0
  0
SPLINE
  5
39E
100
AcDbEntity
  8
CURVE
100
AcDbSpline
 62
250
  6
CONTINUOUS
 70
0
 71
3
 72
9
 73
5
 74
0
 42
0.0000001
 43
0.0000001
 44
0.0000000001
 40
0.0
 40
0.0
 40
0.0
 40
0.0
 40
0.5586214172
 40
1.0
 40
1.0
 40
1.0
 40
1.0
 10
32.0565552332
 20
-42.3670967632
 30
0.0
 10
32.1574741181
 20
-42.2704334397
 30
0.0
 10
32.3443474061
 20
-42.1141537748
 30
0.0
 10
32.5290591845
 20
-41.952673498
 30
0.0
 10
32.6109225961
 20
-41.8823211546
 30
0.0
  0
SPLINE
  5
39F
100
AcDbEntity
  8
CURVE
100
AcDbSpline
 62
250
  6
CONTINUOUS
 70
0
 71
3
 72
9
 73
5
 74
0
 42
0.0000001
 43
0.0000001
 44
0.0000000001
 40
0.0
 40
0.0
 40
0.0
 40
0.0
 40
0.3559141631
 40
1.0
 40
1.0
 40
1.0
 40
1.0
 10
31.89546968
 20
-42.691514577
 30
0.0
 10
31.89546968
 20
-42.6543892781
 30
0.0
 10
31.9156066418
 20
-42.5367475552
 30
0.0
 10
32.0002118442
 20
-42.4210392042
 30
0.0
 10
32.0565552332
 20
-42.3670967632
 30
0.0
  0
ELLIPSE
  5
3A0
100
AcDbEntity
  8
0
100
AcDbEllipse
 62
7
  6
CONTINUOUS
 10
-1.7438806435
 20
-15.4023110358
 30
0.0
 11
0.1999995634
 21
0.1164181051
 31
0.0
 40
0.0035896273
 41
-0.7351277754
 42
-0.6748017824
  0
ELLIPSE
  5
3A1
100
AcDbEntity
  8
0
100
AcDbEllipse
 62
7
  6
CONTINUOUS
 10
10.3400205427
 20
-21.8080392996
 30
0.0
 11
0.1998333781
 21
-0.0157785196
 31
0.0
 40
0.5172961965
 41
0.8262203412
 42
2.3446567905
  0
ELLIPSE
  5
3A2
100
AcDbEntity
  8
0
100
AcDbEllipse
 62
7
  6
CONTINUOUS
 10
-5.569882034
 20
-12.6218609497
 30
0.0
 11
0.1998333781
 21
-0.0157785196
 31
0.0
 40
0.5172961965
 41
0.8262203412
 42
2.3446567905
  0
ELLIPSE
  5
3A3
100
AcDbEntity
  8
0
100
AcDbEllipse
 62
7
  6
CONTINUOUS
 10
8.8217930128
 20
-23.1114538125
 30
0.0
 11
0.5413005334
 21
0.8416911418
 31
0.0
 40
0.6067084637
 41
0.7148472392
 42
0.8145158917
  0
ELLIPSE
  5
3A4
100
AcDbEntity
  8
0
100
AcDbEllipse
 62
7
  6
CONTINUOUS
 10
-7.0881095639
 20
-13.9252754626
 30
0.0
 11
0.5413005334
 21
0.8416911418
 31
0.0
 40
0.6067084637
 41
0.7148472392
 42
0.8145158917
  0
ELLIPSE
  5
3A5
100
AcDbEntity
  8
0
100
AcDbEllipse
 62
7
  6
CONTINUOUS
 10
76.8558914141
 20
36.7324263598
 30
0.0
 11
355.4637344776
 21
228.5291574713
 31
0.0
 40
0.0426364804
 41
-1.7784597787
 42
-1.7776235247
  0
ELLIPSE
  5
3A6
100
AcDbEntity
  8
0
100
AcDbEllipse
 62
7
  6
CONTINUOUS
 10
-17.3747852074
 20
15.628067258
 30
0.0
 11
-0.1500072547
 21
0.2598034325
 31
0.0
 40
0.5775075436
 41
-2.3560905478
 42
-1.3917475379
  0
ELLIPSE
  5
3A7
100
AcDbEntity
  8
0
100
AcDbEllipse
 62
7
  6
CONTINUOUS
 10
-17.3747852074
 20
21.3880268377
 30
0.0
 11
-0.1500529386
 21
0.2598825848
 31
0.0
 40
0.5771558487
 41
2.9624472218
 42
3.9267902317
  0
ELLIPSE
  5
3A8
100
AcDbEntity
  8
0
100
AcDbEllipse
 62
7
  6
CONTINUOUS
 10
-17.3747852074
 20
2.200975333
 30
0.0
 11
-0.1500529386
 21
0.2598825848
 31
0.0
 40
0.5771558487
 41
2.9624472218
 42
3.9267902317
  0
ELLIPSE
  5
3A9
100
AcDbEntity
  8
0
100
AcDbEllipse
 62
7
  6
CONTINUOUS
 10
-17.3747852074
 20
-3.5589842466
 30
0.0
 11
-0.1500072547
 21
0.2598034325
 31
0.0
 40
0.5775075436
 41
-2.3560905478
 42
-1.3917475379
  0
ELLIPSE
  5
3AA
100
AcDbEntity
  8
0
100
AcDbEllipse
 62
7
  6
CONTINUOUS
 10
-1.7438806435
 20
-14.8309462015
 30
0.0
 11
0.1998333781
 21
-0.0157785196
 31
0.0
 40
0.5172961965
 41
-0.692216108
 42
0.8262203412
  0
ELLIPSE
  5
3AB
100
AcDbEntity
  8
0
100
AcDbEllipse
 62
7
  6
CONTINUOUS
 10
13.0681302711
 20
-25.5632357263
 30
0.0
 11
0.4625183445
 21
0.8873459255
 31
0.0
 40
0.5463614449
 41
0.662201126
 42
0.7618697785
  0
ELLIPSE
  5
3AC
100
AcDbEntity
  8
0
100
AcDbEllipse
 62
7
  6
CONTINUOUS
 10
-2.8417723056
 20
-16.3770573764
 30
0.0
 11
0.4625183445
 21
0.8873459255
 31
0.0
 40
0.5463614449
 41
0.662201126
 42
0.7618697785
  0
ELLIPSE
  5
3AD
100
AcDbEntity
  8
ASSI
100
AcDbEllipse
 62
7
  6
CONTINUOUS
 10
-17.2324681962
 20
-10.0271961983
 30
0.0
 11
-0.2500122581
 21
0.4330056244
 31
0.0
 40
0.5801478137
 41
0.7877823601
 42
2.353712702
  0
ENDSEC
  0
SECTION
  2
OBJECTS
  0
DICTIONARY
  5
C
100
AcDbDictionary
280
0
281
1
  3
ACAD_GROUP
350
D
  3
ACAD_MLINESTYLE
350
17
  3
ACAD_LAYOUT
350
1A
  3
ACAD_PLOTSETTINGS
350
19
  3
ACAD_PLOTSTYLENAME
350
E
  0
DICTIONARY
  5
D
102
{ACAD_REACTORS
330
C
102
}
100
AcDbDictionary
280
0
281
1
  0
ACDBDICTIONARYWDFLT
  5
E
102
{ACAD_REACTORS
330
C
102
}
100
AcDbDictionary
281
1
  3
Normal
350
F
100
AcDbDictionaryWithDefault
340
F
  0
DICTIONARY
  5
17
102
{ACAD_REACTORS
330
C
102
}
100
AcDbDictionary
280
0
281
1
  3
Standard
350
18
  0
DICTIONARY
  5
19
102
{ACAD_REACTORS
330
C
102
}
100
AcDbDictionary
281
1
  0
DICTIONARY
  5
1A
102
{ACAD_REACTORS
330
C
102
}
100
AcDbDictionary
281
1
  3
Model
350
3AE
  3
Layout1
350
3AF
  0
ACDBPLACEHOLDER
  5
F
102
{ACAD_REACTORS
330
E
102
}
  0
MLINESTYLE
  5
18
102
{ACAD_REACTORS
330
17
102
}
100
AcDbMlineStyle
  2
STANDARD
 70
0
  3

 62
256
 51
90.0
 52
90.0
 71
2
 49
0.5
 62
256
  6
BYLAYER
 49
-0.5
 62
256
  6
BYLAYER
  0
LAYOUT
  5
3AE
102
{ACAD_REACTORS
330
1A
102
}
100
AcDbPlotSettings
  1

  2
none_device
  4
ISO_A4_(297.00_x_210.00_MM)
  6

 40
0.0
 41
0.0
 42
0.0
 43
0.0
 44
297.0
 45
210.0
 46
0.0
 47
0.0
 48
0.0
 49
0.0
140
0.0
141
0.0
142
1.0
143
1.0
 70
1024
 72
1
 73
0
 74
0
  7

 75
0
147
1.0
148
0.0
149
0.0
100
AcDbLayout
  1
Model
 70
0
 71
0
 10
0.0
 20
0.0
 11
297.0
 21
210.0
 12
0.0
 22
0.0
 32
0.0
 14
0.0
 24
0.0
 34
0.0
 15
0.0
 25
0.0
 35
0.0
146
0.0
 13
0.0
 23
0.0
 33
0.0
 16
1.0
 26
0.0
 36
0.0
 17
0.0
 27
1.0
 37
0.0
 76
0
330
21C
345
0
346
0
  0
LAYOUT
  5
3AF
102
{ACAD_REACTORS
330
1A
102
}
100
AcDbPlotSettings
  1

  2
none_device
  4
ISO_A4_(297.00_x_210.00_MM)
  6

 40
0.0
 41
0.0
 42
0.0
 43
0.0
 44
297.0
 45
210.0
 46
0.0
 47
0.0
 48
0.0
 49
0.0
140
0.0
141
0.0
142
1.0
143
1.0
 70
0
 72
1
 73
0
 74
0
  7

 75
0
147
1.0
148
0.0
149
0.0
100
AcDbLayout
  1
Layout1
 70
0
 71
1
 10
0.0
 20
0.0
 11
297.0
 21
210.0
 12
0.0
 22
0.0
 32
0.0
 14
0.0
 24
0.0
 34
0.0
 15
0.0
 25
0.0
 35
0.0
146
0.0
 13
0.0
 23
0.0
 33
0.0
 16
1.0
 26
0.0
 36
0.0
 17
0.0
 27
1.0
 37
0.0
 76
0
330
21D
345
0
346
0
  0
ENDSEC
  0
EOF
