  0
SECTION
  2
HEADER
  9
$ACADVER
  1
AC1024
  9
$DWGCODEPAGE
  3
ANSI_1252
  9
$EXTMAX
 10
297.0
 20
210.0
 30
0.0
  9
$EXTMIN
 10
0.0
 20
0.0
 30
0.0
  9
$LIMMIN
 10
0.0
 20
0.0
  9
$LIMMAX
 10
297.0
 20
210.0
  9
$VIEWCTR
 10
148.5
 20
105.0
  9
$VIEWSIZE
 40
210.0
  9
$CLAYER
  8
0
  9
$LTSCALE
 40
16.335
  9
$CELTYPE
  6
BYLAYER
  9
$DIMSCALE
 40
1.0
  9
$DIMASZ
 40
3.0
  9
$DIMEXO
 40
0.5
  9
$DIMDLI
 40
11.286
  9
$DIMEXE
 40
1.5
  9
$DIMCEN
 40
2.673
  9
$DIMLFAC
 40
1.0
  9
$DIMBLK
  1
_FILLED
  9
$DIMALT
 70
0
  9
$DIMALTF
 40
0.0393700787
  9
$DIMTXT
 40
3.0
  9
$DIMTOL
 70
1
  9
$DIMLIM
 70
0
  9
$DIMTFAC
 40
1.0
  9
$DIMTP
 40
0.01
  9
$DIMTM
 40
0.01
  9
$DIMGAP
 40
0.625
  9
$DIMDSEP
 70
44
  9
$AUNITS
 70
0
  9
$PDMODE
 70
3
  9
$PDSIZE
 40
3.0
  9
$HANDSEED
  5
421
  9
$TILEMODE
 70
1
  9
$MEASUREMENT
 70
1
  9
$INSUNITS
 70
4
  0
ENDSEC
  0
SECTION
  2
CLASSES
  0
CLASS
  1
ACDBDICTIONARYWDFLT
  2
AcDbDictionaryWithDefault
  3
AutoCAD 2000
 90
0
 91
1
280
0
281
0
  0
CLASS
  1
ACDBPLACEHOLDER
  2
AcDbPlaceHolder
  3
AutoCAD 2000
 90
0
 91
1
280
0
281
0
  0
CLASS
  1
LAYOUT
  2
AcDbLayout
  3
AutoCAD 2000
 90
0
 91
0
280
0
281
0
  0
ENDSEC
  0
SECTION
  2
TABLES
  0
TABLE
  2
VPORT
  5
8
100
AcDbSymbolTable
 70
2
  0
VPORT
  5
1F4
100
AcDbSymbolTableRecord
100
AcDbViewportTableRecord
  2
*ACTIVE
 70
0
 10
0.0
 20
0.0
 11
1.0
 21
1.0
 12
148.5
 22
105.0
 13
0.0
 23
0.0
 14
1.0
 24
1.0
 15
0.0
 25
0.0
 16
0.0
 26
0.0
 36
1.0
 17
0.0
 27
0.0
 37
0.0
 40
210.0
 41
1.4142857143
 42
50.0
 43
0.0
 44
0.0
 50
0.0
 51
0.0
 71
0
 72
100
 73
1
 74
1
 75
0
 76
0
 77
0
 78
0
  0
ENDTAB
  0
TABLE
  2
LTYPE
  5
5
100
AcDbSymbolTable
 70
6
  0
LTYPE
  5
14
100
AcDbSymbolTableRecord
100
AcDbLinetypeTableRecord
  2
BYBLOCK
 70
0
  3

 72
65
 73
0
 40
0.0
  0
LTYPE
  5
15
100
AcDbSymbolTableRecord
100
AcDbLinetypeTableRecord
  2
BYLAYER
 70
0
  3

 72
65
 73
0
 40
0.0
  0
LTYPE
  5
16
100
AcDbSymbolTableRecord
100
AcDbLinetypeTableRecord
  2
CONTINUOUS
 70
64
  3
Solid line
 72
65
 73
0
 40
0.0
  0
LTYPE
  5
1F5
100
AcDbSymbolTableRecord
100
AcDbLinetypeTableRecord
  2
CENTER
 70
64
  3
____ _ ____ _ ____ _ ____ _ ____ _ ____ _ ____
 72
65
 73
4
 40
0.6
 49
0.375
 74
0
 49
-0.075
 74
0
 49
0.075
 74
0
 49
-0.075
 74
0
  0
LTYPE
  5
1F6
100
AcDbSymbolTableRecord
100
AcDbLinetypeTableRecord
  2
HIDDEN
 70
64
  3
- - - - - - - - - - - - - - - - - - - -
 72
65
 73
2
 40
0.2
 49
0.1
 74
0
 49
-0.1
 74
0
  0
LTYPE
  5
1F7
100
AcDbSymbolTableRecord
100
AcDbLinetypeTableRecord
  2
PHANTOM
 70
64
  3
_____ _ _ _____ _ _ _____ _ _ _____
 72
65
 73
6
 40
0.8
 49
0.45
 74
0
 49
-0.05
 74
0
 49
0.1
 74
0
 49
-0.05
 74
0
 49
0.1
 74
0
 49
-0.05
 74
0
  0
LTYPE
  5
1F8
100
AcDbSymbolTableRecord
100
AcDbLinetypeTableRecord
  2
DOT
 70
64
  3
. . . . . . . . . . . . . . . . . . . .
 72
65
 73
2
 40
0.2
 49
0.1
 74
0
 49
-0.1
 74
0
  0
LTYPE
  5
1F9
100
AcDbSymbolTableRecord
100
AcDbLinetypeTableRecord
  2
DASHED
 70
64
  3
- - - - - - - - - - - - - - - - - - - -
 72
65
 73
2
 40
0.2
 49
0.1
 74
0
 49
-0.1
 74
0
  0
ENDTAB
  0
TABLE
  2
LAYER
  5
2
100
AcDbSymbolTable
 70
36
  0
LAYER
  5
10
100
AcDbSymbolTableRecord
100
AcDbLayerTableRecord
  2
0
 70
0
 62
7
  6
CONTINUOUS
370
-3
390
F
  0
LAYER
  5
1FA
100
AcDbSymbolTableRecord
100
AcDbLayerTableRecord
  2
DEFAULT_1
 70
0
 62
7
  6
CENTER
370
-3
390
F
  0
LAYER
  5
1FB
100
AcDbSymbolTableRecord
100
AcDbLayerTableRecord
  2
DEFAULT_2
 70
0
 62
7
  6
HIDDEN
370
-3
390
F
  0
LAYER
  5
1FC
100
AcDbSymbolTableRecord
100
AcDbLayerTableRecord
  2
DEFAULT_3
 70
0
 62
7
  6
PHANTOM
370
-3
390
F
  0
LAYER
  5
1FD
100
AcDbSymbolTableRecord
100
AcDbLayerTableRecord
  2
ASSI
 70
0
 62
7
  6
CONTINUOUS
370
-3
390
F
  0
LAYER
  5
1FE
100
AcDbSymbolTableRecord
100
AcDbLayerTableRecord
  2
COORDINATE
 70
0
 62
7
  6
CONTINUOUS
370
-3
390
F
  0
LAYER
  5
1FF
100
AcDbSymbolTableRecord
100
AcDbLayerTableRecord
  2
COORD_ORIGINE
 70
0
 62
7
  6
CONTINUOUS
370
-3
390
F
  0
LAYER
  5
200
100
AcDbSymbolTableRecord
100
AcDbLayerTableRecord
  2
COPY_PUBLISH
 70
0
 62
7
  6
CONTINUOUS
370
-3
390
F
  0
LAYER
  5
201
100
AcDbSymbolTableRecord
100
AcDbLayerTableRecord
  2
COSMETIC
 70
0
 62
7
  6
CONTINUOUS
370
-3
390
F
  0
LAYER
  5
202
100
AcDbSymbolTableRecord
100
AcDbLayerTableRecord
  2
COSMETICI
 70
0
 62
7
  6
CONTINUOUS
370
-3
390
F
  0
LAYER
  5
203
100
AcDbSymbolTableRecord
100
AcDbLayerTableRecord
  2
CURVE
 70
0
 62
7
  6
CONTINUOUS
370
-3
390
F
  0
LAYER
  5
204
100
AcDbSymbolTableRecord
100
AcDbLayerTableRecord
  2
CURVE_TASSELLI
 70
0
 62
7
  6
CONTINUOUS
370
-3
390
F
  0
LAYER
  5
205
100
AcDbSymbolTableRecord
100
AcDbLayerTableRecord
  2
DRAFT
 70
0
 62
7
  6
CONTINUOUS
370
-3
390
F
  0
LAYER
  5
206
100
AcDbSymbolTableRecord
100
AcDbLayerTableRecord
  2
IMPORT_IGES
 70
0
 62
7
  6
CONTINUOUS
370
-3
390
F
  0
LAYER
  5
207
100
AcDbSymbolTableRecord
100
AcDbLayerTableRecord
  2
INTFCLR_2
 70
0
 62
7
  6
CONTINUOUS
370
-3
390
F
  0
LAYER
  5
208
100
AcDbSymbolTableRecord
100
AcDbLayerTableRecord
  2
INTFCLR_3
 70
0
 62
7
  6
CONTINUOUS
370
-3
390
F
  0
LAYER
  5
209
100
AcDbSymbolTableRecord
100
AcDbLayerTableRecord
  2
INTF_1
 70
0
 62
7
  6
CONTINUOUS
370
-3
390
F
  0
LAYER
  5
20A
100
AcDbSymbolTableRecord
100
AcDbLayerTableRecord
  2
INTF_14
 70
0
 62
7
  6
CONTINUOUS
370
-3
390
F
  0
LAYER
  5
20B
100
AcDbSymbolTableRecord
100
AcDbLayerTableRecord
  2
INTF_15
 70
0
 62
7
  6
CONTINUOUS
370
-3
390
F
  0
LAYER
  5
20C
100
AcDbSymbolTableRecord
100
AcDbLayerTableRecord
  2
INTF_18
 70
0
 62
7
  6
CONTINUOUS
370
-3
390
F
  0
LAYER
  5
20D
100
AcDbSymbolTableRecord
100
AcDbLayerTableRecord
  2
INTF_19
 70
0
 62
7
  6
CONTINUOUS
370
-3
390
F
  0
LAYER
  5
20E
100
AcDbSymbolTableRecord
100
AcDbLayerTableRecord
  2
INTF_2
 70
0
 62
7
  6
CONTINUOUS
370
-3
390
F
  0
LAYER
  5
20F
100
AcDbSymbolTableRecord
100
AcDbLayerTableRecord
  2
INTF_7
 70
0
 62
7
  6
CONTINUOUS
370
-3
390
F
  0
LAYER
  5
210
100
AcDbSymbolTableRecord
100
AcDbLayerTableRecord
  2
INTF_CYAN
 70
0
 62
7
  6
CONTINUOUS
370
-3
390
F
  0
LAYER
  5
211
100
AcDbSymbolTableRecord
100
AcDbLayerTableRecord
  2
INTF_YELLOW
 70
0
 62
7
  6
CONTINUOUS
370
-3
390
F
  0
LAYER
  5
212
100
AcDbSymbolTableRecord
100
AcDbLayerTableRecord
  2
LIVELLO_1
 70
0
 62
7
  6
CONTINUOUS
370
-3
390
F
  0
LAYER
  5
213
100
AcDbSymbolTableRecord
100
AcDbLayerTableRecord
  2
NOTE
 70
0
 62
7
  6
CONTINUOUS
370
-3
390
F
  0
LAYER
  5
214
100
AcDbSymbolTableRecord
100
AcDbLayerTableRecord
  2
PIANI
 70
0
 62
7
  6
CONTINUOUS
370
-3
390
F
  0
LAYER
  5
215
100
AcDbSymbolTableRecord
100
AcDbLayerTableRecord
  2
PIANI_ORIGINE
 70
0
 62
7
  6
CONTINUOUS
370
-3
390
F
  0
LAYER
  5
216
100
AcDbSymbolTableRecord
100
AcDbLayerTableRecord
  2
PIANI_RIFERIMENTO
 70
0
 62
7
  6
CONTINUOUS
370
-3
390
F
  0
LAYER
  5
217
100
AcDbSymbolTableRecord
100
AcDbLayerTableRecord
  2
PUNTI
 70
0
 62
7
  6
CONTINUOUS
370
-3
390
F
  0
LAYER
  5
218
100
AcDbSymbolTableRecord
100
AcDbLayerTableRecord
  2
RACCORDO
 70
0
 62
7
  6
CONTINUOUS
370
-3
390
F
  0
LAYER
  5
219
100
AcDbSymbolTableRecord
100
AcDbLayerTableRecord
  2
RGB__255__255__255__
 70
0
 62
7
  6
CONTINUOUS
370
-3
390
F
  0
LAYER
  5
21A
100
AcDbSymbolTableRecord
100
AcDbLayerTableRecord
  2
RGB____0____0____0__
 70
0
 62
7
  6
CONTINUOUS
370
-3
390
F
  0
LAYER
  5
21B
100
AcDbSymbolTableRecord
100
AcDbLayerTableRecord
  2
SIMBOLI
 70
0
 62
7
  6
CONTINUOUS
370
-3
390
F
  0
LAYER
  5
21C
100
AcDbSymbolTableRecord
100
AcDbLayerTableRecord
  2
SMUSSO
 70
0
 62
7
  6
CONTINUOUS
370
-3
390
F
  0
LAYER
  5
21D
100
AcDbSymbolTableRecord
100
AcDbLayerTableRecord
  2
SNAPLINE
 70
0
 62
7
  6
CONTINUOUS
370
-3
390
F
  0
LAYER
  5
21E
100
AcDbSymbolTableRecord
100
AcDbLayerTableRecord
  2
SUPERFICI
 70
0
 62
7
  6
CONTINUOUS
370
-3
390
F
  0
LAYER
  5
21F
100
AcDbSymbolTableRecord
100
AcDbLayerTableRecord
  2
TRASH
 70
0
 62
7
  6
CONTINUOUS
370
-3
390
F
  0
LAYER
  5
220
100
AcDbSymbolTableRecord
100
AcDbLayerTableRecord
  2
WHITE
 70
0
 62
7
  6
CONTINUOUS
370
-3
390
F
  0
LAYER
  5
221
100
AcDbSymbolTableRecord
100
AcDbLayerTableRecord
  2
XSEC_DATUMS
 70
0
 62
7
  6
CONTINUOUS
370
-3
390
F
  0
ENDTAB
  0
TABLE
  2
STYLE
  5
3
100
AcDbSymbolTable
 70
1
  0
STYLE
  5
11
100
AcDbSymbolTableRecord
100
AcDbTextStyleTableRecord
  2
STANDARD
 70
0
 40
0.0
 41
0.8
 50
0.0
 71
0
 42
0.2
  3
txt
  4

  0
STYLE
  5
222
100
AcDbSymbolTableRecord
100
AcDbTextStyleTableRecord
  2
TEXTSTYLE_1
 70
0
 40
0.0
 41
0.8
 50
0.0
 71
0
 42
0.2
  3
gdt
  4

  0
ENDTAB
  0
TABLE
  2
VIEW
  5
6
100
AcDbSymbolTable
 70
0
  0
ENDTAB
  0
TABLE
  2
UCS
  5
7
100
AcDbSymbolTable
 70
0
  0
ENDTAB
  0
TABLE
  2
APPID
  5
9
100
AcDbSymbolTable
 70
1
  0
APPID
  5
223
100
AcDbSymbolTableRecord
100
AcDbRegAppTableRecord
  2
ACAD
 70
0
  0
ENDTAB
  0
TABLE
  2
BLOCK_RECORD
  5
1
100
AcDbSymbolTable
 70
0
  0
BLOCK_RECORD
  5
224
100
AcDbSymbolTableRecord
100
AcDbBlockTableRecord
  2
*Model_Space
  0
BLOCK_RECORD
  5
225
100
AcDbSymbolTableRecord
100
AcDbBlockTableRecord
  2
*Paper_Space
  0
BLOCK_RECORD
  5
226
100
AcDbSymbolTableRecord
100
AcDbBlockTableRecord
  2
_FILLED
  0
ENDTAB
  0
TABLE
  2
DIMSTYLE
  5
A
100
AcDbSymbolTable
 70
1
100
AcDbDimStyleTable
 71
0
  0
DIMSTYLE
105
227
100
AcDbSymbolTableRecord
100
AcDbDimStyleTableRecord
  2
STANDARD
 70
0
  3

  4

 40
1.0
 41
3.0
 42
0.5
 43
0.38
 44
1.5
 45
0.0
 46
0.0
 47
0.01
 48
0.01
140
3.0
141
0.09
142
0.0
143
25.4
144
1.0
145
0.0
146
1.0
147
0.625
 71
1
 72
0
 73
0
 74
0
 75
0
 76
0
 77
1
 78
8
 79
2
170
0
171
1
172
0
173
0
174
0
175
0
176
0
177
0
178
0
270
2
179
2
271
2
272
2
273
2
274
2
275
0
280
0
281
0
282
0
283
1
284
8
285
0
286
0
287
3
288
0
340
11
278
44
341
226
342
226
343
226
344
226
  0
ENDTAB
  0
ENDSEC
  0
SECTION
  2
BLOCKS
  0
BLOCK
  5
20
100
AcDbEntity
  8
0
100
AcDbBlockBegin
  2
*Model_Space
 70
0
 10
0.0
 20
0.0
 30
0.0
  3
*Model_Space
  1

  0
ENDBLK
  5
21
100
AcDbEntity
  8
0
100
AcDbBlockEnd
  0
BLOCK
  5
1C
100
AcDbEntity
  8
0
100
AcDbBlockBegin
  2
*Paper_Space
 70
0
 10
0.0
 20
0.0
 30
0.0
  3
*Paper_Space
  1

  0
ENDBLK
  5
1D
100
AcDbEntity
  8
0
100
AcDbBlockEnd
  0
BLOCK
  5
228
100
AcDbEntity
  8
0
100
AcDbBlockBegin
  2
_FILLED
 70
64
 10
0.0
 20
0.0
  3
_FILLED
  1

  0
SOLID
  5
229
100
AcDbEntity
  8
0
  6
BYBLOCK
 62
0
100
AcDbTrace
 10
0.0
 20
0.0
 11
-1.0
 21
0.3166666667
 12
-1.0
 22
-0.3166666667
 13
-1.0
 23
-0.3166666667
  0
ENDBLK
  5
22A
100
AcDbEntity
  8
0
  6
BYBLOCK
 62
0
100
AcDbBlockEnd
  0
ENDSEC
  0
SECTION
  2
ENTITIES
  0
LINE
  5
22B
100
AcDbEntity
  8
SMUSSO
100
AcDbLine
 62
7
  6
CONTINUOUS
 10
-33.8239204267
 20
53.4389909435
 11
-31.3490466925
 21
54.8679125652
  0
LINE
  5
22C
100
AcDbEntity
  8
0
100
AcDbLine
 62
250
  6
CONTINUOUS
 10
-28.3438428725
 20
55.4599659624
 11
-30.3944525379
 21
54.3172991127
  0
LINE
  5
22D
100
AcDbEntity
  8
ASSI
100
AcDbLine
 62
250
  6
CONTINUOUS
 10
-28.3438428725
 20
55.4599659624
 11
-30.3944525379
 21
54.3172991127
  0
LINE
  5
22E
100
AcDbEntity
  8
0
100
AcDbLine
 62
7
  6
CONTINUOUS
 10
-28.8221150259
 20
55.5215408444
 11
-30.6973299523
 21
54.4916194873
  0
LINE
  5
22F
100
AcDbEntity
  8
ASSI
100
AcDbLine
 62
7
  6
CONTINUOUS
 10
-28.8221150259
 20
55.5215408444
 11
-30.6973299523
 21
54.4916194873
  0
LINE
  5
230
100
AcDbEntity
  8
0
100
AcDbLine
 62
250
  6
CONTINUOUS
 10
31.9442330746
 20
-47.4319617058
 11
32.8527921808
 21
-47.1934454338
  0
LINE
  5
231
100
AcDbEntity
  8
0
100
AcDbLine
 62
250
  6
CONTINUOUS
 10
33.2641780351
 20
-46.8178026574
 11
31.9442330746
 21
-47.1083937186
  0
LINE
  5
232
100
AcDbEntity
  8
0
100
AcDbLine
 62
250
  6
CONTINUOUS
 10
32.7967684811
 20
-43.8805554191
 11
32.3069201281
 21
-44.0122166184
  0
LINE
  5
233
100
AcDbEntity
  8
0
100
AcDbLine
 62
250
  6
CONTINUOUS
 10
33.2641780351
 20
-43.756668618
 11
33.0006699588
 21
-43.8248751572
  0
LINE
  5
234
100
AcDbEntity
  8
0
100
AcDbLine
 62
250
  6
CONTINUOUS
 10
31.9442330746
 20
-44.3795981901
 11
33.2641780351
 21
-44.0769454135
  0
LINE
  5
235
100
AcDbEntity
  8
0
100
AcDbLine
 62
250
  6
CONTINUOUS
 10
31.9442330746
 20
-45.3823967817
 11
32.6770703385
 21
-45.2680210018
  0
LINE
  5
236
100
AcDbEntity
  8
0
100
AcDbLine
 62
250
  6
CONTINUOUS
 10
33.2641780351
 20
-44.8960504399
 11
32.4058719174
 21
-45.0242474301
  0
LINE
  5
237
100
AcDbEntity
  8
SMUSSO
100
AcDbLine
 62
7
  6
CONTINUOUS
 10
-33.8239204267
 20
53.4389909435
 11
-33.8239204267
 21
-19.226903146
  0
LINE
  5
238
100
AcDbEntity
  8
0
100
AcDbLine
 62
250
  6
CONTINUOUS
 10
-18.3382819187
 20
25.6373139557
 11
-17.4897947853
 21
26.1272197924
  0
LINE
  5
239
100
AcDbEntity
  8
SMUSSO
100
AcDbLine
 62
7
  6
CONTINUOUS
 10
-33.8239204267
 20
-19.226903146
 11
29.108583099
 21
-55.5633024973
  0
LWPOLYLINE
  5
23A
100
AcDbEntity
  8
0
100
AcDbPolyline
 62
7
  6
CONTINUOUS
 90
13
 70
0
 10
-15.2952686884
 20
22.6506093667
 10
-15.2804242524
 20
22.6604843315
 10
-15.2620456953
 20
22.6748705605
 10
-15.2448620207
 20
22.6909381359
 10
-15.2290769326
 20
22.7085451799
 10
-15.2148322631
 20
22.7275678873
 10
-15.2022210784
 20
22.747932837
 10
-15.1913740921
 20
22.7694923275
 10
-15.1824236616
 20
22.7920300606
 10
-15.175439203
 20
22.8154020828
 10
-15.1704789831
 20
22.8394587052
 10
-15.1675913359
 20
22.8639889334
 10
-15.1667754421
 20
22.8858558709
  0
LWPOLYLINE
  5
23B
100
AcDbEntity
  8
ASSI
100
AcDbPolyline
 62
7
  6
CONTINUOUS
 90
13
 70
0
 10
-15.2952686886
 20
22.6506093666
 10
-15.2804242523
 20
22.6604843315
 10
-15.2620456952
 20
22.6748705606
 10
-15.2448620205
 20
22.690938136
 10
-15.2290769325
 20
22.7085451801
 10
-15.214832263
 20
22.7275678875
 10
-15.2022210783
 20
22.7479328372
 10
-15.191374092
 20
22.7694923276
 10
-15.1824236616
 20
22.7920300607
 10
-15.175439203
 20
22.8154020828
 10
-15.1704789831
 20
22.8394587052
 10
-15.1675913359
 20
22.8639889334
 10
-15.1667754421
 20
22.8858558709
  0
LINE
  5
23C
100
AcDbEntity
  8
0
100
AcDbLine
 62
250
  6
CONTINUOUS
 10
-15.8634081845
 20
22.3982133357
 11
-15.2369404792
 21
22.7856303618
  0
LINE
  5
23D
100
AcDbEntity
  8
ASSI
100
AcDbLine
 62
250
  6
CONTINUOUS
 10
-15.8634081845
 20
22.3982133357
 11
-15.2369404792
 21
22.7856303618
  0
LINE
  5
23E
100
AcDbEntity
  8
0
100
AcDbLine
 62
7
  6
CONTINUOUS
 10
-15.8634081845
 20
22.299263346
 11
-15.2952036072
 21
22.6506495799
  0
LINE
  5
23F
100
AcDbEntity
  8
ASSI
100
AcDbLine
 62
7
  6
CONTINUOUS
 10
-15.8634081845
 20
22.299263346
 11
-15.2952036072
 21
22.6506495799
  0
LWPOLYLINE
  5
240
100
AcDbEntity
  8
0
100
AcDbPolyline
 62
7
  6
CONTINUOUS
 90
11
 70
0
 10
-15.2588682872
 20
16.2154016053
 10
-15.2567542824
 20
16.2170463884
 10
-15.2386964588
 20
16.2327668529
 10
-15.222250768
 20
16.2502454279
 10
-15.2076661048
 20
16.2692589371
 10
-15.1950856593
 20
16.2896821662
 10
-15.184665347
 20
16.3113196069
 10
-15.1765487681
 20
16.3339046705
 10
-15.1708316319
 20
16.3571975755
 10
-15.1675795544
 20
16.3809872323
 10
-15.1667819317
 20
16.4001416272
  0
LWPOLYLINE
  5
241
100
AcDbEntity
  8
ASSI
100
AcDbPolyline
 62
7
  6
CONTINUOUS
 90
11
 70
0
 10
-15.2588682873
 20
16.2154016053
 10
-15.2567542896
 20
16.2170463828
 10
-15.2386964659
 20
16.2327668462
 10
-15.2222507747
 20
16.2502454203
 10
-15.2076661106
 20
16.2692589288
 10
-15.1950856641
 20
16.2896821575
 10
-15.1846653507
 20
16.311319598
 10
-15.1765487707
 20
16.3339046619
 10
-15.1708316333
 20
16.3571975676
 10
-15.1675795549
 20
16.3809872255
 10
-15.1667819318
 20
16.400141624
  0
LINE
  5
242
100
AcDbEntity
  8
0
100
AcDbLine
 62
250
  6
CONTINUOUS
 10
-15.484652995
 20
16.1031633106
 11
-15.2369404792
 21
16.2937105342
  0
LINE
  5
243
100
AcDbEntity
  8
ASSI
100
AcDbLine
 62
250
  6
CONTINUOUS
 10
-15.484652995
 20
16.1031633106
 11
-15.2369404792
 21
16.2937105342
  0
LINE
  5
244
100
AcDbEntity
  8
0
100
AcDbLine
 62
7
  6
CONTINUOUS
 10
-15.5065791509
 20
16.0248556525
 11
-15.2588666618
 21
16.2154028556
  0
LINE
  5
245
100
AcDbEntity
  8
ASSI
100
AcDbLine
 62
7
  6
CONTINUOUS
 10
-15.5065791509
 20
16.0248556525
 11
-15.2588666618
 21
16.2154028556
  0
LINE
  5
246
100
AcDbEntity
  8
0
100
AcDbLine
 62
250
  6
CONTINUOUS
 10
-15.4490402048
 20
17.3631349177
 11
-15.8634081845
 21
17.123883218
  0
LINE
  5
247
100
AcDbEntity
  8
ASSI
100
AcDbLine
 62
250
  6
CONTINUOUS
 10
-15.4490402048
 20
17.3631349177
 11
-15.8634081845
 21
17.123883218
  0
LINE
  5
248
100
AcDbEntity
  8
0
100
AcDbLine
 62
250
  6
CONTINUOUS
 10
-15.2369404792
 20
16.995767417
 11
-15.8634081845
 21
16.6340515735
  0
LINE
  5
249
100
AcDbEntity
  8
ASSI
100
AcDbLine
 62
250
  6
CONTINUOUS
 10
-15.2369404792
 20
16.995767417
 11
-15.8634081845
 21
16.6340515735
  0
LINE
  5
24A
100
AcDbEntity
  8
0
100
AcDbLine
 62
7
  6
CONTINUOUS
 10
-19.0453886999
 20
-9.3076138911
 11
-19.0453886999
 21
25.6373139557
  0
LINE
  5
24B
100
AcDbEntity
  8
0
100
AcDbLine
 62
7
  6
CONTINUOUS
 10
-18.3382819187
 20
-9.3076138911
 11
-18.3382819187
 21
25.6373139557
  0
LINE
  5
24C
100
AcDbEntity
  8
0
100
AcDbLine
 62
7
  6
CONTINUOUS
 10
12.4208630629
 20
-28.8638327647
 11
-17.8433071718
 21
-11.3896801703
  0
LINE
  5
24D
100
AcDbEntity
  8
0
100
AcDbLine
 62
7
  6
CONTINUOUS
 10
12.7744164535
 20
-28.2514603296
 11
-17.4897537812
 21
-10.7773077352
  0
LWPOLYLINE
  5
24E
100
AcDbEntity
  8
0
100
AcDbPolyline
 62
7
  6
CONTINUOUS
 90
14
 70
0
 10
-15.1667754876
 20
-2.0911108891
 10
-15.1680304123
 20
-2.0636596513
 10
-15.1715234851
 20
-2.037658799
 10
-15.1772115185
 20
-2.0119187308
 10
-15.1850787174
 20
-1.9864913126
 10
-15.1948560295
 20
-1.9620590011
 10
-15.2066426977
 20
-1.9382620654
 10
-15.2205358604
 20
-1.9150660807
 10
-15.2359859644
 20
-1.893404881
 10
-15.2529887659
 20
-1.8731971839
 10
-15.271814929
 20
-1.8542083795
 10
-15.2919726237
 20
-1.8370270838
 10
-15.3133787309
 20
-1.8217200466
 10
-15.3272207964
 20
-1.8132230654
  0
LWPOLYLINE
  5
24F
100
AcDbEntity
  8
ASSI
100
AcDbPolyline
 62
7
  6
CONTINUOUS
 90
14
 70
0
 10
-15.1667754876
 20
-2.0911108886
 10
-15.1680304182
 20
-2.0636595863
 10
-15.1715234969
 20
-2.0376587317
 10
-15.1772115363
 20
-2.0119186636
 10
-15.1850787409
 20
-1.9864912465
 10
-15.1948560581
 20
-1.9620589372
 10
-15.2066427303
 20
-1.9382620055
 10
-15.2205358962
 20
-1.9150660262
 10
-15.2359860021
 20
-1.8934048324
 10
-15.2529888042
 20
-1.873197142
 10
-15.2718149663
 20
-1.8542083448
 10
-15.2919726592
 20
-1.8370270562
 10
-15.3133787632
 20
-1.8217200256
 10
-15.3272207964
 20
-1.8132230654
  0
LWPOLYLINE
  5
250
100
AcDbEntity
  8
0
100
AcDbPolyline
 62
7
  6
CONTINUOUS
 90
14
 70
0
 10
-15.1667754876
 20
17.0959406155
 10
-15.1680304123
 20
17.1233918533
 10
-15.1715234851
 20
17.1493927057
 10
-15.1772115185
 20
17.1751327738
 10
-15.1850787174
 20
17.200560192
 10
-15.1948560295
 20
17.2249925035
 10
-15.2066426977
 20
17.2487894392
 10
-15.2205358604
 20
17.2719854239
 10
-15.2359859644
 20
17.2936466236
 10
-15.2529887659
 20
17.3138543207
 10
-15.271814929
 20
17.3328431252
 10
-15.2919726237
 20
17.3500244208
 10
-15.3133787309
 20
17.365331458
 10
-15.3272207964
 20
17.3738284392
  0
LWPOLYLINE
  5
251
100
AcDbEntity
  8
ASSI
100
AcDbPolyline
 62
7
  6
CONTINUOUS
 90
14
 70
0
 10
-15.1667754876
 20
17.0959406161
 10
-15.1680304182
 20
17.1233919184
 10
-15.1715234969
 20
17.149392773
 10
-15.1772115363
 20
17.175132841
 10
-15.1850787409
 20
17.2005602582
 10
-15.1948560581
 20
17.2249925674
 10
-15.2066427303
 20
17.2487894991
 10
-15.2205358962
 20
17.2719854784
 10
-15.2359860021
 20
17.2936466722
 10
-15.2529888042
 20
17.3138543626
 10
-15.2718149663
 20
17.3328431598
 10
-15.2919726592
 20
17.3500244485
 10
-15.3133787632
 20
17.365331479
 10
-15.3272207964
 20
17.3738284392
  0
LWPOLYLINE
  5
252
100
AcDbEntity
  8
0
100
AcDbPolyline
 62
7
  6
CONTINUOUS
 90
15
 70
0
 10
-15.1667821554
 20
4.3947494205
 10
-15.1667958921
 20
4.397167145
 10
-15.1681397048
 20
4.4184955834
 10
-15.1716596628
 20
4.4395474441
 10
-15.1773261012
 20
4.4601572952
 10
-15.1850642238
 20
4.4800626602
 10
-15.1947826992
 20
4.4990636807
 10
-15.2064509088
 20
4.5170911292
 10
-15.2200231345
 20
4.5340108971
 10
-15.2352848462
 20
4.5495258126
 10
-15.2519712095
 20
4.563411467
 10
-15.2699804654
 20
4.5756420904
 10
-15.2890364785
 20
4.586110419
 10
-15.30870168
 20
4.5947160965
 10
-15.311385437
 20
4.5957368235
  0
LWPOLYLINE
  5
253
100
AcDbEntity
  8
ASSI
100
AcDbPolyline
 62
7
  6
CONTINUOUS
 90
15
 70
0
 10
-15.1667821555
 20
4.3947494228
 10
-15.1667958919
 20
4.3971671153
 10
-15.1681397006
 20
4.4184955473
 10
-15.1716596535
 20
4.4395474021
 10
-15.1773260857
 20
4.4601572487
 10
-15.1850642015
 20
4.4800626105
 10
-15.1947826696
 20
4.4990636295
 10
-15.2064508723
 20
4.5170910786
 10
-15.2200230918
 20
4.5340108489
 10
-15.2352847984
 20
4.5495257686
 10
-15.2519711591
 20
4.5634114291
 10
-15.2699804158
 20
4.5756420601
 10
-15.2890364328
 20
4.5861103966
 10
-15.3087016406
 20
4.5947160812
 10
-15.3113854366
 20
4.5957368233
  0
LINE
  5
254
100
AcDbEntity
  8
RACCORDO
100
AcDbLine
 62
7
  6
CONTINUOUS
 10
-15.8634081845
 20
25.1880777562
 11
-15.8634081845
 21
-7.8786528144
  0
LINE
  5
255
100
AcDbEntity
  8
0
100
AcDbLine
 62
250
  6
CONTINUOUS
 10
-15.7238816751
 20
4.3811960492
 11
-15.7238816751
 21
15.6308637762
  0
LINE
  5
256
100
AcDbEntity
  8
ASSI
100
AcDbLine
 62
250
  6
CONTINUOUS
 10
-15.7238816751
 20
4.3811960492
 11
-15.7238816751
 21
15.6308637762
  0
LINE
  5
257
100
AcDbEntity
  8
0
100
AcDbLine
 62
7
  6
CONTINUOUS
 10
-15.6677496351
 20
4.4614134566
 11
-15.6677496351
 21
15.7110811838
  0
LINE
  5
258
100
AcDbEntity
  8
ASSI
100
AcDbLine
 62
7
  6
CONTINUOUS
 10
-15.6677496351
 20
4.4614134566
 11
-15.6677496351
 21
15.7110811838
  0
LINE
  5
259
100
AcDbEntity
  8
0
100
AcDbLine
 62
250
  6
CONTINUOUS
 10
-15.2369404792
 20
24.8263631547
 11
-15.2369404792
 21
22.7856303618
  0
LINE
  5
25A
100
AcDbEntity
  8
ASSI
100
AcDbLine
 62
250
  6
CONTINUOUS
 10
-15.2369404792
 20
24.8263631547
 11
-15.2369404792
 21
22.7856303618
  0
LINE
  5
25B
100
AcDbEntity
  8
0
100
AcDbLine
 62
250
  6
CONTINUOUS
 10
-15.2369404792
 20
16.995767417
 11
-15.2369404792
 21
16.2937105342
  0
LINE
  5
25C
100
AcDbEntity
  8
ASSI
100
AcDbLine
 62
250
  6
CONTINUOUS
 10
-15.2369404792
 20
16.995767417
 11
-15.2369404792
 21
16.2937105342
  0
LINE
  5
25D
100
AcDbEntity
  8
0
100
AcDbLine
 62
250
  6
CONTINUOUS
 10
-15.2369404792
 20
4.30063574
 11
-15.2369404792
 21
3.5985788572
  0
LINE
  5
25E
100
AcDbEntity
  8
ASSI
100
AcDbLine
 62
250
  6
CONTINUOUS
 10
-15.2369404792
 20
4.30063574
 11
-15.2369404792
 21
3.5985788572
  0
LINE
  5
25F
100
AcDbEntity
  8
0
100
AcDbLine
 62
250
  6
CONTINUOUS
 10
-15.2369404792
 20
-2.1912840876
 11
-15.2369404792
 21
-9.1858594167
  0
LINE
  5
260
100
AcDbEntity
  8
ASSI
100
AcDbLine
 62
250
  6
CONTINUOUS
 10
-15.2369404792
 20
-2.1912840876
 11
-15.2369404792
 21
-9.1858594167
  0
LINE
  5
261
100
AcDbEntity
  8
0
100
AcDbLine
 62
7
  6
CONTINUOUS
 10
-15.1667754293
 20
24.7858507343
 11
-15.1667754293
 21
22.8859021302
  0
LINE
  5
262
100
AcDbEntity
  8
ASSI
100
AcDbLine
 62
7
  6
CONTINUOUS
 10
-15.1667754293
 20
24.7858507343
 11
-15.1667754293
 21
22.8859021302
  0
LINE
  5
263
100
AcDbEntity
  8
0
100
AcDbLine
 62
7
  6
CONTINUOUS
 10
-15.1667754293
 20
17.0960391764
 11
-15.1667754293
 21
16.4001064426
  0
LINE
  5
264
100
AcDbEntity
  8
ASSI
100
AcDbLine
 62
7
  6
CONTINUOUS
 10
-15.1667754293
 20
17.0960391764
 11
-15.1667754293
 21
16.4001064422
  0
LINE
  5
265
100
AcDbEntity
  8
0
100
AcDbLine
 62
7
  6
CONTINUOUS
 10
-15.1667754293
 20
4.3947840795
 11
-15.1667754293
 21
3.6988506256
  0
LINE
  5
266
100
AcDbEntity
  8
ASSI
100
AcDbLine
 62
7
  6
CONTINUOUS
 10
-15.1667754293
 20
4.3947840793
 11
-15.1667754293
 21
3.6988506256
  0
LINE
  5
267
100
AcDbEntity
  8
0
100
AcDbLine
 62
7
  6
CONTINUOUS
 10
-15.1667754293
 20
-2.0910123283
 11
-15.1667754293
 21
-9.2444178344
  0
LINE
  5
268
100
AcDbEntity
  8
ASSI
100
AcDbLine
 62
7
  6
CONTINUOUS
 10
-15.1667754293
 20
-2.0910123283
 11
-15.1667754293
 21
-9.2444178344
  0
LWPOLYLINE
  5
269
100
AcDbEntity
  8
0
100
AcDbPolyline
 62
7
  6
CONTINUOUS
 90
20
 70
0
 10
-15.6677496359
 20
15.7110910316
 10
-15.6676901774
 20
15.7159678637
 10
-15.6669188706
 20
15.73004306
 10
-15.6651044728
 20
15.7460438273
 10
-15.6620745878
 20
15.7638348953
 10
-15.6577689539
 20
15.7829061624
 10
-15.6521452088
 20
15.8029806496
 10
-15.6451751287
 20
15.8238379647
 10
-15.6369510792
 20
15.8450117246
 10
-15.6275533548
 20
15.8662087784
 10
-15.6170684328
 20
15.8871951487
 10
-15.6056823098
 20
15.9076035913
 10
-15.5935542905
 20
15.9271917596
 10
-15.580840843
 20
15.9457745329
 10
-15.5677700128
 20
15.9631051272
 10
-15.5545249206
 20
15.9790462868
 10
-15.5413129139
 20
15.9934711631
 10
-15.5284319652
 20
16.0061975246
 10
-15.5160736649
 20
16.0172009304
 10
-15.5065755428
 20
16.0248584282
  0
LWPOLYLINE
  5
26A
100
AcDbEntity
  8
ASSI
100
AcDbPolyline
 62
7
  6
CONTINUOUS
 90
20
 70
0
 10
-15.6677496359
 20
15.7110910318
 10
-15.6676901774
 20
15.715967866
 10
-15.6669188705
 20
15.730043062
 10
-15.6651044726
 20
15.7460438291
 10
-15.6620745874
 20
15.763834897
 10
-15.6577689535
 20
15.7829061642
 10
-15.6521452082
 20
15.8029806515
 10
-15.6451751281
 20
15.8238379665
 10
-15.6369510786
 20
15.8450117262
 10
-15.6275533542
 20
15.8662087798
 10
-15.6170684322
 20
15.8871951499
 10
-15.6056823093
 20
15.9076035922
 10
-15.59355429
 20
15.9271917603
 10
-15.5808408425
 20
15.9457745336
 10
-15.5677700122
 20
15.9631051279
 10
-15.5545249199
 20
15.9790462877
 10
-15.541312913
 20
15.9934711639
 10
-15.5284319645
 20
16.0061975252
 10
-15.5160736647
 20
16.0172009306
 10
-15.5065755429
 20
16.0248584281
  0
LINE
  5
26B
100
AcDbEntity
  8
RACCORDO
100
AcDbLine
 62
7
  6
CONTINUOUS
 10
-15.0148800471
 20
-9.3483466586
 11
13.622944591
 21
-25.8834676883
  0
LINE
  5
26C
100
AcDbEntity
  8
0
100
AcDbLine
 62
7
  6
CONTINUOUS
 10
11.7844669599
 20
-24.7809329572
 11
7.8953796634
 21
-22.5354226939
  0
LINE
  5
26D
100
AcDbEntity
  8
ASSI
100
AcDbLine
 62
7
  6
CONTINUOUS
 10
11.7844669599
 20
-24.7809329572
 11
7.8953796634
 21
-22.5354226939
  0
LINE
  5
26E
100
AcDbEntity
  8
0
100
AcDbLine
 62
7
  6
CONTINUOUS
 10
-4.1254356168
 20
-15.5947546073
 11
-8.0145229133
 21
-13.349244344
  0
LINE
  5
26F
100
AcDbEntity
  8
ASSI
100
AcDbLine
 62
7
  6
CONTINUOUS
 10
-4.1254356168
 20
-15.5947546073
 11
-8.0145229133
 21
-13.349244344
  0
LINE
  5
270
100
AcDbEntity
  8
0
100
AcDbLine
 62
7
  6
CONTINUOUS
 10
12.0319543333
 20
-24.760507391
 11
8.0368010196
 21
-22.4537677752
  0
LINE
  5
271
100
AcDbEntity
  8
ASSI
100
AcDbLine
 62
7
  6
CONTINUOUS
 10
12.0319543333
 20
-24.760507391
 11
8.0368010196
 21
-22.4537677752
  0
LINE
  5
272
100
AcDbEntity
  8
0
100
AcDbLine
 62
7
  6
CONTINUOUS
 10
-3.8779482434
 20
-15.5743290412
 11
-7.8731015571
 21
-13.2675894253
  0
LINE
  5
273
100
AcDbEntity
  8
ASSI
100
AcDbLine
 62
7
  6
CONTINUOUS
 10
-3.8779482434
 20
-15.5743290412
 11
-7.8731015571
 21
-13.2675894253
  0
LINE
  5
274
100
AcDbEntity
  8
0
100
AcDbLine
 62
7
  6
CONTINUOUS
 10
12.1380203505
 20
-24.5767956605
 11
8.2489330539
 21
-22.3312853972
  0
LINE
  5
275
100
AcDbEntity
  8
ASSI
100
AcDbLine
 62
7
  6
CONTINUOUS
 10
12.1380203505
 20
-24.5767956605
 11
8.2489330539
 21
-22.3312853972
  0
LINE
  5
276
100
AcDbEntity
  8
0
100
AcDbLine
 62
7
  6
CONTINUOUS
 10
-3.7718822262
 20
-15.3906173106
 11
-7.6609695227
 21
-13.1451070473
  0
LINE
  5
277
100
AcDbEntity
  8
ASSI
100
AcDbLine
 62
7
  6
CONTINUOUS
 10
-3.7718822262
 20
-15.3906173106
 11
-7.6609695227
 21
-13.1451070473
  0
LINE
  5
278
100
AcDbEntity
  8
0
100
AcDbLine
 62
7
  6
CONTINUOUS
 10
12.3855077239
 20
-24.5563700944
 11
8.3903544102
 21
-22.2496304785
  0
LINE
  5
279
100
AcDbEntity
  8
ASSI
100
AcDbLine
 62
7
  6
CONTINUOUS
 10
12.3855077239
 20
-24.5563700944
 11
8.3903544102
 21
-22.2496304785
  0
LINE
  5
27A
100
AcDbEntity
  8
0
100
AcDbLine
 62
7
  6
CONTINUOUS
 10
-3.5243948528
 20
-15.3701917445
 11
-7.5195481665
 21
-13.0634521287
  0
LINE
  5
27B
100
AcDbEntity
  8
ASSI
100
AcDbLine
 62
7
  6
CONTINUOUS
 10
-3.5243948528
 20
-15.3701917445
 11
-7.5195481665
 21
-13.0634521287
  0
LINE
  5
27C
100
AcDbEntity
  8
0
100
AcDbLine
 62
7
  6
CONTINUOUS
 10
12.4915737411
 20
-24.3726583639
 11
8.6024864445
 21
-22.1271481005
  0
LINE
  5
27D
100
AcDbEntity
  8
ASSI
100
AcDbLine
 62
7
  6
CONTINUOUS
 10
12.4915737411
 20
-24.3726583639
 11
8.6024864445
 21
-22.1271481005
  0
LINE
  5
27E
100
AcDbEntity
  8
0
100
AcDbLine
 62
7
  6
CONTINUOUS
 10
-3.4183288356
 20
-15.186480014
 11
-7.3074161322
 21
-12.9409697507
  0
LINE
  5
27F
100
AcDbEntity
  8
ASSI
100
AcDbLine
 62
7
  6
CONTINUOUS
 10
-3.4183288356
 20
-15.186480014
 11
-7.3074161322
 21
-12.9409697507
  0
LINE
  5
280
100
AcDbEntity
  8
0
100
AcDbLine
 62
7
  6
CONTINUOUS
 10
12.7390611145
 20
-24.3522327977
 11
8.7439078008
 21
-22.0454931819
  0
LINE
  5
281
100
AcDbEntity
  8
ASSI
100
AcDbLine
 62
7
  6
CONTINUOUS
 10
12.7390611145
 20
-24.3522327977
 11
8.7439078008
 21
-22.0454931819
  0
LINE
  5
282
100
AcDbEntity
  8
0
100
AcDbLine
 62
7
  6
CONTINUOUS
 10
-3.1708414622
 20
-15.1660544478
 11
-7.1659947759
 21
-12.859314832
  0
LINE
  5
283
100
AcDbEntity
  8
ASSI
100
AcDbLine
 62
7
  6
CONTINUOUS
 10
-3.1708414622
 20
-15.1660544478
 11
-7.1659947759
 21
-12.859314832
  0
LINE
  5
284
100
AcDbEntity
  8
0
100
AcDbLine
 62
7
  6
CONTINUOUS
 10
12.8451271317
 20
-24.1685210672
 11
8.9560398351
 21
-21.9230108039
  0
LINE
  5
285
100
AcDbEntity
  8
ASSI
100
AcDbLine
 62
7
  6
CONTINUOUS
 10
12.8451271317
 20
-24.1685210672
 11
8.9560398351
 21
-21.9230108039
  0
LINE
  5
286
100
AcDbEntity
  8
0
100
AcDbLine
 62
7
  6
CONTINUOUS
 10
-3.064775445
 20
-14.9823427173
 11
-6.9538627416
 21
-12.736832454
  0
LINE
  5
287
100
AcDbEntity
  8
ASSI
100
AcDbLine
 62
7
  6
CONTINUOUS
 10
-3.064775445
 20
-14.9823427173
 11
-6.9538627416
 21
-12.736832454
  0
LINE
  5
288
100
AcDbEntity
  8
0
100
AcDbLine
 62
7
  6
CONTINUOUS
 10
13.0926145051
 20
-24.148095501
 11
9.0974611914
 21
-21.8413558852
  0
LINE
  5
289
100
AcDbEntity
  8
ASSI
100
AcDbLine
 62
7
  6
CONTINUOUS
 10
13.0926145051
 20
-24.148095501
 11
9.0974611914
 21
-21.8413558852
  0
LINE
  5
28A
100
AcDbEntity
  8
0
100
AcDbLine
 62
7
  6
CONTINUOUS
 10
-2.8172880716
 20
-14.9619171512
 11
-6.8124413853
 21
-12.6551775353
  0
LINE
  5
28B
100
AcDbEntity
  8
ASSI
100
AcDbLine
 62
7
  6
CONTINUOUS
 10
-2.8172880716
 20
-14.9619171512
 11
-6.8124413853
 21
-12.6551775353
  0
LINE
  5
28C
100
AcDbEntity
  8
0
100
AcDbLine
 62
7
  6
CONTINUOUS
 10
13.1986805223
 20
-23.9643837705
 11
9.3095932257
 21
-21.7188735072
  0
LINE
  5
28D
100
AcDbEntity
  8
ASSI
100
AcDbLine
 62
7
  6
CONTINUOUS
 10
13.1986805223
 20
-23.9643837705
 11
9.3095932257
 21
-21.7188735072
  0
LINE
  5
28E
100
AcDbEntity
  8
0
100
AcDbLine
 62
7
  6
CONTINUOUS
 10
-2.7112220544
 20
-14.7782054206
 11
-6.600309351
 21
-12.5326951573
  0
LINE
  5
28F
100
AcDbEntity
  8
ASSI
100
AcDbLine
 62
7
  6
CONTINUOUS
 10
-2.7112220544
 20
-14.7782054206
 11
-6.600309351
 21
-12.5326951573
  0
LINE
  5
290
100
AcDbEntity
  8
0
100
AcDbLine
 62
7
  6
CONTINUOUS
 10
13.4461678957
 20
-23.9439582044
 11
9.451014582
 21
-21.6372185886
  0
LINE
  5
291
100
AcDbEntity
  8
ASSI
100
AcDbLine
 62
7
  6
CONTINUOUS
 10
13.4461678957
 20
-23.9439582044
 11
9.451014582
 21
-21.6372185886
  0
LINE
  5
292
100
AcDbEntity
  8
0
100
AcDbLine
 62
7
  6
CONTINUOUS
 10
-2.463734681
 20
-14.7577798545
 11
-6.4588879947
 21
-12.4510402387
  0
LINE
  5
293
100
AcDbEntity
  8
ASSI
100
AcDbLine
 62
7
  6
CONTINUOUS
 10
-2.463734681
 20
-14.7577798545
 11
-6.4588879947
 21
-12.4510402387
  0
LINE
  5
294
100
AcDbEntity
  8
0
100
AcDbLine
 62
7
  6
CONTINUOUS
 10
13.5522339128
 20
-23.7602464739
 11
9.6631466163
 21
-21.5147362106
  0
LINE
  5
295
100
AcDbEntity
  8
ASSI
100
AcDbLine
 62
7
  6
CONTINUOUS
 10
13.5522339128
 20
-23.7602464739
 11
9.6631466163
 21
-21.5147362106
  0
LINE
  5
296
100
AcDbEntity
  8
0
100
AcDbLine
 62
7
  6
CONTINUOUS
 10
-2.3576686639
 20
-14.574068124
 11
-6.2467559604
 21
-12.3285578607
  0
LINE
  5
297
100
AcDbEntity
  8
ASSI
100
AcDbLine
 62
7
  6
CONTINUOUS
 10
-2.3576686639
 20
-14.574068124
 11
-6.2467559604
 21
-12.3285578607
  0
LINE
  5
298
100
AcDbEntity
  8
0
100
AcDbLine
 62
7
  6
CONTINUOUS
 10
13.622944591
 20
-23.6377640959
 11
9.8045679726
 21
-21.4330812919
  0
LINE
  5
299
100
AcDbEntity
  8
ASSI
100
AcDbLine
 62
7
  6
CONTINUOUS
 10
13.622944591
 20
-23.6377640959
 11
9.8045679726
 21
-21.4330812919
  0
LINE
  5
29A
100
AcDbEntity
  8
0
100
AcDbLine
 62
7
  6
CONTINUOUS
 10
-2.1101812904
 20
-14.5536425578
 11
-6.1053346041
 21
-12.246902942
  0
LINE
  5
29B
100
AcDbEntity
  8
ASSI
100
AcDbLine
 62
7
  6
CONTINUOUS
 10
-2.1101812904
 20
-14.5536425578
 11
-6.1053346041
 21
-12.246902942
  0
LINE
  5
29C
100
AcDbEntity
  8
0
100
AcDbLine
 62
250
  6
CONTINUOUS
 10
13.622944591
 20
-23.5151683199
 11
9.8381629752
 21
-21.3298828494
  0
LINE
  5
29D
100
AcDbEntity
  8
ASSI
100
AcDbLine
 62
250
  6
CONTINUOUS
 10
13.622944591
 20
-23.5151683199
 11
9.8381629752
 21
-21.3298828494
  0
LINE
  5
29E
100
AcDbEntity
  8
0
100
AcDbLine
 62
250
  6
CONTINUOUS
 10
-1.8254023432
 20
-14.5954864134
 11
-6.0717396015
 21
-12.1437044995
  0
LINE
  5
29F
100
AcDbEntity
  8
ASSI
100
AcDbLine
 62
250
  6
CONTINUOUS
 10
-1.8254023432
 20
-14.5954864134
 11
-6.0717396015
 21
-12.1437044995
  0
LINE
  5
2A0
100
AcDbEntity
  8
0
100
AcDbLine
 62
250
  6
CONTINUOUS
 10
13.622944591
 20
-23.4379706258
 11
9.9122101281
 21
-21.2954390533
  0
LINE
  5
2A1
100
AcDbEntity
  8
ASSI
100
AcDbLine
 62
250
  6
CONTINUOUS
 10
13.622944591
 20
-23.4379706258
 11
9.9122101281
 21
-21.2954390533
  0
LINE
  5
2A2
100
AcDbEntity
  8
0
100
AcDbLine
 62
250
  6
CONTINUOUS
 10
-1.7587299872
 20
-14.556784502
 11
-5.9976924486
 21
-12.1092607035
  0
LINE
  5
2A3
100
AcDbEntity
  8
ASSI
100
AcDbLine
 62
250
  6
CONTINUOUS
 10
-1.7587299872
 20
-14.556784502
 11
-5.9976924486
 21
-12.1092607035
  0
LINE
  5
2A4
100
AcDbEntity
  8
0
100
AcDbLine
 62
250
  6
CONTINUOUS
 10
-17.8433071718
 20
-11.3896801703
 11
-17.4897537812
 21
-10.7773077352
  0
LWPOLYLINE
  5
2A5
100
AcDbEntity
  8
0
100
AcDbPolyline
 62
7
  6
CONTINUOUS
 90
13
 70
0
 10
-15.2952686884
 20
3.463557862
 10
-15.2804242524
 20
3.4734328268
 10
-15.2620456953
 20
3.4878190559
 10
-15.2448620207
 20
3.5038866313
 10
-15.2290769326
 20
3.5214936753
 10
-15.2148322631
 20
3.5405163827
 10
-15.2022210784
 20
3.5608813324
 10
-15.1913740921
 20
3.5824408228
 10
-15.1824236616
 20
3.604978556
 10
-15.175439203
 20
3.6283505781
 10
-15.1704789831
 20
3.6524072005
 10
-15.1675913359
 20
3.6769374287
 10
-15.1667754421
 20
3.6988043662
  0
LWPOLYLINE
  5
2A6
100
AcDbEntity
  8
ASSI
100
AcDbPolyline
 62
7
  6
CONTINUOUS
 90
13
 70
0
 10
-15.2952686886
 20
3.4635578619
 10
-15.2804242523
 20
3.4734328269
 10
-15.2620456952
 20
3.487819056
 10
-15.2448620205
 20
3.5038866314
 10
-15.2290769325
 20
3.5214936755
 10
-15.214832263
 20
3.5405163829
 10
-15.2022210783
 20
3.5608813326
 10
-15.191374092
 20
3.5824408229
 10
-15.1824236616
 20
3.604978556
 10
-15.175439203
 20
3.6283505781
 10
-15.1704789831
 20
3.6524072006
 10
-15.1675913359
 20
3.6769374288
 10
-15.1667754421
 20
3.6988043663
  0
LINE
  5
2A7
100
AcDbEntity
  8
0
100
AcDbLine
 62
250
  6
CONTINUOUS
 10
-15.8634081845
 20
3.2111618311
 11
-15.2369404792
 21
3.5985788572
  0
LINE
  5
2A8
100
AcDbEntity
  8
ASSI
100
AcDbLine
 62
250
  6
CONTINUOUS
 10
-15.8634081845
 20
3.2111618311
 11
-15.2369404792
 21
3.5985788572
  0
LINE
  5
2A9
100
AcDbEntity
  8
0
100
AcDbLine
 62
7
  6
CONTINUOUS
 10
-15.8634081845
 20
3.1122118413
 11
-15.2952036072
 21
3.4635980752
  0
LINE
  5
2AA
100
AcDbEntity
  8
ASSI
100
AcDbLine
 62
7
  6
CONTINUOUS
 10
-15.8634081845
 20
3.1122118413
 11
-15.2952036072
 21
3.4635980752
  0
LINE
  5
2AB
100
AcDbEntity
  8
0
100
AcDbLine
 62
250
  6
CONTINUOUS
 10
-15.3854449589
 20
4.5655067804
 11
-15.6331574747
 21
4.4598382754
  0
LINE
  5
2AC
100
AcDbEntity
  8
ASSI
100
AcDbLine
 62
250
  6
CONTINUOUS
 10
-15.3854449589
 20
4.5655067804
 11
-15.6331574747
 21
4.4598382754
  0
LINE
  5
2AD
100
AcDbEntity
  8
0
100
AcDbLine
 62
250
  6
CONTINUOUS
 10
-15.2369404792
 20
4.30063574
 11
-15.484652995
 21
4.194967235
  0
LINE
  5
2AE
100
AcDbEntity
  8
ASSI
100
AcDbLine
 62
250
  6
CONTINUOUS
 10
-15.2369404792
 20
4.30063574
 11
-15.484652995
 21
4.194967235
  0
LINE
  5
2AF
100
AcDbEntity
  8
0
100
AcDbLine
 62
250
  6
CONTINUOUS
 10
-19.0453886999
 20
-9.3076138911
 11
-18.3382819187
 21
-9.3076138911
  0
LINE
  5
2B0
100
AcDbEntity
  8
0
100
AcDbLine
 62
7
  6
CONTINUOUS
 10
-4.4120907154
 20
-11.5914347503
 11
-0.5860893248
 21
-13.8005200022
  0
LINE
  5
2B1
100
AcDbEntity
  8
ASSI
100
AcDbLine
 62
7
  6
CONTINUOUS
 10
-4.4120907154
 20
-11.5914347503
 11
-0.5860893248
 21
-13.8005200022
  0
LINE
  5
2B2
100
AcDbEntity
  8
0
100
AcDbLine
 62
7
  6
CONTINUOUS
 10
11.4978118613
 20
-20.7776131002
 11
13.622944591
 21
-22.0046381041
  0
LINE
  5
2B3
100
AcDbEntity
  8
ASSI
100
AcDbLine
 62
7
  6
CONTINUOUS
 10
11.4978118613
 20
-20.7776131002
 11
13.622944591
 21
-22.0046381041
  0
LINE
  5
2B4
100
AcDbEntity
  8
0
100
AcDbLine
 62
250
  6
CONTINUOUS
 10
-15.8634081845
 20
-1.5846657087
 11
-15.4490402048
 21
-1.8239165869
  0
LINE
  5
2B5
100
AcDbEntity
  8
ASSI
100
AcDbLine
 62
250
  6
CONTINUOUS
 10
-15.8634081845
 20
-1.5846657087
 11
-15.4490402048
 21
-1.8239165869
  0
LINE
  5
2B6
100
AcDbEntity
  8
0
100
AcDbLine
 62
7
  6
CONTINUOUS
 10
-15.8634081845
 20
-1.5036350924
 11
-15.3271193058
 21
-1.8132815697
  0
LINE
  5
2B7
100
AcDbEntity
  8
ASSI
100
AcDbLine
 62
7
  6
CONTINUOUS
 10
-15.8634081845
 20
-1.5036350924
 11
-15.3271193058
 21
-1.8132815697
  0
LWPOLYLINE
  5
2B8
100
AcDbEntity
  8
0
100
AcDbPolyline
 62
7
  6
CONTINUOUS
 90
8
 70
0
 10
-15.6636230239
 20
4.4277470766
 10
-15.6634078692
 20
4.4273326284
 10
-15.6636346923
 20
4.4279386266
 10
-15.664479875
 20
4.4306468419
 10
-15.6655865633
 20
4.4354316171
 10
-15.6666395859
 20
4.4420776829
 10
-15.6674181199
 20
4.4504519534
 10
-15.6677496368
 20
4.4613986018
  0
LWPOLYLINE
  5
2B9
100
AcDbEntity
  8
ASSI
100
AcDbPolyline
 62
7
  6
CONTINUOUS
 90
8
 70
0
 10
-15.6636230233
 20
4.4277470755
 10
-15.6634078691
 20
4.4273326281
 10
-15.6636346928
 20
4.427938628
 10
-15.6644798757
 20
4.4306468447
 10
-15.6655865641
 20
4.4354316212
 10
-15.6666395866
 20
4.442077688
 10
-15.6674181203
 20
4.4504519591
 10
-15.6677496368
 20
4.4613986018
  0
LINE
  5
2BA
100
AcDbEntity
  8
0
100
AcDbLine
 62
250
  6
CONTINUOUS
 10
-15.4490402048
 20
-1.8239165869
 11
-15.8634081845
 21
-2.0631682866
  0
LINE
  5
2BB
100
AcDbEntity
  8
ASSI
100
AcDbLine
 62
250
  6
CONTINUOUS
 10
-15.4490402048
 20
-1.8239165869
 11
-15.8634081845
 21
-2.0631682866
  0
LINE
  5
2BC
100
AcDbEntity
  8
0
100
AcDbLine
 62
250
  6
CONTINUOUS
 10
-15.2369404792
 20
-2.1912840876
 11
-15.8634081845
 21
-2.5529999311
  0
LINE
  5
2BD
100
AcDbEntity
  8
ASSI
100
AcDbLine
 62
250
  6
CONTINUOUS
 10
-15.2369404792
 20
-2.1912840876
 11
-15.8634081845
 21
-2.5529999311
  0
LINE
  5
2BE
100
AcDbEntity
  8
0
100
AcDbLine
 62
250
  6
CONTINUOUS
 10
-0.578881716
 20
-13.9439696555
 11
-0.578881716
 21
-14.3513392934
  0
LINE
  5
2BF
100
AcDbEntity
  8
ASSI
100
AcDbLine
 62
250
  6
CONTINUOUS
 10
-0.578881716
 20
-13.9439696555
 11
-0.578881716
 21
-14.3513392934
  0
LINE
  5
2C0
100
AcDbEntity
  8
0
100
AcDbLine
 62
7
  6
CONTINUOUS
 10
-0.527510681
 20
-13.8773921487
 11
-0.527510681
 21
-14.3207939986
  0
LINE
  5
2C1
100
AcDbEntity
  8
ASSI
100
AcDbLine
 62
7
  6
CONTINUOUS
 10
-0.527510681
 20
-13.8773921487
 11
-0.527510681
 21
-14.3207939986
  0
LINE
  5
2C2
100
AcDbEntity
  8
0
100
AcDbLine
 62
7
  6
CONTINUOUS
 10
-8.0322851497
 20
-13.3800094398
 11
-8.0145229133
 21
-13.349244344
  0
LINE
  5
2C3
100
AcDbEntity
  8
ASSI
100
AcDbLine
 62
7
  6
CONTINUOUS
 10
-8.0322851497
 20
-13.3800094398
 11
-8.0145229133
 21
-13.349244344
  0
LINE
  5
2C4
100
AcDbEntity
  8
0
100
AcDbLine
 62
7
  6
CONTINUOUS
 10
-7.7670355399
 20
-13.3288187779
 11
-7.6609695227
 21
-13.1451070473
  0
LINE
  5
2C5
100
AcDbEntity
  8
ASSI
100
AcDbLine
 62
7
  6
CONTINUOUS
 10
-7.7670355399
 20
-13.3288187779
 11
-7.6609695227
 21
-13.1451070473
  0
LINE
  5
2C6
100
AcDbEntity
  8
0
100
AcDbLine
 62
7
  6
CONTINUOUS
 10
-7.4134821493
 20
-13.1246814812
 11
-7.3074161322
 21
-12.9409697507
  0
LINE
  5
2C7
100
AcDbEntity
  8
ASSI
100
AcDbLine
 62
7
  6
CONTINUOUS
 10
-7.4134821493
 20
-13.1246814812
 11
-7.3074161322
 21
-12.9409697507
  0
LINE
  5
2C8
100
AcDbEntity
  8
0
100
AcDbLine
 62
7
  6
CONTINUOUS
 10
-7.0599287587
 20
-12.9205441845
 11
-6.9538627416
 21
-12.736832454
  0
LINE
  5
2C9
100
AcDbEntity
  8
ASSI
100
AcDbLine
 62
7
  6
CONTINUOUS
 10
-7.0599287587
 20
-12.9205441845
 11
-6.9538627416
 21
-12.736832454
  0
LINE
  5
2CA
100
AcDbEntity
  8
0
100
AcDbLine
 62
7
  6
CONTINUOUS
 10
-6.7063753681
 20
-12.7164068879
 11
-6.600309351
 21
-12.5326951573
  0
LINE
  5
2CB
100
AcDbEntity
  8
ASSI
100
AcDbLine
 62
7
  6
CONTINUOUS
 10
-6.7063753681
 20
-12.7164068879
 11
-6.600309351
 21
-12.5326951573
  0
LINE
  5
2CC
100
AcDbEntity
  8
0
100
AcDbLine
 62
250
  6
CONTINUOUS
 10
-18.3382819187
 20
-9.3076138911
 11
-15.8634081845
 21
-7.8786528144
  0
LINE
  5
2CD
100
AcDbEntity
  8
SMUSSO
100
AcDbLine
 62
7
  6
CONTINUOUS
 10
29.108583099
 20
17.919061869
 11
30.8763500519
 21
18.9397483523
  0
LINE
  5
2CE
100
AcDbEntity
  8
SMUSSO
100
AcDbLine
 62
7
  6
CONTINUOUS
 10
29.108583099
 20
17.1025521373
 11
28.4014763178
 21
16.6943169989
  0
LINE
  5
2CF
100
AcDbEntity
  8
SMUSSO
100
AcDbLine
 62
7
  6
CONTINUOUS
 10
29.8156898801
 20
16.6943169989
 11
31.5834568331
 21
17.7150034822
  0
LINE
  5
2D0
100
AcDbEntity
  8
0
100
AcDbLine
 62
250
  6
CONTINUOUS
 10
30.8409947129
 20
18.9607193305
 11
32.8916043783
 21
20.1033861802
  0
LINE
  5
2D1
100
AcDbEntity
  8
ASSI
100
AcDbLine
 62
250
  6
CONTINUOUS
 10
30.8409947129
 20
18.9607193305
 11
32.8916043783
 21
20.1033861802
  0
LINE
  5
2D2
100
AcDbEntity
  8
0
100
AcDbLine
 62
250
  6
CONTINUOUS
 10
-15.6640255803
 20
4.4713764389
 11
-15.6331574747
 21
4.4598382754
  0
LINE
  5
2D3
100
AcDbEntity
  8
ASSI
100
AcDbLine
 62
250
  6
CONTINUOUS
 10
-15.6640255803
 20
4.4713764389
 11
-15.6331574747
 21
4.4598382754
  0
LINE
  5
2D4
100
AcDbEntity
  8
0
100
AcDbLine
 62
250
  6
CONTINUOUS
 10
-15.6677496351
 20
4.6983472693
 11
-15.3860566099
 21
4.5930534681
  0
LINE
  5
2D5
100
AcDbEntity
  8
ASSI
100
AcDbLine
 62
250
  6
CONTINUOUS
 10
-15.6677496351
 20
4.6983472693
 11
-15.3860566099
 21
4.5930534681
  0
LINE
  5
2D6
100
AcDbEntity
  8
0
100
AcDbLine
 62
7
  6
CONTINUOUS
 10
-15.6677496351
 20
4.7289419007
 11
-15.3113943042
 21
4.5957401384
  0
LINE
  5
2D7
100
AcDbEntity
  8
ASSI
100
AcDbLine
 62
7
  6
CONTINUOUS
 10
-15.6677496351
 20
4.7289419007
 11
-15.3113943042
 21
4.5957401384
  0
LINE
  5
2D8
100
AcDbEntity
  8
0
100
AcDbLine
 62
7
  6
CONTINUOUS
 10
-6.3528219776
 20
-12.5122695912
 11
-6.2467559604
 21
-12.3285578607
  0
LINE
  5
2D9
100
AcDbEntity
  8
ASSI
100
AcDbLine
 62
7
  6
CONTINUOUS
 10
-6.3528219776
 20
-12.5122695912
 11
-6.2467559604
 21
-12.3285578607
  0
LINE
  5
2DA
100
AcDbEntity
  8
0
100
AcDbLine
 62
7
  6
CONTINUOUS
 10
-4.1431978532
 20
-15.6255197031
 11
-4.1254356168
 21
-15.5947546073
  0
LINE
  5
2DB
100
AcDbEntity
  8
ASSI
100
AcDbLine
 62
7
  6
CONTINUOUS
 10
-4.1431978532
 20
-15.6255197031
 11
-4.1254356168
 21
-15.5947546073
  0
LINE
  5
2DC
100
AcDbEntity
  8
0
100
AcDbLine
 62
7
  6
CONTINUOUS
 10
-3.8779482434
 20
-15.5743290412
 11
-3.7718822262
 21
-15.3906173106
  0
LINE
  5
2DD
100
AcDbEntity
  8
ASSI
100
AcDbLine
 62
7
  6
CONTINUOUS
 10
-3.8779482434
 20
-15.5743290412
 11
-3.7718822262
 21
-15.3906173106
  0
LINE
  5
2DE
100
AcDbEntity
  8
0
100
AcDbLine
 62
7
  6
CONTINUOUS
 10
-3.5243948528
 20
-15.3701917445
 11
-3.4183288356
 21
-15.186480014
  0
LINE
  5
2DF
100
AcDbEntity
  8
ASSI
100
AcDbLine
 62
7
  6
CONTINUOUS
 10
-3.5243948528
 20
-15.3701917445
 11
-3.4183288356
 21
-15.186480014
  0
LINE
  5
2E0
100
AcDbEntity
  8
0
100
AcDbLine
 62
7
  6
CONTINUOUS
 10
-3.1708414622
 20
-15.1660544478
 11
-3.064775445
 21
-14.9823427173
  0
LINE
  5
2E1
100
AcDbEntity
  8
ASSI
100
AcDbLine
 62
7
  6
CONTINUOUS
 10
-3.1708414622
 20
-15.1660544478
 11
-3.064775445
 21
-14.9823427173
  0
LINE
  5
2E2
100
AcDbEntity
  8
0
100
AcDbLine
 62
250
  6
CONTINUOUS
 10
31.5838950189
 20
17.6739782568
 11
33.5987111595
 21
18.8786413101
  0
LINE
  5
2E3
100
AcDbEntity
  8
ASSI
100
AcDbLine
 62
250
  6
CONTINUOUS
 10
31.5838950189
 20
17.6739782568
 11
33.5987111595
 21
18.8786413101
  0
LINE
  5
2E4
100
AcDbEntity
  8
0
100
AcDbLine
 62
250
  6
CONTINUOUS
 10
-17.4897537812
 20
-10.7773077352
 11
-15.0148800471
 21
-9.3483466586
  0
LINE
  5
2E5
100
AcDbEntity
  8
0
100
AcDbLine
 62
7
  6
CONTINUOUS
 10
-2.8172880716
 20
-14.9619171512
 11
-2.7112220544
 21
-14.7782054206
  0
LINE
  5
2E6
100
AcDbEntity
  8
ASSI
100
AcDbLine
 62
7
  6
CONTINUOUS
 10
-2.8172880716
 20
-14.9619171512
 11
-2.7112220544
 21
-14.7782054206
  0
LINE
  5
2E7
100
AcDbEntity
  8
0
100
AcDbLine
 62
7
  6
CONTINUOUS
 10
-2.463734681
 20
-14.7577798545
 11
-2.3576686639
 21
-14.574068124
  0
LINE
  5
2E8
100
AcDbEntity
  8
ASSI
100
AcDbLine
 62
7
  6
CONTINUOUS
 10
-2.463734681
 20
-14.7577798545
 11
-2.3576686639
 21
-14.574068124
  0
LINE
  5
2E9
100
AcDbEntity
  8
0
100
AcDbLine
 62
7
  6
CONTINUOUS
 10
-8.0145229133
 20
-13.349244344
 11
-7.8731015571
 21
-13.2675894253
  0
LINE
  5
2EA
100
AcDbEntity
  8
ASSI
100
AcDbLine
 62
7
  6
CONTINUOUS
 10
-8.0145229133
 20
-13.349244344
 11
-7.8731015571
 21
-13.2675894253
  0
LINE
  5
2EB
100
AcDbEntity
  8
0
100
AcDbLine
 62
7
  6
CONTINUOUS
 10
-7.6609695227
 20
-13.1451070473
 11
-7.5195481665
 21
-13.0634521287
  0
LINE
  5
2EC
100
AcDbEntity
  8
ASSI
100
AcDbLine
 62
7
  6
CONTINUOUS
 10
-7.6609695227
 20
-13.1451070473
 11
-7.5195481665
 21
-13.0634521287
  0
LINE
  5
2ED
100
AcDbEntity
  8
0
100
AcDbLine
 62
7
  6
CONTINUOUS
 10
-7.3074161322
 20
-12.9409697507
 11
-7.1659947759
 21
-12.859314832
  0
LINE
  5
2EE
100
AcDbEntity
  8
ASSI
100
AcDbLine
 62
7
  6
CONTINUOUS
 10
-7.3074161322
 20
-12.9409697507
 11
-7.1659947759
 21
-12.859314832
  0
LINE
  5
2EF
100
AcDbEntity
  8
0
100
AcDbLine
 62
7
  6
CONTINUOUS
 10
-6.9538627416
 20
-12.736832454
 11
-6.8124413853
 21
-12.6551775353
  0
LINE
  5
2F0
100
AcDbEntity
  8
ASSI
100
AcDbLine
 62
7
  6
CONTINUOUS
 10
-6.9538627416
 20
-12.736832454
 11
-6.8124413853
 21
-12.6551775353
  0
LINE
  5
2F1
100
AcDbEntity
  8
0
100
AcDbLine
 62
7
  6
CONTINUOUS
 10
-6.600309351
 20
-12.5326951573
 11
-6.4588879947
 21
-12.4510402387
  0
LINE
  5
2F2
100
AcDbEntity
  8
ASSI
100
AcDbLine
 62
7
  6
CONTINUOUS
 10
-6.600309351
 20
-12.5326951573
 11
-6.4588879947
 21
-12.4510402387
  0
LINE
  5
2F3
100
AcDbEntity
  8
0
100
AcDbLine
 62
7
  6
CONTINUOUS
 10
-6.2467559604
 20
-12.3285578607
 11
-6.1053346041
 21
-12.246902942
  0
LINE
  5
2F4
100
AcDbEntity
  8
ASSI
100
AcDbLine
 62
7
  6
CONTINUOUS
 10
-6.2467559604
 20
-12.3285578607
 11
-6.1053346041
 21
-12.246902942
  0
LINE
  5
2F5
100
AcDbEntity
  8
0
100
AcDbLine
 62
7
  6
CONTINUOUS
 10
-8.2300967024
 20
-13.2657955285
 11
-6.0717396015
 21
-12.1437044995
  0
LINE
  5
2F6
100
AcDbEntity
  8
ASSI
100
AcDbLine
 62
7
  6
CONTINUOUS
 10
-8.2300967024
 20
-13.2657955285
 11
-6.0717396015
 21
-12.1437044995
  0
LINE
  5
2F7
100
AcDbEntity
  8
0
100
AcDbLine
 62
7
  6
CONTINUOUS
 10
-5.9976924486
 20
-12.1092607035
 11
-4.6873381929
 21
-11.5717983768
  0
LINE
  5
2F8
100
AcDbEntity
  8
ASSI
100
AcDbLine
 62
7
  6
CONTINUOUS
 10
-5.9976924486
 20
-12.1092607035
 11
-4.6873381929
 21
-11.5717983768
  0
LINE
  5
2F9
100
AcDbEntity
  8
0
100
AcDbLine
 62
250
  6
CONTINUOUS
 10
-15.8634081845
 20
17.6023857959
 11
-15.4490402048
 21
17.3631349177
  0
LINE
  5
2FA
100
AcDbEntity
  8
ASSI
100
AcDbLine
 62
250
  6
CONTINUOUS
 10
-15.8634081845
 20
17.6023857959
 11
-15.4490402048
 21
17.3631349177
  0
LINE
  5
2FB
100
AcDbEntity
  8
0
100
AcDbLine
 62
7
  6
CONTINUOUS
 10
-15.8634081845
 20
17.6834164122
 11
-15.3271193058
 21
17.3737699349
  0
LINE
  5
2FC
100
AcDbEntity
  8
ASSI
100
AcDbLine
 62
7
  6
CONTINUOUS
 10
-15.8634081845
 20
17.6834164122
 11
-15.3271193058
 21
17.3737699349
  0
LINE
  5
2FD
100
AcDbEntity
  8
0
100
AcDbLine
 62
250
  6
CONTINUOUS
 10
-2.5233611289
 20
-15.622976947
 11
-2.187416164
 21
-15.2962233572
  0
LINE
  5
2FE
100
AcDbEntity
  8
ASSI
100
AcDbLine
 62
250
  6
CONTINUOUS
 10
-2.5233611289
 20
-15.622976947
 11
-2.187416164
 21
-15.2962233572
  0
LINE
  5
2FF
100
AcDbEntity
  8
0
100
AcDbLine
 62
7
  6
CONTINUOUS
 10
-2.5194362343
 20
-15.6565121115
 11
-2.0904518907
 21
-15.2392646786
  0
LINE
  5
300
100
AcDbEntity
  8
ASSI
100
AcDbLine
 62
7
  6
CONTINUOUS
 10
-2.5194362343
 20
-15.6565121115
 11
-2.0904518907
 21
-15.2392646786
  0
LINE
  5
301
100
AcDbEntity
  8
0
100
AcDbLine
 62
7
  6
CONTINUOUS
 10
-1.8254023432
 20
-14.5954864134
 11
-3.7687958059
 21
-15.8416947529
  0
LINE
  5
302
100
AcDbEntity
  8
ASSI
100
AcDbLine
 62
7
  6
CONTINUOUS
 10
-1.8254023432
 20
-14.5954864134
 11
-3.7687958059
 21
-15.8416947529
  0
LINE
  5
303
100
AcDbEntity
  8
0
100
AcDbLine
 62
7
  6
CONTINUOUS
 10
-3.4395897544
 20
-16.0317742011
 11
-0.578881716
 21
-14.3513392934
  0
LINE
  5
304
100
AcDbEntity
  8
ASSI
100
AcDbLine
 62
7
  6
CONTINUOUS
 10
-3.4395897544
 20
-16.0317742011
 11
-0.578881716
 21
-14.3513392934
  0
LINE
  5
305
100
AcDbEntity
  8
0
100
AcDbLine
 62
7
  6
CONTINUOUS
 10
-2.578050584
 20
-15.7009761366
 11
-3.2935131867
 21
-16.1161169805
  0
LINE
  5
306
100
AcDbEntity
  8
ASSI
100
AcDbLine
 62
7
  6
CONTINUOUS
 10
-2.578050584
 20
-15.7009761366
 11
-3.2935131867
 21
-16.1161169805
  0
LINE
  5
307
100
AcDbEntity
  8
0
100
AcDbLine
 62
250
  6
CONTINUOUS
 10
-2.5233611289
 20
-15.622976947
 11
-3.3337462834
 21
-16.0928868947
  0
LINE
  5
308
100
AcDbEntity
  8
ASSI
100
AcDbLine
 62
250
  6
CONTINUOUS
 10
-2.5233611289
 20
-15.622976947
 11
-3.3337462834
 21
-16.0928868947
  0
LINE
  5
309
100
AcDbEntity
  8
0
100
AcDbLine
 62
7
  6
CONTINUOUS
 10
-4.1254356168
 20
-15.5947546073
 11
-3.9840142606
 21
-15.5130996886
  0
LINE
  5
30A
100
AcDbEntity
  8
ASSI
100
AcDbLine
 62
7
  6
CONTINUOUS
 10
-4.1254356168
 20
-15.5947546073
 11
-3.9840142606
 21
-15.5130996886
  0
LINE
  5
30B
100
AcDbEntity
  8
0
100
AcDbLine
 62
7
  6
CONTINUOUS
 10
-3.7718822262
 20
-15.3906173106
 11
-3.63046087
 21
-15.308962392
  0
LINE
  5
30C
100
AcDbEntity
  8
ASSI
100
AcDbLine
 62
7
  6
CONTINUOUS
 10
-3.7718822262
 20
-15.3906173106
 11
-3.63046087
 21
-15.308962392
  0
LINE
  5
30D
100
AcDbEntity
  8
0
100
AcDbLine
 62
7
  6
CONTINUOUS
 10
-3.064775445
 20
-14.9823427173
 11
-2.9233540888
 21
-14.9006877986
  0
LINE
  5
30E
100
AcDbEntity
  8
0
100
AcDbLine
 62
7
  6
CONTINUOUS
 10
-3.4183288356
 20
-15.186480014
 11
-3.2769074794
 21
-15.1048250953
  0
LINE
  5
30F
100
AcDbEntity
  8
ASSI
100
AcDbLine
 62
7
  6
CONTINUOUS
 10
-3.064775445
 20
-14.9823427173
 11
-2.9233540888
 21
-14.9006877986
  0
LINE
  5
310
100
AcDbEntity
  8
ASSI
100
AcDbLine
 62
7
  6
CONTINUOUS
 10
-3.4183288356
 20
-15.186480014
 11
-3.2769074794
 21
-15.1048250953
  0
LINE
  5
311
100
AcDbEntity
  8
0
100
AcDbLine
 62
7
  6
CONTINUOUS
 10
-2.7112220544
 20
-14.7782054206
 11
-2.5698006982
 21
-14.696550502
  0
LINE
  5
312
100
AcDbEntity
  8
ASSI
100
AcDbLine
 62
7
  6
CONTINUOUS
 10
-2.7112220544
 20
-14.7782054206
 11
-2.5698006982
 21
-14.696550502
  0
LINE
  5
313
100
AcDbEntity
  8
0
100
AcDbLine
 62
7
  6
CONTINUOUS
 10
-2.3576686639
 20
-14.574068124
 11
-2.2162473076
 21
-14.4924132053
  0
LINE
  5
314
100
AcDbEntity
  8
ASSI
100
AcDbLine
 62
7
  6
CONTINUOUS
 10
-2.3576686639
 20
-14.574068124
 11
-2.2162473076
 21
-14.4924132053
  0
LINE
  5
315
100
AcDbEntity
  8
0
100
AcDbLine
 62
7
  6
CONTINUOUS
 10
-2.1101812904
 20
-14.5536425578
 11
-4.0549026059
 21
-15.6765002723
  0
LINE
  5
316
100
AcDbEntity
  8
ASSI
100
AcDbLine
 62
7
  6
CONTINUOUS
 10
-2.1101812904
 20
-14.5536425578
 11
-4.0549026059
 21
-15.6765002723
  0
LINE
  5
317
100
AcDbEntity
  8
0
100
AcDbLine
 62
7
  6
CONTINUOUS
 10
-0.578881716
 20
-13.9439696555
 11
-1.7587299872
 21
-14.556784502
  0
LINE
  5
318
100
AcDbEntity
  8
ASSI
100
AcDbLine
 62
7
  6
CONTINUOUS
 10
-0.578881716
 20
-13.9439696555
 11
-1.7587299872
 21
-14.556784502
  0
LINE
  5
319
100
AcDbEntity
  8
0
100
AcDbLine
 62
7
  6
CONTINUOUS
 10
13.622944591
 20
6.7750277439
 11
13.622944591
 21
-28.1699001028
  0
LINE
  5
31A
100
AcDbEntity
  8
0
100
AcDbLine
 62
7
  6
CONTINUOUS
 10
-17.8433071718
 20
26.3312466176
 11
12.4208630629
 21
8.8570940231
  0
LINE
  5
31B
100
AcDbEntity
  8
0
100
AcDbLine
 62
7
  6
CONTINUOUS
 10
7.877617427
 20
-22.5661877897
 11
7.8953796634
 21
-22.5354226939
  0
LINE
  5
31C
100
AcDbEntity
  8
ASSI
100
AcDbLine
 62
7
  6
CONTINUOUS
 10
7.877617427
 20
-22.5661877897
 11
7.8953796634
 21
-22.5354226939
  0
LINE
  5
31D
100
AcDbEntity
  8
0
100
AcDbLine
 62
7
  6
CONTINUOUS
 10
8.1428670368
 20
-22.5149971277
 11
8.2489330539
 21
-22.3312853972
  0
LINE
  5
31E
100
AcDbEntity
  8
ASSI
100
AcDbLine
 62
7
  6
CONTINUOUS
 10
8.1428670368
 20
-22.5149971277
 11
8.2489330539
 21
-22.3312853972
  0
LINE
  5
31F
100
AcDbEntity
  8
0
100
AcDbLine
 62
7
  6
CONTINUOUS
 10
8.4964204274
 20
-22.3108598311
 11
8.6024864445
 21
-22.1271481005
  0
LINE
  5
320
100
AcDbEntity
  8
ASSI
100
AcDbLine
 62
7
  6
CONTINUOUS
 10
8.4964204274
 20
-22.3108598311
 11
8.6024864445
 21
-22.1271481005
  0
LINE
  5
321
100
AcDbEntity
  8
0
100
AcDbLine
 62
7
  6
CONTINUOUS
 10
8.849973818
 20
-22.1067225344
 11
8.9560398351
 21
-21.9230108039
  0
LINE
  5
322
100
AcDbEntity
  8
ASSI
100
AcDbLine
 62
7
  6
CONTINUOUS
 10
8.849973818
 20
-22.1067225344
 11
8.9560398351
 21
-21.9230108039
  0
LINE
  5
323
100
AcDbEntity
  8
0
100
AcDbLine
 62
7
  6
CONTINUOUS
 10
9.2035272085
 20
-21.9025852377
 11
9.3095932257
 21
-21.7188735072
  0
LINE
  5
324
100
AcDbEntity
  8
ASSI
100
AcDbLine
 62
7
  6
CONTINUOUS
 10
9.2035272085
 20
-21.9025852377
 11
9.3095932257
 21
-21.7188735072
  0
LINE
  5
325
100
AcDbEntity
  8
0
100
AcDbLine
 62
7
  6
CONTINUOUS
 10
9.5570805991
 20
-21.6984479411
 11
9.6631466163
 21
-21.5147362106
  0
LINE
  5
326
100
AcDbEntity
  8
ASSI
100
AcDbLine
 62
7
  6
CONTINUOUS
 10
9.5570805991
 20
-21.6984479411
 11
9.6631466163
 21
-21.5147362106
  0
LINE
  5
327
100
AcDbEntity
  8
0
100
AcDbLine
 62
7
  6
CONTINUOUS
 10
11.7667047235
 20
-24.811698053
 11
11.7844669599
 21
-24.7809329572
  0
LINE
  5
328
100
AcDbEntity
  8
ASSI
100
AcDbLine
 62
7
  6
CONTINUOUS
 10
11.7667047235
 20
-24.811698053
 11
11.7844669599
 21
-24.7809329572
  0
LINE
  5
329
100
AcDbEntity
  8
0
100
AcDbLine
 62
7
  6
CONTINUOUS
 10
12.0319543333
 20
-24.760507391
 11
12.1380203505
 21
-24.5767956605
  0
LINE
  5
32A
100
AcDbEntity
  8
ASSI
100
AcDbLine
 62
7
  6
CONTINUOUS
 10
12.0319543333
 20
-24.760507391
 11
12.1380203505
 21
-24.5767956605
  0
LINE
  5
32B
100
AcDbEntity
  8
0
100
AcDbLine
 62
7
  6
CONTINUOUS
 10
12.3855077239
 20
-24.5563700944
 11
12.4915737411
 21
-24.3726583639
  0
LINE
  5
32C
100
AcDbEntity
  8
ASSI
100
AcDbLine
 62
7
  6
CONTINUOUS
 10
12.3855077239
 20
-24.5563700944
 11
12.4915737411
 21
-24.3726583639
  0
LINE
  5
32D
100
AcDbEntity
  8
0
100
AcDbLine
 62
7
  6
CONTINUOUS
 10
12.7390611145
 20
-24.3522327977
 11
12.8451271317
 21
-24.1685210672
  0
LINE
  5
32E
100
AcDbEntity
  8
ASSI
100
AcDbLine
 62
7
  6
CONTINUOUS
 10
12.7390611145
 20
-24.3522327977
 11
12.8451271317
 21
-24.1685210672
  0
LINE
  5
32F
100
AcDbEntity
  8
0
100
AcDbLine
 62
7
  6
CONTINUOUS
 10
13.0926145051
 20
-24.148095501
 11
13.1986805223
 21
-23.9643837705
  0
LINE
  5
330
100
AcDbEntity
  8
ASSI
100
AcDbLine
 62
7
  6
CONTINUOUS
 10
13.0926145051
 20
-24.148095501
 11
13.1986805223
 21
-23.9643837705
  0
LINE
  5
331
100
AcDbEntity
  8
0
100
AcDbLine
 62
7
  6
CONTINUOUS
 10
13.4461678957
 20
-23.9439582044
 11
13.5522339128
 21
-23.7602464739
  0
LINE
  5
332
100
AcDbEntity
  8
ASSI
100
AcDbLine
 62
7
  6
CONTINUOUS
 10
13.4461678957
 20
-23.9439582044
 11
13.5522339128
 21
-23.7602464739
  0
LINE
  5
333
100
AcDbEntity
  8
0
100
AcDbLine
 62
250
  6
CONTINUOUS
 10
12.4208630629
 20
-28.8638327647
 11
12.7744164535
 21
-28.2514603296
  0
LINE
  5
334
100
AcDbEntity
  8
0
100
AcDbLine
 62
7
  6
CONTINUOUS
 10
7.8953796634
 20
-22.5354226939
 11
8.0368010196
 21
-22.4537677752
  0
LINE
  5
335
100
AcDbEntity
  8
ASSI
100
AcDbLine
 62
7
  6
CONTINUOUS
 10
7.8953796634
 20
-22.5354226939
 11
8.0368010196
 21
-22.4537677752
  0
LINE
  5
336
100
AcDbEntity
  8
0
100
AcDbLine
 62
7
  6
CONTINUOUS
 10
8.2489330539
 20
-22.3312853972
 11
8.3903544102
 21
-22.2496304785
  0
LINE
  5
337
100
AcDbEntity
  8
ASSI
100
AcDbLine
 62
7
  6
CONTINUOUS
 10
8.2489330539
 20
-22.3312853972
 11
8.3903544102
 21
-22.2496304785
  0
LINE
  5
338
100
AcDbEntity
  8
0
100
AcDbLine
 62
7
  6
CONTINUOUS
 10
8.6024864445
 20
-22.1271481005
 11
8.7439078008
 21
-22.0454931819
  0
LINE
  5
339
100
AcDbEntity
  8
ASSI
100
AcDbLine
 62
7
  6
CONTINUOUS
 10
8.6024864445
 20
-22.1271481005
 11
8.7439078008
 21
-22.0454931819
  0
LINE
  5
33A
100
AcDbEntity
  8
0
100
AcDbLine
 62
7
  6
CONTINUOUS
 10
8.9560398351
 20
-21.9230108039
 11
9.0974611914
 21
-21.8413558852
  0
LINE
  5
33B
100
AcDbEntity
  8
ASSI
100
AcDbLine
 62
7
  6
CONTINUOUS
 10
8.9560398351
 20
-21.9230108039
 11
9.0974611914
 21
-21.8413558852
  0
LINE
  5
33C
100
AcDbEntity
  8
0
100
AcDbLine
 62
7
  6
CONTINUOUS
 10
9.3095932257
 20
-21.7188735072
 11
9.451014582
 21
-21.6372185886
  0
LINE
  5
33D
100
AcDbEntity
  8
ASSI
100
AcDbLine
 62
7
  6
CONTINUOUS
 10
9.3095932257
 20
-21.7188735072
 11
9.451014582
 21
-21.6372185886
  0
LINE
  5
33E
100
AcDbEntity
  8
0
100
AcDbLine
 62
7
  6
CONTINUOUS
 10
9.6631466163
 20
-21.5147362106
 11
9.8045679726
 21
-21.4330812919
  0
LINE
  5
33F
100
AcDbEntity
  8
ASSI
100
AcDbLine
 62
7
  6
CONTINUOUS
 10
9.6631466163
 20
-21.5147362106
 11
9.8045679726
 21
-21.4330812919
  0
LINE
  5
340
100
AcDbEntity
  8
0
100
AcDbLine
 62
7
  6
CONTINUOUS
 10
7.6798058743
 20
-22.4519738783
 11
9.8381629752
 21
-21.3298828494
  0
LINE
  5
341
100
AcDbEntity
  8
ASSI
100
AcDbLine
 62
7
  6
CONTINUOUS
 10
7.6798058743
 20
-22.4519738783
 11
9.8381629752
 21
-21.3298828494
  0
LINE
  5
342
100
AcDbEntity
  8
0
100
AcDbLine
 62
7
  6
CONTINUOUS
 10
9.9122101281
 20
-21.2954390533
 11
11.2225643838
 21
-20.7579767267
  0
LINE
  5
343
100
AcDbEntity
  8
ASSI
100
AcDbLine
 62
7
  6
CONTINUOUS
 10
9.9122101281
 20
-21.2954390533
 11
11.2225643838
 21
-20.7579767267
  0
LINE
  5
344
100
AcDbEntity
  8
0
100
AcDbLine
 62
250
  6
CONTINUOUS
 10
-19.0453886999
 20
25.6373139557
 11
-18.3382819187
 21
25.6373139557
  0
LINE
  5
345
100
AcDbEntity
  8
SMUSSO
100
AcDbLine
 62
7
  6
CONTINUOUS
 10
28.4014763178
 20
-55.1550673589
 11
28.4014763178
 21
16.6943169989
  0
LINE
  5
346
100
AcDbEntity
  8
SMUSSO
100
AcDbLine
 62
7
  6
CONTINUOUS
 10
29.108583099
 20
17.919061869
 11
29.108583099
 21
17.1025521373
  0
LINE
  5
347
100
AcDbEntity
  8
SMUSSO
100
AcDbLine
 62
7
  6
CONTINUOUS
 10
29.8156898801
 20
-55.1550673589
 11
29.8156898801
 21
16.6943169989
  0
LINE
  5
348
100
AcDbEntity
  8
0
100
AcDbLine
 62
250
  6
CONTINUOUS
 10
33.5988587532
 20
18.9123991541
 11
33.8108431938
 21
19.7673208733
  0
LINE
  5
349
100
AcDbEntity
  8
ASSI
100
AcDbLine
 62
250
  6
CONTINUOUS
 10
33.5988587532
 20
18.9123991541
 11
33.8108431938
 21
19.7673208733
  0
LINE
  5
34A
100
AcDbEntity
  8
0
100
AcDbLine
 62
7
  6
CONTINUOUS
 10
13.622944591
 20
-24.0776390484
 11
12.1411067708
 21
-25.0278731027
  0
LINE
  5
34B
100
AcDbEntity
  8
ASSI
100
AcDbLine
 62
7
  6
CONTINUOUS
 10
13.622944591
 20
-24.0776390484
 11
12.1411067708
 21
-25.0278731027
  0
LINE
  5
34C
100
AcDbEntity
  8
0
100
AcDbLine
 62
7
  6
CONTINUOUS
 10
12.4703128223
 20
-25.217952551
 11
13.622944591
 21
-24.5408744872
  0
LINE
  5
34D
100
AcDbEntity
  8
ASSI
100
AcDbLine
 62
7
  6
CONTINUOUS
 10
12.4703128223
 20
-25.217952551
 11
13.622944591
 21
-24.5408744872
  0
LINE
  5
34E
100
AcDbEntity
  8
0
100
AcDbLine
 62
7
  6
CONTINUOUS
 10
11.7844669599
 20
-24.7809329572
 11
11.9258883161
 21
-24.6992780385
  0
LINE
  5
34F
100
AcDbEntity
  8
ASSI
100
AcDbLine
 62
7
  6
CONTINUOUS
 10
11.7844669599
 20
-24.7809329572
 11
11.9258883161
 21
-24.6992780385
  0
LINE
  5
350
100
AcDbEntity
  8
0
100
AcDbLine
 62
7
  6
CONTINUOUS
 10
12.1380203505
 20
-24.5767956605
 11
12.2794417067
 21
-24.4951407418
  0
LINE
  5
351
100
AcDbEntity
  8
ASSI
100
AcDbLine
 62
7
  6
CONTINUOUS
 10
12.1380203505
 20
-24.5767956605
 11
12.2794417067
 21
-24.4951407418
  0
LINE
  5
352
100
AcDbEntity
  8
0
100
AcDbLine
 62
7
  6
CONTINUOUS
 10
12.4915737411
 20
-24.3726583639
 11
12.6329950973
 21
-24.2910034452
  0
LINE
  5
353
100
AcDbEntity
  8
ASSI
100
AcDbLine
 62
7
  6
CONTINUOUS
 10
12.4915737411
 20
-24.3726583639
 11
12.6329950973
 21
-24.2910034452
  0
LINE
  5
354
100
AcDbEntity
  8
0
100
AcDbLine
 62
7
  6
CONTINUOUS
 10
12.8451271317
 20
-24.1685210672
 11
12.9865484879
 21
-24.0868661485
  0
LINE
  5
355
100
AcDbEntity
  8
ASSI
100
AcDbLine
 62
7
  6
CONTINUOUS
 10
12.8451271317
 20
-24.1685210672
 11
12.9865484879
 21
-24.0868661485
  0
LINE
  5
356
100
AcDbEntity
  8
0
100
AcDbLine
 62
7
  6
CONTINUOUS
 10
13.1986805223
 20
-23.9643837705
 11
13.3401018785
 21
-23.8827288519
  0
LINE
  5
357
100
AcDbEntity
  8
ASSI
100
AcDbLine
 62
7
  6
CONTINUOUS
 10
13.1986805223
 20
-23.9643837705
 11
13.3401018785
 21
-23.8827288519
  0
LINE
  5
358
100
AcDbEntity
  8
0
100
AcDbLine
 62
7
  6
CONTINUOUS
 10
13.5522339128
 20
-23.7602464739
 11
13.622944591
 21
-23.7194190145
  0
LINE
  5
359
100
AcDbEntity
  8
ASSI
100
AcDbLine
 62
7
  6
CONTINUOUS
 10
13.5522339128
 20
-23.7602464739
 11
13.622944591
 21
-23.7194190145
  0
LINE
  5
35A
100
AcDbEntity
  8
0
100
AcDbLine
 62
7
  6
CONTINUOUS
 10
13.622944591
 20
-23.841889556
 11
11.8549999708
 21
-24.8626786222
  0
LINE
  5
35B
100
AcDbEntity
  8
ASSI
100
AcDbLine
 62
7
  6
CONTINUOUS
 10
13.622944591
 20
-23.841889556
 11
11.8549999708
 21
-24.8626786222
  0
LINE
  5
35C
100
AcDbEntity
  8
0
100
AcDbLine
 62
250
  6
CONTINUOUS
 10
12.7744164535
 20
-28.2514603296
 11
13.622944591
 21
-27.7615308176
  0
LINE
  5
35D
100
AcDbEntity
  8
0
100
AcDbLine
 62
250
  6
CONTINUOUS
 10
32.9209142033
 20
20.086633558
 11
33.7672220085
 21
19.8428749824
  0
LINE
  5
35E
100
AcDbEntity
  8
ASSI
100
AcDbLine
 62
250
  6
CONTINUOUS
 10
32.9209142033
 20
20.086633558
 11
33.7672220085
 21
19.8428749824
  0
LINE
  5
35F
100
AcDbEntity
  8
SMUSSO
100
AcDbLine
 62
7
  6
CONTINUOUS
 10
28.4014763178
 20
16.6943169989
 11
-33.8239204267
 21
52.6224812117
  0
LINE
  5
360
100
AcDbEntity
  8
SMUSSO
100
AcDbLine
 62
7
  6
CONTINUOUS
 10
29.108583099
 20
17.1025521373
 11
29.8156898801
 21
16.6943169989
  0
LINE
  5
361
100
AcDbEntity
  8
SMUSSO
100
AcDbLine
 62
7
  6
CONTINUOUS
 10
29.108583099
 20
17.919061869
 11
-33.1168136455
 21
53.8472260819
  0
LINE
  5
362
100
AcDbEntity
  8
SMUSSO
100
AcDbLine
 62
7
  6
CONTINUOUS
 10
31.5834568331
 20
-54.1343808755
 11
31.5834568331
 21
18.5315132139
  0
LINE
  5
363
100
AcDbEntity
  8
0
100
AcDbLine
 62
250
  6
CONTINUOUS
 10
31.9441538715
 20
-46.9882819602
 11
31.9441538715
 21
-46.6644927096
  0
LINE
  5
364
100
AcDbEntity
  8
0
100
AcDbLine
 62
250
  6
CONTINUOUS
 10
31.9442330746
 20
-44.066370799
 11
31.9442330746
 21
-44.3795981901
  0
LINE
  5
365
100
AcDbEntity
  8
0
100
AcDbLine
 62
250
  6
CONTINUOUS
 10
31.9442330746
 20
-45.0620383392
 11
31.9442330746
 21
-45.3823967817
  0
LINE
  5
366
100
AcDbEntity
  8
0
100
AcDbLine
 62
250
  6
CONTINUOUS
 10
31.9442330746
 20
-46.0265559054
 11
31.9442330746
 21
-46.3500773538
  0
LINE
  5
367
100
AcDbEntity
  8
0
100
AcDbLine
 62
250
  6
CONTINUOUS
 10
31.9442330746
 20
-47.1083937186
 11
31.9442330746
 21
-47.4319617058
  0
LINE
  5
368
100
AcDbEntity
  8
0
100
AcDbLine
 62
250
  6
CONTINUOUS
 10
31.9442330746
 20
-48.0323555732
 11
31.9442330746
 21
-48.3840909685
  0
LINE
  5
369
100
AcDbEntity
  8
0
100
AcDbLine
 62
250
  6
CONTINUOUS
 10
32.5314493381
 20
-42.832505631
 11
32.5314493381
 21
-42.6474631321
  0
LINE
  5
36A
100
AcDbEntity
  8
0
100
AcDbLine
 62
250
  6
CONTINUOUS
 10
32.7476243944
 20
-42.5189095074
 11
32.7476243944
 21
-42.6925177106
  0
LINE
  5
36B
100
AcDbEntity
  8
0
100
AcDbLine
 62
250
  6
CONTINUOUS
 10
32.7967684811
 20
-43.5705498197
 11
32.7967684811
 21
-43.8805554191
  0
LINE
  5
36C
100
AcDbEntity
  8
0
100
AcDbLine
 62
250
  6
CONTINUOUS
 10
33.0006699588
 20
-43.8248751572
 11
33.0006699588
 21
-43.3839273207
  0
LINE
  5
36D
100
AcDbEntity
  8
0
100
AcDbLine
 62
250
  6
CONTINUOUS
 10
33.2641778587
 20
-41.5763823764
 11
33.2641778587
 21
-41.8878302584
  0
LINE
  5
36E
100
AcDbEntity
  8
0
100
AcDbLine
 62
250
  6
CONTINUOUS
 10
33.2641778587
 20
-42.383669245
 11
33.2641778587
 21
-42.7061559333
  0
LINE
  5
36F
100
AcDbEntity
  8
0
100
AcDbLine
 62
250
  6
CONTINUOUS
 10
33.2641780351
 20
-47.1031426897
 11
33.2641780351
 21
-46.8178026574
  0
LINE
  5
370
100
AcDbEntity
  8
0
100
AcDbLine
 62
250
  6
CONTINUOUS
 10
33.2641780351
 20
-45.7009407187
 11
33.2641780351
 21
-45.3911800604
  0
LINE
  5
371
100
AcDbEntity
  8
0
100
AcDbLine
 62
250
  6
CONTINUOUS
 10
33.2641780351
 20
-44.9414617002
 11
33.2641780351
 21
-44.8960504399
  0
LINE
  5
372
100
AcDbEntity
  8
0
100
AcDbLine
 62
250
  6
CONTINUOUS
 10
33.2641780351
 20
-44.4445407439
 11
33.2641780351
 21
-44.1277886506
  0
LINE
  5
373
100
AcDbEntity
  8
0
100
AcDbLine
 62
250
  6
CONTINUOUS
 10
33.2641780351
 20
-44.0769454135
 11
33.2641780351
 21
-43.756668618
  0
LINE
  5
374
100
AcDbEntity
  8
0
100
AcDbLine
 62
250
  6
CONTINUOUS
 10
33.2641780351
 20
-43.1424968147
 11
33.2641780351
 21
-42.8012359166
  0
LINE
  5
375
100
AcDbEntity
  8
0
100
AcDbLine
 62
250
  6
CONTINUOUS
 10
33.2641780351
 20
-45.8752473252
 11
33.2641780351
 21
-46.1990365758
  0
LINE
  5
376
100
AcDbEntity
  8
0
100
AcDbLine
 62
7
  6
CONTINUOUS
 10
33.5987111595
 20
18.8786413101
 11
33.5987111595
 21
-51.8276846601
  0
LINE
  5
377
100
AcDbEntity
  8
ASSI
100
AcDbLine
 62
7
  6
CONTINUOUS
 10
33.5987111595
 20
18.8786413101
 11
33.5987111595
 21
-51.8276846601
  0
LINE
  5
378
100
AcDbEntity
  8
0
100
AcDbLine
 62
7
  6
CONTINUOUS
 10
33.8108431938
 20
19.7673208733
 11
33.8108431938
 21
-50.5116814194
  0
LINE
  5
379
100
AcDbEntity
  8
ASSI
100
AcDbLine
 62
7
  6
CONTINUOUS
 10
33.8108431938
 20
19.7673208733
 11
33.8108431938
 21
-50.5116814194
  0
LINE
  5
37A
100
AcDbEntity
  8
SMUSSO
100
AcDbLine
 62
7
  6
CONTINUOUS
 10
-31.3490466925
 20
54.8679125652
 11
31.5834568331
 21
18.5315132139
  0
LINE
  5
37B
100
AcDbEntity
  8
0
100
AcDbLine
 62
7
  6
CONTINUOUS
 10
-28.3438428725
 20
55.4599659624
 11
32.8916043783
 21
20.1033861802
  0
LINE
  5
37C
100
AcDbEntity
  8
ASSI
100
AcDbLine
 62
7
  6
CONTINUOUS
 10
-28.3438428725
 20
55.4599659624
 11
32.8916043783
 21
20.1033861802
  0
LINE
  5
37D
100
AcDbEntity
  8
0
100
AcDbLine
 62
7
  6
CONTINUOUS
 10
-27.0981401591
 20
54.9857722759
 11
33.7672220085
 21
19.8428749824
  0
LINE
  5
37E
100
AcDbEntity
  8
ASSI
100
AcDbLine
 62
7
  6
CONTINUOUS
 10
-27.0981401591
 20
54.9857722759
 11
33.7672220085
 21
19.8428749824
  0
LINE
  5
37F
100
AcDbEntity
  8
0
100
AcDbLine
 62
7
  6
CONTINUOUS
 10
33.8102862708
 20
-50.5194661225
 11
33.5912748468
 21
-51.9737798514
  0
LINE
  5
380
100
AcDbEntity
  8
ASSI
100
AcDbLine
 62
7
  6
CONTINUOUS
 10
33.8102862708
 20
-50.5194661225
 11
33.5912748468
 21
-51.9737798514
  0
LINE
  5
381
100
AcDbEntity
  8
0
100
AcDbLine
 62
250
  6
CONTINUOUS
 10
33.5988587532
 20
-51.8599085662
 11
33.8108431938
 21
-50.5116814194
  0
LINE
  5
382
100
AcDbEntity
  8
ASSI
100
AcDbLine
 62
250
  6
CONTINUOUS
 10
33.5988587532
 20
-51.8599085662
 11
33.8108431938
 21
-50.5116814194
  0
LINE
  5
383
100
AcDbEntity
  8
0
100
AcDbLine
 62
250
  6
CONTINUOUS
 10
-28.3716767601
 20
55.4762074037
 11
-27.0981401591
 21
54.9857722759
  0
LINE
  5
384
100
AcDbEntity
  8
ASSI
100
AcDbLine
 62
250
  6
CONTINUOUS
 10
-28.3716767601
 20
55.4762074037
 11
-27.0981401591
 21
54.9857722759
  0
LINE
  5
385
100
AcDbEntity
  8
0
100
AcDbLine
 62
7
  6
CONTINUOUS
 10
-27.1051642904
 20
54.9891841836
 11
-28.4741418227
 21
55.5266032529
  0
LINE
  5
386
100
AcDbEntity
  8
ASSI
100
AcDbLine
 62
7
  6
CONTINUOUS
 10
-27.1051642904
 20
54.9891841836
 11
-28.4741418227
 21
55.5266032529
  0
LINE
  5
387
100
AcDbEntity
  8
0
100
AcDbLine
 62
250
  6
CONTINUOUS
 10
32.402278597
 20
-45.8366373094
 11
33.2641780351
 21
-44.9414617002
  0
LINE
  5
388
100
AcDbEntity
  8
0
100
AcDbLine
 62
250
  6
CONTINUOUS
 10
32.6770703385
 20
-45.2680210018
 11
31.9442330746
 21
-46.0265559054
  0
LINE
  5
389
100
AcDbEntity
  8
0
100
AcDbLine
 62
250
  6
CONTINUOUS
 10
33.2641780351
 20
-42.8012359166
 11
31.9442330746
 21
-44.066370799
  0
LINE
  5
38A
100
AcDbEntity
  8
0
100
AcDbLine
 62
250
  6
CONTINUOUS
 10
33.0006699588
 20
-43.3839273207
 11
33.2641780351
 21
-43.1424968147
  0
LINE
  5
38B
100
AcDbEntity
  8
0
100
AcDbLine
 62
250
  6
CONTINUOUS
 10
32.3069201281
 20
-44.0122166184
 11
32.7967684811
 21
-43.5705498197
  0
LINE
  5
38C
100
AcDbEntity
  8
0
100
AcDbLine
 62
250
  6
CONTINUOUS
 10
33.2641780351
 20
-44.1277886506
 11
31.9442330746
 21
-45.0620383392
  0
LINE
  5
38D
100
AcDbEntity
  8
0
100
AcDbLine
 62
250
  6
CONTINUOUS
 10
32.4058719174
 20
-45.0242474301
 11
33.2641780351
 21
-44.4445407439
  0
LINE
  5
38E
100
AcDbEntity
  8
0
100
AcDbLine
 62
250
  6
CONTINUOUS
 10
32.6402396331
 20
-42.2467630146
 11
32.6480393559
 21
-42.242099543
  0
LINE
  5
38F
100
AcDbEntity
  8
0
100
AcDbLine
 62
250
  6
CONTINUOUS
 10
32.7476243944
 20
-42.6925177106
 11
33.2641778587
 21
-42.383669245
  0
LINE
  5
390
100
AcDbEntity
  8
0
100
AcDbLine
 62
250
  6
CONTINUOUS
 10
32.1690987676
 20
-43.0491558433
 11
32.5314493381
 21
-42.832505631
  0
LINE
  5
391
100
AcDbEntity
  8
0
100
AcDbLine
 62
250
  6
CONTINUOUS
 10
33.2641778587
 20
-42.7061559333
 11
31.9596544366
 21
-43.4861333899
  0
LINE
  5
392
100
AcDbEntity
  8
0
100
AcDbLine
 62
250
  6
CONTINUOUS
 10
31.9441538715
 20
-46.6644927096
 11
33.2641780351
 21
-45.8752473252
  0
LINE
  5
393
100
AcDbEntity
  8
0
100
AcDbLine
 62
250
  6
CONTINUOUS
 10
33.2641780351
 20
-46.1990365758
 11
31.9441538715
 21
-46.9882819602
  0
LINE
  5
394
100
AcDbEntity
  8
0
100
AcDbLine
 62
250
  6
CONTINUOUS
 10
33.2641780351
 20
-45.3911800604
 11
32.402278597
 21
-45.8366373094
  0
LINE
  5
395
100
AcDbEntity
  8
0
100
AcDbLine
 62
250
  6
CONTINUOUS
 10
31.9442330746
 20
-46.3500773538
 11
33.2641780351
 21
-45.7009407187
  0
LINE
  5
396
100
AcDbEntity
  8
0
100
AcDbLine
 62
250
  6
CONTINUOUS
 10
31.9442330746
 20
-48.3840909685
 11
33.2641780351
 21
-47.1031426897
  0
LINE
  5
397
100
AcDbEntity
  8
0
100
AcDbLine
 62
250
  6
CONTINUOUS
 10
32.8527921808
 20
-47.1934454338
 11
31.9442330746
 21
-48.0323555732
  0
LINE
  5
398
100
AcDbEntity
  8
0
100
AcDbLine
 62
7
  6
CONTINUOUS
 10
31.5834568331
 20
-53.3817153726
 11
33.4129252536
 21
-52.2725994351
  0
LINE
  5
399
100
AcDbEntity
  8
ASSI
100
AcDbLine
 62
7
  6
CONTINUOUS
 10
31.5834568331
 20
-53.3817153726
 11
33.4129252536
 21
-52.2725994351
  0
LINE
  5
39A
100
AcDbEntity
  8
0
100
AcDbLine
 62
250
  6
CONTINUOUS
 10
31.5838950189
 20
-53.0323477135
 11
33.5987111595
 21
-51.8276846601
  0
LINE
  5
39B
100
AcDbEntity
  8
ASSI
100
AcDbLine
 62
250
  6
CONTINUOUS
 10
31.5838950189
 20
-53.0323477135
 11
33.5987111595
 21
-51.8276846601
  0
LINE
  5
39C
100
AcDbEntity
  8
SMUSSO
100
AcDbLine
 62
7
  6
CONTINUOUS
 10
31.5834568331
 20
-54.1343808755
 11
29.108583099
 21
-55.5633024973
  0
ARC
  5
39D
100
AcDbEntity
  8
0
100
AcDbCircle
 62
250
  6
CONTINUOUS
 10
-15.1568416346
 20
15.6830259282
 40
0.5329839358
100
AcDbArc
 50
131.2069066476
 51
134.463366043
  0
ARC
  5
39E
100
AcDbEntity
  8
ASSI
100
AcDbCircle
 62
250
  6
CONTINUOUS
 10
-15.1568419247
 20
15.6830262404
 40
0.5329835099
100
AcDbArc
 50
131.2068860779
 51
134.4633339779
  0
ARC
  5
39F
100
AcDbEntity
  8
0
100
AcDbCircle
 62
250
  6
CONTINUOUS
 10
-15.1922956722
 20
15.723657041
 40
0.4790593
100
AcDbArc
 50
127.6093006157
 51
131.2181059963
  0
ARC
  5
3A0
100
AcDbEntity
  8
ASSI
100
AcDbCircle
 62
250
  6
CONTINUOUS
 10
-15.1922957563
 20
15.7236571438
 40
0.4790591672
100
AcDbArc
 50
127.6093001469
 51
131.218085152
  0
ARC
  5
3A1
100
AcDbEntity
  8
0
100
AcDbCircle
 62
7
  6
CONTINUOUS
 10
-2.7287699863
 20
-15.4413281908
 40
0.3
100
AcDbArc
 50
300.108989426
 51
314.2001404117
  0
ARC
  5
3A2
100
AcDbEntity
  8
ASSI
100
AcDbCircle
 62
7
  6
CONTINUOUS
 10
-2.7287699863
 20
-15.4413281908
 40
0.3
100
AcDbArc
 50
300.1089895303
 51
314.2001404167
  0
ARC
  5
3A3
100
AcDbEntity
  8
0
100
AcDbCircle
 62
250
  6
CONTINUOUS
 10
-2.6284346768
 20
-15.6141690716
 40
0.1003697089
100
AcDbArc
 50
300.1329136956
 51
304.4945957255
  0
ARC
  5
3A4
100
AcDbEntity
  8
ASSI
100
AcDbCircle
 62
250
  6
CONTINUOUS
 10
-2.6284346768
 20
-15.6141690716
 40
0.1003697089
100
AcDbArc
 50
300.1329136958
 51
304.4945957407
  0
ARC
  5
3A5
100
AcDbEntity
  8
0
100
AcDbCircle
 62
250
  6
CONTINUOUS
 10
-15.3477755637
 20
3.548607557
 40
0.0999521029
100
AcDbArc
 50
301.7336665387
 51
303.9192952526
  0
ARC
  5
3A6
100
AcDbEntity
  8
0
100
AcDbCircle
 62
250
  6
CONTINUOUS
 10
-15.3477755637
 20
22.7356590617
 40
0.0999521029
100
AcDbArc
 50
301.7336665391
 51
303.9192952518
  0
ARC
  5
3A7
100
AcDbEntity
  8
ASSI
100
AcDbCircle
 62
250
  6
CONTINUOUS
 10
-15.3477755632
 20
3.5486075562
 40
0.099952102
100
AcDbArc
 50
301.7336665864
 51
303.9192624643
  0
ARC
  5
3A8
100
AcDbEntity
  8
ASSI
100
AcDbCircle
 62
250
  6
CONTINUOUS
 10
-15.3477755633
 20
22.7356590608
 40
0.099952102
100
AcDbArc
 50
301.7336665868
 51
303.9192624639
  0
ARC
  5
3A9
100
AcDbEntity
  8
0
100
AcDbCircle
 62
250
  6
CONTINUOUS
 10
-15.2617972937
 20
16.4001054396
 40
0.0950117133
100
AcDbArc
 50
355.6104665415
 51
0.0016296983
  0
ARC
  5
3AA
100
AcDbEntity
  8
ASSI
100
AcDbCircle
 62
250
  6
CONTINUOUS
 10
-15.2617972791
 20
16.4001054367
 40
0.0950116986
100
AcDbArc
 50
355.6106270444
 51
0.0016313026
  0
ARC
  5
3AB
100
AcDbEntity
  8
0
100
AcDbCircle
 62
250
  6
CONTINUOUS
 10
-15.7349336342
 20
4.4614099812
 40
0.0671751514
100
AcDbArc
 50
355.7602358917
 51
359.9902945029
  0
ARC
  5
3AC
100
AcDbEntity
  8
ASSI
100
AcDbCircle
 62
250
  6
CONTINUOUS
 10
-15.7349336342
 20
4.4614099812
 40
0.0671751514
100
AcDbArc
 50
355.7602358915
 51
359.9902945013
  0
SPLINE
  5
3AD
100
AcDbEntity
  8
0
100
AcDbSpline
 62
7
  6
CONTINUOUS
 70
0
 71
3
 72
10
 73
6
 74
0
 42
0.0000001
 43
0.0000001
 44
0.0000000001
 40
0.0
 40
0.0
 40
0.0
 40
0.0
 40
0.5278685352
 40
0.7673006673
 40
1.0
 40
1.0
 40
1.0
 40
1.0
 10
-28.4741410642
 20
55.5265950086
 30
0.0
 10
-28.5327935446
 20
55.549630722
 30
0.0
 10
-28.6252175234
 20
55.5707738926
 30
0.0
 10
-28.7446445109
 20
55.5558256381
 30
0.0
 10
-28.7977660231
 20
55.534910188
 30
0.0
 10
-28.8221132632
 20
55.521536811
 30
0.0
  0
SPLINE
  5
3AE
100
AcDbEntity
  8
0
100
AcDbSpline
 62
7
  6
CONTINUOUS
 70
0
 71
3
 72
10
 73
6
 74
0
 42
0.0000001
 43
0.0000001
 44
0.0000000001
 40
0.0
 40
0.0
 40
0.0
 40
0.0
 40
0.2326995781
 40
0.4721317903
 40
1.0
 40
1.0
 40
1.0
 40
1.0
 10
33.4129226429
 20
-52.2725958937
 30
0.0
 10
33.4366762452
 20
-52.2581964823
 30
0.0
 10
33.4813466487
 20
-52.2226485806
 30
0.0
 10
33.5539981397
 20
-52.1266961092
 30
0.0
 10
33.5818943913
 20
-52.0360853912
 30
0.0
 10
33.5912680779
 20
-51.973775067
 30
0.0
  0
SPLINE
  5
3AF
100
AcDbEntity
  8
0
100
AcDbSpline
 62
250
  6
CONTINUOUS
 70
0
 71
3
 72
11
 73
7
 74
0
 42
0.0000001
 43
0.0000001
 44
0.0000000001
 40
0.0
 40
0.0
 40
0.0
 40
0.0
 40
0.2187182257
 40
0.4522864185
 40
0.7114901475
 40
1.0
 40
1.0
 40
1.0
 40
1.0
 10
-15.1667864983
 20
3.6988043679
 30
0.0
 10
-15.1667907997
 20
3.6895014061
 30
0.0
 10
-15.1701303735
 20
3.6701381108
 30
0.0
 10
-15.18451628
 20
3.6430543223
 30
0.0
 10
-15.2073056228
 20
3.6184732604
 30
0.0
 10
-15.2264080371
 20
3.604876229
 30
0.0
 10
-15.2369404792
 20
3.598578857
 30
0.0
  0
SPLINE
  5
3B0
100
AcDbEntity
  8
0
100
AcDbSpline
 62
250
  6
CONTINUOUS
 70
0
 71
3
 72
11
 73
7
 74
0
 42
0.0000001
 43
0.0000001
 44
0.0000000001
 40
0.0
 40
0.0
 40
0.0
 40
0.0
 40
0.2135303911
 40
0.4448067609
 40
0.7056250959
 40
1.0
 40
1.0
 40
1.0
 40
1.0
 10
-15.1667859025
 20
4.3947550929
 30
0.0
 10
-15.1667879906
 20
4.3860256123
 30
0.0
 10
-15.1701894937
 20
4.3677158316
 30
0.0
 10
-15.184654215
 20
4.3422829695
 30
0.0
 10
-15.2074809277
 20
4.3192453051
 30
0.0
 10
-15.2264636682
 20
4.306557445
 30
0.0
 10
-15.2369404792
 20
4.30063574
 30
0.0
  0
SPLINE
  5
3B1
100
AcDbEntity
  8
0
100
AcDbSpline
 62
250
  6
CONTINUOUS
 70
0
 71
3
 72
9
 73
5
 74
0
 42
0.0000001
 43
0.0000001
 44
0.0000000001
 40
0.0
 40
0.0
 40
0.0
 40
0.0
 40
0.4810829056
 40
1.0
 40
1.0
 40
1.0
 40
1.0
 10
-15.3113957219
 20
4.5957363462
 30
0.0
 10
-15.322812047
 20
4.6000053121
 30
0.0
 10
-15.3486426429
 20
4.6038437238
 30
0.0
 10
-15.3738243262
 20
4.597871423
 30
0.0
 10
-15.3860566099
 20
4.5930534681
 30
0.0
  0
SPLINE
  5
3B2
100
AcDbEntity
  8
0
100
AcDbSpline
 62
250
  6
CONTINUOUS
 70
0
 71
3
 72
11
 73
7
 74
0
 42
0.0000001
 43
0.0000001
 44
0.0000000001
 40
0.0
 40
0.0
 40
0.0
 40
0.0
 40
0.2187065999
 40
0.4522834141
 40
0.7114952413
 40
1.0
 40
1.0
 40
1.0
 40
1.0
 10
-15.3272263177
 20
-1.8132326372
 30
0.0
 10
-15.3352841293
 20
-1.8085942075
 30
0.0
 10
-15.3537176267
 20
-1.8018224263
 30
0.0
 10
-15.3843494375
 20
-1.8007546111
 30
0.0
 10
-15.4170125028
 20
-1.8082049322
 30
0.0
 10
-15.4383265629
 20
-1.8179466013
 30
0.0
 10
-15.4490402048
 20
-1.8239165869
 30
0.0
  0
SPLINE
  5
3B3
100
AcDbEntity
  8
0
100
AcDbSpline
 62
250
  6
CONTINUOUS
 70
0
 71
3
 72
11
 73
7
 74
0
 42
0.0000001
 43
0.0000001
 44
0.0000000001
 40
0.0
 40
0.0
 40
0.0
 40
0.0
 40
0.2187168269
 40
0.4522947598
 40
0.7115020841
 40
1.0
 40
1.0
 40
1.0
 40
1.0
 10
-15.1667865388
 20
-2.0911108851
 30
0.0
 10
-15.1667966398
 20
-2.1004100112
 30
0.0
 10
-15.1701455489
 20
-2.1197634826
 30
0.0
 10
-15.1845344118
 20
-2.146831517
 30
0.0
 10
-15.2073180371
 20
-2.1713989453
 30
0.0
 10
-15.2264127422
 20
-2.1849895301
 30
0.0
 10
-15.2369404792
 20
-2.1912840876
 30
0.0
  0
SPLINE
  5
3B4
100
AcDbEntity
  8
0
100
AcDbSpline
 62
250
  6
CONTINUOUS
 70
0
 71
3
 72
11
 73
7
 74
0
 42
0.0000001
 43
0.0000001
 44
0.0000000001
 40
0.0
 40
0.0
 40
0.0
 40
0.0
 40
0.2187182257
 40
0.4522864185
 40
0.7114901475
 40
1.0
 40
1.0
 40
1.0
 40
1.0
 10
-15.1667864983
 20
22.8858558726
 30
0.0
 10
-15.1667907997
 20
22.8765529107
 30
0.0
 10
-15.1701303735
 20
22.8571896154
 30
0.0
 10
-15.18451628
 20
22.8301058269
 30
0.0
 10
-15.2073056228
 20
22.805524765
 30
0.0
 10
-15.2264080371
 20
22.7919277336
 30
0.0
 10
-15.2369404792
 20
22.7856303616
 30
0.0
  0
SPLINE
  5
3B5
100
AcDbEntity
  8
0
100
AcDbSpline
 62
250
  6
CONTINUOUS
 70
0
 71
3
 72
11
 73
7
 74
0
 42
0.0000001
 43
0.0000001
 44
0.0000000001
 40
0.0
 40
0.0
 40
0.0
 40
0.0
 40
0.2187065999
 40
0.4522834141
 40
0.7114952413
 40
1.0
 40
1.0
 40
1.0
 40
1.0
 10
-15.3272263177
 20
17.3738188674
 30
0.0
 10
-15.3352841293
 20
17.3784572971
 30
0.0
 10
-15.3537176267
 20
17.3852290784
 30
0.0
 10
-15.3843494375
 20
17.3862968936
 30
0.0
 10
-15.4170125028
 20
17.3788465724
 30
0.0
 10
-15.4383265629
 20
17.3691049033
 30
0.0
 10
-15.4490402048
 20
17.3631349177
 30
0.0
  0
SPLINE
  5
3B6
100
AcDbEntity
  8
0
100
AcDbSpline
 62
250
  6
CONTINUOUS
 70
0
 71
3
 72
11
 73
7
 74
0
 42
0.0000001
 43
0.0000001
 44
0.0000000001
 40
0.0
 40
0.0
 40
0.0
 40
0.0
 40
0.2187168269
 40
0.4522947598
 40
0.7115020841
 40
1.0
 40
1.0
 40
1.0
 40
1.0
 10
-15.1667865388
 20
17.0959406195
 30
0.0
 10
-15.1667966398
 20
17.0866414934
 30
0.0
 10
-15.1701455489
 20
17.067288022
 30
0.0
 10
-15.1845344118
 20
17.0402199876
 30
0.0
 10
-15.2073180371
 20
17.0156525593
 30
0.0
 10
-15.2264127422
 20
17.0020619745
 30
0.0
 10
-15.2369404792
 20
16.995767417
 30
0.0
  0
SPLINE
  5
3B7
100
AcDbEntity
  8
0
100
AcDbSpline
 62
7
  6
CONTINUOUS
 70
0
 71
3
 72
9
 73
5
 74
0
 42
0.0000001
 43
0.0000001
 44
0.0000000001
 40
0.0
 40
0.0
 40
0.0
 40
0.0
 40
0.2421136351
 40
1.0
 40
1.0
 40
1.0
 40
1.0
 10
33.5912680779
 20
-51.973775067
 30
0.0
 10
33.5926389873
 20
-51.9646621305
 30
0.0
 10
33.5974760049
 20
-51.9269007554
 30
0.0
 10
33.5991295599
 20
-51.8887544265
 30
0.0
 10
33.5988587532
 20
-51.8599085662
 30
0.0
  0
SPLINE
  5
3B8
100
AcDbEntity
  8
0
100
AcDbSpline
 62
250
  6
CONTINUOUS
 70
0
 71
3
 72
9
 73
5
 74
0
 42
0.0000001
 43
0.0000001
 44
0.0000000001
 40
0.0
 40
0.0
 40
0.0
 40
0.0
 40
0.4808335537
 40
1.0
 40
1.0
 40
1.0
 40
1.0
 10
-2.57159245
 20
-15.6968917391
 30
0.0
 10
-2.5623589964
 20
-15.6905475473
 30
0.0
 10
-2.5453226747
 20
-15.6739829608
 30
0.0
 10
-2.5341225427
 20
-15.6531886624
 30
0.0
 10
-2.5296347525
 20
-15.6419559487
 30
0.0
  0
SPLINE
  5
3B9
100
AcDbEntity
  8
0
100
AcDbSpline
 62
250
  6
CONTINUOUS
 70
0
 71
3
 72
8
 73
4
 74
0
 42
0.0000001
 43
0.0000001
 44
0.0000000001
 40
0.0
 40
0.0
 40
0.0
 40
0.0
 40
1.0
 40
1.0
 40
1.0
 40
1.0
 10
-2.5296347525
 20
-15.6419559487
 30
0.0
 10
-2.527162689
 20
-15.6357684974
 30
0.0
 10
-2.5250831943
 20
-15.629413572
 30
0.0
 10
-2.5233611289
 20
-15.622976947
 30
0.0
  0
SPLINE
  5
3BA
100
AcDbEntity
  8
0
100
AcDbSpline
 62
250
  6
CONTINUOUS
 70
0
 71
3
 72
15
 73
11
 74
0
 42
0.0000001
 43
0.0000001
 44
0.0000000001
 40
0.0
 40
0.0
 40
0.0
 40
0.0
 40
0.1361087462
 40
0.2586151375
 40
0.3711966236
 40
0.4802342645
 40
0.5928207851
 40
0.7148948377
 40
0.8502342615
 40
1.0
 40
1.0
 40
1.0
 40
1.0
 10
-15.484652995
 20
4.194967235
 30
0.0
 10
-15.5003175951
 20
4.1882875612
 30
0.0
 10
-15.5313168969
 20
4.1781481586
 30
0.0
 10
-15.5780600123
 20
4.1739876349
 30
0.0
 10
-15.6209749295
 20
4.1823462267
 30
0.0
 10
-15.6580696225
 20
4.203175046
 30
0.0
 10
-15.6875935209
 20
4.235307809
 30
0.0
 10
-15.7087694191
 20
4.2770007804
 30
0.0
 10
-15.7213627877
 20
4.3266965877
 30
0.0
 10
-15.7238808628
 20
4.3624580273
 30
0.0
 10
-15.7238816751
 20
4.3811960492
 30
0.0
  0
SPLINE
  5
3BB
100
AcDbEntity
  8
0
100
AcDbSpline
 62
250
  6
CONTINUOUS
 70
0
 71
3
 72
9
 73
5
 74
0
 42
0.0000001
 43
0.0000001
 44
0.0000000001
 40
0.0
 40
0.0
 40
0.0
 40
0.0
 40
0.233236062
 40
1.0
 40
1.0
 40
1.0
 40
1.0
 10
-15.7238816751
 20
15.6308637762
 30
0.0
 10
-15.7238809179
 20
15.6445581125
 30
0.0
 10
-15.7208160647
 20
15.7032644446
 30
0.0
 10
-15.7069702237
 20
15.7611300873
 30
0.0
 10
-15.6922104446
 20
15.8036619945
 30
0.0
  0
SPLINE
  5
3BC
100
AcDbEntity
  8
0
100
AcDbSpline
 62
250
  6
CONTINUOUS
 70
0
 71
3
 72
9
 73
5
 74
0
 42
0.0000001
 43
0.0000001
 44
0.0000000001
 40
0.0
 40
0.0
 40
0.0
 40
0.0
 40
0.2477444721
 40
1.0
 40
1.0
 40
1.0
 40
1.0
 10
-15.6922104446
 20
15.8036619945
 30
0.0
 10
-15.6863474402
 20
15.8205568788
 30
0.0
 10
-15.6599153856
 20
15.8877567204
 30
0.0
 10
-15.6231874163
 20
15.9509326237
 30
0.0
 10
-15.5905273218
 20
15.9943138331
 30
0.0
  0
SPLINE
  5
3BD
100
AcDbEntity
  8
0
100
AcDbSpline
 62
250
  6
CONTINUOUS
 70
0
 71
3
 72
9
 73
5
 74
0
 42
0.0000001
 43
0.0000001
 44
0.0000000001
 40
0.0
 40
0.0
 40
0.0
 40
0.0
 40
0.2551415964
 40
1.0
 40
1.0
 40
1.0
 40
1.0
 10
-15.5905273218
 20
15.9943138331
 30
0.0
 10
-15.5858316988
 20
16.0005508575
 30
0.0
 10
-15.5670016814
 20
16.0246705187
 30
0.0
 10
-15.5464451011
 20
16.0474581596
 30
0.0
 10
-15.5301718744
 20
16.0634157386
 30
0.0
  0
SPLINE
  5
3BE
100
AcDbEntity
  8
0
100
AcDbSpline
 62
250
  6
CONTINUOUS
 70
0
 71
3
 72
11
 73
7
 74
0
 42
0.0000001
 43
0.0000001
 44
0.0000000001
 40
0.0
 40
0.0
 40
0.0
 40
0.0
 40
0.2990310466
 40
0.4993355137
 40
0.699741113
 40
1.0
 40
1.0
 40
1.0
 40
1.0
 10
-15.3860566099
 20
4.5930534681
 30
0.0
 10
-15.3821940655
 20
4.5916091722
 30
0.0
 10
-15.3758252812
 20
4.5888678319
 30
0.0
 10
-15.3697396558
 20
4.579671782
 30
0.0
 10
-15.375375522
 20
4.5701663082
 30
0.0
 10
-15.3816365351
 20
4.5671319215
 30
0.0
 10
-15.3854449589
 20
4.5655067804
 30
0.0
  0
SPLINE
  5
3BF
100
AcDbEntity
  8
0
100
AcDbSpline
 62
250
  6
CONTINUOUS
 70
0
 71
3
 72
9
 73
5
 74
0
 42
0.0000001
 43
0.0000001
 44
0.0000000001
 40
0.0
 40
0.0
 40
0.0
 40
0.0
 40
0.5609471573
 40
1.0
 40
1.0
 40
1.0
 40
1.0
 10
-15.2369404792
 20
16.2937105342
 30
0.0
 10
-15.2348514108
 20
16.2781145801
 30
0.0
 10
-15.2341522277
 20
16.2493009953
 30
0.0
 10
-15.2490988581
 20
16.2229043856
 30
0.0
 10
-15.2588674194
 20
16.2154038408
 30
0.0
  0
SPLINE
  5
3C0
100
AcDbEntity
  8
0
100
AcDbSpline
 62
250
  6
CONTINUOUS
 70
0
 71
3
 72
9
 73
5
 74
0
 42
0.0000001
 43
0.0000001
 44
0.0000000001
 40
0.0
 40
0.0
 40
0.0
 40
0.0
 40
0.5609451158
 40
1.0
 40
1.0
 40
1.0
 40
1.0
 10
-15.484652995
 20
16.1031633106
 30
0.0
 10
-15.4825640354
 20
16.0875682205
 30
0.0
 10
-15.4818648621
 20
16.0587563141
 30
0.0
 10
-15.4968088892
 20
16.0323605047
 30
0.0
 10
-15.5065762979
 20
16.0248594104
 30
0.0
  0
SPLINE
  5
3C1
100
AcDbEntity
  8
0
100
AcDbSpline
 62
250
  6
CONTINUOUS
 70
0
 71
3
 72
10
 73
6
 74
0
 42
0.0000001
 43
0.0000001
 44
0.0000000001
 40
0.0
 40
0.0
 40
0.0
 40
0.0
 40
0.546374885
 40
0.7806295628
 40
1.0
 40
1.0
 40
1.0
 40
1.0
 10
-15.7238816751
 20
15.6308637762
 30
0.0
 10
-15.7079663965
 20
15.6403795568
 30
0.0
 10
-15.6865438769
 20
15.6577918714
 30
0.0
 10
-15.6704235078
 20
15.6881330894
 30
0.0
 10
-15.6677578179
 20
15.7036361019
 30
0.0
 10
-15.6677584834
 20
15.7110811836
 30
0.0
  0
SPLINE
  5
3C2
100
AcDbEntity
  8
0
100
AcDbSpline
 62
250
  6
CONTINUOUS
 70
0
 71
3
 72
9
 73
5
 74
0
 42
0.0000001
 43
0.0000001
 44
0.0000000001
 40
0.0
 40
0.0
 40
0.0
 40
0.0
 40
0.5478889287
 40
1.0
 40
1.0
 40
1.0
 40
1.0
 10
-15.7238816751
 20
4.3811960492
 30
0.0
 10
-15.7087556742
 20
4.3902399188
 30
0.0
 10
-15.6827916588
 20
4.4106357846
 30
0.0
 10
-15.6690172832
 20
4.4419407997
 30
0.0
 10
-15.6679423137
 20
4.4564437001
 30
0.0
  0
SPLINE
  5
3C3
100
AcDbEntity
  8
0
100
AcDbSpline
 62
250
  6
CONTINUOUS
 70
0
 71
3
 72
11
 73
7
 74
0
 42
0.0000001
 43
0.0000001
 44
0.0000000001
 40
0.0
 40
0.0
 40
0.0
 40
0.0
 40
0.2510505119
 40
0.4522061595
 40
0.6514885898
 40
1.0
 40
1.0
 40
1.0
 40
1.0
 10
-15.484652995
 20
4.194967235
 30
0.0
 10
-15.4815626823
 20
4.2217333482
 30
0.0
 10
-15.4854625246
 20
4.2711897741
 30
0.0
 10
-15.508501005
 20
4.3377651208
 30
0.0
 10
-15.549940211
 20
4.4066619159
 30
0.0
 10
-15.5977649154
 20
4.4477379803
 30
0.0
 10
-15.6331574747
 20
4.4598382754
 30
0.0
  0
SPLINE
  5
3C4
100
AcDbEntity
  8
0
100
AcDbSpline
 62
7
  6
CONTINUOUS
 70
0
 71
3
 72
11
 73
7
 74
0
 42
0.0000001
 43
0.0000001
 44
0.0000000001
 40
0.0
 40
0.0
 40
0.0
 40
0.0
 40
0.2398961039
 40
0.4999946021
 40
0.7600960345
 40
1.0
 40
1.0
 40
1.0
 40
1.0
 10
33.5988587532
 20
18.9123991541
 30
0.0
 10
33.5998228419
 20
19.0251119556
 30
0.0
 10
33.5621154326
 20
19.2608248993
 30
0.0
 10
33.419031305
 20
19.5913909868
 30
0.0
 10
33.2042921261
 20
19.8805911485
 30
0.0
 10
33.0190102494
 20
20.0311078563
 30
0.0
 10
32.9209142033
 20
20.086633558
 30
0.0
  0
SPLINE
  5
3C5
100
AcDbEntity
  8
0
100
AcDbSpline
 62
7
  6
CONTINUOUS
 70
0
 71
3
 72
9
 73
5
 74
0
 42
0.0000001
 43
0.0000001
 44
0.0000000001
 40
0.0
 40
0.0
 40
0.0
 40
0.0
 40
0.2580518931
 40
1.0
 40
1.0
 40
1.0
 40
1.0
 10
-28.3716767601
 20
55.4762074037
 30
0.0
 10
-28.380140882
 20
55.4812010521
 30
0.0
 10
-28.4132854549
 20
55.4999563801
 30
0.0
 10
-28.4478411082
 20
55.5162657226
 30
0.0
 10
-28.4741410642
 20
55.5265950086
 30
0.0
  0
SPLINE
  5
3C6
100
AcDbEntity
  8
0
100
AcDbSpline
 62
250
  6
CONTINUOUS
 70
0
 71
3
 72
11
 73
7
 74
0
 42
0.0000001
 43
0.0000001
 44
0.0000000001
 40
0.0
 40
0.0
 40
0.0
 40
0.0
 40
0.2510505029
 40
0.4522061426
 40
0.6514885695
 40
1.0
 40
1.0
 40
1.0
 40
1.0
 10
-15.2369404792
 20
4.30063574
 30
0.0
 10
-15.2338501631
 20
4.3274018526
 30
0.0
 10
-15.2377499998
 20
4.3768582787
 30
0.0
 10
-15.2607884764
 20
4.4434336267
 30
0.0
 10
-15.3022276831
 20
4.5123304252
 30
0.0
 10
-15.3500523953
 20
4.5534064883
 30
0.0
 10
-15.3854449589
 20
4.5655067804
 30
0.0
  0
SPLINE
  5
3C7
100
AcDbEntity
  8
0
100
AcDbSpline
 62
250
  6
CONTINUOUS
 70
0
 71
3
 72
9
 73
5
 74
0
 42
0.0000001
 43
0.0000001
 44
0.0000000001
 40
0.0
 40
0.0
 40
0.0
 40
0.0
 40
0.2725560186
 40
1.0
 40
1.0
 40
1.0
 40
1.0
 10
-15.6331574747
 20
4.4598382754
 30
0.0
 10
-15.636111732
 20
4.4584739726
 30
0.0
 10
-15.6470946626
 20
4.4538126677
 30
0.0
 10
-15.6587576785
 20
4.450550549
 30
0.0
 10
-15.6673857667
 20
4.4495578139
 30
0.0
  0
SPLINE
  5
3C8
100
AcDbEntity
  8
0
100
AcDbSpline
 62
250
  6
CONTINUOUS
 70
0
 71
3
 72
11
 73
7
 74
0
 42
0.0000001
 43
0.0000001
 44
0.0000000001
 40
0.0
 40
0.0
 40
0.0
 40
0.0
 40
0.2376510532
 40
0.4999342143
 40
0.7622435858
 40
1.0
 40
1.0
 40
1.0
 40
1.0
 10
-15.4490402048
 20
-1.8239165869
 30
0.0
 10
-15.4186026249
 20
-1.8409912413
 30
0.0
 10
-15.3610043916
 20
-1.8885049012
 30
0.0
 10
-15.294082869
 20
-1.9793342488
 30
0.0
 10
-15.248865666
 20
-2.0827134955
 30
0.0
 10
-15.236507089
 20
-2.15637159
 30
0.0
 10
-15.2369404792
 20
-2.1912840876
 30
0.0
  0
SPLINE
  5
3C9
100
AcDbEntity
  8
0
100
AcDbSpline
 62
250
  6
CONTINUOUS
 70
0
 71
3
 72
10
 73
6
 74
0
 42
0.0000001
 43
0.0000001
 44
0.0000000001
 40
0.0
 40
0.0
 40
0.0
 40
0.0
 40
0.5461416648
 40
0.7809242798
 40
1.0
 40
1.0
 40
1.0
 40
1.0
 10
-15.2369404792
 20
3.5985788572
 30
0.0
 10
-15.2366003572
 20
3.5714334547
 30
0.0
 10
-15.2417266436
 20
3.5314350861
 30
0.0
 10
-15.2662525218
 20
3.4875667645
 30
0.0
 10
-15.2829631817
 20
3.4717415701
 30
0.0
 10
-15.2919998317
 20
3.4656648623
 30
0.0
  0
SPLINE
  5
3CA
100
AcDbEntity
  8
0
100
AcDbSpline
 62
250
  6
CONTINUOUS
 70
0
 71
3
 72
10
 73
6
 74
0
 42
0.0000001
 43
0.0000001
 44
0.0000000001
 40
0.0
 40
0.0
 40
0.0
 40
0.0
 40
0.5461416648
 40
0.7809242798
 40
1.0
 40
1.0
 40
1.0
 40
1.0
 10
-15.2369404792
 20
22.7856303618
 30
0.0
 10
-15.2366003572
 20
22.7584849593
 30
0.0
 10
-15.2417266436
 20
22.7184865907
 30
0.0
 10
-15.2662525218
 20
22.6746182691
 30
0.0
 10
-15.2829631817
 20
22.6587930747
 30
0.0
 10
-15.2919998317
 20
22.652716367
 30
0.0
  0
SPLINE
  5
3CB
100
AcDbEntity
  8
0
100
AcDbSpline
 62
250
  6
CONTINUOUS
 70
0
 71
3
 72
11
 73
7
 74
0
 42
0.0000001
 43
0.0000001
 44
0.0000000001
 40
0.0
 40
0.0
 40
0.0
 40
0.0
 40
0.2376510532
 40
0.4999342143
 40
0.7622435858
 40
1.0
 40
1.0
 40
1.0
 40
1.0
 10
-15.4490402048
 20
17.3631349177
 30
0.0
 10
-15.4186026249
 20
17.3460602633
 30
0.0
 10
-15.3610043916
 20
17.2985466034
 30
0.0
 10
-15.294082869
 20
17.2077172558
 30
0.0
 10
-15.248865666
 20
17.1043380091
 30
0.0
 10
-15.236507089
 20
17.0306799146
 30
0.0
 10
-15.2369404792
 20
16.995767417
 30
0.0
  0
SPLINE
  5
3CC
100
AcDbEntity
  8
0
100
AcDbSpline
 62
250
  6
CONTINUOUS
 70
0
 71
3
 72
9
 73
5
 74
0
 42
0.0000001
 43
0.0000001
 44
0.0000000001
 40
0.0
 40
0.0
 40
0.0
 40
0.0
 40
0.5411875522
 40
1.0
 40
1.0
 40
1.0
 40
1.0
 10
-15.2369404792
 20
16.2937105342
 30
0.0
 10
-15.2179218084
 20
16.305704034
 30
0.0
 10
-15.1852971364
 20
16.3332364428
 30
0.0
 10
-15.1685231539
 20
16.3738273305
 30
0.0
 10
-15.1670642735
 20
16.3928335386
 30
0.0
  0
SPLINE
  5
3CD
100
AcDbEntity
  8
0
100
AcDbSpline
 62
250
  6
CONTINUOUS
 70
0
 71
3
 72
10
 73
6
 74
0
 42
0.0000001
 43
0.0000001
 44
0.0000000001
 40
0.0
 40
0.0
 40
0.0
 40
0.0
 40
0.3606040288
 40
0.6415404703
 40
1.0
 40
1.0
 40
1.0
 40
1.0
 10
-2.5233611289
 20
-15.622976947
 30
0.0
 10
-2.5216461602
 20
-15.6268143289
 30
0.0
 10
-2.5188502504
 20
-15.6338605492
 30
0.0
 10
-2.5158988802
 20
-15.6448066372
 30
0.0
 10
-2.5164430371
 20
-15.6535987401
 30
0.0
 10
-2.5194373388
 20
-15.6565127193
 30
0.0
  0
SPLINE
  5
3CE
100
AcDbEntity
  8
ASSI
100
AcDbSpline
 62
7
  6
CONTINUOUS
 70
0
 71
3
 72
10
 73
6
 74
0
 42
0.0000001
 43
0.0000001
 44
0.0000000001
 40
0.0
 40
0.0
 40
0.0
 40
0.0
 40
0.5278685352
 40
0.7673006673
 40
1.0
 40
1.0
 40
1.0
 40
1.0
 10
-28.4741410642
 20
55.5265950086
 30
0.0
 10
-28.5327935446
 20
55.549630722
 30
0.0
 10
-28.6252175234
 20
55.5707738926
 30
0.0
 10
-28.7446445109
 20
55.5558256381
 30
0.0
 10
-28.7977660231
 20
55.534910188
 30
0.0
 10
-28.8221132632
 20
55.521536811
 30
0.0
  0
SPLINE
  5
3CF
100
AcDbEntity
  8
ASSI
100
AcDbSpline
 62
7
  6
CONTINUOUS
 70
0
 71
3
 72
10
 73
6
 74
0
 42
0.0000001
 43
0.0000001
 44
0.0000000001
 40
0.0
 40
0.0
 40
0.0
 40
0.0
 40
0.2326995781
 40
0.4721317903
 40
1.0
 40
1.0
 40
1.0
 40
1.0
 10
33.4129226429
 20
-52.2725958937
 30
0.0
 10
33.4366762452
 20
-52.2581964823
 30
0.0
 10
33.4813466487
 20
-52.2226485806
 30
0.0
 10
33.5539981397
 20
-52.1266961092
 30
0.0
 10
33.5818943913
 20
-52.0360853912
 30
0.0
 10
33.5912680779
 20
-51.973775067
 30
0.0
  0
SPLINE
  5
3D0
100
AcDbEntity
  8
ASSI
100
AcDbSpline
 62
250
  6
CONTINUOUS
 70
0
 71
3
 72
9
 73
5
 74
0
 42
0.0000001
 43
0.0000001
 44
0.0000000001
 40
0.0
 40
0.0
 40
0.0
 40
0.0
 40
0.2332360618
 40
1.0
 40
1.0
 40
1.0
 40
1.0
 10
-15.7238816751
 20
15.6308637762
 30
0.0
 10
-15.7238809179
 20
15.64455811
 30
0.0
 10
-15.720816066
 20
15.7032644313
 30
0.0
 10
-15.7069702295
 20
15.7611300637
 30
0.0
 10
-15.6922104553
 20
15.8036619638
 30
0.0
  0
SPLINE
  5
3D1
100
AcDbEntity
  8
ASSI
100
AcDbSpline
 62
250
  6
CONTINUOUS
 70
0
 71
3
 72
9
 73
5
 74
0
 42
0.0000001
 43
0.0000001
 44
0.0000000001
 40
0.0
 40
0.0
 40
0.0
 40
0.0
 40
0.2477444781
 40
1.0
 40
1.0
 40
1.0
 40
1.0
 10
-15.6922104553
 20
15.8036619638
 30
0.0
 10
-15.6863474427
 20
15.8205568742
 30
0.0
 10
-15.6599153473
 20
15.8877568167
 30
0.0
 10
-15.6231873069
 20
15.9509328091
 30
0.0
 10
-15.5905271442
 20
15.994314069
 30
0.0
  0
SPLINE
  5
3D2
100
AcDbEntity
  8
ASSI
100
AcDbSpline
 62
250
  6
CONTINUOUS
 70
0
 71
3
 72
9
 73
5
 74
0
 42
0.0000001
 43
0.0000001
 44
0.0000000001
 40
0.0
 40
0.0
 40
0.0
 40
0.0
 40
0.2551416147
 40
1.0
 40
1.0
 40
1.0
 40
1.0
 10
-15.5905271442
 20
15.994314069
 30
0.0
 10
-15.5858315173
 20
16.0005510927
 30
0.0
 10
-15.5670014859
 20
16.0246707492
 30
0.0
 10
-15.546444891
 20
16.0474583836
 30
0.0
 10
-15.5301716533
 20
16.0634159557
 30
0.0
  0
SPLINE
  5
3D3
100
AcDbEntity
  8
ASSI
100
AcDbSpline
 62
250
  6
CONTINUOUS
 70
0
 71
3
 72
15
 73
11
 74
0
 42
0.0000001
 43
0.0000001
 44
0.0000000001
 40
0.0
 40
0.0
 40
0.0
 40
0.0
 40
0.1361087443
 40
0.258615133
 40
0.3711966206
 40
0.4802342622
 40
0.592820783
 40
0.7148948358
 40
0.8502342607
 40
1.0
 40
1.0
 40
1.0
 40
1.0
 10
-15.484652995
 20
4.194967235
 30
0.0
 10
-15.5003175949
 20
4.1882875613
 30
0.0
 10
-15.531316896
 20
4.1781481582
 30
0.0
 10
-15.578060011
 20
4.1739876353
 30
0.0
 10
-15.6209749283
 20
4.1823462262
 30
0.0
 10
-15.6580696218
 20
4.2031750453
 30
0.0
 10
-15.6875935204
 20
4.2353078084
 30
0.0
 10
-15.7087694189
 20
4.2770007798
 30
0.0
 10
-15.7213627876
 20
4.3266965874
 30
0.0
 10
-15.7238808628
 20
4.3624580272
 30
0.0
 10
-15.7238816751
 20
4.3811960492
 30
0.0
  0
SPLINE
  5
3D4
100
AcDbEntity
  8
ASSI
100
AcDbSpline
 62
250
  6
CONTINUOUS
 70
0
 71
3
 72
11
 73
7
 74
0
 42
0.0000001
 43
0.0000001
 44
0.0000000001
 40
0.0
 40
0.0
 40
0.0
 40
0.0
 40
0.2135304008
 40
0.4448067725
 40
0.7056250979
 40
1.0
 40
1.0
 40
1.0
 40
1.0
 10
-15.1667859027
 20
4.3947550944
 30
0.0
 10
-15.1667879907
 20
4.3860256133
 30
0.0
 10
-15.1701894933
 20
4.3677158316
 30
0.0
 10
-15.1846542158
 20
4.3422829698
 30
0.0
 10
-15.2074809271
 20
4.3192453041
 30
0.0
 10
-15.226463668
 20
4.3065574448
 30
0.0
 10
-15.2369404792
 20
4.30063574
 30
0.0
  0
SPLINE
  5
3D5
100
AcDbEntity
  8
ASSI
100
AcDbSpline
 62
7
  6
CONTINUOUS
 70
0
 71
3
 72
9
 73
5
 74
0
 42
0.0000001
 43
0.0000001
 44
0.0000000001
 40
0.0
 40
0.0
 40
0.0
 40
0.0
 40
0.2421136351
 40
1.0
 40
1.0
 40
1.0
 40
1.0
 10
33.5912680779
 20
-51.973775067
 30
0.0
 10
33.5926389873
 20
-51.9646621305
 30
0.0
 10
33.5974760049
 20
-51.9269007554
 30
0.0
 10
33.5991295599
 20
-51.8887544265
 30
0.0
 10
33.5988587532
 20
-51.8599085662
 30
0.0
  0
SPLINE
  5
3D6
100
AcDbEntity
  8
ASSI
100
AcDbSpline
 62
250
  6
CONTINUOUS
 70
0
 71
3
 72
9
 73
5
 74
0
 42
0.0000001
 43
0.0000001
 44
0.0000000001
 40
0.0
 40
0.0
 40
0.0
 40
0.0
 40
0.4810829056
 40
1.0
 40
1.0
 40
1.0
 40
1.0
 10
-15.3113957219
 20
4.5957363462
 30
0.0
 10
-15.322812047
 20
4.6000053121
 30
0.0
 10
-15.3486426429
 20
4.6038437238
 30
0.0
 10
-15.3738243262
 20
4.597871423
 30
0.0
 10
-15.3860566099
 20
4.5930534681
 30
0.0
  0
SPLINE
  5
3D7
100
AcDbEntity
  8
ASSI
100
AcDbSpline
 62
250
  6
CONTINUOUS
 70
0
 71
3
 72
9
 73
5
 74
0
 42
0.0000001
 43
0.0000001
 44
0.0000000001
 40
0.0
 40
0.0
 40
0.0
 40
0.0
 40
0.4808335537
 40
1.0
 40
1.0
 40
1.0
 40
1.0
 10
-2.57159245
 20
-15.6968917391
 30
0.0
 10
-2.5623589964
 20
-15.6905475473
 30
0.0
 10
-2.5453226747
 20
-15.6739829608
 30
0.0
 10
-2.5341225427
 20
-15.6531886623
 30
0.0
 10
-2.5296347525
 20
-15.6419559486
 30
0.0
  0
SPLINE
  5
3D8
100
AcDbEntity
  8
ASSI
100
AcDbSpline
 62
250
  6
CONTINUOUS
 70
0
 71
3
 72
8
 73
4
 74
0
 42
0.0000001
 43
0.0000001
 44
0.0000000001
 40
0.0
 40
0.0
 40
0.0
 40
0.0
 40
1.0
 40
1.0
 40
1.0
 40
1.0
 10
-2.5296347525
 20
-15.6419559486
 30
0.0
 10
-2.527162689
 20
-15.6357684974
 30
0.0
 10
-2.5250831943
 20
-15.629413572
 30
0.0
 10
-2.5233611289
 20
-15.622976947
 30
0.0
  0
SPLINE
  5
3D9
100
AcDbEntity
  8
ASSI
100
AcDbSpline
 62
250
  6
CONTINUOUS
 70
0
 71
3
 72
11
 73
7
 74
0
 42
0.0000001
 43
0.0000001
 44
0.0000000001
 40
0.0
 40
0.0
 40
0.0
 40
0.0
 40
0.2990310466
 40
0.4993355207
 40
0.6997411256
 40
1.0
 40
1.0
 40
1.0
 40
1.0
 10
-15.3860566099
 20
4.5930534681
 30
0.0
 10
-15.3821940655
 20
4.5916091722
 30
0.0
 10
-15.3758252811
 20
4.5888678319
 30
0.0
 10
-15.3697396557
 20
4.5796717816
 30
0.0
 10
-15.3753755224
 20
4.5701663081
 30
0.0
 10
-15.3816365353
 20
4.5671319214
 30
0.0
 10
-15.3854449589
 20
4.5655067804
 30
0.0
  0
SPLINE
  5
3DA
100
AcDbEntity
  8
ASSI
100
AcDbSpline
 62
250
  6
CONTINUOUS
 70
0
 71
3
 72
11
 73
7
 74
0
 42
0.0000001
 43
0.0000001
 44
0.0000000001
 40
0.0
 40
0.0
 40
0.0
 40
0.0
 40
0.2187182257
 40
0.4522864185
 40
0.7114901475
 40
1.0
 40
1.0
 40
1.0
 40
1.0
 10
-15.1667864983
 20
3.6988043679
 30
0.0
 10
-15.1667907997
 20
3.6895014061
 30
0.0
 10
-15.1701303735
 20
3.6701381108
 30
0.0
 10
-15.18451628
 20
3.6430543223
 30
0.0
 10
-15.2073056228
 20
3.6184732604
 30
0.0
 10
-15.2264080371
 20
3.604876229
 30
0.0
 10
-15.2369404792
 20
3.598578857
 30
0.0
  0
SPLINE
  5
3DB
100
AcDbEntity
  8
ASSI
100
AcDbSpline
 62
250
  6
CONTINUOUS
 70
0
 71
3
 72
11
 73
7
 74
0
 42
0.0000001
 43
0.0000001
 44
0.0000000001
 40
0.0
 40
0.0
 40
0.0
 40
0.0
 40
0.2187065999
 40
0.4522834141
 40
0.7114952413
 40
1.0
 40
1.0
 40
1.0
 40
1.0
 10
-15.3272263177
 20
-1.8132326372
 30
0.0
 10
-15.3352841293
 20
-1.8085942075
 30
0.0
 10
-15.3537176267
 20
-1.8018224263
 30
0.0
 10
-15.3843494375
 20
-1.8007546111
 30
0.0
 10
-15.4170125028
 20
-1.8082049322
 30
0.0
 10
-15.4383265629
 20
-1.8179466013
 30
0.0
 10
-15.4490402048
 20
-1.8239165869
 30
0.0
  0
SPLINE
  5
3DC
100
AcDbEntity
  8
ASSI
100
AcDbSpline
 62
250
  6
CONTINUOUS
 70
0
 71
3
 72
11
 73
7
 74
0
 42
0.0000001
 43
0.0000001
 44
0.0000000001
 40
0.0
 40
0.0
 40
0.0
 40
0.0
 40
0.2187168269
 40
0.4522947597
 40
0.711502084
 40
1.0
 40
1.0
 40
1.0
 40
1.0
 10
-15.1667865388
 20
-2.0911108846
 30
0.0
 10
-15.1667966397
 20
-2.1004100108
 30
0.0
 10
-15.1701455487
 20
-2.1197634822
 30
0.0
 10
-15.1845344116
 20
-2.1468315168
 30
0.0
 10
-15.2073180369
 20
-2.1713989452
 30
0.0
 10
-15.2264127422
 20
-2.1849895301
 30
0.0
 10
-15.2369404792
 20
-2.1912840876
 30
0.0
  0
SPLINE
  5
3DD
100
AcDbEntity
  8
ASSI
100
AcDbSpline
 62
250
  6
CONTINUOUS
 70
0
 71
3
 72
11
 73
7
 74
0
 42
0.0000001
 43
0.0000001
 44
0.0000000001
 40
0.0
 40
0.0
 40
0.0
 40
0.0
 40
0.2187182257
 40
0.4522864185
 40
0.7114901475
 40
1.0
 40
1.0
 40
1.0
 40
1.0
 10
-15.1667864983
 20
22.8858558726
 30
0.0
 10
-15.1667907997
 20
22.8765529108
 30
0.0
 10
-15.1701303735
 20
22.8571896154
 30
0.0
 10
-15.18451628
 20
22.8301058269
 30
0.0
 10
-15.2073056228
 20
22.805524765
 30
0.0
 10
-15.2264080371
 20
22.7919277336
 30
0.0
 10
-15.2369404792
 20
22.7856303616
 30
0.0
  0
SPLINE
  5
3DE
100
AcDbEntity
  8
ASSI
100
AcDbSpline
 62
7
  6
CONTINUOUS
 70
0
 71
3
 72
11
 73
7
 74
0
 42
0.0000001
 43
0.0000001
 44
0.0000000001
 40
0.0
 40
0.0
 40
0.0
 40
0.0
 40
0.2398961039
 40
0.4999946021
 40
0.7600960345
 40
1.0
 40
1.0
 40
1.0
 40
1.0
 10
33.5988587532
 20
18.9123991541
 30
0.0
 10
33.5998228419
 20
19.0251119556
 30
0.0
 10
33.5621154326
 20
19.2608248993
 30
0.0
 10
33.419031305
 20
19.5913909868
 30
0.0
 10
33.2042921261
 20
19.8805911485
 30
0.0
 10
33.0190102494
 20
20.0311078563
 30
0.0
 10
32.9209142033
 20
20.086633558
 30
0.0
  0
SPLINE
  5
3DF
100
AcDbEntity
  8
ASSI
100
AcDbSpline
 62
7
  6
CONTINUOUS
 70
0
 71
3
 72
9
 73
5
 74
0
 42
0.0000001
 43
0.0000001
 44
0.0000000001
 40
0.0
 40
0.0
 40
0.0
 40
0.0
 40
0.2580518931
 40
1.0
 40
1.0
 40
1.0
 40
1.0
 10
-28.3716767601
 20
55.4762074037
 30
0.0
 10
-28.380140882
 20
55.4812010521
 30
0.0
 10
-28.4132854549
 20
55.4999563801
 30
0.0
 10
-28.4478411082
 20
55.5162657226
 30
0.0
 10
-28.4741410642
 20
55.5265950086
 30
0.0
  0
SPLINE
  5
3E0
100
AcDbEntity
  8
ASSI
100
AcDbSpline
 62
250
  6
CONTINUOUS
 70
0
 71
3
 72
11
 73
7
 74
0
 42
0.0000001
 43
0.0000001
 44
0.0000000001
 40
0.0
 40
0.0
 40
0.0
 40
0.0
 40
0.2187065999
 40
0.4522834141
 40
0.7114952413
 40
1.0
 40
1.0
 40
1.0
 40
1.0
 10
-15.3272263177
 20
17.3738188674
 30
0.0
 10
-15.3352841293
 20
17.3784572971
 30
0.0
 10
-15.3537176267
 20
17.3852290784
 30
0.0
 10
-15.3843494375
 20
17.3862968936
 30
0.0
 10
-15.4170125028
 20
17.3788465724
 30
0.0
 10
-15.4383265629
 20
17.3691049033
 30
0.0
 10
-15.4490402048
 20
17.3631349177
 30
0.0
  0
SPLINE
  5
3E1
100
AcDbEntity
  8
ASSI
100
AcDbSpline
 62
250
  6
CONTINUOUS
 70
0
 71
3
 72
11
 73
7
 74
0
 42
0.0000001
 43
0.0000001
 44
0.0000000001
 40
0.0
 40
0.0
 40
0.0
 40
0.0
 40
0.2187168269
 40
0.4522947597
 40
0.711502084
 40
1.0
 40
1.0
 40
1.0
 40
1.0
 10
-15.1667865388
 20
17.0959406201
 30
0.0
 10
-15.1667966397
 20
17.0866414939
 30
0.0
 10
-15.1701455487
 20
17.0672880224
 30
0.0
 10
-15.1845344116
 20
17.0402199878
 30
0.0
 10
-15.2073180369
 20
17.0156525594
 30
0.0
 10
-15.2264127422
 20
17.0020619745
 30
0.0
 10
-15.2369404792
 20
16.995767417
 30
0.0
  0
SPLINE
  5
3E2
100
AcDbEntity
  8
ASSI
100
AcDbSpline
 62
250
  6
CONTINUOUS
 70
0
 71
3
 72
11
 73
7
 74
0
 42
0.0000001
 43
0.0000001
 44
0.0000000001
 40
0.0
 40
0.0
 40
0.0
 40
0.0
 40
0.2376510569
 40
0.4999342214
 40
0.7622435943
 40
1.0
 40
1.0
 40
1.0
 40
1.0
 10
-15.4490402048
 20
-1.8239165869
 30
0.0
 10
-15.4186026244
 20
-1.8409912416
 30
0.0
 10
-15.3610043904
 20
-1.8885049023
 30
0.0
 10
-15.2940828675
 20
-1.9793342512
 30
0.0
 10
-15.2488656655
 20
-2.0827134978
 30
0.0
 10
-15.2365070891
 20
-2.1563715913
 30
0.0
 10
-15.2369404792
 20
-2.1912840876
 30
0.0
  0
SPLINE
  5
3E3
100
AcDbEntity
  8
ASSI
100
AcDbSpline
 62
250
  6
CONTINUOUS
 70
0
 71
3
 72
10
 73
6
 74
0
 42
0.0000001
 43
0.0000001
 44
0.0000000001
 40
0.0
 40
0.0
 40
0.0
 40
0.0
 40
0.5461416737
 40
0.7809242803
 40
1.0
 40
1.0
 40
1.0
 40
1.0
 10
-15.2369404792
 20
3.5985788572
 30
0.0
 10
-15.236600357
 20
3.571433444
 30
0.0
 10
-15.2417266475
 20
3.5314350589
 30
0.0
 10
-15.2662525483
 20
3.4875667273
 30
0.0
 10
-15.2829632224
 20
3.4717415352
 30
0.0
 10
-15.2919998793
 20
3.4656648304
 30
0.0
  0
SPLINE
  5
3E4
100
AcDbEntity
  8
ASSI
100
AcDbSpline
 62
250
  6
CONTINUOUS
 70
0
 71
3
 72
10
 73
6
 74
0
 42
0.0000001
 43
0.0000001
 44
0.0000000001
 40
0.0
 40
0.0
 40
0.0
 40
0.0
 40
0.5461416737
 40
0.7809242803
 40
1.0
 40
1.0
 40
1.0
 40
1.0
 10
-15.2369404792
 20
22.7856303618
 30
0.0
 10
-15.236600357
 20
22.7584849487
 30
0.0
 10
-15.2417266475
 20
22.7184865635
 30
0.0
 10
-15.2662525483
 20
22.6746182319
 30
0.0
 10
-15.2829632224
 20
22.6587930399
 30
0.0
 10
-15.2919998793
 20
22.652716335
 30
0.0
  0
SPLINE
  5
3E5
100
AcDbEntity
  8
ASSI
100
AcDbSpline
 62
250
  6
CONTINUOUS
 70
0
 71
3
 72
11
 73
7
 74
0
 42
0.0000001
 43
0.0000001
 44
0.0000000001
 40
0.0
 40
0.0
 40
0.0
 40
0.0
 40
0.2376510569
 40
0.4999342214
 40
0.7622435943
 40
1.0
 40
1.0
 40
1.0
 40
1.0
 10
-15.4490402048
 20
17.3631349177
 30
0.0
 10
-15.4186026244
 20
17.3460602631
 30
0.0
 10
-15.3610043904
 20
17.2985466023
 30
0.0
 10
-15.2940828675
 20
17.2077172534
 30
0.0
 10
-15.2488656655
 20
17.1043380068
 30
0.0
 10
-15.2365070891
 20
17.0306799133
 30
0.0
 10
-15.2369404792
 20
16.995767417
 30
0.0
  0
SPLINE
  5
3E6
100
AcDbEntity
  8
ASSI
100
AcDbSpline
 62
250
  6
CONTINUOUS
 70
0
 71
3
 72
9
 73
5
 74
0
 42
0.0000001
 43
0.0000001
 44
0.0000000001
 40
0.0
 40
0.0
 40
0.0
 40
0.0
 40
0.5411876053
 40
1.0
 40
1.0
 40
1.0
 40
1.0
 10
-15.2369404792
 20
16.2937105342
 30
0.0
 10
-15.2179217675
 20
16.3057040596
 30
0.0
 10
-15.1852970289
 20
16.3332365369
 30
0.0
 10
-15.1685230832
 20
16.3738275533
 30
0.0
 10
-15.1670642532
 20
16.3928338022
 30
0.0
  0
SPLINE
  5
3E7
100
AcDbEntity
  8
ASSI
100
AcDbSpline
 62
250
  6
CONTINUOUS
 70
0
 71
3
 72
10
 73
6
 74
0
 42
0.0000001
 43
0.0000001
 44
0.0000000001
 40
0.0
 40
0.0
 40
0.0
 40
0.0
 40
0.3606040285
 40
0.6415404703
 40
1.0
 40
1.0
 40
1.0
 40
1.0
 10
-2.5233611289
 20
-15.622976947
 30
0.0
 10
-2.5216461602
 20
-15.6268143289
 30
0.0
 10
-2.5188502503
 20
-15.6338605491
 30
0.0
 10
-2.5158988802
 20
-15.6448066372
 30
0.0
 10
-2.5164430371
 20
-15.6535987401
 30
0.0
 10
-2.5194373388
 20
-15.6565127193
 30
0.0
  0
SPLINE
  5
3E8
100
AcDbEntity
  8
ASSI
100
AcDbSpline
 62
250
  6
CONTINUOUS
 70
0
 71
3
 72
9
 73
5
 74
0
 42
0.0000001
 43
0.0000001
 44
0.0000000001
 40
0.0
 40
0.0
 40
0.0
 40
0.0
 40
0.2725560258
 40
1.0
 40
1.0
 40
1.0
 40
1.0
 10
-15.6331574747
 20
4.4598382754
 30
0.0
 10
-15.6361117324
 20
4.4584739724
 30
0.0
 10
-15.6470946642
 20
4.4538126669
 30
0.0
 10
-15.6587576815
 20
4.450550548
 30
0.0
 10
-15.6673857706
 20
4.4495578135
 30
0.0
  0
SPLINE
  5
3E9
100
AcDbEntity
  8
ASSI
100
AcDbSpline
 62
250
  6
CONTINUOUS
 70
0
 71
3
 72
11
 73
7
 74
0
 42
0.0000001
 43
0.0000001
 44
0.0000000001
 40
0.0
 40
0.0
 40
0.0
 40
0.0
 40
0.2510505029
 40
0.4522061426
 40
0.6514885695
 40
1.0
 40
1.0
 40
1.0
 40
1.0
 10
-15.2369404792
 20
4.30063574
 30
0.0
 10
-15.2338501631
 20
4.3274018526
 30
0.0
 10
-15.2377499998
 20
4.3768582787
 30
0.0
 10
-15.2607884764
 20
4.4434336267
 30
0.0
 10
-15.3022276831
 20
4.5123304252
 30
0.0
 10
-15.3500523953
 20
4.5534064883
 30
0.0
 10
-15.3854449589
 20
4.5655067804
 30
0.0
  0
SPLINE
  5
3EA
100
AcDbEntity
  8
ASSI
100
AcDbSpline
 62
250
  6
CONTINUOUS
 70
0
 71
3
 72
11
 73
7
 74
0
 42
0.0000001
 43
0.0000001
 44
0.0000000001
 40
0.0
 40
0.0
 40
0.0
 40
0.0
 40
0.2510505119
 40
0.4522061595
 40
0.6514885898
 40
1.0
 40
1.0
 40
1.0
 40
1.0
 10
-15.484652995
 20
4.194967235
 30
0.0
 10
-15.4815626823
 20
4.2217333482
 30
0.0
 10
-15.4854625246
 20
4.2711897741
 30
0.0
 10
-15.508501005
 20
4.3377651208
 30
0.0
 10
-15.549940211
 20
4.4066619159
 30
0.0
 10
-15.5977649154
 20
4.4477379803
 30
0.0
 10
-15.6331574747
 20
4.4598382754
 30
0.0
  0
SPLINE
  5
3EB
100
AcDbEntity
  8
ASSI
100
AcDbSpline
 62
250
  6
CONTINUOUS
 70
0
 71
3
 72
9
 73
5
 74
0
 42
0.0000001
 43
0.0000001
 44
0.0000000001
 40
0.0
 40
0.0
 40
0.0
 40
0.0
 40
0.5478889287
 40
1.0
 40
1.0
 40
1.0
 40
1.0
 10
-15.7238816751
 20
4.3811960492
 30
0.0
 10
-15.7087556742
 20
4.3902399188
 30
0.0
 10
-15.6827916588
 20
4.4106357846
 30
0.0
 10
-15.6690172832
 20
4.4419407997
 30
0.0
 10
-15.6679423137
 20
4.4564437001
 30
0.0
  0
SPLINE
  5
3EC
100
AcDbEntity
  8
ASSI
100
AcDbSpline
 62
250
  6
CONTINUOUS
 70
0
 71
3
 72
10
 73
6
 74
0
 42
0.0000001
 43
0.0000001
 44
0.0000000001
 40
0.0
 40
0.0
 40
0.0
 40
0.0
 40
0.546374885
 40
0.7806295628
 40
1.0
 40
1.0
 40
1.0
 40
1.0
 10
-15.7238816751
 20
15.6308637762
 30
0.0
 10
-15.7079663965
 20
15.6403795568
 30
0.0
 10
-15.6865438769
 20
15.6577918714
 30
0.0
 10
-15.6704235078
 20
15.6881330894
 30
0.0
 10
-15.6677578179
 20
15.7036361019
 30
0.0
 10
-15.6677584834
 20
15.7110811836
 30
0.0
  0
SPLINE
  5
3ED
100
AcDbEntity
  8
ASSI
100
AcDbSpline
 62
250
  6
CONTINUOUS
 70
0
 71
3
 72
9
 73
5
 74
0
 42
0.0000001
 43
0.0000001
 44
0.0000000001
 40
0.0
 40
0.0
 40
0.0
 40
0.0
 40
0.5609451159
 40
1.0
 40
1.0
 40
1.0
 40
1.0
 10
-15.484652995
 20
16.1031633106
 30
0.0
 10
-15.4825640353
 20
16.0875682204
 30
0.0
 10
-15.4818648621
 20
16.058756314
 30
0.0
 10
-15.4968088893
 20
16.0323605045
 30
0.0
 10
-15.5065762981
 20
16.0248594102
 30
0.0
  0
SPLINE
  5
3EE
100
AcDbEntity
  8
ASSI
100
AcDbSpline
 62
250
  6
CONTINUOUS
 70
0
 71
3
 72
9
 73
5
 74
0
 42
0.0000001
 43
0.0000001
 44
0.0000000001
 40
0.0
 40
0.0
 40
0.0
 40
0.0
 40
0.5609471573
 40
1.0
 40
1.0
 40
1.0
 40
1.0
 10
-15.2369404792
 20
16.2937105342
 30
0.0
 10
-15.2348514108
 20
16.2781145801
 30
0.0
 10
-15.2341522277
 20
16.2493009953
 30
0.0
 10
-15.2490988581
 20
16.2229043856
 30
0.0
 10
-15.2588674194
 20
16.2154038408
 30
0.0
  0
SPLINE
  5
3EF
100
AcDbEntity
  8
0
100
AcDbSpline
 62
250
  6
CONTINUOUS
 70
0
 71
3
 72
12
 73
8
 74
0
 42
0.0000001
 43
0.0000001
 44
0.0000000001
 40
0.0
 40
0.0
 40
0.0
 40
0.0
 40
0.3333333333
 40
0.5
 40
0.6666666667
 40
0.8333333333
 40
1.0
 40
1.0
 40
1.0
 40
1.0
 10
32.1613279273
 20
-42.8001503623
 30
0.0
 10
32.1585795875
 20
-42.8296215964
 30
0.0
 10
32.1562813159
 20
-42.8729067209
 30
0.0
 10
32.1568073196
 20
-42.9286117155
 30
0.0
 10
32.1589985977
 20
-42.969512753
 30
0.0
 10
32.1631514484
 20
-43.0097203083
 30
0.0
 10
32.1670073499
 20
-43.0360025075
 30
0.0
 10
32.1690987676
 20
-43.0491558433
 30
0.0
  0
SPLINE
  5
3F0
100
AcDbEntity
  8
0
100
AcDbSpline
 62
250
  6
CONTINUOUS
 70
0
 71
3
 72
19
 73
15
 74
0
 42
0.0000001
 43
0.0000001
 44
0.0000000001
 40
0.0
 40
0.0
 40
0.0
 40
0.0
 40
0.1
 40
0.2
 40
0.25
 40
0.3
 40
0.4
 40
0.5
 40
0.6
 40
0.7
 40
0.75
 40
0.8
 40
0.9
 40
1.0
 40
1.0
 40
1.0
 40
1.0
 10
32.3264029509
 20
-42.5185399014
 30
0.0
 10
32.3184217039
 20
-42.5234542317
 30
0.0
 10
32.3029551272
 20
-42.5343707071
 30
0.0
 10
32.2836817584
 20
-42.5511782696
 30
0.0
 10
32.2686281688
 20
-42.5662834252
 30
0.0
 10
32.2538006784
 20
-42.5825398951
 30
0.0
 10
32.2361212183
 20
-42.6045979977
 30
0.0
 10
32.2162859673
 20
-42.6342814613
 30
0.0
 10
32.1990973725
 20
-42.666226348
 30
0.0
 10
32.1873343321
 20
-42.6936682087
 30
0.0
 10
32.1793318437
 20
-42.7161529171
 30
0.0
 10
32.1723806551
 20
-42.7386500433
 30
0.0
 10
32.1656092518
 20
-42.7668921483
 30
0.0
 10
32.1623716885
 20
-42.788957811
 30
0.0
 10
32.1613279272
 20
-42.8001503623
 30
0.0
  0
SPLINE
  5
3F1
100
AcDbEntity
  8
0
100
AcDbSpline
 62
250
  6
CONTINUOUS
 70
0
 71
3
 72
15
 73
11
 74
0
 42
0.0000001
 43
0.0000001
 44
0.0000000001
 40
0.0
 40
0.0
 40
0.0
 40
0.0
 40
0.1666666667
 40
0.3333333333
 40
0.5
 40
0.5833333333
 40
0.6666666667
 40
0.75
 40
0.8333333333
 40
1.0
 40
1.0
 40
1.0
 40
1.0
 10
32.5314493381
 20
-42.6474631321
 30
0.0
 10
32.530964897
 20
-42.6222643078
 30
0.0
 10
32.5268465202
 20
-42.5774078232
 30
0.0
 10
32.5120340466
 20
-42.5275715971
 30
0.0
 10
32.490427309
 20
-42.4985400963
 30
0.0
 10
32.4650469904
 20
-42.4860343329
 30
0.0
 10
32.442565737
 20
-42.4819705817
 30
0.0
 10
32.4177200307
 20
-42.4829319391
 30
0.0
 10
32.3807621566
 20
-42.4908563106
 30
0.0
 10
32.3492045674
 20
-42.504497674
 30
0.0
 10
32.3263667198
 20
-42.5185622226
 30
0.0
  0
SPLINE
  5
3F2
100
AcDbEntity
  8
0
100
AcDbSpline
 62
250
  6
CONTINUOUS
 70
0
 71
3
 72
16
 73
12
 74
0
 42
0.0000001
 43
0.0000001
 44
0.0000000001
 40
0.0
 40
0.0
 40
0.0
 40
0.0
 40
0.125
 40
0.25
 40
0.3125
 40
0.375
 40
0.5
 40
0.625
 40
0.75
 40
0.875
 40
1.0
 40
1.0
 40
1.0
 40
1.0
 10
32.8637889174
 20
-42.2688700188
 30
0.0
 10
32.8549368102
 20
-42.2780751428
 30
0.0
 10
32.8384622407
 20
-42.2967434806
 30
0.0
 10
32.819273085
 20
-42.3221048148
 30
0.0
 10
32.8052231041
 20
-42.3430931519
 30
0.0
 10
32.792021698
 20
-42.3646118313
 30
0.0
 10
32.7775449422
 20
-42.3918786379
 30
0.0
 10
32.7635965087
 20
-42.4254522823
 30
0.0
 10
32.7541086788
 20
-42.4585996821
 30
0.0
 10
32.7487993466
 20
-42.4898124059
 30
0.0
 10
32.7476243944
 20
-42.5091831513
 30
0.0
 10
32.7476243944
 20
-42.5189095074
 30
0.0
  0
SPLINE
  5
3F3
100
AcDbEntity
  8
0
100
AcDbSpline
 62
250
  6
CONTINUOUS
 70
0
 71
3
 72
12
 73
8
 74
0
 42
0.0000001
 43
0.0000001
 44
0.0000000001
 40
0.0
 40
0.0
 40
0.0
 40
0.0
 40
0.1666666667
 40
0.3333333333
 40
0.5
 40
0.6666666667
 40
1.0
 40
1.0
 40
1.0
 40
1.0
 10
33.2641778587
 20
-41.8878302584
 30
0.0
 10
33.2400446661
 20
-41.9104133778
 30
0.0
 10
33.1924373809
 20
-41.9552574482
 30
0.0
 10
33.1228898622
 20
-42.0209314143
 30
0.0
 10
33.0549460882
 20
-42.0843205036
 30
0.0
 10
32.9667002128
 20
-42.1663254973
 30
0.0
 10
32.9037962238
 20
-42.2272810828
 30
0.0
 10
32.8638166113
 20
-42.2688412404
 30
0.0
  0
SPLINE
  5
3F4
100
AcDbEntity
  8
0
100
AcDbSpline
 62
250
  6
CONTINUOUS
 70
0
 71
3
 72
10
 73
6
 74
0
 42
0.0000001
 43
0.0000001
 44
0.0000000001
 40
0.0
 40
0.0
 40
0.0
 40
0.0
 40
0.3333333333
 40
0.6666666667
 40
1.0
 40
1.0
 40
1.0
 40
1.0
 10
32.9069530647
 20
-41.9006493299
 30
0.0
 10
32.9479034255
 20
-41.8630540762
 30
0.0
 10
33.0290537186
 20
-41.78924279
 30
0.0
 10
33.1481793178
 20
-41.6816336867
 30
0.0
 10
33.2258846921
 20
-41.6115001483
 30
0.0
 10
33.2641778587
 20
-41.5763823764
 30
0.0
  0
SPLINE
  5
3F5
100
AcDbEntity
  8
0
100
AcDbSpline
 62
250
  6
CONTINUOUS
 70
0
 71
3
 72
16
 73
12
 74
0
 42
0.0000001
 43
0.0000001
 44
0.0000000001
 40
0.0
 40
0.0
 40
0.0
 40
0.0
 40
0.1111111111
 40
0.2222222222
 40
0.3333333333
 40
0.4444444444
 40
0.5555555556
 40
0.6666666667
 40
0.7777777778
 40
0.8888888889
 40
1.0
 40
1.0
 40
1.0
 40
1.0
 10
32.6480393559
 20
-42.242099543
 30
0.0
 10
32.6522160706
 20
-42.2272928705
 30
0.0
 10
32.6627741955
 20
-42.1979529671
 30
0.0
 10
32.6848019458
 20
-42.1539231387
 30
0.0
 10
32.7104008209
 20
-42.112869206
 30
0.0
 10
32.7385201104
 20
-42.0742706019
 30
0.0
 10
32.7675879133
 20
-42.0388320216
 30
0.0
 10
32.798248675
 20
-42.0048029091
 30
0.0
 10
32.8310242685
 20
-41.9712510839
 30
0.0
 10
32.8667259165
 20
-41.9373415026
 30
0.0
 10
32.893197283
 20
-41.9132780858
 30
0.0
 10
32.9069530648
 20
-41.90064933
 30
0.0
  0
SPLINE
  5
3F6
100
AcDbEntity
  8
0
100
AcDbSpline
 62
250
  6
CONTINUOUS
 70
0
 71
3
 72
34
 73
30
 74
0
 42
0.0000001
 43
0.0000001
 44
0.0000000001
 40
0.0
 40
0.0
 40
0.0
 40
0.0
 40
0.0277777778
 40
0.0555555556
 40
0.0833333333
 40
0.1111111111
 40
0.1388888889
 40
0.1666666667
 40
0.1944444444
 40
0.2222222222
 40
0.25
 40
0.2777777778
 40
0.3333333333
 40
0.3888888889
 40
0.4444444444
 40
0.5
 40
0.5555555556
 40
0.6111111111
 40
0.6666666667
 40
0.7222222222
 40
0.7777777778
 40
0.8055555556
 40
0.8333333333
 40
0.8611111111
 40
0.8888888889
 40
0.9166666667
 40
0.9444444444
 40
0.9722222222
 40
1.0
 40
1.0
 40
1.0
 40
1.0
 10
31.9735514045
 20
-42.6787613458
 30
0.0
 10
31.977069067
 20
-42.6651991326
 30
0.0
 10
31.9856299261
 20
-42.6375462428
 30
0.0
 10
32.0028991322
 20
-42.5935382288
 30
0.0
 10
32.0247319149
 20
-42.5460866195
 30
0.0
 10
32.0503140176
 20
-42.4982934507
 30
0.0
 10
32.0791873595
 20
-42.4515787931
 30
0.0
 10
32.1108411742
 20
-42.4069406097
 30
0.0
 10
32.1446064706
 20
-42.3652471992
 30
0.0
 10
32.1794203014
 20
-42.3277749644
 30
0.0
 10
32.2130845296
 20
-42.2960223599
 30
0.0
 10
32.2570650561
 20
-42.2595222133
 30
0.0
 10
32.3077384235
 20
-42.2247085747
 30
0.0
 10
32.3620669118
 20
-42.1952741678
 30
0.0
 10
32.4106893325
 20
-42.1762270094
 30
0.0
 10
32.4532168036
 20
-42.1659577715
 30
0.0
 10
32.4901899303
 20
-42.1625446537
 30
0.0
 10
32.5220120238
 20
-42.1644790699
 30
0.0
 10
32.549060458
 20
-42.1706287671
 30
0.0
 10
32.571775079
 20
-42.1802467476
 30
0.0
 10
32.5877169554
 20
-42.1898227231
 30
0.0
 10
32.5991594751
 20
-42.1977889749
 30
0.0
 10
32.6071947576
 20
-42.2038317476
 30
0.0
 10
32.6146821912
 20
-42.2098228384
 30
0.0
 10
32.6218207625
 20
-42.2156881668
 30
0.0
 10
32.6286200198
 20
-42.221956995
 30
0.0
 10
32.6342636592
 20
-42.2289887305
 30
0.0
 10
32.6383427131
 20
-42.2370511107
 30
0.0
 10
32.6398409386
 20
-42.2433702389
 30
0.0
 10
32.6402396331
 20
-42.2467630146
 30
0.0
  0
SPLINE
  5
3F7
100
AcDbEntity
  8
0
100
AcDbSpline
 62
250
  6
CONTINUOUS
 70
0
 71
3
 72
15
 73
11
 74
0
 42
0.0000001
 43
0.0000001
 44
0.0000000001
 40
0.0
 40
0.0
 40
0.0
 40
0.0
 40
0.125
 40
0.25
 40
0.375
 40
0.5
 40
0.625
 40
0.75
 40
0.875
 40
1.0
 40
1.0
 40
1.0
 40
1.0
 10
31.9596544366
 20
-43.4861333899
 30
0.0
 10
31.9546549415
 20
-43.4491864526
 30
0.0
 10
31.9453906292
 20
-43.3775648613
 30
0.0
 10
31.9349128711
 20
-43.2771370636
 30
0.0
 10
31.9281315509
 20
-43.1801200233
 30
0.0
 10
31.9254719859
 20
-43.0844398688
 30
0.0
 10
31.9275463392
 20
-42.9872624622
 30
0.0
 10
31.935267561
 20
-42.8875552441
 30
0.0
 10
31.949682376
 20
-42.784933077
 30
0.0
 10
31.9642507072
 20
-42.7145759183
 30
0.0
 10
31.9735514045
 20
-42.6787613458
 30
0.0
  0
SPLINE
  5
3F8
100
AcDbEntity
  8
0
100
AcDbSpline
 62
7
  6
CONTINUOUS
 70
0
 71
3
 72
11
 73
7
 74
0
 42
0.0000001
 43
0.0000001
 44
0.0000000001
 40
0.0
 40
0.0
 40
0.0
 40
0.0
 40
0.2177671718
 40
0.4509440387
 40
0.7101952376
 40
1.0
 40
1.0
 40
1.0
 40
1.0
 10
-18.0897827734
 20
26.186598189
 30
0.0
 10
-18.0502004361
 20
26.2094525478
 30
0.0
 10
-17.9592444535
 20
26.2424869984
 30
0.0
 10
-17.808188262
 20
26.2462667769
 30
0.0
 10
-17.6471666871
 20
26.2074301916
 30
0.0
 10
-17.5424300023
 20
26.1575633643
 30
0.0
 10
-17.4897537812
 20
26.1271487758
 30
0.0
  0
SPLINE
  5
3F9
100
AcDbEntity
  8
0
100
AcDbSpline
 62
7
  6
CONTINUOUS
 70
0
 71
3
 72
13
 73
9
 74
0
 42
0.0000001
 43
0.0000001
 44
0.0000000001
 40
0.0
 40
0.0
 40
0.0
 40
0.0
 40
0.1142615975
 40
0.2375404836
 40
0.5000060625
 40
0.7624683192
 40
0.885743332
 40
1.0
 40
1.0
 40
1.0
 40
1.0
 10
12.4208630629
 20
8.8570940231
 30
0.0
 10
12.5031570576
 20
8.8095785024
 30
0.0
 10
12.6657188199
 20
8.6956376169
 30
0.0
 10
12.9700236049
 20
8.4107759701
 30
0.0
 10
13.2915027317
 20
7.9716986834
 30
0.0
 10
13.5110148779
 20
7.4737539114
 30
0.0
 10
13.6055541724
 20
7.0677963213
 30
0.0
 10
13.6229445891
 20
6.8700500947
 30
0.0
 10
13.622944591
 20
6.7750277439
 30
0.0
  0
SPLINE
  5
3FA
100
AcDbEntity
  8
0
100
AcDbSpline
 62
7
  6
CONTINUOUS
 70
0
 71
3
 72
9
 73
5
 74
0
 42
0.0000001
 43
0.0000001
 44
0.0000000001
 40
0.0
 40
0.0
 40
0.0
 40
0.0
 40
0.2715325905
 40
1.0
 40
1.0
 40
1.0
 40
1.0
 10
13.622944591
 20
-27.7616255095
 30
0.0
 10
13.6229445911
 20
-27.7928610654
 30
0.0
 10
13.6182074986
 20
-27.9076742952
 30
0.0
 10
13.592907722
 20
-28.0229053148
 30
0.0
 10
13.5583628399
 20
-28.0992523984
 30
0.0
  0
SPLINE
  5
3FB
100
AcDbEntity
  8
0
100
AcDbSpline
 62
7
  6
CONTINUOUS
 70
0
 71
3
 72
9
 73
5
 74
0
 42
0.0000001
 43
0.0000001
 44
0.0000000001
 40
0.0
 40
0.0
 40
0.0
 40
0.0
 40
0.5170824752
 40
1.0
 40
1.0
 40
1.0
 40
1.0
 10
13.5583628399
 20
-28.0992523984
 30
0.0
 10
13.5381903592
 20
-28.1438352707
 30
0.0
 10
13.4880683247
 20
-28.2258677232
 30
0.0
 10
13.4140230695
 20
-28.2880581056
 30
0.0
 10
13.3744454457
 20
-28.3109097428
 30
0.0
  0
SPLINE
  5
3FC
100
AcDbEntity
  8
RACCORDO
100
AcDbSpline
 62
7
  6
CONTINUOUS
 70
0
 71
3
 72
11
 73
7
 74
0
 42
0.0000001
 43
0.0000001
 44
0.0000000001
 40
0.0
 40
0.0
 40
0.0
 40
0.0
 40
0.2372134916
 40
0.4999938932
 40
0.7627776188
 40
1.0
 40
1.0
 40
1.0
 40
1.0
 10
-15.8634081845
 20
-7.8786528144
 30
0.0
 10
-15.8634081845
 20
-8.0177403805
 30
0.0
 10
-15.8112379207
 20
-8.3110954988
 30
0.0
 10
-15.6293874407
 20
-8.7233259687
 30
0.0
 10
-15.3633069572
 20
-9.0869321483
 30
0.0
 10
-15.1353359865
 20
-9.2787969088
 30
0.0
 10
-15.0148800471
 20
-9.3483466586
 30
0.0
  0
SPLINE
  5
3FD
100
AcDbEntity
  8
0
100
AcDbSpline
 62
7
  6
CONTINUOUS
 70
0
 71
3
 72
15
 73
11
 74
0
 42
0.0000001
 43
0.0000001
 44
0.0000000001
 40
0.0
 40
0.0
 40
0.0
 40
0.0
 40
0.1449018606
 40
0.274517057
 40
0.3911053392
 40
0.4999889011
 40
0.6088744758
 40
0.7254681141
 40
0.8550905238
 40
1.0
 40
1.0
 40
1.0
 40
1.0
 10
13.622944591
 20
-28.1699001028
 30
0.0
 10
13.6229445913
 20
-28.2560636309
 30
0.0
 10
13.6099241314
 20
-28.4198721744
 30
0.0
 10
13.5435493302
 20
-28.6448782306
 30
0.0
 10
13.4317783493
 20
-28.8275876914
 30
0.0
 10
13.2766288963
 20
-28.9580670169
 30
0.0
 10
13.0860451017
 20
-29.0271698996
 30
0.0
 10
12.8719199437
 20
-29.0325928878
 30
0.0
 10
12.643863504
 20
-28.9775560317
 30
0.0
 10
12.4954855878
 20
-28.9069188733
 30
0.0
 10
12.4208630629
 20
-28.8638327647
 30
0.0
  0
SPLINE
  5
3FE
100
AcDbEntity
  8
0
100
AcDbSpline
 62
7
  6
CONTINUOUS
 70
0
 71
3
 72
11
 73
7
 74
0
 42
0.0000001
 43
0.0000001
 44
0.0000000001
 40
0.0
 40
0.0
 40
0.0
 40
0.0
 40
0.2177671718
 40
0.4509440387
 40
0.7101952376
 40
1.0
 40
1.0
 40
1.0
 40
1.0
 10
13.3744454457
 20
-28.3109097428
 30
0.0
 10
13.3348631084
 20
-28.3337641016
 30
0.0
 10
13.2439071259
 20
-28.3667985521
 30
0.0
 10
13.0928509342
 20
-28.3705783309
 30
0.0
 10
12.9318293599
 20
-28.3317417445
 30
0.0
 10
12.8270926733
 20
-28.2818749201
 30
0.0
 10
12.7744164535
 20
-28.2514603296
 30
0.0
  0
SPLINE
  5
3FF
100
AcDbEntity
  8
0
100
AcDbSpline
 62
7
  6
CONTINUOUS
 70
0
 71
3
 72
11
 73
7
 74
0
 42
0.0000001
 43
0.0000001
 44
0.0000000001
 40
0.0
 40
0.0
 40
0.0
 40
0.0
 40
0.2897992053
 40
0.5490483741
 40
0.7822274786
 40
1.0
 40
1.0
 40
1.0
 40
1.0
 10
-18.3382819187
 20
25.6373139557
 30
0.0
 10
-18.3382819185
 20
25.698129936
 30
0.0
 10
-18.3290979732
 20
25.8137488113
 30
0.0
 10
-18.2822249999
 20
25.9725900209
 30
0.0
 10
-18.2034345793
 20
26.1014998917
 30
0.0
 10
-18.1293601656
 20
26.1637466856
 30
0.0
 10
-18.0897827734
 20
26.186598189
 30
0.0
  0
SPLINE
  5
400
100
AcDbEntity
  8
0
100
AcDbSpline
 62
7
  6
CONTINUOUS
 70
0
 71
3
 72
15
 73
11
 74
0
 42
0.0000001
 43
0.0000001
 44
0.0000000001
 40
0.0
 40
0.0
 40
0.0
 40
0.0
 40
0.1449018606
 40
0.274517057
 40
0.3911053392
 40
0.4999889011
 40
0.6088744758
 40
0.7254681141
 40
0.8550905238
 40
1.0
 40
1.0
 40
1.0
 40
1.0
 10
-19.0453886999
 20
25.6373139557
 30
0.0
 10
-19.0453887001
 20
25.7234774838
 30
0.0
 10
-19.0323682402
 20
25.8872860273
 30
0.0
 10
-18.9659934391
 20
26.1122920835
 30
0.0
 10
-18.8542224582
 20
26.2950015442
 30
0.0
 10
-18.6990730052
 20
26.4254808698
 30
0.0
 10
-18.5084892106
 20
26.4945837524
 30
0.0
 10
-18.2943640525
 20
26.5000067407
 30
0.0
 10
-18.0663076128
 20
26.4449698846
 30
0.0
 10
-17.9179296967
 20
26.3743327262
 30
0.0
 10
-17.8433071718
 20
26.3312466176
 30
0.0
  0
SPLINE
  5
401
100
AcDbEntity
  8
0
100
AcDbSpline
 62
7
  6
CONTINUOUS
 70
0
 71
3
 72
11
 73
7
 74
0
 42
0.0000001
 43
0.0000001
 44
0.0000000001
 40
0.0
 40
0.0
 40
0.0
 40
0.0
 40
0.2372223247
 40
0.5000061052
 40
0.7627865602
 40
1.0
 40
1.0
 40
1.0
 40
1.0
 10
-17.4897537812
 20
-10.7773077352
 30
0.0
 10
-17.6102096917
 20
-10.7077580016
 30
0.0
 10
-17.8381806665
 20
-10.5158932513
 30
0.0
 10
-18.1042611799
 20
-10.1522870523
 30
0.0
 10
-18.2861116624
 20
-9.7400565455
 30
0.0
 10
-18.3382819214
 20
-9.4467014268
 30
0.0
 10
-18.3382819187
 20
-9.3076138911
 30
0.0
  0
SPLINE
  5
402
100
AcDbEntity
  8
0
100
AcDbSpline
 62
7
  6
CONTINUOUS
 70
0
 71
3
 72
13
 73
9
 74
0
 42
0.0000001
 43
0.0000001
 44
0.0000000001
 40
0.0
 40
0.0
 40
0.0
 40
0.0
 40
0.1142615975
 40
0.2375404836
 40
0.5000060625
 40
0.7624683192
 40
0.885743332
 40
1.0
 40
1.0
 40
1.0
 40
1.0
 10
-17.8433071718
 20
-11.3896801703
 30
0.0
 10
-17.9256011665
 20
-11.3421646495
 30
0.0
 10
-18.0881629288
 20
-11.228223764
 30
0.0
 10
-18.3924677138
 20
-10.9433621173
 30
0.0
 10
-18.7139468406
 20
-10.5042848306
 30
0.0
 10
-18.9334589868
 20
-10.0063400585
 30
0.0
 10
-19.0279982813
 20
-9.6003824684
 30
0.0
 10
-19.045388698
 20
-9.4026362418
 30
0.0
 10
-19.0453886999
 20
-9.3076138911
 30
0.0
  0
ELLIPSE
  5
403
100
AcDbEntity
  8
0
100
AcDbEllipse
 62
7
  6
CONTINUOUS
 10
33.7661142167
 20
-50.4845763418
 30
0.0
 11
-0.0320188688
 21
0.0554549875
 31
0.0
 40
0.5632057935
 41
-2.5265952341
 42
-2.3686251639
  0
ELLIPSE
  5
404
100
AcDbEntity
  8
0
100
AcDbEllipse
 62
7
  6
CONTINUOUS
 10
33.7661142167
 20
19.7918676974
 30
0.0
 11
-0.0312356712
 21
0.0540980115
 31
0.0
 40
0.5918118391
 41
-2.3438606673
 42
-0.7978336343
  0
ELLIPSE
  5
405
100
AcDbEntity
  8
0
100
AcDbEllipse
 62
7
  6
CONTINUOUS
 10
-27.0970323673
 20
54.9334857406
 30
0.0
 11
-0.0320188688
 21
0.0554549875
 31
0.0
 40
0.5632057935
 41
-0.7730595434
 42
-0.6150059205
  0
ELLIPSE
  5
406
100
AcDbEntity
  8
0
100
AcDbEllipse
 62
7
  6
CONTINUOUS
 10
-0.727510681
 20
-14.4372103495
 30
0.0
 11
0.1999995634
 21
0.1164181051
 31
0.0
 40
0.0035896273
 41
-0.7351277754
 42
-0.6748017824
  0
ELLIPSE
  5
407
100
AcDbEntity
  8
0
100
AcDbEllipse
 62
7
  6
CONTINUOUS
 10
11.3563905051
 20
-20.8429386133
 30
0.0
 11
0.1998333781
 21
-0.0157785196
 31
0.0
 40
0.5172961965
 41
0.8262203412
 42
2.3446567905
  0
ELLIPSE
  5
408
100
AcDbEntity
  8
0
100
AcDbEllipse
 62
7
  6
CONTINUOUS
 10
-4.5535120716
 20
-11.6567602634
 30
0.0
 11
0.1998333781
 21
-0.0157785196
 31
0.0
 40
0.5172961965
 41
0.8262203412
 42
2.3446567905
  0
ELLIPSE
  5
409
100
AcDbEntity
  8
0
100
AcDbEllipse
 62
7
  6
CONTINUOUS
 10
9.8381629752
 20
-22.1463531262
 30
0.0
 11
0.5413005334
 21
0.8416911418
 31
0.0
 40
0.6067084637
 41
0.7148472392
 42
0.8145158917
  0
ELLIPSE
  5
40A
100
AcDbEntity
  8
0
100
AcDbEllipse
 62
7
  6
CONTINUOUS
 10
-6.0717396015
 20
-12.9601747763
 30
0.0
 11
0.5413005334
 21
0.8416911418
 31
0.0
 40
0.6067084637
 41
0.7148472392
 42
0.8145158917
  0
ELLIPSE
  5
40B
100
AcDbEntity
  8
0
100
AcDbEllipse
 62
7
  6
CONTINUOUS
 10
-0.727510681
 20
-13.8658455153
 30
0.0
 11
0.1998333781
 21
-0.0157785196
 31
0.0
 40
0.5172961965
 41
-0.692216108
 42
0.8262203412
  0
ELLIPSE
  5
40C
100
AcDbEntity
  8
0
100
AcDbEllipse
 62
7
  6
CONTINUOUS
 10
-1.8254023432
 20
-15.4119566902
 30
0.0
 11
0.4625183445
 21
0.8873459255
 31
0.0
 40
0.5463614449
 41
0.662201126
 42
0.7618697785
  0
ELLIPSE
  5
40D
100
AcDbEntity
  8
0
100
AcDbEllipse
 62
7
  6
CONTINUOUS
 10
33.7566143483
 20
19.8037958558
 30
0.0
 11
1.1066889452
 21
-0.4882482052
 31
0.0
 40
0.0945009384
 41
-2.4253001261
 42
-2.3839902126
  0
ELLIPSE
  5
40E
100
AcDbEntity
  8
0
100
AcDbEllipse
 62
7
  6
CONTINUOUS
 10
-27.4788329025
 20
55.160375638
 30
0.0
 11
1.1066889452
 21
-0.4882482052
 31
0.0
 40
0.0945009384
 41
-2.4666100396
 42
-2.4253001261
  0
ELLIPSE
  5
40F
100
AcDbEntity
  8
0
100
AcDbEllipse
 62
7
  6
CONTINUOUS
 10
33.7717131535
 20
-50.9286820122
 30
0.0
 11
0.1304932868
 21
1.2025842266
 31
0.0
 40
0.0944494463
 41
-3.8578203675
 42
-3.816510454
  0
ELLIPSE
  5
410
100
AcDbEntity
  8
0
100
AcDbEllipse
 62
7
  6
CONTINUOUS
 10
33.7717131535
 20
19.7776439581
 30
0.0
 11
0.1304932868
 21
1.2025842266
 31
0.0
 40
0.0944494463
 41
-3.899130281
 42
-3.8578203675
  0
ELLIPSE
  5
411
100
AcDbEntity
  8
ASSI
100
AcDbEllipse
 62
7
  6
CONTINUOUS
 10
33.7661142167
 20
-50.4845763418
 30
0.0
 11
-0.0320188688
 21
0.0554549875
 31
0.0
 40
0.5632057935
 41
-2.5265952341
 42
-2.3686251639
  0
ELLIPSE
  5
412
100
AcDbEntity
  8
ASSI
100
AcDbEllipse
 62
7
  6
CONTINUOUS
 10
33.7661142167
 20
19.7918676974
 30
0.0
 11
-0.0312356712
 21
0.0540980115
 31
0.0
 40
0.5918118391
 41
-2.3438606673
 42
-0.7978336343
  0
ELLIPSE
  5
413
100
AcDbEntity
  8
ASSI
100
AcDbEllipse
 62
7
  6
CONTINUOUS
 10
-27.0970323673
 20
54.9334857406
 30
0.0
 11
-0.0320188688
 21
0.0554549875
 31
0.0
 40
0.5632057935
 41
-0.7730595434
 42
-0.6150059205
  0
ELLIPSE
  5
414
100
AcDbEntity
  8
ASSI
100
AcDbEllipse
 62
7
  6
CONTINUOUS
 10
-0.727510681
 20
-14.4372103495
 30
0.0
 11
0.1999995634
 21
0.1164181051
 31
0.0
 40
0.0035896273
 41
-0.7351277754
 42
-0.6748017824
  0
ELLIPSE
  5
415
100
AcDbEntity
  8
ASSI
100
AcDbEllipse
 62
7
  6
CONTINUOUS
 10
11.3563905051
 20
-20.8429386133
 30
0.0
 11
0.1998333781
 21
-0.0157785196
 31
0.0
 40
0.5172961965
 41
0.8262203412
 42
2.3446567905
  0
ELLIPSE
  5
416
100
AcDbEntity
  8
ASSI
100
AcDbEllipse
 62
7
  6
CONTINUOUS
 10
-4.5535120716
 20
-11.6567602634
 30
0.0
 11
0.1998333781
 21
-0.0157785196
 31
0.0
 40
0.5172961965
 41
0.8262203412
 42
2.3446567905
  0
ELLIPSE
  5
417
100
AcDbEntity
  8
ASSI
100
AcDbEllipse
 62
7
  6
CONTINUOUS
 10
9.8381629752
 20
-22.1463531262
 30
0.0
 11
0.5413005334
 21
0.8416911418
 31
0.0
 40
0.6067084637
 41
0.7148472392
 42
0.8145158917
  0
ELLIPSE
  5
418
100
AcDbEntity
  8
ASSI
100
AcDbEllipse
 62
7
  6
CONTINUOUS
 10
-6.0717396015
 20
-12.9601747763
 30
0.0
 11
0.5413005334
 21
0.8416911418
 31
0.0
 40
0.6067084637
 41
0.7148472392
 42
0.8145158917
  0
ELLIPSE
  5
419
100
AcDbEntity
  8
ASSI
100
AcDbEllipse
 62
7
  6
CONTINUOUS
 10
33.7566143483
 20
19.8037958558
 30
0.0
 11
1.1066889452
 21
-0.4882482052
 31
0.0
 40
0.0945009384
 41
-2.4253001261
 42
-2.3839902126
  0
ELLIPSE
  5
41A
100
AcDbEntity
  8
ASSI
100
AcDbEllipse
 62
7
  6
CONTINUOUS
 10
-27.4788329025
 20
55.160375638
 30
0.0
 11
1.1066889452
 21
-0.4882482052
 31
0.0
 40
0.0945009384
 41
-2.4666100396
 42
-2.4253001261
  0
ELLIPSE
  5
41B
100
AcDbEntity
  8
ASSI
100
AcDbEllipse
 62
7
  6
CONTINUOUS
 10
33.7717131535
 20
-50.9286820122
 30
0.0
 11
0.1304932868
 21
1.2025842266
 31
0.0
 40
0.0944494463
 41
-3.8578203675
 42
-3.816510454
  0
ELLIPSE
  5
41C
100
AcDbEntity
  8
ASSI
100
AcDbEllipse
 62
7
  6
CONTINUOUS
 10
33.7717131535
 20
19.7776439581
 30
0.0
 11
0.1304932868
 21
1.2025842266
 31
0.0
 40
0.0944494463
 41
-3.899130281
 42
-3.8578203675
  0
ELLIPSE
  5
41D
100
AcDbEntity
  8
ASSI
100
AcDbEllipse
 62
7
  6
CONTINUOUS
 10
-0.727510681
 20
-13.8658455153
 30
0.0
 11
0.1998333781
 21
-0.0157785196
 31
0.0
 40
0.5172961965
 41
-0.692216108
 42
0.8262203412
  0
ELLIPSE
  5
41E
100
AcDbEntity
  8
ASSI
100
AcDbEllipse
 62
7
  6
CONTINUOUS
 10
-1.8254023432
 20
-15.4119566902
 30
0.0
 11
0.4625183445
 21
0.8873459255
 31
0.0
 40
0.5463614449
 41
0.662201126
 42
0.7618697785
  0
ENDSEC
  0
SECTION
  2
OBJECTS
  0
DICTIONARY
  5
C
100
AcDbDictionary
280
0
281
1
  3
ACAD_GROUP
350
D
  3
ACAD_MLINESTYLE
350
17
  3
ACAD_LAYOUT
350
1A
  3
ACAD_PLOTSETTINGS
350
19
  3
ACAD_PLOTSTYLENAME
350
E
  0
DICTIONARY
  5
D
102
{ACAD_REACTORS
330
C
102
}
100
AcDbDictionary
280
0
281
1
  0
ACDBDICTIONARYWDFLT
  5
E
102
{ACAD_REACTORS
330
C
102
}
100
AcDbDictionary
281
1
  3
Normal
350
F
100
AcDbDictionaryWithDefault
340
F
  0
DICTIONARY
  5
17
102
{ACAD_REACTORS
330
C
102
}
100
AcDbDictionary
280
0
281
1
  3
Standard
350
18
  0
DICTIONARY
  5
19
102
{ACAD_REACTORS
330
C
102
}
100
AcDbDictionary
281
1
  0
DICTIONARY
  5
1A
102
{ACAD_REACTORS
330
C
102
}
100
AcDbDictionary
281
1
  3
Model
350
41F
  3
Layout1
350
420
  0
ACDBPLACEHOLDER
  5
F
102
{ACAD_REACTORS
330
E
102
}
  0
MLINESTYLE
  5
18
102
{ACAD_REACTORS
330
17
102
}
100
AcDbMlineStyle
  2
STANDARD
 70
0
  3

 62
256
 51
90.0
 52
90.0
 71
2
 49
0.5
 62
256
  6
BYLAYER
 49
-0.5
 62
256
  6
BYLAYER
  0
LAYOUT
  5
41F
102
{ACAD_REACTORS
330
1A
102
}
100
AcDbPlotSettings
  1

  2
none_device
  4
ISO_A4_(297.00_x_210.00_MM)
  6

 40
0.0
 41
0.0
 42
0.0
 43
0.0
 44
297.0
 45
210.0
 46
0.0
 47
0.0
 48
0.0
 49
0.0
140
0.0
141
0.0
142
1.0
143
1.0
 70
1024
 72
1
 73
0
 74
0
  7

 75
0
147
1.0
148
0.0
149
0.0
100
AcDbLayout
  1
Model
 70
0
 71
0
 10
0.0
 20
0.0
 11
297.0
 21
210.0
 12
0.0
 22
0.0
 32
0.0
 14
0.0
 24
0.0
 34
0.0
 15
0.0
 25
0.0
 35
0.0
146
0.0
 13
0.0
 23
0.0
 33
0.0
 16
1.0
 26
0.0
 36
0.0
 17
0.0
 27
1.0
 37
0.0
 76
0
330
224
345
0
346
0
  0
LAYOUT
  5
420
102
{ACAD_REACTORS
330
1A
102
}
100
AcDbPlotSettings
  1

  2
none_device
  4
ISO_A4_(297.00_x_210.00_MM)
  6

 40
0.0
 41
0.0
 42
0.0
 43
0.0
 44
297.0
 45
210.0
 46
0.0
 47
0.0
 48
0.0
 49
0.0
140
0.0
141
0.0
142
1.0
143
1.0
 70
0
 72
1
 73
0
 74
0
  7

 75
0
147
1.0
148
0.0
149
0.0
100
AcDbLayout
  1
Layout1
 70
0
 71
1
 10
0.0
 20
0.0
 11
297.0
 21
210.0
 12
0.0
 22
0.0
 32
0.0
 14
0.0
 24
0.0
 34
0.0
 15
0.0
 25
0.0
 35
0.0
146
0.0
 13
0.0
 23
0.0
 33
0.0
 16
1.0
 26
0.0
 36
0.0
 17
0.0
 27
1.0
 37
0.0
 76
0
330
225
345
0
346
0
  0
ENDSEC
  0
EOF
