  0
SECTION
  2
HEADER
  9
$ACADVER
  1
AC1024
  9
$DWGCODEPAGE
  3
ANSI_1252
  9
$EXTMAX
 10
297.0
 20
210.0
 30
0.0
  9
$EXTMIN
 10
0.0
 20
0.0
 30
0.0
  9
$LIMMIN
 10
0.0
 20
0.0
  9
$LIMMAX
 10
297.0
 20
210.0
  9
$VIEWCTR
 10
148.5
 20
105.0
  9
$VIEWSIZE
 40
210.0
  9
$CLAYER
  8
0
  9
$LTSCALE
 40
16.335
  9
$CELTYPE
  6
BYLAYER
  9
$DIMSCALE
 40
1.0
  9
$DIMASZ
 40
3.0
  9
$DIMEXO
 40
0.5
  9
$DIMDLI
 40
11.286
  9
$DIMEXE
 40
1.5
  9
$DIMCEN
 40
2.673
  9
$DIMLFAC
 40
1.0
  9
$DIMBLK
  1
_FILLED
  9
$DIMALT
 70
0
  9
$DIMALTF
 40
0.0393700787
  9
$DIMTXT
 40
3.0
  9
$DIMTOL
 70
1
  9
$DIMLIM
 70
0
  9
$DIMTFAC
 40
1.0
  9
$DIMTP
 40
0.01
  9
$DIMTM
 40
0.01
  9
$DIMGAP
 40
0.625
  9
$DIMDSEP
 70
44
  9
$AUNITS
 70
0
  9
$PDMODE
 70
3
  9
$PDSIZE
 40
3.0
  9
$HANDSEED
  5
423
  9
$TILEMODE
 70
1
  9
$MEASUREMENT
 70
1
  9
$INSUNITS
 70
4
  0
ENDSEC
  0
SECTION
  2
CLASSES
  0
CLASS
  1
ACDBDICTIONARYWDFLT
  2
AcDbDictionaryWithDefault
  3
AutoCAD 2000
 90
0
 91
1
280
0
281
0
  0
CLASS
  1
ACDBPLACEHOLDER
  2
AcDbPlaceHolder
  3
AutoCAD 2000
 90
0
 91
1
280
0
281
0
  0
CLASS
  1
LAYOUT
  2
AcDbLayout
  3
AutoCAD 2000
 90
0
 91
0
280
0
281
0
  0
ENDSEC
  0
SECTION
  2
TABLES
  0
TABLE
  2
VPORT
  5
8
100
AcDbSymbolTable
 70
2
  0
VPORT
  5
1F4
100
AcDbSymbolTableRecord
100
AcDbViewportTableRecord
  2
*ACTIVE
 70
0
 10
0.0
 20
0.0
 11
1.0
 21
1.0
 12
148.5
 22
105.0
 13
0.0
 23
0.0
 14
1.0
 24
1.0
 15
0.0
 25
0.0
 16
0.0
 26
0.0
 36
1.0
 17
0.0
 27
0.0
 37
0.0
 40
210.0
 41
1.4142857143
 42
50.0
 43
0.0
 44
0.0
 50
0.0
 51
0.0
 71
0
 72
100
 73
1
 74
1
 75
0
 76
0
 77
0
 78
0
  0
ENDTAB
  0
TABLE
  2
LTYPE
  5
5
100
AcDbSymbolTable
 70
6
  0
LTYPE
  5
14
100
AcDbSymbolTableRecord
100
AcDbLinetypeTableRecord
  2
BYBLOCK
 70
0
  3

 72
65
 73
0
 40
0.0
  0
LTYPE
  5
15
100
AcDbSymbolTableRecord
100
AcDbLinetypeTableRecord
  2
BYLAYER
 70
0
  3

 72
65
 73
0
 40
0.0
  0
LTYPE
  5
16
100
AcDbSymbolTableRecord
100
AcDbLinetypeTableRecord
  2
CONTINUOUS
 70
64
  3
Solid line
 72
65
 73
0
 40
0.0
  0
LTYPE
  5
1F5
100
AcDbSymbolTableRecord
100
AcDbLinetypeTableRecord
  2
CENTER
 70
64
  3
____ _ ____ _ ____ _ ____ _ ____ _ ____ _ ____
 72
65
 73
4
 40
0.6
 49
0.375
 74
0
 49
-0.075
 74
0
 49
0.075
 74
0
 49
-0.075
 74
0
  0
LTYPE
  5
1F6
100
AcDbSymbolTableRecord
100
AcDbLinetypeTableRecord
  2
HIDDEN
 70
64
  3
- - - - - - - - - - - - - - - - - - - -
 72
65
 73
2
 40
0.2
 49
0.1
 74
0
 49
-0.1
 74
0
  0
LTYPE
  5
1F7
100
AcDbSymbolTableRecord
100
AcDbLinetypeTableRecord
  2
PHANTOM
 70
64
  3
_____ _ _ _____ _ _ _____ _ _ _____
 72
65
 73
6
 40
0.8
 49
0.45
 74
0
 49
-0.05
 74
0
 49
0.1
 74
0
 49
-0.05
 74
0
 49
0.1
 74
0
 49
-0.05
 74
0
  0
LTYPE
  5
1F8
100
AcDbSymbolTableRecord
100
AcDbLinetypeTableRecord
  2
DOT
 70
64
  3
. . . . . . . . . . . . . . . . . . . .
 72
65
 73
2
 40
0.2
 49
0.1
 74
0
 49
-0.1
 74
0
  0
LTYPE
  5
1F9
100
AcDbSymbolTableRecord
100
AcDbLinetypeTableRecord
  2
DASHED
 70
64
  3
- - - - - - - - - - - - - - - - - - - -
 72
65
 73
2
 40
0.2
 49
0.1
 74
0
 49
-0.1
 74
0
  0
ENDTAB
  0
TABLE
  2
LAYER
  5
2
100
AcDbSymbolTable
 70
36
  0
LAYER
  5
10
100
AcDbSymbolTableRecord
100
AcDbLayerTableRecord
  2
0
 70
0
 62
7
  6
CONTINUOUS
370
-3
390
F
  0
LAYER
  5
1FA
100
AcDbSymbolTableRecord
100
AcDbLayerTableRecord
  2
DEFAULT_1
 70
0
 62
7
  6
CENTER
370
-3
390
F
  0
LAYER
  5
1FB
100
AcDbSymbolTableRecord
100
AcDbLayerTableRecord
  2
DEFAULT_2
 70
0
 62
7
  6
HIDDEN
370
-3
390
F
  0
LAYER
  5
1FC
100
AcDbSymbolTableRecord
100
AcDbLayerTableRecord
  2
DEFAULT_3
 70
0
 62
7
  6
PHANTOM
370
-3
390
F
  0
LAYER
  5
1FD
100
AcDbSymbolTableRecord
100
AcDbLayerTableRecord
  2
ASSI
 70
0
 62
7
  6
CONTINUOUS
370
-3
390
F
  0
LAYER
  5
1FE
100
AcDbSymbolTableRecord
100
AcDbLayerTableRecord
  2
COORDINATE
 70
0
 62
7
  6
CONTINUOUS
370
-3
390
F
  0
LAYER
  5
1FF
100
AcDbSymbolTableRecord
100
AcDbLayerTableRecord
  2
COORD_ORIGINE
 70
0
 62
7
  6
CONTINUOUS
370
-3
390
F
  0
LAYER
  5
200
100
AcDbSymbolTableRecord
100
AcDbLayerTableRecord
  2
COPY_PUBLISH
 70
0
 62
7
  6
CONTINUOUS
370
-3
390
F
  0
LAYER
  5
201
100
AcDbSymbolTableRecord
100
AcDbLayerTableRecord
  2
COSMETIC
 70
0
 62
7
  6
CONTINUOUS
370
-3
390
F
  0
LAYER
  5
202
100
AcDbSymbolTableRecord
100
AcDbLayerTableRecord
  2
COSMETICI
 70
0
 62
7
  6
CONTINUOUS
370
-3
390
F
  0
LAYER
  5
203
100
AcDbSymbolTableRecord
100
AcDbLayerTableRecord
  2
CURVE
 70
0
 62
7
  6
CONTINUOUS
370
-3
390
F
  0
LAYER
  5
204
100
AcDbSymbolTableRecord
100
AcDbLayerTableRecord
  2
CURVE_TASSELLI
 70
0
 62
7
  6
CONTINUOUS
370
-3
390
F
  0
LAYER
  5
205
100
AcDbSymbolTableRecord
100
AcDbLayerTableRecord
  2
DRAFT
 70
0
 62
7
  6
CONTINUOUS
370
-3
390
F
  0
LAYER
  5
206
100
AcDbSymbolTableRecord
100
AcDbLayerTableRecord
  2
IMPORT_IGES
 70
0
 62
7
  6
CONTINUOUS
370
-3
390
F
  0
LAYER
  5
207
100
AcDbSymbolTableRecord
100
AcDbLayerTableRecord
  2
INTFCLR_2
 70
0
 62
7
  6
CONTINUOUS
370
-3
390
F
  0
LAYER
  5
208
100
AcDbSymbolTableRecord
100
AcDbLayerTableRecord
  2
INTFCLR_3
 70
0
 62
7
  6
CONTINUOUS
370
-3
390
F
  0
LAYER
  5
209
100
AcDbSymbolTableRecord
100
AcDbLayerTableRecord
  2
INTF_1
 70
0
 62
7
  6
CONTINUOUS
370
-3
390
F
  0
LAYER
  5
20A
100
AcDbSymbolTableRecord
100
AcDbLayerTableRecord
  2
INTF_14
 70
0
 62
7
  6
CONTINUOUS
370
-3
390
F
  0
LAYER
  5
20B
100
AcDbSymbolTableRecord
100
AcDbLayerTableRecord
  2
INTF_15
 70
0
 62
7
  6
CONTINUOUS
370
-3
390
F
  0
LAYER
  5
20C
100
AcDbSymbolTableRecord
100
AcDbLayerTableRecord
  2
INTF_18
 70
0
 62
7
  6
CONTINUOUS
370
-3
390
F
  0
LAYER
  5
20D
100
AcDbSymbolTableRecord
100
AcDbLayerTableRecord
  2
INTF_19
 70
0
 62
7
  6
CONTINUOUS
370
-3
390
F
  0
LAYER
  5
20E
100
AcDbSymbolTableRecord
100
AcDbLayerTableRecord
  2
INTF_2
 70
0
 62
7
  6
CONTINUOUS
370
-3
390
F
  0
LAYER
  5
20F
100
AcDbSymbolTableRecord
100
AcDbLayerTableRecord
  2
INTF_7
 70
0
 62
7
  6
CONTINUOUS
370
-3
390
F
  0
LAYER
  5
210
100
AcDbSymbolTableRecord
100
AcDbLayerTableRecord
  2
INTF_CYAN
 70
0
 62
7
  6
CONTINUOUS
370
-3
390
F
  0
LAYER
  5
211
100
AcDbSymbolTableRecord
100
AcDbLayerTableRecord
  2
INTF_YELLOW
 70
0
 62
7
  6
CONTINUOUS
370
-3
390
F
  0
LAYER
  5
212
100
AcDbSymbolTableRecord
100
AcDbLayerTableRecord
  2
LIVELLO_1
 70
0
 62
7
  6
CONTINUOUS
370
-3
390
F
  0
LAYER
  5
213
100
AcDbSymbolTableRecord
100
AcDbLayerTableRecord
  2
NOTE
 70
0
 62
7
  6
CONTINUOUS
370
-3
390
F
  0
LAYER
  5
214
100
AcDbSymbolTableRecord
100
AcDbLayerTableRecord
  2
PIANI
 70
0
 62
7
  6
CONTINUOUS
370
-3
390
F
  0
LAYER
  5
215
100
AcDbSymbolTableRecord
100
AcDbLayerTableRecord
  2
PIANI_ORIGINE
 70
0
 62
7
  6
CONTINUOUS
370
-3
390
F
  0
LAYER
  5
216
100
AcDbSymbolTableRecord
100
AcDbLayerTableRecord
  2
PIANI_RIFERIMENTO
 70
0
 62
7
  6
CONTINUOUS
370
-3
390
F
  0
LAYER
  5
217
100
AcDbSymbolTableRecord
100
AcDbLayerTableRecord
  2
PUNTI
 70
0
 62
7
  6
CONTINUOUS
370
-3
390
F
  0
LAYER
  5
218
100
AcDbSymbolTableRecord
100
AcDbLayerTableRecord
  2
RACCORDO
 70
0
 62
7
  6
CONTINUOUS
370
-3
390
F
  0
LAYER
  5
219
100
AcDbSymbolTableRecord
100
AcDbLayerTableRecord
  2
RGB__255__255__255__
 70
0
 62
7
  6
CONTINUOUS
370
-3
390
F
  0
LAYER
  5
21A
100
AcDbSymbolTableRecord
100
AcDbLayerTableRecord
  2
RGB____0____0____0__
 70
0
 62
7
  6
CONTINUOUS
370
-3
390
F
  0
LAYER
  5
21B
100
AcDbSymbolTableRecord
100
AcDbLayerTableRecord
  2
SIMBOLI
 70
0
 62
7
  6
CONTINUOUS
370
-3
390
F
  0
LAYER
  5
21C
100
AcDbSymbolTableRecord
100
AcDbLayerTableRecord
  2
SMUSSO
 70
0
 62
7
  6
CONTINUOUS
370
-3
390
F
  0
LAYER
  5
21D
100
AcDbSymbolTableRecord
100
AcDbLayerTableRecord
  2
SNAPLINE
 70
0
 62
7
  6
CONTINUOUS
370
-3
390
F
  0
LAYER
  5
21E
100
AcDbSymbolTableRecord
100
AcDbLayerTableRecord
  2
SUPERFICI
 70
0
 62
7
  6
CONTINUOUS
370
-3
390
F
  0
LAYER
  5
21F
100
AcDbSymbolTableRecord
100
AcDbLayerTableRecord
  2
TRASH
 70
0
 62
7
  6
CONTINUOUS
370
-3
390
F
  0
LAYER
  5
220
100
AcDbSymbolTableRecord
100
AcDbLayerTableRecord
  2
WHITE
 70
0
 62
7
  6
CONTINUOUS
370
-3
390
F
  0
LAYER
  5
221
100
AcDbSymbolTableRecord
100
AcDbLayerTableRecord
  2
XSEC_DATUMS
 70
0
 62
7
  6
CONTINUOUS
370
-3
390
F
  0
ENDTAB
  0
TABLE
  2
STYLE
  5
3
100
AcDbSymbolTable
 70
1
  0
STYLE
  5
11
100
AcDbSymbolTableRecord
100
AcDbTextStyleTableRecord
  2
STANDARD
 70
0
 40
0.0
 41
0.8
 50
0.0
 71
0
 42
0.2
  3
txt
  4

  0
STYLE
  5
222
100
AcDbSymbolTableRecord
100
AcDbTextStyleTableRecord
  2
TEXTSTYLE_1
 70
0
 40
0.0
 41
0.8
 50
0.0
 71
0
 42
0.2
  3
gdt
  4

  0
ENDTAB
  0
TABLE
  2
VIEW
  5
6
100
AcDbSymbolTable
 70
0
  0
ENDTAB
  0
TABLE
  2
UCS
  5
7
100
AcDbSymbolTable
 70
0
  0
ENDTAB
  0
TABLE
  2
APPID
  5
9
100
AcDbSymbolTable
 70
1
  0
APPID
  5
223
100
AcDbSymbolTableRecord
100
AcDbRegAppTableRecord
  2
ACAD
 70
0
  0
ENDTAB
  0
TABLE
  2
BLOCK_RECORD
  5
1
100
AcDbSymbolTable
 70
0
  0
BLOCK_RECORD
  5
224
100
AcDbSymbolTableRecord
100
AcDbBlockTableRecord
  2
*Model_Space
  0
BLOCK_RECORD
  5
225
100
AcDbSymbolTableRecord
100
AcDbBlockTableRecord
  2
*Paper_Space
  0
BLOCK_RECORD
  5
226
100
AcDbSymbolTableRecord
100
AcDbBlockTableRecord
  2
_FILLED
  0
ENDTAB
  0
TABLE
  2
DIMSTYLE
  5
A
100
AcDbSymbolTable
 70
1
100
AcDbDimStyleTable
 71
0
  0
DIMSTYLE
105
227
100
AcDbSymbolTableRecord
100
AcDbDimStyleTableRecord
  2
STANDARD
 70
0
  3

  4

 40
1.0
 41
3.0
 42
0.5
 43
0.38
 44
1.5
 45
0.0
 46
0.0
 47
0.01
 48
0.01
140
3.0
141
0.09
142
0.0
143
25.4
144
1.0
145
0.0
146
1.0
147
0.625
 71
1
 72
0
 73
0
 74
0
 75
0
 76
0
 77
1
 78
8
 79
2
170
0
171
1
172
0
173
0
174
0
175
0
176
0
177
0
178
0
270
2
179
2
271
2
272
2
273
2
274
2
275
0
280
0
281
0
282
0
283
1
284
8
285
0
286
0
287
3
288
0
340
11
278
44
341
226
342
226
343
226
344
226
  0
ENDTAB
  0
ENDSEC
  0
SECTION
  2
BLOCKS
  0
BLOCK
  5
20
100
AcDbEntity
  8
0
100
AcDbBlockBegin
  2
*Model_Space
 70
0
 10
0.0
 20
0.0
 30
0.0
  3
*Model_Space
  1

  0
ENDBLK
  5
21
100
AcDbEntity
  8
0
100
AcDbBlockEnd
  0
BLOCK
  5
1C
100
AcDbEntity
  8
0
100
AcDbBlockBegin
  2
*Paper_Space
 70
0
 10
0.0
 20
0.0
 30
0.0
  3
*Paper_Space
  1

  0
ENDBLK
  5
1D
100
AcDbEntity
  8
0
100
AcDbBlockEnd
  0
BLOCK
  5
228
100
AcDbEntity
  8
0
100
AcDbBlockBegin
  2
_FILLED
 70
64
 10
0.0
 20
0.0
  3
_FILLED
  1

  0
SOLID
  5
229
100
AcDbEntity
  8
0
  6
BYBLOCK
 62
0
100
AcDbTrace
 10
0.0
 20
0.0
 11
-1.0
 21
0.3166666667
 12
-1.0
 22
-0.3166666667
 13
-1.0
 23
-0.3166666667
  0
ENDBLK
  5
22A
100
AcDbEntity
  8
0
  6
BYBLOCK
 62
0
100
AcDbBlockEnd
  0
ENDSEC
  0
SECTION
  2
ENTITIES
  0
LINE
  5
22B
100
AcDbEntity
  8
RACCORDO
100
AcDbLine
 62
7
  6
CONTINUOUS
 10
-33.263284415
 20
54.1479298505
 11
-32.2026242432
 21
54.7603417405
  0
LINE
  5
22C
100
AcDbEntity
  8
SMUSSO
100
AcDbLine
 62
250
  6
CONTINUOUS
 10
-32.7632602549
 20
54.0983886729
 11
-31.7026000831
 21
54.7108005629
  0
LINE
  5
22D
100
AcDbEntity
  8
0
100
AcDbLine
 62
250
  6
CONTINUOUS
 10
-28.697396263
 20
55.3028539601
 11
-30.7480059285
 21
54.1601871103
  0
LINE
  5
22E
100
AcDbEntity
  8
ASSI
100
AcDbLine
 62
250
  6
CONTINUOUS
 10
-28.697396263
 20
55.3028539601
 11
-30.7480059285
 21
54.1601871103
  0
LINE
  5
22F
100
AcDbEntity
  8
0
100
AcDbLine
 62
7
  6
CONTINUOUS
 10
-29.1756684165
 20
55.3644288421
 11
-31.0508833429
 21
54.334507485
  0
LINE
  5
230
100
AcDbEntity
  8
ASSI
100
AcDbLine
 62
7
  6
CONTINUOUS
 10
-29.1756684165
 20
55.3644288421
 11
-31.0508833429
 21
54.334507485
  0
LINE
  5
231
100
AcDbEntity
  8
SMUSSO
100
AcDbLine
 62
250
  6
CONTINUOUS
 10
-33.4703670361
 20
52.8736438027
 11
-32.7632602549
 21
54.0983886729
  0
LINE
  5
232
100
AcDbEntity
  8
0
100
AcDbLine
 62
250
  6
CONTINUOUS
 10
31.5906796841
 20
-47.5890737081
 11
32.4992387902
 21
-47.3505574361
  0
LINE
  5
233
100
AcDbEntity
  8
0
100
AcDbLine
 62
250
  6
CONTINUOUS
 10
32.9106246446
 20
-46.9749146597
 11
31.5906796841
 21
-47.265505721
  0
LINE
  5
234
100
AcDbEntity
  8
SMUSSO
100
AcDbLine
 62
250
  6
CONTINUOUS
 10
28.7550297084
 20
-54.9039047679
 11
30.1692432707
 21
-54.9039047679
  0
LINE
  5
235
100
AcDbEntity
  8
0
100
AcDbLine
 62
250
  6
CONTINUOUS
 10
32.4432150905
 20
-44.0376674214
 11
31.9533667375
 21
-44.1693286207
  0
LINE
  5
236
100
AcDbEntity
  8
0
100
AcDbLine
 62
250
  6
CONTINUOUS
 10
32.9106246446
 20
-43.9137806203
 11
32.6471165682
 21
-43.9819871596
  0
LINE
  5
237
100
AcDbEntity
  8
0
100
AcDbLine
 62
250
  6
CONTINUOUS
 10
31.5906796841
 20
-44.5367101924
 11
32.9106246446
 21
-44.2340574158
  0
LINE
  5
238
100
AcDbEntity
  8
0
100
AcDbLine
 62
250
  6
CONTINUOUS
 10
31.5906796841
 20
-45.539508784
 11
32.3235169479
 21
-45.4251330041
  0
LINE
  5
239
100
AcDbEntity
  8
0
100
AcDbLine
 62
250
  6
CONTINUOUS
 10
32.9106246446
 20
-45.0531624422
 11
32.0523185268
 21
-45.1813594324
  0
LINE
  5
23A
100
AcDbEntity
  8
SMUSSO
100
AcDbLine
 62
7
  6
CONTINUOUS
 10
-33.4703670361
 20
-18.975740555
 11
-33.4703670361
 21
53.6901929894
  0
LINE
  5
23B
100
AcDbEntity
  8
RACCORDO
100
AcDbLine
 62
250
  6
CONTINUOUS
 10
-18.4443479358
 20
25.8680509805
 11
-17.5958608025
 21
26.3579568173
  0
LINE
  5
23C
100
AcDbEntity
  8
SMUSSO
100
AcDbLine
 62
7
  6
CONTINUOUS
 10
-33.4703670361
 20
-18.975740555
 11
29.4621364895
 21
-55.3121004513
  0
LWPOLYLINE
  5
23D
100
AcDbEntity
  8
0
100
AcDbPolyline
 62
7
  6
CONTINUOUS
 90
13
 70
0
 10
-15.648822079
 20
22.4934973643
 10
-15.633977643
 20
22.5033723291
 10
-15.6155990859
 20
22.5177585582
 10
-15.5984154113
 20
22.5338261336
 10
-15.5826303232
 20
22.5514331776
 10
-15.5683856537
 20
22.570455885
 10
-15.555774469
 20
22.5908208347
 10
-15.5449274827
 20
22.6123803251
 10
-15.5359770522
 20
22.6349180583
 10
-15.5289925936
 20
22.6582900804
 10
-15.5240323737
 20
22.6823467028
 10
-15.5211447265
 20
22.706876931
 10
-15.5203288327
 20
22.7287438686
  0
LWPOLYLINE
  5
23E
100
AcDbEntity
  8
ASSI
100
AcDbPolyline
 62
7
  6
CONTINUOUS
 90
13
 70
0
 10
-15.6488220792
 20
22.4934973642
 10
-15.6339776429
 20
22.5033723292
 10
-15.6155990858
 20
22.5177585583
 10
-15.5984154111
 20
22.5338261337
 10
-15.5826303231
 20
22.5514331778
 10
-15.5683856536
 20
22.5704558852
 10
-15.5557744689
 20
22.5908208349
 10
-15.5449274826
 20
22.6123803252
 10
-15.5359770522
 20
22.6349180583
 10
-15.5289925936
 20
22.6582900804
 10
-15.5240323737
 20
22.6823467029
 10
-15.5211447265
 20
22.7068769311
 10
-15.5203288327
 20
22.7287438686
  0
LINE
  5
23F
100
AcDbEntity
  8
0
100
AcDbLine
 62
250
  6
CONTINUOUS
 10
-16.3230275923
 20
22.1755085173
 11
-15.5904938698
 21
22.6285183595
  0
LINE
  5
240
100
AcDbEntity
  8
ASSI
100
AcDbLine
 62
250
  6
CONTINUOUS
 10
-16.3230275923
 20
22.1755085173
 11
-15.5904938698
 21
22.6285183595
  0
LINE
  5
241
100
AcDbEntity
  8
0
100
AcDbLine
 62
7
  6
CONTINUOUS
 10
-16.3230275923
 20
22.0765585276
 11
-15.6487569977
 21
22.4935375775
  0
LINE
  5
242
100
AcDbEntity
  8
ASSI
100
AcDbLine
 62
7
  6
CONTINUOUS
 10
-16.3230275923
 20
22.0765585276
 11
-15.6487569977
 21
22.4935375775
  0
LWPOLYLINE
  5
243
100
AcDbEntity
  8
0
100
AcDbPolyline
 62
7
  6
CONTINUOUS
 90
11
 70
0
 10
-15.6124216778
 20
16.058289603
 10
-15.610307673
 20
16.0599343861
 10
-15.5922498494
 20
16.0756548506
 10
-15.5758041586
 20
16.0931334256
 10
-15.5612194954
 20
16.1121469348
 10
-15.5486390499
 20
16.1325701639
 10
-15.5382187376
 20
16.1542076046
 10
-15.5301021587
 20
16.1767926682
 10
-15.5243850225
 20
16.2000855732
 10
-15.521132945
 20
16.2238752299
 10
-15.5203353223
 20
16.2430296249
  0
LWPOLYLINE
  5
244
100
AcDbEntity
  8
ASSI
100
AcDbPolyline
 62
7
  6
CONTINUOUS
 90
11
 70
0
 10
-15.6124216779
 20
16.0582896029
 10
-15.6103076802
 20
16.0599343804
 10
-15.5922498565
 20
16.0756548438
 10
-15.5758041653
 20
16.093133418
 10
-15.5612195012
 20
16.1121469265
 10
-15.5486390547
 20
16.1325701551
 10
-15.5382187413
 20
16.1542075956
 10
-15.5301021613
 20
16.1767926596
 10
-15.5243850239
 20
16.2000855653
 10
-15.5211329455
 20
16.2238752231
 10
-15.5203353224
 20
16.2430296216
  0
LINE
  5
245
100
AcDbEntity
  8
0
100
AcDbLine
 62
250
  6
CONTINUOUS
 10
-15.8382063856
 20
15.9460513083
 11
-15.5904938698
 21
16.1365985319
  0
LINE
  5
246
100
AcDbEntity
  8
ASSI
100
AcDbLine
 62
250
  6
CONTINUOUS
 10
-15.8382063856
 20
15.9460513083
 11
-15.5904938698
 21
16.1365985319
  0
LINE
  5
247
100
AcDbEntity
  8
0
100
AcDbLine
 62
7
  6
CONTINUOUS
 10
-15.8601325414
 20
15.8677436502
 11
-15.6124200524
 21
16.0582908532
  0
LINE
  5
248
100
AcDbEntity
  8
ASSI
100
AcDbLine
 62
7
  6
CONTINUOUS
 10
-15.8601325414
 20
15.8677436502
 11
-15.6124200524
 21
16.0582908532
  0
LINE
  5
249
100
AcDbEntity
  8
0
100
AcDbLine
 62
250
  6
CONTINUOUS
 10
-15.8025935954
 20
17.2060229154
 11
-16.3230275923
 21
16.9055298164
  0
LINE
  5
24A
100
AcDbEntity
  8
ASSI
100
AcDbLine
 62
250
  6
CONTINUOUS
 10
-15.8025935954
 20
17.2060229154
 11
-16.3230275923
 21
16.9055298164
  0
LINE
  5
24B
100
AcDbEntity
  8
0
100
AcDbLine
 62
250
  6
CONTINUOUS
 10
-15.5904938698
 20
16.8386554147
 11
-16.3230275923
 21
16.4156981719
  0
LINE
  5
24C
100
AcDbEntity
  8
ASSI
100
AcDbLine
 62
250
  6
CONTINUOUS
 10
-15.5904938698
 20
16.8386554147
 11
-16.3230275923
 21
16.4156981719
  0
LINE
  5
24D
100
AcDbEntity
  8
RACCORDO
100
AcDbLine
 62
7
  6
CONTINUOUS
 10
-18.4443479358
 20
25.8680509805
 11
-18.4443479358
 21
-9.3218179492
  0
LINE
  5
24E
100
AcDbEntity
  8
RACCORDO
100
AcDbLine
 62
7
  6
CONTINUOUS
 10
-17.5958197984
 20
-10.7915117934
 11
12.8804824707
 21
-28.3881467658
  0
LWPOLYLINE
  5
24F
100
AcDbEntity
  8
ASSI
100
AcDbPolyline
 62
7
  6
CONTINUOUS
 90
14
 70
0
 10
-15.5203288782
 20
-2.2482228909
 10
-15.5215838088
 20
-2.2207715886
 10
-15.5250768875
 20
-2.194770734
 10
-15.5307649269
 20
-2.1690306659
 10
-15.5386321315
 20
-2.1436032488
 10
-15.5484094487
 20
-2.1191709395
 10
-15.5601961209
 20
-2.0953740078
 10
-15.5740892868
 20
-2.0721780286
 10
-15.5895393927
 20
-2.0505168347
 10
-15.6065421948
 20
-2.0303091444
 10
-15.6253683569
 20
-2.0113203471
 10
-15.6455260498
 20
-1.9941390585
 10
-15.6669321538
 20
-1.9788320279
 10
-15.680774187
 20
-1.9703350678
  0
LWPOLYLINE
  5
250
100
AcDbEntity
  8
0
100
AcDbPolyline
 62
7
  6
CONTINUOUS
 90
14
 70
0
 10
-15.5203288782
 20
-2.2482228914
 10
-15.5215838029
 20
-2.2207716537
 10
-15.5250768757
 20
-2.1947708013
 10
-15.5307649091
 20
-2.1690307331
 10
-15.538632108
 20
-2.143603315
 10
-15.5484094201
 20
-2.1191710035
 10
-15.5601960883
 20
-2.0953740678
 10
-15.574089251
 20
-2.0721780831
 10
-15.589539355
 20
-2.0505168833
 10
-15.6065421565
 20
-2.0303091863
 10
-15.6253683196
 20
-2.0113203818
 10
-15.6455260143
 20
-1.9941390862
 10
-15.6669321215
 20
-1.9788320489
 10
-15.680774187
 20
-1.9703350678
  0
LWPOLYLINE
  5
251
100
AcDbEntity
  8
0
100
AcDbPolyline
 62
7
  6
CONTINUOUS
 90
14
 70
0
 10
-15.5203288782
 20
16.9388286132
 10
-15.5215838029
 20
16.966279851
 10
-15.5250768757
 20
16.9922807034
 10
-15.5307649091
 20
17.0180207715
 10
-15.538632108
 20
17.0434481897
 10
-15.5484094201
 20
17.0678805012
 10
-15.5601960883
 20
17.0916774369
 10
-15.574089251
 20
17.1148734216
 10
-15.589539355
 20
17.1365346213
 10
-15.6065421565
 20
17.1567423184
 10
-15.6253683196
 20
17.1757311228
 10
-15.6455260143
 20
17.1929124185
 10
-15.6669321215
 20
17.2082194557
 10
-15.680774187
 20
17.2167164369
  0
LWPOLYLINE
  5
252
100
AcDbEntity
  8
ASSI
100
AcDbPolyline
 62
7
  6
CONTINUOUS
 90
14
 70
0
 10
-15.5203288782
 20
16.9388286137
 10
-15.5215838088
 20
16.966279916
 10
-15.5250768875
 20
16.9922807706
 10
-15.5307649269
 20
17.0180208387
 10
-15.5386321315
 20
17.0434482558
 10
-15.5484094487
 20
17.0678805651
 10
-15.5601961209
 20
17.0916774968
 10
-15.5740892868
 20
17.1148734761
 10
-15.5895393927
 20
17.1365346699
 10
-15.6065421948
 20
17.1567423603
 10
-15.6253683569
 20
17.1757311575
 10
-15.6455260498
 20
17.1929124462
 10
-15.6669321538
 20
17.2082194767
 10
-15.680774187
 20
17.2167164369
  0
LWPOLYLINE
  5
253
100
AcDbEntity
  8
0
100
AcDbPolyline
 62
7
  6
CONTINUOUS
 90
15
 70
0
 10
-15.520335546
 20
4.2376374182
 10
-15.5203492827
 20
4.2400551427
 10
-15.5216930953
 20
4.2613835811
 10
-15.5252130534
 20
4.2824354418
 10
-15.5308794918
 20
4.3030452929
 10
-15.5386176144
 20
4.3229506578
 10
-15.5483360898
 20
4.3419516784
 10
-15.5600042994
 20
4.3599791269
 10
-15.5735765251
 20
4.3768988948
 10
-15.5888382368
 20
4.3924138103
 10
-15.6055246001
 20
4.4062994647
 10
-15.623533856
 20
4.418530088
 10
-15.6425898691
 20
4.4289984167
 10
-15.6622550706
 20
4.4376040941
 10
-15.6649388276
 20
4.4386248211
  0
LWPOLYLINE
  5
254
100
AcDbEntity
  8
ASSI
100
AcDbPolyline
 62
7
  6
CONTINUOUS
 90
15
 70
0
 10
-15.5203355461
 20
4.2376374205
 10
-15.5203492824
 20
4.240055113
 10
-15.5216930912
 20
4.2613835449
 10
-15.5252130441
 20
4.2824353998
 10
-15.5308794763
 20
4.3030452463
 10
-15.5386175921
 20
4.3229506082
 10
-15.5483360602
 20
4.3419516271
 10
-15.5600042629
 20
4.3599790763
 10
-15.5735764824
 20
4.3768988466
 10
-15.588838189
 20
4.3924137662
 10
-15.6055245497
 20
4.4062994268
 10
-15.6235338064
 20
4.4185300578
 10
-15.6425898234
 20
4.4289983943
 10
-15.6622550312
 20
4.4376040789
 10
-15.6649388272
 20
4.438624821
  0
LINE
  5
255
100
AcDbEntity
  8
RACCORDO
100
AcDbLine
 62
7
  6
CONTINUOUS
 10
-16.3230275923
 20
25.6229915327
 11
-16.3230275923
 21
-8.0969941693
  0
LINE
  5
256
100
AcDbEntity
  8
0
100
AcDbLine
 62
250
  6
CONTINUOUS
 10
-16.0774350656
 20
4.2240840469
 11
-16.0774350656
 21
15.4737517739
  0
LINE
  5
257
100
AcDbEntity
  8
ASSI
100
AcDbLine
 62
250
  6
CONTINUOUS
 10
-16.0774350656
 20
4.2240840469
 11
-16.0774350656
 21
15.4737517739
  0
LINE
  5
258
100
AcDbEntity
  8
0
100
AcDbLine
 62
7
  6
CONTINUOUS
 10
-16.0213030257
 20
4.3043014543
 11
-16.0213030257
 21
15.5539691815
  0
LINE
  5
259
100
AcDbEntity
  8
ASSI
100
AcDbLine
 62
7
  6
CONTINUOUS
 10
-16.0213030257
 20
4.3043014543
 11
-16.0213030257
 21
15.5539691815
  0
LINE
  5
25A
100
AcDbEntity
  8
0
100
AcDbLine
 62
250
  6
CONTINUOUS
 10
-15.5904938698
 20
25.2000357421
 11
-15.5904938698
 21
22.6285183595
  0
LINE
  5
25B
100
AcDbEntity
  8
ASSI
100
AcDbLine
 62
250
  6
CONTINUOUS
 10
-15.5904938698
 20
25.2000357421
 11
-15.5904938698
 21
22.6285183595
  0
LINE
  5
25C
100
AcDbEntity
  8
0
100
AcDbLine
 62
250
  6
CONTINUOUS
 10
-15.5904938698
 20
16.8386554147
 11
-15.5904938698
 21
16.1365985319
  0
LINE
  5
25D
100
AcDbEntity
  8
ASSI
100
AcDbLine
 62
250
  6
CONTINUOUS
 10
-15.5904938698
 20
16.8386554147
 11
-15.5904938698
 21
16.1365985319
  0
LINE
  5
25E
100
AcDbEntity
  8
0
100
AcDbLine
 62
250
  6
CONTINUOUS
 10
-15.5904938698
 20
4.1435237377
 11
-15.5904938698
 21
3.4414668549
  0
LINE
  5
25F
100
AcDbEntity
  8
ASSI
100
AcDbLine
 62
250
  6
CONTINUOUS
 10
-15.5904938698
 20
4.1435237377
 11
-15.5904938698
 21
3.4414668549
  0
LINE
  5
260
100
AcDbEntity
  8
0
100
AcDbLine
 62
250
  6
CONTINUOUS
 10
-15.5904938698
 20
-2.3483960899
 11
-15.5904938698
 21
-9.490327971
  0
LINE
  5
261
100
AcDbEntity
  8
ASSI
100
AcDbLine
 62
250
  6
CONTINUOUS
 10
-15.5904938698
 20
-2.3483960899
 11
-15.5904938698
 21
-9.490327971
  0
LINE
  5
262
100
AcDbEntity
  8
0
100
AcDbLine
 62
7
  6
CONTINUOUS
 10
-15.5203288199
 20
25.1595233217
 11
-15.5203288199
 21
22.7287901279
  0
LINE
  5
263
100
AcDbEntity
  8
ASSI
100
AcDbLine
 62
7
  6
CONTINUOUS
 10
-15.5203288199
 20
25.1595233217
 11
-15.5203288199
 21
22.7287901279
  0
LINE
  5
264
100
AcDbEntity
  8
0
100
AcDbLine
 62
7
  6
CONTINUOUS
 10
-15.5203288199
 20
16.9389271741
 11
-15.5203288199
 21
16.2429944402
  0
LINE
  5
265
100
AcDbEntity
  8
ASSI
100
AcDbLine
 62
7
  6
CONTINUOUS
 10
-15.5203288199
 20
16.9389271741
 11
-15.5203288199
 21
16.2429944399
  0
LINE
  5
266
100
AcDbEntity
  8
0
100
AcDbLine
 62
7
  6
CONTINUOUS
 10
-15.5203288199
 20
4.2376720772
 11
-15.5203288199
 21
3.5417386232
  0
LINE
  5
267
100
AcDbEntity
  8
ASSI
100
AcDbLine
 62
7
  6
CONTINUOUS
 10
-15.5203288199
 20
4.2376720769
 11
-15.5203288199
 21
3.5417386232
  0
LINE
  5
268
100
AcDbEntity
  8
0
100
AcDbLine
 62
7
  6
CONTINUOUS
 10
-15.5203288199
 20
-2.2481243306
 11
-15.5203288199
 21
-9.5384454603
  0
LINE
  5
269
100
AcDbEntity
  8
ASSI
100
AcDbLine
 62
7
  6
CONTINUOUS
 10
-15.5203288199
 20
-2.2481243306
 11
-15.5203288199
 21
-9.5384454603
  0
LWPOLYLINE
  5
26A
100
AcDbEntity
  8
0
100
AcDbPolyline
 62
7
  6
CONTINUOUS
 90
20
 70
0
 10
-16.0213030264
 20
15.5539790293
 10
-16.021243568
 20
15.5588558614
 10
-16.0204722612
 20
15.5729310577
 10
-16.0186578634
 20
15.588931825
 10
-16.0156279784
 20
15.6067228929
 10
-16.0113223445
 20
15.6257941601
 10
-16.0056985994
 20
15.6458686473
 10
-15.9987285193
 20
15.6667259624
 10
-15.9905044698
 20
15.6878997223
 10
-15.9811067454
 20
15.7090967761
 10
-15.9706218234
 20
15.7300831464
 10
-15.9592357004
 20
15.7504915889
 10
-15.9471076811
 20
15.7700797573
 10
-15.9343942336
 20
15.7886625306
 10
-15.9213234034
 20
15.8059931248
 10
-15.9080783112
 20
15.8219342845
 10
-15.8948663045
 20
15.8363591608
 10
-15.8819853558
 20
15.8490855223
 10
-15.8696270555
 20
15.8600889281
 10
-15.8601289334
 20
15.8677464259
  0
LWPOLYLINE
  5
26B
100
AcDbEntity
  8
ASSI
100
AcDbPolyline
 62
7
  6
CONTINUOUS
 90
20
 70
0
 10
-16.0213030264
 20
15.5539790295
 10
-16.0212435679
 20
15.5588558637
 10
-16.0204722611
 20
15.5729310596
 10
-16.0186578632
 20
15.5889318268
 10
-16.015627978
 20
15.6067228947
 10
-16.0113223441
 20
15.6257941619
 10
-16.0056985988
 20
15.6458686491
 10
-15.9987285187
 20
15.6667259641
 10
-15.9905044692
 20
15.6878997238
 10
-15.9811067448
 20
15.7090967774
 10
-15.9706218228
 20
15.7300831475
 10
-15.9592356999
 20
15.7504915899
 10
-15.9471076806
 20
15.770079758
 10
-15.9343942331
 20
15.7886625313
 10
-15.9213234028
 20
15.8059931256
 10
-15.9080783105
 20
15.8219342854
 10
-15.8948663036
 20
15.8363591616
 10
-15.8819853551
 20
15.8490855229
 10
-15.8696270553
 20
15.8600889282
 10
-15.8601289335
 20
15.8677464258
  0
LINE
  5
26C
100
AcDbEntity
  8
RACCORDO
100
AcDbLine
 62
7
  6
CONTINUOUS
 10
-15.4744994549
 20
-9.5666880134
 11
13.7290106081
 21
-26.4284287178
  0
LINE
  5
26D
100
AcDbEntity
  8
0
100
AcDbLine
 62
7
  6
CONTINUOUS
 10
11.4309135693
 20
-24.9380449595
 11
7.5418262728
 21
-22.6925346962
  0
LINE
  5
26E
100
AcDbEntity
  8
ASSI
100
AcDbLine
 62
7
  6
CONTINUOUS
 10
11.4309135693
 20
-24.9380449595
 11
7.5418262728
 21
-22.6925346962
  0
LINE
  5
26F
100
AcDbEntity
  8
0
100
AcDbLine
 62
7
  6
CONTINUOUS
 10
-4.4789890074
 20
-15.7518666096
 11
-8.3680763039
 21
-13.5063563463
  0
LINE
  5
270
100
AcDbEntity
  8
ASSI
100
AcDbLine
 62
7
  6
CONTINUOUS
 10
-4.4789890074
 20
-15.7518666096
 11
-8.3680763039
 21
-13.5063563463
  0
LINE
  5
271
100
AcDbEntity
  8
0
100
AcDbLine
 62
7
  6
CONTINUOUS
 10
11.6784009427
 20
-24.9176193934
 11
7.683247629
 21
-22.6108797775
  0
LINE
  5
272
100
AcDbEntity
  8
ASSI
100
AcDbLine
 62
7
  6
CONTINUOUS
 10
11.6784009427
 20
-24.9176193934
 11
7.683247629
 21
-22.6108797775
  0
LINE
  5
273
100
AcDbEntity
  8
0
100
AcDbLine
 62
7
  6
CONTINUOUS
 10
-4.231501634
 20
-15.7314410435
 11
-8.2266549477
 21
-13.4247014277
  0
LINE
  5
274
100
AcDbEntity
  8
ASSI
100
AcDbLine
 62
7
  6
CONTINUOUS
 10
-4.231501634
 20
-15.7314410435
 11
-8.2266549477
 21
-13.4247014277
  0
LINE
  5
275
100
AcDbEntity
  8
0
100
AcDbLine
 62
7
  6
CONTINUOUS
 10
11.7844669599
 20
-24.7339076628
 11
7.8953796634
 21
-22.4883973995
  0
LINE
  5
276
100
AcDbEntity
  8
ASSI
100
AcDbLine
 62
7
  6
CONTINUOUS
 10
11.7844669599
 20
-24.7339076628
 11
7.8953796634
 21
-22.4883973995
  0
LINE
  5
277
100
AcDbEntity
  8
0
100
AcDbLine
 62
7
  6
CONTINUOUS
 10
-4.1254356168
 20
-15.547729313
 11
-8.0145229133
 21
-13.3022190497
  0
LINE
  5
278
100
AcDbEntity
  8
ASSI
100
AcDbLine
 62
7
  6
CONTINUOUS
 10
-4.1254356168
 20
-15.547729313
 11
-8.0145229133
 21
-13.3022190497
  0
LINE
  5
279
100
AcDbEntity
  8
0
100
AcDbLine
 62
7
  6
CONTINUOUS
 10
12.0319543333
 20
-24.7134820967
 11
8.0368010196
 21
-22.4067424809
  0
LINE
  5
27A
100
AcDbEntity
  8
ASSI
100
AcDbLine
 62
7
  6
CONTINUOUS
 10
12.0319543333
 20
-24.7134820967
 11
8.0368010196
 21
-22.4067424809
  0
LINE
  5
27B
100
AcDbEntity
  8
0
100
AcDbLine
 62
7
  6
CONTINUOUS
 10
-3.8779482434
 20
-15.5273037468
 11
-7.8731015571
 21
-13.220564131
  0
LINE
  5
27C
100
AcDbEntity
  8
ASSI
100
AcDbLine
 62
7
  6
CONTINUOUS
 10
-3.8779482434
 20
-15.5273037468
 11
-7.8731015571
 21
-13.220564131
  0
LINE
  5
27D
100
AcDbEntity
  8
0
100
AcDbLine
 62
7
  6
CONTINUOUS
 10
12.1380203505
 20
-24.5297703662
 11
8.2489330539
 21
-22.2842601029
  0
LINE
  5
27E
100
AcDbEntity
  8
ASSI
100
AcDbLine
 62
7
  6
CONTINUOUS
 10
12.1380203505
 20
-24.5297703662
 11
8.2489330539
 21
-22.2842601029
  0
LINE
  5
27F
100
AcDbEntity
  8
0
100
AcDbLine
 62
7
  6
CONTINUOUS
 10
-3.7718822262
 20
-15.3435920163
 11
-7.6609695228
 21
-13.098081753
  0
LINE
  5
280
100
AcDbEntity
  8
ASSI
100
AcDbLine
 62
7
  6
CONTINUOUS
 10
-3.7718822262
 20
-15.3435920163
 11
-7.6609695228
 21
-13.098081753
  0
LINE
  5
281
100
AcDbEntity
  8
0
100
AcDbLine
 62
7
  6
CONTINUOUS
 10
12.3855077239
 20
-24.5093448
 11
8.3903544102
 21
-22.2026051842
  0
LINE
  5
282
100
AcDbEntity
  8
ASSI
100
AcDbLine
 62
7
  6
CONTINUOUS
 10
12.3855077239
 20
-24.5093448
 11
8.3903544102
 21
-22.2026051842
  0
LINE
  5
283
100
AcDbEntity
  8
0
100
AcDbLine
 62
7
  6
CONTINUOUS
 10
-3.5243948528
 20
-15.3231664502
 11
-7.5195481665
 21
-13.0164268343
  0
LINE
  5
284
100
AcDbEntity
  8
ASSI
100
AcDbLine
 62
7
  6
CONTINUOUS
 10
-3.5243948528
 20
-15.3231664502
 11
-7.5195481665
 21
-13.0164268343
  0
LINE
  5
285
100
AcDbEntity
  8
0
100
AcDbLine
 62
7
  6
CONTINUOUS
 10
12.4915737411
 20
-24.3256330695
 11
8.6024864445
 21
-22.0801228062
  0
LINE
  5
286
100
AcDbEntity
  8
ASSI
100
AcDbLine
 62
7
  6
CONTINUOUS
 10
12.4915737411
 20
-24.3256330695
 11
8.6024864445
 21
-22.0801228062
  0
LINE
  5
287
100
AcDbEntity
  8
0
100
AcDbLine
 62
7
  6
CONTINUOUS
 10
-3.4183288356
 20
-15.1394547196
 11
-7.3074161322
 21
-12.8939444563
  0
LINE
  5
288
100
AcDbEntity
  8
ASSI
100
AcDbLine
 62
7
  6
CONTINUOUS
 10
-3.4183288356
 20
-15.1394547196
 11
-7.3074161322
 21
-12.8939444563
  0
LINE
  5
289
100
AcDbEntity
  8
0
100
AcDbLine
 62
7
  6
CONTINUOUS
 10
12.7390611145
 20
-24.3052075034
 11
8.7439078008
 21
-21.9984678875
  0
LINE
  5
28A
100
AcDbEntity
  8
ASSI
100
AcDbLine
 62
7
  6
CONTINUOUS
 10
12.7390611145
 20
-24.3052075034
 11
8.7439078008
 21
-21.9984678875
  0
LINE
  5
28B
100
AcDbEntity
  8
0
100
AcDbLine
 62
7
  6
CONTINUOUS
 10
-3.1708414622
 20
-15.1190291535
 11
-7.1659947759
 21
-12.8122895377
  0
LINE
  5
28C
100
AcDbEntity
  8
ASSI
100
AcDbLine
 62
7
  6
CONTINUOUS
 10
-3.1708414622
 20
-15.1190291535
 11
-7.1659947759
 21
-12.8122895377
  0
LINE
  5
28D
100
AcDbEntity
  8
0
100
AcDbLine
 62
7
  6
CONTINUOUS
 10
12.8451271317
 20
-24.1214957729
 11
8.9560398351
 21
-21.8759855095
  0
LINE
  5
28E
100
AcDbEntity
  8
ASSI
100
AcDbLine
 62
7
  6
CONTINUOUS
 10
12.8451271317
 20
-24.1214957729
 11
8.9560398351
 21
-21.8759855095
  0
LINE
  5
28F
100
AcDbEntity
  8
0
100
AcDbLine
 62
7
  6
CONTINUOUS
 10
-3.064775445
 20
-14.935317423
 11
-6.9538627416
 21
-12.6898071597
  0
LINE
  5
290
100
AcDbEntity
  8
ASSI
100
AcDbLine
 62
7
  6
CONTINUOUS
 10
-3.064775445
 20
-14.935317423
 11
-6.9538627416
 21
-12.6898071597
  0
LINE
  5
291
100
AcDbEntity
  8
0
100
AcDbLine
 62
7
  6
CONTINUOUS
 10
13.0926145051
 20
-24.1010702067
 11
9.0974611914
 21
-21.7943305909
  0
LINE
  5
292
100
AcDbEntity
  8
ASSI
100
AcDbLine
 62
7
  6
CONTINUOUS
 10
13.0926145051
 20
-24.1010702067
 11
9.0974611914
 21
-21.7943305909
  0
LINE
  5
293
100
AcDbEntity
  8
0
100
AcDbLine
 62
7
  6
CONTINUOUS
 10
-2.8172880716
 20
-14.9148918568
 11
-6.8124413853
 21
-12.608152241
  0
LINE
  5
294
100
AcDbEntity
  8
ASSI
100
AcDbLine
 62
7
  6
CONTINUOUS
 10
-2.8172880716
 20
-14.9148918568
 11
-6.8124413853
 21
-12.608152241
  0
LINE
  5
295
100
AcDbEntity
  8
0
100
AcDbLine
 62
7
  6
CONTINUOUS
 10
13.1986805223
 20
-23.9173584762
 11
9.3095932257
 21
-21.6718482129
  0
LINE
  5
296
100
AcDbEntity
  8
ASSI
100
AcDbLine
 62
7
  6
CONTINUOUS
 10
13.1986805223
 20
-23.9173584762
 11
9.3095932257
 21
-21.6718482129
  0
LINE
  5
297
100
AcDbEntity
  8
0
100
AcDbLine
 62
7
  6
CONTINUOUS
 10
-2.7112220544
 20
-14.7311801263
 11
-6.600309351
 21
-12.485669863
  0
LINE
  5
298
100
AcDbEntity
  8
ASSI
100
AcDbLine
 62
7
  6
CONTINUOUS
 10
-2.7112220544
 20
-14.7311801263
 11
-6.600309351
 21
-12.485669863
  0
LINE
  5
299
100
AcDbEntity
  8
0
100
AcDbLine
 62
7
  6
CONTINUOUS
 10
13.4461678957
 20
-23.89693291
 11
9.451014582
 21
-21.5901932942
  0
LINE
  5
29A
100
AcDbEntity
  8
ASSI
100
AcDbLine
 62
7
  6
CONTINUOUS
 10
13.4461678957
 20
-23.89693291
 11
9.451014582
 21
-21.5901932942
  0
LINE
  5
29B
100
AcDbEntity
  8
0
100
AcDbLine
 62
7
  6
CONTINUOUS
 10
-2.463734681
 20
-14.7107545602
 11
-6.4588879947
 21
-12.4040149443
  0
LINE
  5
29C
100
AcDbEntity
  8
ASSI
100
AcDbLine
 62
7
  6
CONTINUOUS
 10
-2.463734681
 20
-14.7107545602
 11
-6.4588879947
 21
-12.4040149443
  0
LINE
  5
29D
100
AcDbEntity
  8
0
100
AcDbLine
 62
250
  6
CONTINUOUS
 10
13.7309468429
 20
-23.9387767656
 11
9.4846095846
 21
-21.4869948517
  0
LINE
  5
29E
100
AcDbEntity
  8
ASSI
100
AcDbLine
 62
250
  6
CONTINUOUS
 10
13.7309468429
 20
-23.9387767656
 11
9.4846095846
 21
-21.4869948517
  0
LINE
  5
29F
100
AcDbEntity
  8
0
100
AcDbLine
 62
250
  6
CONTINUOUS
 10
-2.1789557338
 20
-14.7525984157
 11
-6.4252929921
 21
-12.3008165019
  0
LINE
  5
2A0
100
AcDbEntity
  8
ASSI
100
AcDbLine
 62
250
  6
CONTINUOUS
 10
-2.1789557338
 20
-14.7525984157
 11
-6.4252929921
 21
-12.3008165019
  0
LINE
  5
2A1
100
AcDbEntity
  8
0
100
AcDbLine
 62
250
  6
CONTINUOUS
 10
13.7290106081
 20
-23.8604611137
 11
9.5586567375
 21
-21.4525510557
  0
LINE
  5
2A2
100
AcDbEntity
  8
ASSI
100
AcDbLine
 62
250
  6
CONTINUOUS
 10
13.7290106081
 20
-23.8604611137
 11
9.5586567375
 21
-21.4525510557
  0
LINE
  5
2A3
100
AcDbEntity
  8
0
100
AcDbLine
 62
250
  6
CONTINUOUS
 10
-2.1122833778
 20
-14.7138965043
 11
-6.3512458392
 21
-12.2663727058
  0
LINE
  5
2A4
100
AcDbEntity
  8
ASSI
100
AcDbLine
 62
250
  6
CONTINUOUS
 10
-2.1122833778
 20
-14.7138965043
 11
-6.3512458392
 21
-12.2663727058
  0
LINE
  5
2A5
100
AcDbEntity
  8
0
100
AcDbLine
 62
7
  6
CONTINUOUS
 10
-4.765644106
 20
-11.7485467526
 11
-0.9396427154
 21
-13.9576320045
  0
LINE
  5
2A6
100
AcDbEntity
  8
ASSI
100
AcDbLine
 62
7
  6
CONTINUOUS
 10
-4.765644106
 20
-11.7485467526
 11
-0.9396427154
 21
-13.9576320045
  0
LINE
  5
2A7
100
AcDbEntity
  8
0
100
AcDbLine
 62
7
  6
CONTINUOUS
 10
11.1442584707
 20
-20.9347251025
 11
13.7290106081
 21
-22.4271285921
  0
LINE
  5
2A8
100
AcDbEntity
  8
ASSI
100
AcDbLine
 62
7
  6
CONTINUOUS
 10
11.1442584707
 20
-20.9347251025
 11
13.7290106081
 21
-22.4271285921
  0
LWPOLYLINE
  5
2A9
100
AcDbEntity
  8
0
100
AcDbPolyline
 62
7
  6
CONTINUOUS
 90
13
 70
0
 10
-15.648822079
 20
3.3064458597
 10
-15.633977643
 20
3.3163208245
 10
-15.6155990859
 20
3.3307070535
 10
-15.5984154113
 20
3.3467746289
 10
-15.5826303232
 20
3.364381673
 10
-15.5683856537
 20
3.3834043804
 10
-15.555774469
 20
3.4037693301
 10
-15.5449274827
 20
3.4253288205
 10
-15.5359770522
 20
3.4478665537
 10
-15.5289925936
 20
3.4712385758
 10
-15.5240323737
 20
3.4952951982
 10
-15.5211447265
 20
3.5198254264
 10
-15.5203288327
 20
3.5416923639
  0
LWPOLYLINE
  5
2AA
100
AcDbEntity
  8
ASSI
100
AcDbPolyline
 62
7
  6
CONTINUOUS
 90
13
 70
0
 10
-15.6488220792
 20
3.3064458596
 10
-15.6339776429
 20
3.3163208246
 10
-15.6155990858
 20
3.3307070536
 10
-15.5984154111
 20
3.3467746291
 10
-15.5826303231
 20
3.3643816731
 10
-15.5683856536
 20
3.3834043806
 10
-15.5557744689
 20
3.4037693302
 10
-15.5449274826
 20
3.4253288206
 10
-15.5359770522
 20
3.4478665537
 10
-15.5289925936
 20
3.4712385758
 10
-15.5240323737
 20
3.4952951983
 10
-15.5211447265
 20
3.5198254265
 10
-15.5203288327
 20
3.5416923639
  0
LINE
  5
2AB
100
AcDbEntity
  8
0
100
AcDbLine
 62
250
  6
CONTINUOUS
 10
-16.3230275923
 20
2.9884570127
 11
-15.5904938698
 21
3.4414668549
  0
LINE
  5
2AC
100
AcDbEntity
  8
ASSI
100
AcDbLine
 62
250
  6
CONTINUOUS
 10
-16.3230275923
 20
2.9884570127
 11
-15.5904938698
 21
3.4414668549
  0
LINE
  5
2AD
100
AcDbEntity
  8
0
100
AcDbLine
 62
7
  6
CONTINUOUS
 10
-16.3230275923
 20
2.889507023
 11
-15.6487569977
 21
3.3064860729
  0
LINE
  5
2AE
100
AcDbEntity
  8
ASSI
100
AcDbLine
 62
7
  6
CONTINUOUS
 10
-16.3230275923
 20
2.889507023
 11
-15.6487569977
 21
3.3064860729
  0
LINE
  5
2AF
100
AcDbEntity
  8
0
100
AcDbLine
 62
250
  6
CONTINUOUS
 10
-15.7389983495
 20
4.4083947781
 11
-15.9867108653
 21
4.3027262731
  0
LINE
  5
2B0
100
AcDbEntity
  8
ASSI
100
AcDbLine
 62
250
  6
CONTINUOUS
 10
-15.7389983495
 20
4.4083947781
 11
-15.9867108653
 21
4.3027262731
  0
LINE
  5
2B1
100
AcDbEntity
  8
0
100
AcDbLine
 62
250
  6
CONTINUOUS
 10
-15.5904938698
 20
4.1435237377
 11
-15.8382063856
 21
4.0378552327
  0
LINE
  5
2B2
100
AcDbEntity
  8
ASSI
100
AcDbLine
 62
250
  6
CONTINUOUS
 10
-15.5904938698
 20
4.1435237377
 11
-15.8382063856
 21
4.0378552327
  0
LINE
  5
2B3
100
AcDbEntity
  8
0
100
AcDbLine
 62
250
  6
CONTINUOUS
 10
-16.3230275923
 20
-1.680536522
 11
-15.8025935954
 21
-1.9810285893
  0
LINE
  5
2B4
100
AcDbEntity
  8
ASSI
100
AcDbLine
 62
250
  6
CONTINUOUS
 10
-16.3230275923
 20
-1.680536522
 11
-15.8025935954
 21
-1.9810285893
  0
LINE
  5
2B5
100
AcDbEntity
  8
0
100
AcDbLine
 62
7
  6
CONTINUOUS
 10
-16.3230275923
 20
-1.5995059058
 11
-15.6806726964
 21
-1.9703935721
  0
LINE
  5
2B6
100
AcDbEntity
  8
ASSI
100
AcDbLine
 62
7
  6
CONTINUOUS
 10
-16.3230275923
 20
-1.5995059058
 11
-15.6806726964
 21
-1.9703935721
  0
LWPOLYLINE
  5
2B7
100
AcDbEntity
  8
ASSI
100
AcDbPolyline
 62
7
  6
CONTINUOUS
 90
8
 70
0
 10
-16.0171764139
 20
4.2706350732
 10
-16.0169612597
 20
4.2702206258
 10
-16.0171880834
 20
4.2708266256
 10
-16.0180332663
 20
4.2735348423
 10
-16.0191399547
 20
4.2783196189
 10
-16.0201929772
 20
4.2849656857
 10
-16.0209715109
 20
4.2933399568
 10
-16.0213030274
 20
4.3042865995
  0
LWPOLYLINE
  5
2B8
100
AcDbEntity
  8
0
100
AcDbPolyline
 62
7
  6
CONTINUOUS
 90
8
 70
0
 10
-16.0171764145
 20
4.2706350743
 10
-16.0169612598
 20
4.270220626
 10
-16.0171880829
 20
4.2708266243
 10
-16.0180332656
 20
4.2735348395
 10
-16.0191399539
 20
4.2783196147
 10
-16.0201929765
 20
4.2849656806
 10
-16.0209715105
 20
4.2933399511
 10
-16.0213030274
 20
4.3042865995
  0
LINE
  5
2B9
100
AcDbEntity
  8
0
100
AcDbLine
 62
250
  6
CONTINUOUS
 10
-15.8025935954
 20
-1.9810285893
 11
-16.3230275923
 21
-2.2815216882
  0
LINE
  5
2BA
100
AcDbEntity
  8
ASSI
100
AcDbLine
 62
250
  6
CONTINUOUS
 10
-15.8025935954
 20
-1.9810285893
 11
-16.3230275923
 21
-2.2815216882
  0
LINE
  5
2BB
100
AcDbEntity
  8
0
100
AcDbLine
 62
250
  6
CONTINUOUS
 10
-15.5904938698
 20
-2.3483960899
 11
-16.3230275923
 21
-2.7713533327
  0
LINE
  5
2BC
100
AcDbEntity
  8
ASSI
100
AcDbLine
 62
250
  6
CONTINUOUS
 10
-15.5904938698
 20
-2.3483960899
 11
-16.3230275923
 21
-2.7713533327
  0
LINE
  5
2BD
100
AcDbEntity
  8
0
100
AcDbLine
 62
250
  6
CONTINUOUS
 10
-0.9324351065
 20
-14.1010816578
 11
-0.9324351065
 21
-14.5084512957
  0
LINE
  5
2BE
100
AcDbEntity
  8
ASSI
100
AcDbLine
 62
250
  6
CONTINUOUS
 10
-0.9324351065
 20
-14.1010816578
 11
-0.9324351065
 21
-14.5084512957
  0
LINE
  5
2BF
100
AcDbEntity
  8
0
100
AcDbLine
 62
7
  6
CONTINUOUS
 10
-0.8810640716
 20
-14.034504151
 11
-0.8810640716
 21
-14.4779060009
  0
LINE
  5
2C0
100
AcDbEntity
  8
ASSI
100
AcDbLine
 62
7
  6
CONTINUOUS
 10
-0.8810640716
 20
-14.034504151
 11
-0.8810640716
 21
-14.4779060009
  0
LINE
  5
2C1
100
AcDbEntity
  8
0
100
AcDbLine
 62
7
  6
CONTINUOUS
 10
-8.4388689863
 20
-13.6289728688
 11
-8.3680763039
 21
-13.5063563463
  0
LINE
  5
2C2
100
AcDbEntity
  8
ASSI
100
AcDbLine
 62
7
  6
CONTINUOUS
 10
-8.4388689863
 20
-13.6289728688
 11
-8.3680763039
 21
-13.5063563463
  0
LINE
  5
2C3
100
AcDbEntity
  8
0
100
AcDbLine
 62
7
  6
CONTINUOUS
 10
-8.1205889305
 20
-13.4859307802
 11
-8.0145229133
 21
-13.3022190497
  0
LINE
  5
2C4
100
AcDbEntity
  8
ASSI
100
AcDbLine
 62
7
  6
CONTINUOUS
 10
-8.1205889305
 20
-13.4859307802
 11
-8.0145229133
 21
-13.3022190497
  0
LINE
  5
2C5
100
AcDbEntity
  8
0
100
AcDbLine
 62
7
  6
CONTINUOUS
 10
-7.7670355399
 20
-13.2817934835
 11
-7.6609695228
 21
-13.098081753
  0
LINE
  5
2C6
100
AcDbEntity
  8
ASSI
100
AcDbLine
 62
7
  6
CONTINUOUS
 10
-7.7670355399
 20
-13.2817934835
 11
-7.6609695228
 21
-13.098081753
  0
LINE
  5
2C7
100
AcDbEntity
  8
0
100
AcDbLine
 62
7
  6
CONTINUOUS
 10
-7.4134821493
 20
-13.0776561869
 11
-7.3074161322
 21
-12.8939444563
  0
LINE
  5
2C8
100
AcDbEntity
  8
ASSI
100
AcDbLine
 62
7
  6
CONTINUOUS
 10
-7.4134821493
 20
-13.0776561869
 11
-7.3074161322
 21
-12.8939444563
  0
LINE
  5
2C9
100
AcDbEntity
  8
0
100
AcDbLine
 62
7
  6
CONTINUOUS
 10
-7.0599287587
 20
-12.8735188902
 11
-6.9538627416
 21
-12.6898071597
  0
LINE
  5
2CA
100
AcDbEntity
  8
ASSI
100
AcDbLine
 62
7
  6
CONTINUOUS
 10
-7.0599287587
 20
-12.8735188902
 11
-6.9538627416
 21
-12.6898071597
  0
LINE
  5
2CB
100
AcDbEntity
  8
0
100
AcDbLine
 62
7
  6
CONTINUOUS
 10
-6.7063753681
 20
-12.6693815935
 11
-6.600309351
 21
-12.485669863
  0
LINE
  5
2CC
100
AcDbEntity
  8
ASSI
100
AcDbLine
 62
7
  6
CONTINUOUS
 10
-6.7063753681
 20
-12.6693815935
 11
-6.600309351
 21
-12.485669863
  0
LINE
  5
2CD
100
AcDbEntity
  8
RACCORDO
100
AcDbLine
 62
250
  6
CONTINUOUS
 10
-18.4443479358
 20
-9.3218179492
 11
-16.3230275923
 21
-8.0969941693
  0
LINE
  5
2CE
100
AcDbEntity
  8
SMUSSO
100
AcDbLine
 62
250
  6
CONTINUOUS
 10
29.4621364895
 20
18.17022446
 11
30.5227966613
 21
18.78263635
  0
LINE
  5
2CF
100
AcDbEntity
  8
SMUSSO
100
AcDbLine
 62
250
  6
CONTINUOUS
 10
30.1692432707
 20
16.9454795899
 11
31.2299034425
 21
17.5578914799
  0
LINE
  5
2D0
100
AcDbEntity
  8
RACCORDO
100
AcDbLine
 62
250
  6
CONTINUOUS
 10
-17.5958197984
 20
-10.7915117934
 11
-15.4744994549
 21
-9.5666880134
  0
LINE
  5
2D1
100
AcDbEntity
  8
0
100
AcDbLine
 62
250
  6
CONTINUOUS
 10
30.4874413223
 20
18.8036073282
 11
32.5380509877
 21
19.9462741779
  0
LINE
  5
2D2
100
AcDbEntity
  8
ASSI
100
AcDbLine
 62
250
  6
CONTINUOUS
 10
30.4874413223
 20
18.8036073282
 11
32.5380509877
 21
19.9462741779
  0
LINE
  5
2D3
100
AcDbEntity
  8
0
100
AcDbLine
 62
250
  6
CONTINUOUS
 10
-16.0175789709
 20
4.3142644365
 11
-15.9867108653
 21
4.3027262731
  0
LINE
  5
2D4
100
AcDbEntity
  8
ASSI
100
AcDbLine
 62
250
  6
CONTINUOUS
 10
-16.0175789709
 20
4.3142644365
 11
-15.9867108653
 21
4.3027262731
  0
LINE
  5
2D5
100
AcDbEntity
  8
0
100
AcDbLine
 62
250
  6
CONTINUOUS
 10
-16.0213030257
 20
4.5412352669
 11
-15.7396100005
 21
4.4359414657
  0
LINE
  5
2D6
100
AcDbEntity
  8
ASSI
100
AcDbLine
 62
250
  6
CONTINUOUS
 10
-16.0213030257
 20
4.5412352669
 11
-15.7396100005
 21
4.4359414657
  0
LINE
  5
2D7
100
AcDbEntity
  8
0
100
AcDbLine
 62
7
  6
CONTINUOUS
 10
-16.0213030257
 20
4.5718298984
 11
-15.6649476947
 21
4.4386281361
  0
LINE
  5
2D8
100
AcDbEntity
  8
ASSI
100
AcDbLine
 62
7
  6
CONTINUOUS
 10
-16.0213030257
 20
4.5718298984
 11
-15.6649476947
 21
4.4386281361
  0
LINE
  5
2D9
100
AcDbEntity
  8
0
100
AcDbLine
 62
7
  6
CONTINUOUS
 10
-4.5497816897
 20
-15.8744831321
 11
-4.4789890074
 21
-15.7518666096
  0
LINE
  5
2DA
100
AcDbEntity
  8
ASSI
100
AcDbLine
 62
7
  6
CONTINUOUS
 10
-4.5497816897
 20
-15.8744831321
 11
-4.4789890074
 21
-15.7518666096
  0
LINE
  5
2DB
100
AcDbEntity
  8
0
100
AcDbLine
 62
7
  6
CONTINUOUS
 10
-4.231501634
 20
-15.7314410435
 11
-4.1254356168
 21
-15.547729313
  0
LINE
  5
2DC
100
AcDbEntity
  8
ASSI
100
AcDbLine
 62
7
  6
CONTINUOUS
 10
-4.231501634
 20
-15.7314410435
 11
-4.1254356168
 21
-15.547729313
  0
LINE
  5
2DD
100
AcDbEntity
  8
0
100
AcDbLine
 62
7
  6
CONTINUOUS
 10
-3.8779482434
 20
-15.5273037468
 11
-3.7718822262
 21
-15.3435920163
  0
LINE
  5
2DE
100
AcDbEntity
  8
ASSI
100
AcDbLine
 62
7
  6
CONTINUOUS
 10
-3.8779482434
 20
-15.5273037468
 11
-3.7718822262
 21
-15.3435920163
  0
LINE
  5
2DF
100
AcDbEntity
  8
0
100
AcDbLine
 62
7
  6
CONTINUOUS
 10
-3.5243948528
 20
-15.3231664502
 11
-3.4183288356
 21
-15.1394547196
  0
LINE
  5
2E0
100
AcDbEntity
  8
ASSI
100
AcDbLine
 62
7
  6
CONTINUOUS
 10
-3.5243948528
 20
-15.3231664502
 11
-3.4183288356
 21
-15.1394547196
  0
LINE
  5
2E1
100
AcDbEntity
  8
0
100
AcDbLine
 62
7
  6
CONTINUOUS
 10
-3.1708414622
 20
-15.1190291535
 11
-3.064775445
 21
-14.935317423
  0
LINE
  5
2E2
100
AcDbEntity
  8
ASSI
100
AcDbLine
 62
7
  6
CONTINUOUS
 10
-3.1708414622
 20
-15.1190291535
 11
-3.064775445
 21
-14.935317423
  0
LINE
  5
2E3
100
AcDbEntity
  8
0
100
AcDbLine
 62
250
  6
CONTINUOUS
 10
31.2303416283
 20
17.5168662545
 11
33.2451577689
 21
18.7215293078
  0
LINE
  5
2E4
100
AcDbEntity
  8
ASSI
100
AcDbLine
 62
250
  6
CONTINUOUS
 10
31.2303416283
 20
17.5168662545
 11
33.2451577689
 21
18.7215293078
  0
LINE
  5
2E5
100
AcDbEntity
  8
0
100
AcDbLine
 62
7
  6
CONTINUOUS
 10
-2.8172880716
 20
-14.9148918568
 11
-2.7112220544
 21
-14.7311801263
  0
LINE
  5
2E6
100
AcDbEntity
  8
ASSI
100
AcDbLine
 62
7
  6
CONTINUOUS
 10
-2.8172880716
 20
-14.9148918568
 11
-2.7112220544
 21
-14.7311801263
  0
LINE
  5
2E7
100
AcDbEntity
  8
0
100
AcDbLine
 62
7
  6
CONTINUOUS
 10
-8.3680763039
 20
-13.5063563463
 11
-8.2266549477
 21
-13.4247014277
  0
LINE
  5
2E8
100
AcDbEntity
  8
ASSI
100
AcDbLine
 62
7
  6
CONTINUOUS
 10
-8.3680763039
 20
-13.5063563463
 11
-8.2266549477
 21
-13.4247014277
  0
LINE
  5
2E9
100
AcDbEntity
  8
0
100
AcDbLine
 62
7
  6
CONTINUOUS
 10
-8.0145229133
 20
-13.3022190497
 11
-7.8731015571
 21
-13.220564131
  0
LINE
  5
2EA
100
AcDbEntity
  8
ASSI
100
AcDbLine
 62
7
  6
CONTINUOUS
 10
-8.0145229133
 20
-13.3022190497
 11
-7.8731015571
 21
-13.220564131
  0
LINE
  5
2EB
100
AcDbEntity
  8
0
100
AcDbLine
 62
7
  6
CONTINUOUS
 10
-7.6609695228
 20
-13.098081753
 11
-7.5195481665
 21
-13.0164268343
  0
LINE
  5
2EC
100
AcDbEntity
  8
ASSI
100
AcDbLine
 62
7
  6
CONTINUOUS
 10
-7.6609695228
 20
-13.098081753
 11
-7.5195481665
 21
-13.0164268343
  0
LINE
  5
2ED
100
AcDbEntity
  8
0
100
AcDbLine
 62
7
  6
CONTINUOUS
 10
-7.3074161322
 20
-12.8939444563
 11
-7.1659947759
 21
-12.8122895377
  0
LINE
  5
2EE
100
AcDbEntity
  8
ASSI
100
AcDbLine
 62
7
  6
CONTINUOUS
 10
-7.3074161322
 20
-12.8939444563
 11
-7.1659947759
 21
-12.8122895377
  0
LINE
  5
2EF
100
AcDbEntity
  8
0
100
AcDbLine
 62
7
  6
CONTINUOUS
 10
-6.9538627416
 20
-12.6898071597
 11
-6.8124413853
 21
-12.608152241
  0
LINE
  5
2F0
100
AcDbEntity
  8
ASSI
100
AcDbLine
 62
7
  6
CONTINUOUS
 10
-6.9538627416
 20
-12.6898071597
 11
-6.8124413853
 21
-12.608152241
  0
LINE
  5
2F1
100
AcDbEntity
  8
0
100
AcDbLine
 62
7
  6
CONTINUOUS
 10
-6.600309351
 20
-12.485669863
 11
-6.4588879947
 21
-12.4040149443
  0
LINE
  5
2F2
100
AcDbEntity
  8
ASSI
100
AcDbLine
 62
7
  6
CONTINUOUS
 10
-6.600309351
 20
-12.485669863
 11
-6.4588879947
 21
-12.4040149443
  0
LINE
  5
2F3
100
AcDbEntity
  8
0
100
AcDbLine
 62
7
  6
CONTINUOUS
 10
-8.6952640074
 20
-13.480933597
 11
-6.4252929921
 21
-12.3008165019
  0
LINE
  5
2F4
100
AcDbEntity
  8
ASSI
100
AcDbLine
 62
7
  6
CONTINUOUS
 10
-8.6952640074
 20
-13.480933597
 11
-6.4252929921
 21
-12.3008165019
  0
LINE
  5
2F5
100
AcDbEntity
  8
0
100
AcDbLine
 62
7
  6
CONTINUOUS
 10
-6.3512458392
 20
-12.2663727058
 11
-5.0408915835
 21
-11.7289103791
  0
LINE
  5
2F6
100
AcDbEntity
  8
ASSI
100
AcDbLine
 62
7
  6
CONTINUOUS
 10
-6.3512458392
 20
-12.2663727058
 11
-5.0408915835
 21
-11.7289103791
  0
LINE
  5
2F7
100
AcDbEntity
  8
0
100
AcDbLine
 62
250
  6
CONTINUOUS
 10
-16.3230275923
 20
17.5065149826
 11
-15.8025935954
 21
17.2060229154
  0
LINE
  5
2F8
100
AcDbEntity
  8
ASSI
100
AcDbLine
 62
250
  6
CONTINUOUS
 10
-16.3230275923
 20
17.5065149826
 11
-15.8025935954
 21
17.2060229154
  0
LINE
  5
2F9
100
AcDbEntity
  8
0
100
AcDbLine
 62
7
  6
CONTINUOUS
 10
-16.3230275923
 20
17.5875455989
 11
-15.6806726964
 21
17.2166579326
  0
LINE
  5
2FA
100
AcDbEntity
  8
ASSI
100
AcDbLine
 62
7
  6
CONTINUOUS
 10
-16.3230275923
 20
17.5875455989
 11
-15.6806726964
 21
17.2166579326
  0
LINE
  5
2FB
100
AcDbEntity
  8
0
100
AcDbLine
 62
250
  6
CONTINUOUS
 10
-2.8769145195
 20
-15.7800889493
 11
-2.5409695546
 21
-15.4533353595
  0
LINE
  5
2FC
100
AcDbEntity
  8
ASSI
100
AcDbLine
 62
250
  6
CONTINUOUS
 10
-2.8769145195
 20
-15.7800889493
 11
-2.5409695546
 21
-15.4533353595
  0
LINE
  5
2FD
100
AcDbEntity
  8
0
100
AcDbLine
 62
7
  6
CONTINUOUS
 10
-2.8729896249
 20
-15.8136241138
 11
-2.4440052813
 21
-15.3963766809
  0
LINE
  5
2FE
100
AcDbEntity
  8
ASSI
100
AcDbLine
 62
7
  6
CONTINUOUS
 10
-2.8729896249
 20
-15.8136241138
 11
-2.4440052813
 21
-15.3963766809
  0
LINE
  5
2FF
100
AcDbEntity
  8
0
100
AcDbLine
 62
7
  6
CONTINUOUS
 10
-2.1789557338
 20
-14.7525984157
 11
-4.2228468164
 21
-16.0632512305
  0
LINE
  5
300
100
AcDbEntity
  8
ASSI
100
AcDbLine
 62
7
  6
CONTINUOUS
 10
-2.1789557338
 20
-14.7525984157
 11
-4.2228468164
 21
-16.0632512305
  0
LINE
  5
301
100
AcDbEntity
  8
0
100
AcDbLine
 62
7
  6
CONTINUOUS
 10
-3.8982855193
 20
-16.2506488558
 11
-0.9324351065
 21
-14.5084512957
  0
LINE
  5
302
100
AcDbEntity
  8
ASSI
100
AcDbLine
 62
7
  6
CONTINUOUS
 10
-3.8982855193
 20
-16.2506488558
 11
-0.9324351065
 21
-14.5084512957
  0
LINE
  5
303
100
AcDbEntity
  8
0
100
AcDbLine
 62
7
  6
CONTINUOUS
 10
-2.9316039746
 20
-15.858088139
 11
-3.7528609051
 21
-16.3346152054
  0
LINE
  5
304
100
AcDbEntity
  8
ASSI
100
AcDbLine
 62
7
  6
CONTINUOUS
 10
-2.9316039746
 20
-15.858088139
 11
-3.7528609051
 21
-16.3346152054
  0
LINE
  5
305
100
AcDbEntity
  8
0
100
AcDbLine
 62
250
  6
CONTINUOUS
 10
-2.8769145195
 20
-15.7800889493
 11
-3.7931288449
 21
-16.3113650016
  0
LINE
  5
306
100
AcDbEntity
  8
ASSI
100
AcDbLine
 62
250
  6
CONTINUOUS
 10
-2.8769145195
 20
-15.7800889493
 11
-3.7931288449
 21
-16.3113650016
  0
LINE
  5
307
100
AcDbEntity
  8
0
100
AcDbLine
 62
7
  6
CONTINUOUS
 10
-4.4789890074
 20
-15.7518666096
 11
-4.3375676512
 21
-15.670211691
  0
LINE
  5
308
100
AcDbEntity
  8
ASSI
100
AcDbLine
 62
7
  6
CONTINUOUS
 10
-4.4789890074
 20
-15.7518666096
 11
-4.3375676512
 21
-15.670211691
  0
LINE
  5
309
100
AcDbEntity
  8
0
100
AcDbLine
 62
7
  6
CONTINUOUS
 10
-4.1254356168
 20
-15.547729313
 11
-3.9840142606
 21
-15.4660743943
  0
LINE
  5
30A
100
AcDbEntity
  8
ASSI
100
AcDbLine
 62
7
  6
CONTINUOUS
 10
-4.1254356168
 20
-15.547729313
 11
-3.9840142606
 21
-15.4660743943
  0
LINE
  5
30B
100
AcDbEntity
  8
0
100
AcDbLine
 62
7
  6
CONTINUOUS
 10
-3.7718822262
 20
-15.3435920163
 11
-3.63046087
 21
-15.2619370976
  0
LINE
  5
30C
100
AcDbEntity
  8
ASSI
100
AcDbLine
 62
7
  6
CONTINUOUS
 10
-3.7718822262
 20
-15.3435920163
 11
-3.63046087
 21
-15.2619370976
  0
LINE
  5
30D
100
AcDbEntity
  8
0
100
AcDbLine
 62
7
  6
CONTINUOUS
 10
-3.064775445
 20
-14.935317423
 11
-2.9233540888
 21
-14.8536625043
  0
LINE
  5
30E
100
AcDbEntity
  8
0
100
AcDbLine
 62
7
  6
CONTINUOUS
 10
-3.4183288356
 20
-15.1394547196
 11
-3.2769074794
 21
-15.057799801
  0
LINE
  5
30F
100
AcDbEntity
  8
ASSI
100
AcDbLine
 62
7
  6
CONTINUOUS
 10
-3.064775445
 20
-14.935317423
 11
-2.9233540888
 21
-14.8536625043
  0
LINE
  5
310
100
AcDbEntity
  8
ASSI
100
AcDbLine
 62
7
  6
CONTINUOUS
 10
-3.4183288356
 20
-15.1394547196
 11
-3.2769074794
 21
-15.057799801
  0
LINE
  5
311
100
AcDbEntity
  8
0
100
AcDbLine
 62
7
  6
CONTINUOUS
 10
-2.7112220544
 20
-14.7311801263
 11
-2.5698006982
 21
-14.6495252076
  0
LINE
  5
312
100
AcDbEntity
  8
ASSI
100
AcDbLine
 62
7
  6
CONTINUOUS
 10
-2.7112220544
 20
-14.7311801263
 11
-2.5698006982
 21
-14.6495252076
  0
LINE
  5
313
100
AcDbEntity
  8
0
100
AcDbLine
 62
7
  6
CONTINUOUS
 10
-2.463734681
 20
-14.7107545602
 11
-4.5145117637
 21
-15.8948475454
  0
LINE
  5
314
100
AcDbEntity
  8
ASSI
100
AcDbLine
 62
7
  6
CONTINUOUS
 10
-2.463734681
 20
-14.7107545602
 11
-4.5145117637
 21
-15.8948475454
  0
LINE
  5
315
100
AcDbEntity
  8
0
100
AcDbLine
 62
7
  6
CONTINUOUS
 10
-0.9324351065
 20
-14.1010816578
 11
-2.1122833778
 21
-14.7138965043
  0
LINE
  5
316
100
AcDbEntity
  8
ASSI
100
AcDbLine
 62
7
  6
CONTINUOUS
 10
-0.9324351065
 20
-14.1010816578
 11
-2.1122833778
 21
-14.7138965043
  0
LINE
  5
317
100
AcDbEntity
  8
RACCORDO
100
AcDbLine
 62
7
  6
CONTINUOUS
 10
13.7290106081
 20
-27.8983119457
 11
13.7290106081
 21
7.2915569841
  0
LINE
  5
318
100
AcDbEntity
  8
SMUSSO
100
AcDbLine
 62
250
  6
CONTINUOUS
 10
28.7550297084
 20
16.9454795899
 11
29.4621364895
 21
18.17022446
  0
LINE
  5
319
100
AcDbEntity
  8
SMUSSO
100
AcDbLine
 62
250
  6
CONTINUOUS
 10
28.7550297084
 20
16.9454795899
 11
30.1692432707
 21
16.9454795899
  0
LINE
  5
31A
100
AcDbEntity
  8
RACCORDO
100
AcDbLine
 62
7
  6
CONTINUOUS
 10
12.8804824707
 20
8.7612508283
 11
-17.5958197984
 21
26.3578858007
  0
LINE
  5
31B
100
AcDbEntity
  8
0
100
AcDbLine
 62
7
  6
CONTINUOUS
 10
7.4710335904
 20
-22.8151512187
 11
7.5418262728
 21
-22.6925346962
  0
LINE
  5
31C
100
AcDbEntity
  8
ASSI
100
AcDbLine
 62
7
  6
CONTINUOUS
 10
7.4710335904
 20
-22.8151512187
 11
7.5418262728
 21
-22.6925346962
  0
LINE
  5
31D
100
AcDbEntity
  8
0
100
AcDbLine
 62
7
  6
CONTINUOUS
 10
7.7893136462
 20
-22.6721091301
 11
7.8953796634
 21
-22.4883973995
  0
LINE
  5
31E
100
AcDbEntity
  8
ASSI
100
AcDbLine
 62
7
  6
CONTINUOUS
 10
7.7893136462
 20
-22.6721091301
 11
7.8953796634
 21
-22.4883973995
  0
LINE
  5
31F
100
AcDbEntity
  8
0
100
AcDbLine
 62
7
  6
CONTINUOUS
 10
8.1428670368
 20
-22.4679718334
 11
8.2489330539
 21
-22.2842601029
  0
LINE
  5
320
100
AcDbEntity
  8
ASSI
100
AcDbLine
 62
7
  6
CONTINUOUS
 10
8.1428670368
 20
-22.4679718334
 11
8.2489330539
 21
-22.2842601029
  0
LINE
  5
321
100
AcDbEntity
  8
0
100
AcDbLine
 62
7
  6
CONTINUOUS
 10
8.4964204274
 20
-22.2638345367
 11
8.6024864445
 21
-22.0801228062
  0
LINE
  5
322
100
AcDbEntity
  8
ASSI
100
AcDbLine
 62
7
  6
CONTINUOUS
 10
8.4964204274
 20
-22.2638345367
 11
8.6024864445
 21
-22.0801228062
  0
LINE
  5
323
100
AcDbEntity
  8
0
100
AcDbLine
 62
7
  6
CONTINUOUS
 10
8.849973818
 20
-22.0596972401
 11
8.9560398351
 21
-21.8759855095
  0
LINE
  5
324
100
AcDbEntity
  8
ASSI
100
AcDbLine
 62
7
  6
CONTINUOUS
 10
8.849973818
 20
-22.0596972401
 11
8.9560398351
 21
-21.8759855095
  0
LINE
  5
325
100
AcDbEntity
  8
0
100
AcDbLine
 62
7
  6
CONTINUOUS
 10
9.2035272085
 20
-21.8555599434
 11
9.3095932257
 21
-21.6718482129
  0
LINE
  5
326
100
AcDbEntity
  8
ASSI
100
AcDbLine
 62
7
  6
CONTINUOUS
 10
9.2035272085
 20
-21.8555599434
 11
9.3095932257
 21
-21.6718482129
  0
LINE
  5
327
100
AcDbEntity
  8
0
100
AcDbLine
 62
7
  6
CONTINUOUS
 10
11.360120887
 20
-25.060661482
 11
11.4309135693
 21
-24.9380449595
  0
LINE
  5
328
100
AcDbEntity
  8
ASSI
100
AcDbLine
 62
7
  6
CONTINUOUS
 10
11.360120887
 20
-25.060661482
 11
11.4309135693
 21
-24.9380449595
  0
LINE
  5
329
100
AcDbEntity
  8
0
100
AcDbLine
 62
7
  6
CONTINUOUS
 10
11.6784009427
 20
-24.9176193934
 11
11.7844669599
 21
-24.7339076628
  0
LINE
  5
32A
100
AcDbEntity
  8
ASSI
100
AcDbLine
 62
7
  6
CONTINUOUS
 10
11.6784009427
 20
-24.9176193934
 11
11.7844669599
 21
-24.7339076628
  0
LINE
  5
32B
100
AcDbEntity
  8
0
100
AcDbLine
 62
7
  6
CONTINUOUS
 10
12.0319543333
 20
-24.7134820967
 11
12.1380203505
 21
-24.5297703662
  0
LINE
  5
32C
100
AcDbEntity
  8
ASSI
100
AcDbLine
 62
7
  6
CONTINUOUS
 10
12.0319543333
 20
-24.7134820967
 11
12.1380203505
 21
-24.5297703662
  0
LINE
  5
32D
100
AcDbEntity
  8
0
100
AcDbLine
 62
7
  6
CONTINUOUS
 10
12.3855077239
 20
-24.5093448
 11
12.4915737411
 21
-24.3256330695
  0
LINE
  5
32E
100
AcDbEntity
  8
ASSI
100
AcDbLine
 62
7
  6
CONTINUOUS
 10
12.3855077239
 20
-24.5093448
 11
12.4915737411
 21
-24.3256330695
  0
LINE
  5
32F
100
AcDbEntity
  8
0
100
AcDbLine
 62
7
  6
CONTINUOUS
 10
12.7390611145
 20
-24.3052075034
 11
12.8451271317
 21
-24.1214957729
  0
LINE
  5
330
100
AcDbEntity
  8
ASSI
100
AcDbLine
 62
7
  6
CONTINUOUS
 10
12.7390611145
 20
-24.3052075034
 11
12.8451271317
 21
-24.1214957729
  0
LINE
  5
331
100
AcDbEntity
  8
0
100
AcDbLine
 62
7
  6
CONTINUOUS
 10
13.0926145051
 20
-24.1010702067
 11
13.1986805223
 21
-23.9173584762
  0
LINE
  5
332
100
AcDbEntity
  8
ASSI
100
AcDbLine
 62
7
  6
CONTINUOUS
 10
13.0926145051
 20
-24.1010702067
 11
13.1986805223
 21
-23.9173584762
  0
LINE
  5
333
100
AcDbEntity
  8
0
100
AcDbLine
 62
7
  6
CONTINUOUS
 10
7.5418262728
 20
-22.6925346962
 11
7.683247629
 21
-22.6108797775
  0
LINE
  5
334
100
AcDbEntity
  8
ASSI
100
AcDbLine
 62
7
  6
CONTINUOUS
 10
7.5418262728
 20
-22.6925346962
 11
7.683247629
 21
-22.6108797775
  0
LINE
  5
335
100
AcDbEntity
  8
0
100
AcDbLine
 62
7
  6
CONTINUOUS
 10
7.8953796634
 20
-22.4883973995
 11
8.0368010196
 21
-22.4067424809
  0
LINE
  5
336
100
AcDbEntity
  8
ASSI
100
AcDbLine
 62
7
  6
CONTINUOUS
 10
7.8953796634
 20
-22.4883973995
 11
8.0368010196
 21
-22.4067424809
  0
LINE
  5
337
100
AcDbEntity
  8
0
100
AcDbLine
 62
7
  6
CONTINUOUS
 10
8.2489330539
 20
-22.2842601029
 11
8.3903544102
 21
-22.2026051842
  0
LINE
  5
338
100
AcDbEntity
  8
ASSI
100
AcDbLine
 62
7
  6
CONTINUOUS
 10
8.2489330539
 20
-22.2842601029
 11
8.3903544102
 21
-22.2026051842
  0
LINE
  5
339
100
AcDbEntity
  8
0
100
AcDbLine
 62
7
  6
CONTINUOUS
 10
8.6024864445
 20
-22.0801228062
 11
8.7439078008
 21
-21.9984678875
  0
LINE
  5
33A
100
AcDbEntity
  8
ASSI
100
AcDbLine
 62
7
  6
CONTINUOUS
 10
8.6024864445
 20
-22.0801228062
 11
8.7439078008
 21
-21.9984678875
  0
LINE
  5
33B
100
AcDbEntity
  8
0
100
AcDbLine
 62
7
  6
CONTINUOUS
 10
8.9560398351
 20
-21.8759855095
 11
9.0974611914
 21
-21.7943305909
  0
LINE
  5
33C
100
AcDbEntity
  8
ASSI
100
AcDbLine
 62
7
  6
CONTINUOUS
 10
8.9560398351
 20
-21.8759855095
 11
9.0974611914
 21
-21.7943305909
  0
LINE
  5
33D
100
AcDbEntity
  8
0
100
AcDbLine
 62
7
  6
CONTINUOUS
 10
9.3095932257
 20
-21.6718482129
 11
9.451014582
 21
-21.5901932942
  0
LINE
  5
33E
100
AcDbEntity
  8
ASSI
100
AcDbLine
 62
7
  6
CONTINUOUS
 10
9.3095932257
 20
-21.6718482129
 11
9.451014582
 21
-21.5901932942
  0
LINE
  5
33F
100
AcDbEntity
  8
0
100
AcDbLine
 62
7
  6
CONTINUOUS
 10
7.2146385693
 20
-22.6671119469
 11
9.4846095846
 21
-21.4869948517
  0
LINE
  5
340
100
AcDbEntity
  8
ASSI
100
AcDbLine
 62
7
  6
CONTINUOUS
 10
7.2146385693
 20
-22.6671119469
 11
9.4846095846
 21
-21.4869948517
  0
LINE
  5
341
100
AcDbEntity
  8
0
100
AcDbLine
 62
7
  6
CONTINUOUS
 10
9.5586567375
 20
-21.4525510557
 11
10.8690109932
 21
-20.915088729
  0
LINE
  5
342
100
AcDbEntity
  8
ASSI
100
AcDbLine
 62
7
  6
CONTINUOUS
 10
9.5586567375
 20
-21.4525510557
 11
10.8690109932
 21
-20.915088729
  0
LINE
  5
343
100
AcDbEntity
  8
SMUSSO
100
AcDbLine
 62
7
  6
CONTINUOUS
 10
28.7550297084
 20
-54.9039047679
 11
28.7550297084
 21
16.9454795899
  0
LINE
  5
344
100
AcDbEntity
  8
SMUSSO
100
AcDbLine
 62
7
  6
CONTINUOUS
 10
30.1692432707
 20
-54.9039047679
 11
30.1692432707
 21
16.9454795899
  0
LINE
  5
345
100
AcDbEntity
  8
0
100
AcDbLine
 62
250
  6
CONTINUOUS
 10
33.2453053626
 20
18.7552871517
 11
33.4572898032
 21
19.610208871
  0
LINE
  5
346
100
AcDbEntity
  8
ASSI
100
AcDbLine
 62
250
  6
CONTINUOUS
 10
33.2453053626
 20
18.7552871517
 11
33.4572898032
 21
19.610208871
  0
LINE
  5
347
100
AcDbEntity
  8
0
100
AcDbLine
 62
7
  6
CONTINUOUS
 10
13.7309468429
 20
-23.9387767656
 11
11.6870557603
 21
-25.2494295804
  0
LINE
  5
348
100
AcDbEntity
  8
ASSI
100
AcDbLine
 62
7
  6
CONTINUOUS
 10
13.7309468429
 20
-23.9387767656
 11
11.6870557603
 21
-25.2494295804
  0
LINE
  5
349
100
AcDbEntity
  8
0
100
AcDbLine
 62
7
  6
CONTINUOUS
 10
12.0116170574
 20
-25.4368272056
 11
13.7290106081
 21
-24.4279972118
  0
LINE
  5
34A
100
AcDbEntity
  8
ASSI
100
AcDbLine
 62
7
  6
CONTINUOUS
 10
12.0116170574
 20
-25.4368272056
 11
13.7290106081
 21
-24.4279972118
  0
LINE
  5
34B
100
AcDbEntity
  8
0
100
AcDbLine
 62
7
  6
CONTINUOUS
 10
11.4309135693
 20
-24.9380449595
 11
11.5723349255
 21
-24.8563900408
  0
LINE
  5
34C
100
AcDbEntity
  8
ASSI
100
AcDbLine
 62
7
  6
CONTINUOUS
 10
11.4309135693
 20
-24.9380449595
 11
11.5723349255
 21
-24.8563900408
  0
LINE
  5
34D
100
AcDbEntity
  8
0
100
AcDbLine
 62
7
  6
CONTINUOUS
 10
11.7844669599
 20
-24.7339076628
 11
11.9258883161
 21
-24.6522527442
  0
LINE
  5
34E
100
AcDbEntity
  8
ASSI
100
AcDbLine
 62
7
  6
CONTINUOUS
 10
11.7844669599
 20
-24.7339076628
 11
11.9258883161
 21
-24.6522527442
  0
LINE
  5
34F
100
AcDbEntity
  8
0
100
AcDbLine
 62
7
  6
CONTINUOUS
 10
12.1380203505
 20
-24.5297703662
 11
12.2794417067
 21
-24.4481154475
  0
LINE
  5
350
100
AcDbEntity
  8
ASSI
100
AcDbLine
 62
7
  6
CONTINUOUS
 10
12.1380203505
 20
-24.5297703662
 11
12.2794417067
 21
-24.4481154475
  0
LINE
  5
351
100
AcDbEntity
  8
0
100
AcDbLine
 62
7
  6
CONTINUOUS
 10
12.4915737411
 20
-24.3256330695
 11
12.6329950973
 21
-24.2439781508
  0
LINE
  5
352
100
AcDbEntity
  8
ASSI
100
AcDbLine
 62
7
  6
CONTINUOUS
 10
12.4915737411
 20
-24.3256330695
 11
12.6329950973
 21
-24.2439781508
  0
LINE
  5
353
100
AcDbEntity
  8
0
100
AcDbLine
 62
7
  6
CONTINUOUS
 10
12.8451271317
 20
-24.1214957729
 11
12.9865484879
 21
-24.0398408542
  0
LINE
  5
354
100
AcDbEntity
  8
ASSI
100
AcDbLine
 62
7
  6
CONTINUOUS
 10
12.8451271317
 20
-24.1214957729
 11
12.9865484879
 21
-24.0398408542
  0
LINE
  5
355
100
AcDbEntity
  8
0
100
AcDbLine
 62
7
  6
CONTINUOUS
 10
13.1986805223
 20
-23.9173584762
 11
13.3401018785
 21
-23.8357035575
  0
LINE
  5
356
100
AcDbEntity
  8
ASSI
100
AcDbLine
 62
7
  6
CONTINUOUS
 10
13.1986805223
 20
-23.9173584762
 11
13.3401018785
 21
-23.8357035575
  0
LINE
  5
357
100
AcDbEntity
  8
0
100
AcDbLine
 62
7
  6
CONTINUOUS
 10
13.4461678957
 20
-23.89693291
 11
11.395390813
 21
-25.0810258953
  0
LINE
  5
358
100
AcDbEntity
  8
ASSI
100
AcDbLine
 62
7
  6
CONTINUOUS
 10
13.4461678957
 20
-23.89693291
 11
11.395390813
 21
-25.0810258953
  0
LINE
  5
359
100
AcDbEntity
  8
0
100
AcDbLine
 62
250
  6
CONTINUOUS
 10
32.5673608127
 20
19.9295215557
 11
33.413668618
 21
19.6857629801
  0
LINE
  5
35A
100
AcDbEntity
  8
ASSI
100
AcDbLine
 62
250
  6
CONTINUOUS
 10
32.5673608127
 20
19.9295215557
 11
33.413668618
 21
19.6857629801
  0
LINE
  5
35B
100
AcDbEntity
  8
SMUSSO
100
AcDbLine
 62
7
  6
CONTINUOUS
 10
28.7550297084
 20
16.9454795899
 11
-33.4703670361
 21
52.8736438027
  0
LINE
  5
35C
100
AcDbEntity
  8
SMUSSO
100
AcDbLine
 62
7
  6
CONTINUOUS
 10
29.4621364895
 20
18.17022446
 11
-32.7632602549
 21
54.0983886729
  0
LINE
  5
35D
100
AcDbEntity
  8
SMUSSO
100
AcDbLine
 62
7
  6
CONTINUOUS
 10
31.2299034425
 20
17.9661660732
 11
31.2299034425
 21
-54.2914928779
  0
LINE
  5
35E
100
AcDbEntity
  8
0
100
AcDbLine
 62
250
  6
CONTINUOUS
 10
31.5906004809
 20
-47.1453939625
 11
31.5906004809
 21
-46.8216047119
  0
LINE
  5
35F
100
AcDbEntity
  8
0
100
AcDbLine
 62
250
  6
CONTINUOUS
 10
31.5906796841
 20
-44.2234828013
 11
31.5906796841
 21
-44.5367101924
  0
LINE
  5
360
100
AcDbEntity
  8
0
100
AcDbLine
 62
250
  6
CONTINUOUS
 10
31.5906796841
 20
-45.2191503415
 11
31.5906796841
 21
-45.539508784
  0
LINE
  5
361
100
AcDbEntity
  8
0
100
AcDbLine
 62
250
  6
CONTINUOUS
 10
31.5906796841
 20
-46.1836679077
 11
31.5906796841
 21
-46.5071893561
  0
LINE
  5
362
100
AcDbEntity
  8
0
100
AcDbLine
 62
250
  6
CONTINUOUS
 10
31.5906796841
 20
-47.265505721
 11
31.5906796841
 21
-47.5890737081
  0
LINE
  5
363
100
AcDbEntity
  8
0
100
AcDbLine
 62
250
  6
CONTINUOUS
 10
31.5906796841
 20
-48.1894675756
 11
31.5906796841
 21
-48.5412029708
  0
LINE
  5
364
100
AcDbEntity
  8
0
100
AcDbLine
 62
250
  6
CONTINUOUS
 10
32.1778959475
 20
-42.9896176333
 11
32.1778959475
 21
-42.8045751345
  0
LINE
  5
365
100
AcDbEntity
  8
0
100
AcDbLine
 62
250
  6
CONTINUOUS
 10
32.3940710038
 20
-42.6760215098
 11
32.3940710038
 21
-42.8496297129
  0
LINE
  5
366
100
AcDbEntity
  8
0
100
AcDbLine
 62
250
  6
CONTINUOUS
 10
32.4432150905
 20
-43.727661822
 11
32.4432150905
 21
-44.0376674214
  0
LINE
  5
367
100
AcDbEntity
  8
0
100
AcDbLine
 62
250
  6
CONTINUOUS
 10
32.6471165682
 20
-43.9819871596
 11
32.6471165682
 21
-43.5410393231
  0
LINE
  5
368
100
AcDbEntity
  8
0
100
AcDbLine
 62
250
  6
CONTINUOUS
 10
32.9106246446
 20
-47.2602546921
 11
32.9106246446
 21
-46.9749146597
  0
LINE
  5
369
100
AcDbEntity
  8
0
100
AcDbLine
 62
250
  6
CONTINUOUS
 10
32.9106246446
 20
-45.8580527211
 11
32.9106246446
 21
-45.5482920627
  0
LINE
  5
36A
100
AcDbEntity
  8
0
100
AcDbLine
 62
250
  6
CONTINUOUS
 10
32.9106246446
 20
-45.0985737025
 11
32.9106246446
 21
-45.0531624422
  0
LINE
  5
36B
100
AcDbEntity
  8
0
100
AcDbLine
 62
250
  6
CONTINUOUS
 10
32.9106246446
 20
-44.6016527462
 11
32.9106246446
 21
-44.2849006529
  0
LINE
  5
36C
100
AcDbEntity
  8
0
100
AcDbLine
 62
250
  6
CONTINUOUS
 10
32.9106246446
 20
-44.2340574158
 11
32.9106246446
 21
-43.9137806203
  0
LINE
  5
36D
100
AcDbEntity
  8
0
100
AcDbLine
 62
250
  6
CONTINUOUS
 10
32.9106246446
 20
-43.299608817
 11
32.9106246446
 21
-42.9583479189
  0
LINE
  5
36E
100
AcDbEntity
  8
0
100
AcDbLine
 62
250
  6
CONTINUOUS
 10
32.9106244681
 20
-41.7334943787
 11
32.9106244681
 21
-42.0449422607
  0
LINE
  5
36F
100
AcDbEntity
  8
0
100
AcDbLine
 62
250
  6
CONTINUOUS
 10
32.9106244681
 20
-42.5407812473
 11
32.9106244681
 21
-42.8632679356
  0
LINE
  5
370
100
AcDbEntity
  8
0
100
AcDbLine
 62
250
  6
CONTINUOUS
 10
32.9106246446
 20
-46.0323593275
 11
32.9106246446
 21
-46.3561485781
  0
LINE
  5
371
100
AcDbEntity
  8
0
100
AcDbLine
 62
7
  6
CONTINUOUS
 10
33.2451577689
 20
18.7215293078
 11
33.2451577689
 21
-51.9847966625
  0
LINE
  5
372
100
AcDbEntity
  8
ASSI
100
AcDbLine
 62
7
  6
CONTINUOUS
 10
33.2451577689
 20
18.7215293078
 11
33.2451577689
 21
-51.9847966625
  0
LINE
  5
373
100
AcDbEntity
  8
0
100
AcDbLine
 62
7
  6
CONTINUOUS
 10
33.4572898032
 20
19.610208871
 11
33.4572898032
 21
-50.6687934217
  0
LINE
  5
374
100
AcDbEntity
  8
ASSI
100
AcDbLine
 62
7
  6
CONTINUOUS
 10
33.4572898032
 20
19.610208871
 11
33.4572898032
 21
-50.6687934217
  0
LINE
  5
375
100
AcDbEntity
  8
RACCORDO
100
AcDbLine
 62
250
  6
CONTINUOUS
 10
12.8804824707
 20
-28.3881467658
 11
13.7289696041
 21
-27.8982409291
  0
LINE
  5
376
100
AcDbEntity
  8
SMUSSO
100
AcDbLine
 62
7
  6
CONTINUOUS
 10
-31.7026000831
 20
54.7108005629
 11
30.8763500519
 21
18.5785385083
  0
LINE
  5
377
100
AcDbEntity
  8
0
100
AcDbLine
 62
7
  6
CONTINUOUS
 10
-28.697396263
 20
55.3028539601
 11
32.5380509877
 21
19.9462741779
  0
LINE
  5
378
100
AcDbEntity
  8
ASSI
100
AcDbLine
 62
7
  6
CONTINUOUS
 10
-28.697396263
 20
55.3028539601
 11
32.5380509877
 21
19.9462741779
  0
LINE
  5
379
100
AcDbEntity
  8
0
100
AcDbLine
 62
7
  6
CONTINUOUS
 10
-27.4516935497
 20
54.8286602736
 11
33.413668618
 21
19.6857629801
  0
LINE
  5
37A
100
AcDbEntity
  8
ASSI
100
AcDbLine
 62
7
  6
CONTINUOUS
 10
-27.4516935497
 20
54.8286602736
 11
33.413668618
 21
19.6857629801
  0
LINE
  5
37B
100
AcDbEntity
  8
0
100
AcDbLine
 62
7
  6
CONTINUOUS
 10
33.4567328802
 20
-50.6765781249
 11
33.2377214562
 21
-52.1308918538
  0
LINE
  5
37C
100
AcDbEntity
  8
ASSI
100
AcDbLine
 62
7
  6
CONTINUOUS
 10
33.4567328802
 20
-50.6765781249
 11
33.2377214562
 21
-52.1308918538
  0
LINE
  5
37D
100
AcDbEntity
  8
0
100
AcDbLine
 62
250
  6
CONTINUOUS
 10
33.2453053626
 20
-52.0170205685
 11
33.4572898032
 21
-50.6687934217
  0
LINE
  5
37E
100
AcDbEntity
  8
ASSI
100
AcDbLine
 62
250
  6
CONTINUOUS
 10
33.2453053626
 20
-52.0170205685
 11
33.4572898032
 21
-50.6687934217
  0
LINE
  5
37F
100
AcDbEntity
  8
0
100
AcDbLine
 62
250
  6
CONTINUOUS
 10
-28.7252301507
 20
55.3190954014
 11
-27.4516935497
 21
54.8286602736
  0
LINE
  5
380
100
AcDbEntity
  8
ASSI
100
AcDbLine
 62
250
  6
CONTINUOUS
 10
-28.7252301507
 20
55.3190954014
 11
-27.4516935497
 21
54.8286602736
  0
LINE
  5
381
100
AcDbEntity
  8
0
100
AcDbLine
 62
7
  6
CONTINUOUS
 10
-27.458717681
 20
54.8320721813
 11
-28.8276952133
 21
55.3694912506
  0
LINE
  5
382
100
AcDbEntity
  8
ASSI
100
AcDbLine
 62
7
  6
CONTINUOUS
 10
-27.458717681
 20
54.8320721813
 11
-28.8276952133
 21
55.3694912506
  0
LINE
  5
383
100
AcDbEntity
  8
0
100
AcDbLine
 62
250
  6
CONTINUOUS
 10
32.0487252064
 20
-45.9937493117
 11
32.9106246446
 21
-45.0985737025
  0
LINE
  5
384
100
AcDbEntity
  8
0
100
AcDbLine
 62
250
  6
CONTINUOUS
 10
32.3235169479
 20
-45.4251330041
 11
31.5906796841
 21
-46.1836679077
  0
LINE
  5
385
100
AcDbEntity
  8
0
100
AcDbLine
 62
250
  6
CONTINUOUS
 10
32.9106246446
 20
-42.9583479189
 11
31.5906796841
 21
-44.2234828013
  0
LINE
  5
386
100
AcDbEntity
  8
0
100
AcDbLine
 62
250
  6
CONTINUOUS
 10
32.6471165682
 20
-43.5410393231
 11
32.9106246446
 21
-43.299608817
  0
LINE
  5
387
100
AcDbEntity
  8
0
100
AcDbLine
 62
250
  6
CONTINUOUS
 10
31.9533667375
 20
-44.1693286207
 11
32.4432150905
 21
-43.727661822
  0
LINE
  5
388
100
AcDbEntity
  8
0
100
AcDbLine
 62
250
  6
CONTINUOUS
 10
32.9106246446
 20
-44.2849006529
 11
31.5906796841
 21
-45.2191503415
  0
LINE
  5
389
100
AcDbEntity
  8
0
100
AcDbLine
 62
250
  6
CONTINUOUS
 10
32.0523185268
 20
-45.1813594324
 11
32.9106246446
 21
-44.6016527462
  0
LINE
  5
38A
100
AcDbEntity
  8
0
100
AcDbLine
 62
250
  6
CONTINUOUS
 10
32.2866862425
 20
-42.4038750169
 11
32.2944859653
 21
-42.3992115453
  0
LINE
  5
38B
100
AcDbEntity
  8
0
100
AcDbLine
 62
250
  6
CONTINUOUS
 10
32.3940710038
 20
-42.8496297129
 11
32.9106244681
 21
-42.5407812473
  0
LINE
  5
38C
100
AcDbEntity
  8
0
100
AcDbLine
 62
250
  6
CONTINUOUS
 10
31.815545377
 20
-43.2062678456
 11
32.1778959475
 21
-42.9896176333
  0
LINE
  5
38D
100
AcDbEntity
  8
0
100
AcDbLine
 62
250
  6
CONTINUOUS
 10
32.9106244681
 20
-42.8632679356
 11
31.606101046
 21
-43.6432453922
  0
LINE
  5
38E
100
AcDbEntity
  8
0
100
AcDbLine
 62
250
  6
CONTINUOUS
 10
31.5906004809
 20
-46.8216047119
 11
32.9106246446
 21
-46.0323593275
  0
LINE
  5
38F
100
AcDbEntity
  8
0
100
AcDbLine
 62
250
  6
CONTINUOUS
 10
32.9106246446
 20
-46.3561485781
 11
31.5906004809
 21
-47.1453939625
  0
LINE
  5
390
100
AcDbEntity
  8
0
100
AcDbLine
 62
250
  6
CONTINUOUS
 10
32.9106246446
 20
-45.5482920627
 11
32.0487252064
 21
-45.9937493117
  0
LINE
  5
391
100
AcDbEntity
  8
0
100
AcDbLine
 62
250
  6
CONTINUOUS
 10
31.5906796841
 20
-46.5071893561
 11
32.9106246446
 21
-45.8580527211
  0
LINE
  5
392
100
AcDbEntity
  8
0
100
AcDbLine
 62
250
  6
CONTINUOUS
 10
31.5906796841
 20
-48.5412029708
 11
32.9106246446
 21
-47.2602546921
  0
LINE
  5
393
100
AcDbEntity
  8
0
100
AcDbLine
 62
250
  6
CONTINUOUS
 10
32.4992387902
 20
-47.3505574361
 11
31.5906796841
 21
-48.1894675756
  0
LINE
  5
394
100
AcDbEntity
  8
0
100
AcDbLine
 62
7
  6
CONTINUOUS
 10
31.2299034425
 20
-53.5388273749
 11
33.059371863
 21
-52.4297114374
  0
LINE
  5
395
100
AcDbEntity
  8
ASSI
100
AcDbLine
 62
7
  6
CONTINUOUS
 10
31.2299034425
 20
-53.5388273749
 11
33.059371863
 21
-52.4297114374
  0
LINE
  5
396
100
AcDbEntity
  8
0
100
AcDbLine
 62
250
  6
CONTINUOUS
 10
31.2303416283
 20
-53.1894597158
 11
33.2451577689
 21
-51.9847966625
  0
LINE
  5
397
100
AcDbEntity
  8
ASSI
100
AcDbLine
 62
250
  6
CONTINUOUS
 10
31.2303416283
 20
-53.1894597158
 11
33.2451577689
 21
-51.9847966625
  0
LINE
  5
398
100
AcDbEntity
  8
SMUSSO
100
AcDbLine
 62
250
  6
CONTINUOUS
 10
30.1692432707
 20
-54.9039047679
 11
31.2299034425
 21
-54.2914928779
  0
LINE
  5
399
100
AcDbEntity
  8
RACCORDO
100
AcDbLine
 62
7
  6
CONTINUOUS
 10
29.9621606497
 20
-55.361641629
 11
31.0228208215
 21
-54.749229739
  0
ARC
  5
39A
100
AcDbEntity
  8
0
100
AcDbCircle
 62
250
  6
CONTINUOUS
 10
-15.5103950252
 20
15.5259139259
 40
0.5329839358
100
AcDbArc
 50
131.2069066476
 51
134.463366043
  0
ARC
  5
39B
100
AcDbEntity
  8
ASSI
100
AcDbCircle
 62
250
  6
CONTINUOUS
 10
-15.5103953153
 20
15.5259142381
 40
0.5329835099
100
AcDbArc
 50
131.2068860779
 51
134.4633339779
  0
ARC
  5
39C
100
AcDbEntity
  8
0
100
AcDbCircle
 62
250
  6
CONTINUOUS
 10
-15.5458490628
 20
15.5665450387
 40
0.4790593
100
AcDbArc
 50
127.6093006157
 51
131.2181059964
  0
ARC
  5
39D
100
AcDbEntity
  8
ASSI
100
AcDbCircle
 62
250
  6
CONTINUOUS
 10
-15.5458491469
 20
15.5665451415
 40
0.4790591672
100
AcDbArc
 50
127.6093001469
 51
131.218085152
  0
ARC
  5
39E
100
AcDbEntity
  8
0
100
AcDbCircle
 62
7
  6
CONTINUOUS
 10
-3.0823233769
 20
-15.5984401931
 40
0.3
100
AcDbArc
 50
300.108989426
 51
314.2001404117
  0
ARC
  5
39F
100
AcDbEntity
  8
ASSI
100
AcDbCircle
 62
7
  6
CONTINUOUS
 10
-3.0823233769
 20
-15.5984401931
 40
0.3
100
AcDbArc
 50
300.1089895303
 51
314.2001404167
  0
ARC
  5
3A0
100
AcDbEntity
  8
0
100
AcDbCircle
 62
250
  6
CONTINUOUS
 10
-2.9819880674
 20
-15.7712810739
 40
0.1003697089
100
AcDbArc
 50
300.1329136956
 51
304.4945957255
  0
ARC
  5
3A1
100
AcDbEntity
  8
ASSI
100
AcDbCircle
 62
250
  6
CONTINUOUS
 10
-2.9819880674
 20
-15.7712810739
 40
0.1003697089
100
AcDbArc
 50
300.1329136958
 51
304.4945957407
  0
ARC
  5
3A2
100
AcDbEntity
  8
0
100
AcDbCircle
 62
250
  6
CONTINUOUS
 10
-15.7013289543
 20
3.3914955547
 40
0.0999521029
100
AcDbArc
 50
301.7336665389
 51
303.9192952525
  0
ARC
  5
3A3
100
AcDbEntity
  8
0
100
AcDbCircle
 62
250
  6
CONTINUOUS
 10
-15.7013289543
 20
22.5785470593
 40
0.0999521029
100
AcDbArc
 50
301.7336665388
 51
303.9192952521
  0
ARC
  5
3A4
100
AcDbEntity
  8
ASSI
100
AcDbCircle
 62
250
  6
CONTINUOUS
 10
-15.7013289538
 20
3.3914955538
 40
0.0999521019
100
AcDbArc
 50
301.7336665864
 51
303.9192624646
  0
ARC
  5
3A5
100
AcDbEntity
  8
ASSI
100
AcDbCircle
 62
250
  6
CONTINUOUS
 10
-15.7013289538
 20
22.5785470585
 40
0.099952102
100
AcDbArc
 50
301.7336665865
 51
303.9192624644
  0
ARC
  5
3A6
100
AcDbEntity
  8
0
100
AcDbCircle
 62
250
  6
CONTINUOUS
 10
-15.6153506843
 20
16.2429934372
 40
0.0950117133
100
AcDbArc
 50
355.6104665415
 51
0.0016296983
  0
ARC
  5
3A7
100
AcDbEntity
  8
ASSI
100
AcDbCircle
 62
250
  6
CONTINUOUS
 10
-15.6153506697
 20
16.2429934343
 40
0.0950116986
100
AcDbArc
 50
355.6106270445
 51
0.0016313026
  0
ARC
  5
3A8
100
AcDbEntity
  8
0
100
AcDbCircle
 62
250
  6
CONTINUOUS
 10
-16.0884870248
 20
4.3042979789
 40
0.0671751514
100
AcDbArc
 50
355.7602358916
 51
359.9902945029
  0
ARC
  5
3A9
100
AcDbEntity
  8
ASSI
100
AcDbCircle
 62
250
  6
CONTINUOUS
 10
-16.0884870248
 20
4.3042979789
 40
0.0671751514
100
AcDbArc
 50
355.7602358916
 51
359.9902945013
  0
SPLINE
  5
3AA
100
AcDbEntity
  8
0
100
AcDbSpline
 62
7
  6
CONTINUOUS
 70
0
 71
3
 72
10
 73
6
 74
0
 42
0.0000001
 43
0.0000001
 44
0.0000000001
 40
0.0
 40
0.0
 40
0.0
 40
0.0
 40
0.5278685352
 40
0.7673006673
 40
1.0
 40
1.0
 40
1.0
 40
1.0
 10
-28.8276944548
 20
55.3694830063
 30
0.0
 10
-28.8863469351
 20
55.3925187197
 30
0.0
 10
-28.978770914
 20
55.4136618903
 30
0.0
 10
-29.0981979015
 20
55.3987136358
 30
0.0
 10
-29.1513194137
 20
55.3777981857
 30
0.0
 10
-29.1756666538
 20
55.3644248086
 30
0.0
  0
SPLINE
  5
3AB
100
AcDbEntity
  8
0
100
AcDbSpline
 62
7
  6
CONTINUOUS
 70
0
 71
3
 72
10
 73
6
 74
0
 42
0.0000001
 43
0.0000001
 44
0.0000000001
 40
0.0
 40
0.0
 40
0.0
 40
0.0
 40
0.2326995781
 40
0.4721317903
 40
1.0
 40
1.0
 40
1.0
 40
1.0
 10
33.0593692523
 20
-52.429707896
 30
0.0
 10
33.0831228546
 20
-52.4153084846
 30
0.0
 10
33.1277932581
 20
-52.3797605829
 30
0.0
 10
33.2004447491
 20
-52.2838081115
 30
0.0
 10
33.2283410007
 20
-52.1931973936
 30
0.0
 10
33.2377146873
 20
-52.1308870693
 30
0.0
  0
SPLINE
  5
3AC
100
AcDbEntity
  8
0
100
AcDbSpline
 62
250
  6
CONTINUOUS
 70
0
 71
3
 72
11
 73
7
 74
0
 42
0.0000001
 43
0.0000001
 44
0.0000000001
 40
0.0
 40
0.0
 40
0.0
 40
0.0
 40
0.2187182257
 40
0.4522864185
 40
0.7114901475
 40
1.0
 40
1.0
 40
1.0
 40
1.0
 10
-15.5203398889
 20
3.5416923656
 30
0.0
 10
-15.5203441903
 20
3.5323894038
 30
0.0
 10
-15.5236837641
 20
3.5130261085
 30
0.0
 10
-15.5380696706
 20
3.48594232
 30
0.0
 10
-15.5608590134
 20
3.4613612581
 30
0.0
 10
-15.5799614276
 20
3.4477642267
 30
0.0
 10
-15.5904938698
 20
3.4414668547
 30
0.0
  0
SPLINE
  5
3AD
100
AcDbEntity
  8
0
100
AcDbSpline
 62
250
  6
CONTINUOUS
 70
0
 71
3
 72
11
 73
7
 74
0
 42
0.0000001
 43
0.0000001
 44
0.0000000001
 40
0.0
 40
0.0
 40
0.0
 40
0.0
 40
0.2135303911
 40
0.4448067609
 40
0.7056250959
 40
1.0
 40
1.0
 40
1.0
 40
1.0
 10
-15.5203392931
 20
4.2376430906
 30
0.0
 10
-15.5203413812
 20
4.22891361
 30
0.0
 10
-15.5237428843
 20
4.2106038292
 30
0.0
 10
-15.5382076056
 20
4.1851709672
 30
0.0
 10
-15.5610343183
 20
4.1621333028
 30
0.0
 10
-15.5800170588
 20
4.1494454427
 30
0.0
 10
-15.5904938698
 20
4.1435237377
 30
0.0
  0
SPLINE
  5
3AE
100
AcDbEntity
  8
0
100
AcDbSpline
 62
250
  6
CONTINUOUS
 70
0
 71
3
 72
9
 73
5
 74
0
 42
0.0000001
 43
0.0000001
 44
0.0000000001
 40
0.0
 40
0.0
 40
0.0
 40
0.0
 40
0.4810829056
 40
1.0
 40
1.0
 40
1.0
 40
1.0
 10
-15.6649491125
 20
4.4386243439
 30
0.0
 10
-15.6763654376
 20
4.4428933097
 30
0.0
 10
-15.7021960335
 20
4.4467317215
 30
0.0
 10
-15.7273777168
 20
4.4407594206
 30
0.0
 10
-15.7396100005
 20
4.4359414657
 30
0.0
  0
SPLINE
  5
3AF
100
AcDbEntity
  8
0
100
AcDbSpline
 62
250
  6
CONTINUOUS
 70
0
 71
3
 72
11
 73
7
 74
0
 42
0.0000001
 43
0.0000001
 44
0.0000000001
 40
0.0
 40
0.0
 40
0.0
 40
0.0
 40
0.2187065999
 40
0.4522834141
 40
0.7114952413
 40
1.0
 40
1.0
 40
1.0
 40
1.0
 10
-15.6807797082
 20
-1.9703446396
 30
0.0
 10
-15.6888375199
 20
-1.9657062099
 30
0.0
 10
-15.7072710173
 20
-1.9589344286
 30
0.0
 10
-15.7379028281
 20
-1.9578666134
 30
0.0
 10
-15.7705658934
 20
-1.9653169345
 30
0.0
 10
-15.7918799535
 20
-1.9750586037
 30
0.0
 10
-15.8025935954
 20
-1.9810285893
 30
0.0
  0
SPLINE
  5
3B0
100
AcDbEntity
  8
0
100
AcDbSpline
 62
250
  6
CONTINUOUS
 70
0
 71
3
 72
11
 73
7
 74
0
 42
0.0000001
 43
0.0000001
 44
0.0000000001
 40
0.0
 40
0.0
 40
0.0
 40
0.0
 40
0.2187168269
 40
0.4522947598
 40
0.7115020841
 40
1.0
 40
1.0
 40
1.0
 40
1.0
 10
-15.5203399294
 20
-2.2482228874
 30
0.0
 10
-15.5203500304
 20
-2.2575220136
 30
0.0
 10
-15.5236989395
 20
-2.2768754849
 30
0.0
 10
-15.5380878024
 20
-2.3039435194
 30
0.0
 10
-15.5608714276
 20
-2.3285109477
 30
0.0
 10
-15.5799661328
 20
-2.3421015325
 30
0.0
 10
-15.5904938698
 20
-2.3483960899
 30
0.0
  0
SPLINE
  5
3B1
100
AcDbEntity
  8
0
100
AcDbSpline
 62
250
  6
CONTINUOUS
 70
0
 71
3
 72
11
 73
7
 74
0
 42
0.0000001
 43
0.0000001
 44
0.0000000001
 40
0.0
 40
0.0
 40
0.0
 40
0.0
 40
0.2187182257
 40
0.4522864185
 40
0.7114901475
 40
1.0
 40
1.0
 40
1.0
 40
1.0
 10
-15.5203398889
 20
22.7287438702
 30
0.0
 10
-15.5203441903
 20
22.7194409084
 30
0.0
 10
-15.5236837641
 20
22.7000776131
 30
0.0
 10
-15.5380696706
 20
22.6729938246
 30
0.0
 10
-15.5608590134
 20
22.6484127627
 30
0.0
 10
-15.5799614276
 20
22.6348157313
 30
0.0
 10
-15.5904938698
 20
22.6285183593
 30
0.0
  0
SPLINE
  5
3B2
100
AcDbEntity
  8
0
100
AcDbSpline
 62
250
  6
CONTINUOUS
 70
0
 71
3
 72
11
 73
7
 74
0
 42
0.0000001
 43
0.0000001
 44
0.0000000001
 40
0.0
 40
0.0
 40
0.0
 40
0.0
 40
0.2187065999
 40
0.4522834141
 40
0.7114952413
 40
1.0
 40
1.0
 40
1.0
 40
1.0
 10
-15.6807797082
 20
17.2167068651
 30
0.0
 10
-15.6888375199
 20
17.2213452948
 30
0.0
 10
-15.7072710173
 20
17.2281170761
 30
0.0
 10
-15.7379028281
 20
17.2291848912
 30
0.0
 10
-15.7705658934
 20
17.2217345701
 30
0.0
 10
-15.7918799535
 20
17.211992901
 30
0.0
 10
-15.8025935954
 20
17.2060229154
 30
0.0
  0
SPLINE
  5
3B3
100
AcDbEntity
  8
0
100
AcDbSpline
 62
250
  6
CONTINUOUS
 70
0
 71
3
 72
11
 73
7
 74
0
 42
0.0000001
 43
0.0000001
 44
0.0000000001
 40
0.0
 40
0.0
 40
0.0
 40
0.0
 40
0.2187168269
 40
0.4522947598
 40
0.7115020841
 40
1.0
 40
1.0
 40
1.0
 40
1.0
 10
-15.5203399294
 20
16.9388286172
 30
0.0
 10
-15.5203500304
 20
16.9295294911
 30
0.0
 10
-15.5236989395
 20
16.9101760197
 30
0.0
 10
-15.5380878024
 20
16.8831079853
 30
0.0
 10
-15.5608714276
 20
16.858540557
 30
0.0
 10
-15.5799661328
 20
16.8449499722
 30
0.0
 10
-15.5904938698
 20
16.8386554147
 30
0.0
  0
SPLINE
  5
3B4
100
AcDbEntity
  8
0
100
AcDbSpline
 62
7
  6
CONTINUOUS
 70
0
 71
3
 72
9
 73
5
 74
0
 42
0.0000001
 43
0.0000001
 44
0.0000000001
 40
0.0
 40
0.0
 40
0.0
 40
0.0
 40
0.2421136351
 40
1.0
 40
1.0
 40
1.0
 40
1.0
 10
33.2377146873
 20
-52.1308870693
 30
0.0
 10
33.2390855967
 20
-52.1217741328
 30
0.0
 10
33.2439226143
 20
-52.0840127577
 30
0.0
 10
33.2455761693
 20
-52.0458664289
 30
0.0
 10
33.2453053626
 20
-52.0170205685
 30
0.0
  0
SPLINE
  5
3B5
100
AcDbEntity
  8
0
100
AcDbSpline
 62
250
  6
CONTINUOUS
 70
0
 71
3
 72
9
 73
5
 74
0
 42
0.0000001
 43
0.0000001
 44
0.0000000001
 40
0.0
 40
0.0
 40
0.0
 40
0.0
 40
0.4808335537
 40
1.0
 40
1.0
 40
1.0
 40
1.0
 10
-2.9251458406
 20
-15.8540037414
 30
0.0
 10
-2.915912387
 20
-15.8476595497
 30
0.0
 10
-2.8988760653
 20
-15.8310949631
 30
0.0
 10
-2.8876759333
 20
-15.8103006647
 30
0.0
 10
-2.8831881431
 20
-15.799067951
 30
0.0
  0
SPLINE
  5
3B6
100
AcDbEntity
  8
0
100
AcDbSpline
 62
250
  6
CONTINUOUS
 70
0
 71
3
 72
8
 73
4
 74
0
 42
0.0000001
 43
0.0000001
 44
0.0000000001
 40
0.0
 40
0.0
 40
0.0
 40
0.0
 40
1.0
 40
1.0
 40
1.0
 40
1.0
 10
-2.8831881431
 20
-15.799067951
 30
0.0
 10
-2.8807160796
 20
-15.7928804998
 30
0.0
 10
-2.8786365849
 20
-15.7865255743
 30
0.0
 10
-2.8769145195
 20
-15.7800889493
 30
0.0
  0
SPLINE
  5
3B7
100
AcDbEntity
  8
0
100
AcDbSpline
 62
250
  6
CONTINUOUS
 70
0
 71
3
 72
15
 73
11
 74
0
 42
0.0000001
 43
0.0000001
 44
0.0000000001
 40
0.0
 40
0.0
 40
0.0
 40
0.0
 40
0.1361087462
 40
0.2586151375
 40
0.3711966236
 40
0.4802342645
 40
0.5928207851
 40
0.7148948377
 40
0.8502342615
 40
1.0
 40
1.0
 40
1.0
 40
1.0
 10
-15.8382063856
 20
4.0378552327
 30
0.0
 10
-15.8538709857
 20
4.0311755589
 30
0.0
 10
-15.8848702875
 20
4.0210361563
 30
0.0
 10
-15.9316134029
 20
4.0168756326
 30
0.0
 10
-15.9745283201
 20
4.0252342244
 30
0.0
 10
-16.0116230131
 20
4.0460630437
 30
0.0
 10
-16.0411469115
 20
4.0781958067
 30
0.0
 10
-16.0623228097
 20
4.1198887781
 30
0.0
 10
-16.0749161783
 20
4.1695845854
 30
0.0
 10
-16.0774342534
 20
4.205346025
 30
0.0
 10
-16.0774350656
 20
4.2240840469
 30
0.0
  0
SPLINE
  5
3B8
100
AcDbEntity
  8
0
100
AcDbSpline
 62
250
  6
CONTINUOUS
 70
0
 71
3
 72
9
 73
5
 74
0
 42
0.0000001
 43
0.0000001
 44
0.0000000001
 40
0.0
 40
0.0
 40
0.0
 40
0.0
 40
0.233236062
 40
1.0
 40
1.0
 40
1.0
 40
1.0
 10
-16.0774350656
 20
15.4737517739
 30
0.0
 10
-16.0774343085
 20
15.4874461102
 30
0.0
 10
-16.0743694553
 20
15.5461524422
 30
0.0
 10
-16.0605236143
 20
15.604018085
 30
0.0
 10
-16.0457638352
 20
15.6465499922
 30
0.0
  0
SPLINE
  5
3B9
100
AcDbEntity
  8
0
100
AcDbSpline
 62
250
  6
CONTINUOUS
 70
0
 71
3
 72
9
 73
5
 74
0
 42
0.0000001
 43
0.0000001
 44
0.0000000001
 40
0.0
 40
0.0
 40
0.0
 40
0.0
 40
0.2477444721
 40
1.0
 40
1.0
 40
1.0
 40
1.0
 10
-16.0457638352
 20
15.6465499922
 30
0.0
 10
-16.0399008308
 20
15.6634448764
 30
0.0
 10
-16.0134687762
 20
15.7306447181
 30
0.0
 10
-15.9767408069
 20
15.7938206214
 30
0.0
 10
-15.9440807124
 20
15.8372018308
 30
0.0
  0
SPLINE
  5
3BA
100
AcDbEntity
  8
0
100
AcDbSpline
 62
250
  6
CONTINUOUS
 70
0
 71
3
 72
9
 73
5
 74
0
 42
0.0000001
 43
0.0000001
 44
0.0000000001
 40
0.0
 40
0.0
 40
0.0
 40
0.0
 40
0.2551415964
 40
1.0
 40
1.0
 40
1.0
 40
1.0
 10
-15.9440807124
 20
15.8372018308
 30
0.0
 10
-15.9393850894
 20
15.8434388552
 30
0.0
 10
-15.920555072
 20
15.8675585164
 30
0.0
 10
-15.8999984917
 20
15.8903461573
 30
0.0
 10
-15.883725265
 20
15.9063037363
 30
0.0
  0
SPLINE
  5
3BB
100
AcDbEntity
  8
0
100
AcDbSpline
 62
250
  6
CONTINUOUS
 70
0
 71
3
 72
11
 73
7
 74
0
 42
0.0000001
 43
0.0000001
 44
0.0000000001
 40
0.0
 40
0.0
 40
0.0
 40
0.0
 40
0.2990310466
 40
0.4993355137
 40
0.699741113
 40
1.0
 40
1.0
 40
1.0
 40
1.0
 10
-15.7396100005
 20
4.4359414657
 30
0.0
 10
-15.7357474561
 20
4.4344971699
 30
0.0
 10
-15.7293786718
 20
4.4317558296
 30
0.0
 10
-15.7232930464
 20
4.4225597797
 30
0.0
 10
-15.7289289126
 20
4.4130543059
 30
0.0
 10
-15.7351899257
 20
4.4100199192
 30
0.0
 10
-15.7389983495
 20
4.4083947781
 30
0.0
  0
SPLINE
  5
3BC
100
AcDbEntity
  8
0
100
AcDbSpline
 62
250
  6
CONTINUOUS
 70
0
 71
3
 72
9
 73
5
 74
0
 42
0.0000001
 43
0.0000001
 44
0.0000000001
 40
0.0
 40
0.0
 40
0.0
 40
0.0
 40
0.5609471573
 40
1.0
 40
1.0
 40
1.0
 40
1.0
 10
-15.5904938698
 20
16.1365985319
 30
0.0
 10
-15.5884048014
 20
16.1210025778
 30
0.0
 10
-15.5877056183
 20
16.0921889929
 30
0.0
 10
-15.6026522487
 20
16.0657923833
 30
0.0
 10
-15.6124208099
 20
16.0582918384
 30
0.0
  0
SPLINE
  5
3BD
100
AcDbEntity
  8
0
100
AcDbSpline
 62
250
  6
CONTINUOUS
 70
0
 71
3
 72
9
 73
5
 74
0
 42
0.0000001
 43
0.0000001
 44
0.0000000001
 40
0.0
 40
0.0
 40
0.0
 40
0.0
 40
0.5609451158
 40
1.0
 40
1.0
 40
1.0
 40
1.0
 10
-15.8382063856
 20
15.9460513083
 30
0.0
 10
-15.8361174259
 20
15.9304562181
 30
0.0
 10
-15.8354182527
 20
15.9016443118
 30
0.0
 10
-15.8503622798
 20
15.8752485023
 30
0.0
 10
-15.8601296885
 20
15.867747408
 30
0.0
  0
SPLINE
  5
3BE
100
AcDbEntity
  8
0
100
AcDbSpline
 62
250
  6
CONTINUOUS
 70
0
 71
3
 72
10
 73
6
 74
0
 42
0.0000001
 43
0.0000001
 44
0.0000000001
 40
0.0
 40
0.0
 40
0.0
 40
0.0
 40
0.546374885
 40
0.7806295628
 40
1.0
 40
1.0
 40
1.0
 40
1.0
 10
-16.0774350656
 20
15.4737517739
 30
0.0
 10
-16.061519787
 20
15.4832675544
 30
0.0
 10
-16.0400972675
 20
15.5006798691
 30
0.0
 10
-16.0239768984
 20
15.531021087
 30
0.0
 10
-16.0213112085
 20
15.5465240995
 30
0.0
 10
-16.021311874
 20
15.5539691812
 30
0.0
  0
SPLINE
  5
3BF
100
AcDbEntity
  8
0
100
AcDbSpline
 62
250
  6
CONTINUOUS
 70
0
 71
3
 72
9
 73
5
 74
0
 42
0.0000001
 43
0.0000001
 44
0.0000000001
 40
0.0
 40
0.0
 40
0.0
 40
0.0
 40
0.5478889287
 40
1.0
 40
1.0
 40
1.0
 40
1.0
 10
-16.0774350656
 20
4.2240840469
 30
0.0
 10
-16.0623090648
 20
4.2331279165
 30
0.0
 10
-16.0363450494
 20
4.2535237823
 30
0.0
 10
-16.0225706738
 20
4.2848287973
 30
0.0
 10
-16.0214957043
 20
4.2993316978
 30
0.0
  0
SPLINE
  5
3C0
100
AcDbEntity
  8
0
100
AcDbSpline
 62
250
  6
CONTINUOUS
 70
0
 71
3
 72
11
 73
7
 74
0
 42
0.0000001
 43
0.0000001
 44
0.0000000001
 40
0.0
 40
0.0
 40
0.0
 40
0.0
 40
0.2510505119
 40
0.4522061595
 40
0.6514885898
 40
1.0
 40
1.0
 40
1.0
 40
1.0
 10
-15.8382063856
 20
4.0378552327
 30
0.0
 10
-15.8351160729
 20
4.0646213459
 30
0.0
 10
-15.8390159152
 20
4.1140777717
 30
0.0
 10
-15.8620543956
 20
4.1806531185
 30
0.0
 10
-15.9034936016
 20
4.2495499136
 30
0.0
 10
-15.951318306
 20
4.2906259779
 30
0.0
 10
-15.9867108653
 20
4.3027262731
 30
0.0
  0
SPLINE
  5
3C1
100
AcDbEntity
  8
0
100
AcDbSpline
 62
7
  6
CONTINUOUS
 70
0
 71
3
 72
11
 73
7
 74
0
 42
0.0000001
 43
0.0000001
 44
0.0000000001
 40
0.0
 40
0.0
 40
0.0
 40
0.0
 40
0.2398961039
 40
0.4999946021
 40
0.7600960345
 40
1.0
 40
1.0
 40
1.0
 40
1.0
 10
33.2453053626
 20
18.7552871517
 30
0.0
 10
33.2462694513
 20
18.8679999533
 30
0.0
 10
33.208562042
 20
19.103712897
 30
0.0
 10
33.0654779144
 20
19.4342789845
 30
0.0
 10
32.8507387355
 20
19.7234791462
 30
0.0
 10
32.6654568588
 20
19.8739958539
 30
0.0
 10
32.5673608127
 20
19.9295215557
 30
0.0
  0
SPLINE
  5
3C2
100
AcDbEntity
  8
0
100
AcDbSpline
 62
7
  6
CONTINUOUS
 70
0
 71
3
 72
9
 73
5
 74
0
 42
0.0000001
 43
0.0000001
 44
0.0000000001
 40
0.0
 40
0.0
 40
0.0
 40
0.0
 40
0.2580518931
 40
1.0
 40
1.0
 40
1.0
 40
1.0
 10
-28.7252301507
 20
55.3190954014
 30
0.0
 10
-28.7336942726
 20
55.3240890497
 30
0.0
 10
-28.7668388455
 20
55.3428443778
 30
0.0
 10
-28.8013944988
 20
55.3591537202
 30
0.0
 10
-28.8276944548
 20
55.3694830063
 30
0.0
  0
SPLINE
  5
3C3
100
AcDbEntity
  8
0
100
AcDbSpline
 62
250
  6
CONTINUOUS
 70
0
 71
3
 72
11
 73
7
 74
0
 42
0.0000001
 43
0.0000001
 44
0.0000000001
 40
0.0
 40
0.0
 40
0.0
 40
0.0
 40
0.2510505029
 40
0.4522061426
 40
0.6514885695
 40
1.0
 40
1.0
 40
1.0
 40
1.0
 10
-15.5904938698
 20
4.1435237377
 30
0.0
 10
-15.5874035537
 20
4.1702898503
 30
0.0
 10
-15.5913033904
 20
4.2197462764
 30
0.0
 10
-15.614341867
 20
4.2863216244
 30
0.0
 10
-15.6557810737
 20
4.3552184229
 30
0.0
 10
-15.7036057859
 20
4.396294486
 30
0.0
 10
-15.7389983495
 20
4.4083947781
 30
0.0
  0
SPLINE
  5
3C4
100
AcDbEntity
  8
0
100
AcDbSpline
 62
250
  6
CONTINUOUS
 70
0
 71
3
 72
9
 73
5
 74
0
 42
0.0000001
 43
0.0000001
 44
0.0000000001
 40
0.0
 40
0.0
 40
0.0
 40
0.0
 40
0.2725560186
 40
1.0
 40
1.0
 40
1.0
 40
1.0
 10
-15.9867108653
 20
4.3027262731
 30
0.0
 10
-15.9896651226
 20
4.3013619703
 30
0.0
 10
-16.0006480532
 20
4.2967006653
 30
0.0
 10
-16.0123110691
 20
4.2934385466
 30
0.0
 10
-16.0209391573
 20
4.2924458116
 30
0.0
  0
SPLINE
  5
3C5
100
AcDbEntity
  8
0
100
AcDbSpline
 62
250
  6
CONTINUOUS
 70
0
 71
3
 72
11
 73
7
 74
0
 42
0.0000001
 43
0.0000001
 44
0.0000000001
 40
0.0
 40
0.0
 40
0.0
 40
0.0
 40
0.2376510532
 40
0.4999342143
 40
0.7622435858
 40
1.0
 40
1.0
 40
1.0
 40
1.0
 10
-15.8025935954
 20
-1.9810285893
 30
0.0
 10
-15.7721560154
 20
-1.9981032436
 30
0.0
 10
-15.7145577822
 20
-2.0456169035
 30
0.0
 10
-15.6476362596
 20
-2.1364462511
 30
0.0
 10
-15.6024190566
 20
-2.2398254978
 30
0.0
 10
-15.5900604796
 20
-2.3134835924
 30
0.0
 10
-15.5904938698
 20
-2.3483960899
 30
0.0
  0
SPLINE
  5
3C6
100
AcDbEntity
  8
0
100
AcDbSpline
 62
250
  6
CONTINUOUS
 70
0
 71
3
 72
10
 73
6
 74
0
 42
0.0000001
 43
0.0000001
 44
0.0000000001
 40
0.0
 40
0.0
 40
0.0
 40
0.0
 40
0.5461416648
 40
0.7809242798
 40
1.0
 40
1.0
 40
1.0
 40
1.0
 10
-15.5904938698
 20
3.4414668549
 30
0.0
 10
-15.5901537478
 20
3.4143214524
 30
0.0
 10
-15.5952800341
 20
3.3743230837
 30
0.0
 10
-15.6198059124
 20
3.3304547621
 30
0.0
 10
-15.6365165723
 20
3.3146295678
 30
0.0
 10
-15.6455532223
 20
3.30855286
 30
0.0
  0
SPLINE
  5
3C7
100
AcDbEntity
  8
0
100
AcDbSpline
 62
250
  6
CONTINUOUS
 70
0
 71
3
 72
10
 73
6
 74
0
 42
0.0000001
 43
0.0000001
 44
0.0000000001
 40
0.0
 40
0.0
 40
0.0
 40
0.0
 40
0.5461416648
 40
0.7809242798
 40
1.0
 40
1.0
 40
1.0
 40
1.0
 10
-15.5904938698
 20
22.6285183595
 30
0.0
 10
-15.5901537478
 20
22.601372957
 30
0.0
 10
-15.5952800341
 20
22.5613745884
 30
0.0
 10
-15.6198059124
 20
22.5175062668
 30
0.0
 10
-15.6365165723
 20
22.5016810724
 30
0.0
 10
-15.6455532223
 20
22.4956043646
 30
0.0
  0
SPLINE
  5
3C8
100
AcDbEntity
  8
0
100
AcDbSpline
 62
250
  6
CONTINUOUS
 70
0
 71
3
 72
11
 73
7
 74
0
 42
0.0000001
 43
0.0000001
 44
0.0000000001
 40
0.0
 40
0.0
 40
0.0
 40
0.0
 40
0.2376510532
 40
0.4999342143
 40
0.7622435858
 40
1.0
 40
1.0
 40
1.0
 40
1.0
 10
-15.8025935954
 20
17.2060229154
 30
0.0
 10
-15.7721560154
 20
17.188948261
 30
0.0
 10
-15.7145577822
 20
17.1414346011
 30
0.0
 10
-15.6476362596
 20
17.0506052535
 30
0.0
 10
-15.6024190566
 20
16.9472260068
 30
0.0
 10
-15.5900604796
 20
16.8735679123
 30
0.0
 10
-15.5904938698
 20
16.8386554147
 30
0.0
  0
SPLINE
  5
3C9
100
AcDbEntity
  8
0
100
AcDbSpline
 62
250
  6
CONTINUOUS
 70
0
 71
3
 72
9
 73
5
 74
0
 42
0.0000001
 43
0.0000001
 44
0.0000000001
 40
0.0
 40
0.0
 40
0.0
 40
0.0
 40
0.5411875522
 40
1.0
 40
1.0
 40
1.0
 40
1.0
 10
-15.5904938698
 20
16.1365985319
 30
0.0
 10
-15.571475199
 20
16.1485920317
 30
0.0
 10
-15.538850527
 20
16.1761244404
 30
0.0
 10
-15.5220765445
 20
16.2167153281
 30
0.0
 10
-15.520617664
 20
16.2357215362
 30
0.0
  0
SPLINE
  5
3CA
100
AcDbEntity
  8
0
100
AcDbSpline
 62
250
  6
CONTINUOUS
 70
0
 71
3
 72
10
 73
6
 74
0
 42
0.0000001
 43
0.0000001
 44
0.0000000001
 40
0.0
 40
0.0
 40
0.0
 40
0.0
 40
0.3606040288
 40
0.6415404703
 40
1.0
 40
1.0
 40
1.0
 40
1.0
 10
-2.8769145195
 20
-15.7800889493
 30
0.0
 10
-2.8751995508
 20
-15.7839263312
 30
0.0
 10
-2.872403641
 20
-15.7909725515
 30
0.0
 10
-2.8694522708
 20
-15.8019186395
 30
0.0
 10
-2.8699964277
 20
-15.8107107425
 30
0.0
 10
-2.8729907294
 20
-15.8136247216
 30
0.0
  0
SPLINE
  5
3CB
100
AcDbEntity
  8
ASSI
100
AcDbSpline
 62
7
  6
CONTINUOUS
 70
0
 71
3
 72
10
 73
6
 74
0
 42
0.0000001
 43
0.0000001
 44
0.0000000001
 40
0.0
 40
0.0
 40
0.0
 40
0.0
 40
0.5278685352
 40
0.7673006673
 40
1.0
 40
1.0
 40
1.0
 40
1.0
 10
-28.8276944548
 20
55.3694830063
 30
0.0
 10
-28.8863469351
 20
55.3925187197
 30
0.0
 10
-28.978770914
 20
55.4136618903
 30
0.0
 10
-29.0981979015
 20
55.3987136358
 30
0.0
 10
-29.1513194137
 20
55.3777981857
 30
0.0
 10
-29.1756666538
 20
55.3644248086
 30
0.0
  0
SPLINE
  5
3CC
100
AcDbEntity
  8
ASSI
100
AcDbSpline
 62
7
  6
CONTINUOUS
 70
0
 71
3
 72
10
 73
6
 74
0
 42
0.0000001
 43
0.0000001
 44
0.0000000001
 40
0.0
 40
0.0
 40
0.0
 40
0.0
 40
0.2326995781
 40
0.4721317903
 40
1.0
 40
1.0
 40
1.0
 40
1.0
 10
33.0593692523
 20
-52.429707896
 30
0.0
 10
33.0831228546
 20
-52.4153084846
 30
0.0
 10
33.1277932581
 20
-52.3797605829
 30
0.0
 10
33.2004447491
 20
-52.2838081115
 30
0.0
 10
33.2283410007
 20
-52.1931973936
 30
0.0
 10
33.2377146873
 20
-52.1308870693
 30
0.0
  0
SPLINE
  5
3CD
100
AcDbEntity
  8
ASSI
100
AcDbSpline
 62
250
  6
CONTINUOUS
 70
0
 71
3
 72
9
 73
5
 74
0
 42
0.0000001
 43
0.0000001
 44
0.0000000001
 40
0.0
 40
0.0
 40
0.0
 40
0.0
 40
0.2332360618
 40
1.0
 40
1.0
 40
1.0
 40
1.0
 10
-16.0774350656
 20
15.4737517739
 30
0.0
 10
-16.0774343085
 20
15.4874461077
 30
0.0
 10
-16.0743694566
 20
15.5461524289
 30
0.0
 10
-16.0605236201
 20
15.6040180613
 30
0.0
 10
-16.0457638459
 20
15.6465499615
 30
0.0
  0
SPLINE
  5
3CE
100
AcDbEntity
  8
ASSI
100
AcDbSpline
 62
250
  6
CONTINUOUS
 70
0
 71
3
 72
9
 73
5
 74
0
 42
0.0000001
 43
0.0000001
 44
0.0000000001
 40
0.0
 40
0.0
 40
0.0
 40
0.0
 40
0.2477444781
 40
1.0
 40
1.0
 40
1.0
 40
1.0
 10
-16.0457638459
 20
15.6465499615
 30
0.0
 10
-16.0399008333
 20
15.6634448718
 30
0.0
 10
-16.0134687379
 20
15.7306448143
 30
0.0
 10
-15.9767406975
 20
15.7938208068
 30
0.0
 10
-15.9440805348
 20
15.8372020666
 30
0.0
  0
SPLINE
  5
3CF
100
AcDbEntity
  8
ASSI
100
AcDbSpline
 62
250
  6
CONTINUOUS
 70
0
 71
3
 72
9
 73
5
 74
0
 42
0.0000001
 43
0.0000001
 44
0.0000000001
 40
0.0
 40
0.0
 40
0.0
 40
0.0
 40
0.2551416147
 40
1.0
 40
1.0
 40
1.0
 40
1.0
 10
-15.9440805348
 20
15.8372020666
 30
0.0
 10
-15.9393849079
 20
15.8434390904
 30
0.0
 10
-15.9205548765
 20
15.8675587469
 30
0.0
 10
-15.8999982816
 20
15.8903463813
 30
0.0
 10
-15.8837250439
 20
15.9063039534
 30
0.0
  0
SPLINE
  5
3D0
100
AcDbEntity
  8
ASSI
100
AcDbSpline
 62
250
  6
CONTINUOUS
 70
0
 71
3
 72
15
 73
11
 74
0
 42
0.0000001
 43
0.0000001
 44
0.0000000001
 40
0.0
 40
0.0
 40
0.0
 40
0.0
 40
0.1361087443
 40
0.258615133
 40
0.3711966206
 40
0.4802342622
 40
0.592820783
 40
0.7148948358
 40
0.8502342607
 40
1.0
 40
1.0
 40
1.0
 40
1.0
 10
-15.8382063856
 20
4.0378552327
 30
0.0
 10
-15.8538709855
 20
4.031175559
 30
0.0
 10
-15.8848702866
 20
4.0210361558
 30
0.0
 10
-15.9316134016
 20
4.016875633
 30
0.0
 10
-15.9745283189
 20
4.0252342239
 30
0.0
 10
-16.0116230124
 20
4.046063043
 30
0.0
 10
-16.041146911
 20
4.0781958061
 30
0.0
 10
-16.0623228095
 20
4.1198887775
 30
0.0
 10
-16.0749161782
 20
4.1695845851
 30
0.0
 10
-16.0774342534
 20
4.2053460249
 30
0.0
 10
-16.0774350656
 20
4.2240840469
 30
0.0
  0
SPLINE
  5
3D1
100
AcDbEntity
  8
ASSI
100
AcDbSpline
 62
250
  6
CONTINUOUS
 70
0
 71
3
 72
11
 73
7
 74
0
 42
0.0000001
 43
0.0000001
 44
0.0000000001
 40
0.0
 40
0.0
 40
0.0
 40
0.0
 40
0.2135304008
 40
0.4448067725
 40
0.7056250979
 40
1.0
 40
1.0
 40
1.0
 40
1.0
 10
-15.5203392933
 20
4.237643092
 30
0.0
 10
-15.5203413813
 20
4.2289136109
 30
0.0
 10
-15.5237428839
 20
4.2106038293
 30
0.0
 10
-15.5382076064
 20
4.1851709675
 30
0.0
 10
-15.5610343177
 20
4.1621333018
 30
0.0
 10
-15.5800170586
 20
4.1494454425
 30
0.0
 10
-15.5904938698
 20
4.1435237377
 30
0.0
  0
SPLINE
  5
3D2
100
AcDbEntity
  8
ASSI
100
AcDbSpline
 62
7
  6
CONTINUOUS
 70
0
 71
3
 72
9
 73
5
 74
0
 42
0.0000001
 43
0.0000001
 44
0.0000000001
 40
0.0
 40
0.0
 40
0.0
 40
0.0
 40
0.2421136351
 40
1.0
 40
1.0
 40
1.0
 40
1.0
 10
33.2377146873
 20
-52.1308870693
 30
0.0
 10
33.2390855967
 20
-52.1217741328
 30
0.0
 10
33.2439226143
 20
-52.0840127577
 30
0.0
 10
33.2455761693
 20
-52.0458664289
 30
0.0
 10
33.2453053626
 20
-52.0170205685
 30
0.0
  0
SPLINE
  5
3D3
100
AcDbEntity
  8
ASSI
100
AcDbSpline
 62
250
  6
CONTINUOUS
 70
0
 71
3
 72
9
 73
5
 74
0
 42
0.0000001
 43
0.0000001
 44
0.0000000001
 40
0.0
 40
0.0
 40
0.0
 40
0.0
 40
0.4810829056
 40
1.0
 40
1.0
 40
1.0
 40
1.0
 10
-15.6649491125
 20
4.4386243439
 30
0.0
 10
-15.6763654376
 20
4.4428933097
 30
0.0
 10
-15.7021960335
 20
4.4467317215
 30
0.0
 10
-15.7273777168
 20
4.4407594206
 30
0.0
 10
-15.7396100005
 20
4.4359414657
 30
0.0
  0
SPLINE
  5
3D4
100
AcDbEntity
  8
ASSI
100
AcDbSpline
 62
250
  6
CONTINUOUS
 70
0
 71
3
 72
9
 73
5
 74
0
 42
0.0000001
 43
0.0000001
 44
0.0000000001
 40
0.0
 40
0.0
 40
0.0
 40
0.0
 40
0.4808335537
 40
1.0
 40
1.0
 40
1.0
 40
1.0
 10
-2.9251458406
 20
-15.8540037414
 30
0.0
 10
-2.915912387
 20
-15.8476595496
 30
0.0
 10
-2.8988760653
 20
-15.8310949631
 30
0.0
 10
-2.8876759333
 20
-15.8103006647
 30
0.0
 10
-2.8831881431
 20
-15.799067951
 30
0.0
  0
SPLINE
  5
3D5
100
AcDbEntity
  8
ASSI
100
AcDbSpline
 62
250
  6
CONTINUOUS
 70
0
 71
3
 72
8
 73
4
 74
0
 42
0.0000001
 43
0.0000001
 44
0.0000000001
 40
0.0
 40
0.0
 40
0.0
 40
0.0
 40
1.0
 40
1.0
 40
1.0
 40
1.0
 10
-2.8831881431
 20
-15.799067951
 30
0.0
 10
-2.8807160795
 20
-15.7928804998
 30
0.0
 10
-2.8786365849
 20
-15.7865255743
 30
0.0
 10
-2.8769145195
 20
-15.7800889493
 30
0.0
  0
SPLINE
  5
3D6
100
AcDbEntity
  8
ASSI
100
AcDbSpline
 62
250
  6
CONTINUOUS
 70
0
 71
3
 72
11
 73
7
 74
0
 42
0.0000001
 43
0.0000001
 44
0.0000000001
 40
0.0
 40
0.0
 40
0.0
 40
0.0
 40
0.2990310466
 40
0.4993355207
 40
0.6997411256
 40
1.0
 40
1.0
 40
1.0
 40
1.0
 10
-15.7396100005
 20
4.4359414657
 30
0.0
 10
-15.7357474561
 20
4.4344971699
 30
0.0
 10
-15.7293786717
 20
4.4317558296
 30
0.0
 10
-15.7232930463
 20
4.4225597793
 30
0.0
 10
-15.728928913
 20
4.4130543058
 30
0.0
 10
-15.7351899258
 20
4.4100199191
 30
0.0
 10
-15.7389983495
 20
4.4083947781
 30
0.0
  0
SPLINE
  5
3D7
100
AcDbEntity
  8
ASSI
100
AcDbSpline
 62
250
  6
CONTINUOUS
 70
0
 71
3
 72
11
 73
7
 74
0
 42
0.0000001
 43
0.0000001
 44
0.0000000001
 40
0.0
 40
0.0
 40
0.0
 40
0.0
 40
0.2187182257
 40
0.4522864185
 40
0.7114901475
 40
1.0
 40
1.0
 40
1.0
 40
1.0
 10
-15.5203398889
 20
3.5416923656
 30
0.0
 10
-15.5203441903
 20
3.5323894038
 30
0.0
 10
-15.5236837641
 20
3.5130261085
 30
0.0
 10
-15.5380696706
 20
3.48594232
 30
0.0
 10
-15.5608590134
 20
3.4613612581
 30
0.0
 10
-15.5799614276
 20
3.4477642267
 30
0.0
 10
-15.5904938698
 20
3.4414668547
 30
0.0
  0
SPLINE
  5
3D8
100
AcDbEntity
  8
ASSI
100
AcDbSpline
 62
250
  6
CONTINUOUS
 70
0
 71
3
 72
11
 73
7
 74
0
 42
0.0000001
 43
0.0000001
 44
0.0000000001
 40
0.0
 40
0.0
 40
0.0
 40
0.0
 40
0.2187065999
 40
0.4522834141
 40
0.7114952413
 40
1.0
 40
1.0
 40
1.0
 40
1.0
 10
-15.6807797082
 20
-1.9703446396
 30
0.0
 10
-15.6888375199
 20
-1.9657062099
 30
0.0
 10
-15.7072710173
 20
-1.9589344286
 30
0.0
 10
-15.7379028281
 20
-1.9578666134
 30
0.0
 10
-15.7705658934
 20
-1.9653169345
 30
0.0
 10
-15.7918799535
 20
-1.9750586037
 30
0.0
 10
-15.8025935954
 20
-1.9810285893
 30
0.0
  0
SPLINE
  5
3D9
100
AcDbEntity
  8
ASSI
100
AcDbSpline
 62
250
  6
CONTINUOUS
 70
0
 71
3
 72
11
 73
7
 74
0
 42
0.0000001
 43
0.0000001
 44
0.0000000001
 40
0.0
 40
0.0
 40
0.0
 40
0.0
 40
0.2187168269
 40
0.4522947597
 40
0.711502084
 40
1.0
 40
1.0
 40
1.0
 40
1.0
 10
-15.5203399294
 20
-2.2482228869
 30
0.0
 10
-15.5203500303
 20
-2.2575220131
 30
0.0
 10
-15.5236989393
 20
-2.2768754845
 30
0.0
 10
-15.5380878022
 20
-2.3039435191
 30
0.0
 10
-15.5608714275
 20
-2.3285109476
 30
0.0
 10
-15.5799661328
 20
-2.3421015324
 30
0.0
 10
-15.5904938698
 20
-2.3483960899
 30
0.0
  0
SPLINE
  5
3DA
100
AcDbEntity
  8
ASSI
100
AcDbSpline
 62
250
  6
CONTINUOUS
 70
0
 71
3
 72
11
 73
7
 74
0
 42
0.0000001
 43
0.0000001
 44
0.0000000001
 40
0.0
 40
0.0
 40
0.0
 40
0.0
 40
0.2187182257
 40
0.4522864185
 40
0.7114901475
 40
1.0
 40
1.0
 40
1.0
 40
1.0
 10
-15.5203398889
 20
22.7287438702
 30
0.0
 10
-15.5203441903
 20
22.7194409084
 30
0.0
 10
-15.5236837641
 20
22.7000776131
 30
0.0
 10
-15.5380696706
 20
22.6729938246
 30
0.0
 10
-15.5608590134
 20
22.6484127627
 30
0.0
 10
-15.5799614276
 20
22.6348157313
 30
0.0
 10
-15.5904938698
 20
22.6285183593
 30
0.0
  0
SPLINE
  5
3DB
100
AcDbEntity
  8
ASSI
100
AcDbSpline
 62
7
  6
CONTINUOUS
 70
0
 71
3
 72
11
 73
7
 74
0
 42
0.0000001
 43
0.0000001
 44
0.0000000001
 40
0.0
 40
0.0
 40
0.0
 40
0.0
 40
0.2398961039
 40
0.4999946021
 40
0.7600960345
 40
1.0
 40
1.0
 40
1.0
 40
1.0
 10
33.2453053626
 20
18.7552871517
 30
0.0
 10
33.2462694513
 20
18.8679999533
 30
0.0
 10
33.208562042
 20
19.103712897
 30
0.0
 10
33.0654779144
 20
19.4342789845
 30
0.0
 10
32.8507387355
 20
19.7234791462
 30
0.0
 10
32.6654568588
 20
19.8739958539
 30
0.0
 10
32.5673608127
 20
19.9295215557
 30
0.0
  0
SPLINE
  5
3DC
100
AcDbEntity
  8
ASSI
100
AcDbSpline
 62
7
  6
CONTINUOUS
 70
0
 71
3
 72
9
 73
5
 74
0
 42
0.0000001
 43
0.0000001
 44
0.0000000001
 40
0.0
 40
0.0
 40
0.0
 40
0.0
 40
0.2580518931
 40
1.0
 40
1.0
 40
1.0
 40
1.0
 10
-28.7252301507
 20
55.3190954014
 30
0.0
 10
-28.7336942726
 20
55.3240890497
 30
0.0
 10
-28.7668388455
 20
55.3428443778
 30
0.0
 10
-28.8013944988
 20
55.3591537202
 30
0.0
 10
-28.8276944548
 20
55.3694830063
 30
0.0
  0
SPLINE
  5
3DD
100
AcDbEntity
  8
ASSI
100
AcDbSpline
 62
250
  6
CONTINUOUS
 70
0
 71
3
 72
11
 73
7
 74
0
 42
0.0000001
 43
0.0000001
 44
0.0000000001
 40
0.0
 40
0.0
 40
0.0
 40
0.0
 40
0.2187065999
 40
0.4522834141
 40
0.7114952413
 40
1.0
 40
1.0
 40
1.0
 40
1.0
 10
-15.6807797082
 20
17.2167068651
 30
0.0
 10
-15.6888375199
 20
17.2213452948
 30
0.0
 10
-15.7072710173
 20
17.2281170761
 30
0.0
 10
-15.7379028281
 20
17.2291848912
 30
0.0
 10
-15.7705658934
 20
17.2217345701
 30
0.0
 10
-15.7918799535
 20
17.211992901
 30
0.0
 10
-15.8025935954
 20
17.2060229154
 30
0.0
  0
SPLINE
  5
3DE
100
AcDbEntity
  8
ASSI
100
AcDbSpline
 62
250
  6
CONTINUOUS
 70
0
 71
3
 72
11
 73
7
 74
0
 42
0.0000001
 43
0.0000001
 44
0.0000000001
 40
0.0
 40
0.0
 40
0.0
 40
0.0
 40
0.2187168269
 40
0.4522947597
 40
0.711502084
 40
1.0
 40
1.0
 40
1.0
 40
1.0
 10
-15.5203399294
 20
16.9388286177
 30
0.0
 10
-15.5203500303
 20
16.9295294916
 30
0.0
 10
-15.5236989393
 20
16.9101760201
 30
0.0
 10
-15.5380878022
 20
16.8831079855
 30
0.0
 10
-15.5608714275
 20
16.8585405571
 30
0.0
 10
-15.5799661328
 20
16.8449499722
 30
0.0
 10
-15.5904938698
 20
16.8386554147
 30
0.0
  0
SPLINE
  5
3DF
100
AcDbEntity
  8
ASSI
100
AcDbSpline
 62
250
  6
CONTINUOUS
 70
0
 71
3
 72
11
 73
7
 74
0
 42
0.0000001
 43
0.0000001
 44
0.0000000001
 40
0.0
 40
0.0
 40
0.0
 40
0.0
 40
0.2376510569
 40
0.4999342214
 40
0.7622435943
 40
1.0
 40
1.0
 40
1.0
 40
1.0
 10
-15.8025935954
 20
-1.9810285893
 30
0.0
 10
-15.772156015
 20
-1.9981032439
 30
0.0
 10
-15.714557781
 20
-2.0456169047
 30
0.0
 10
-15.6476362581
 20
-2.1364462536
 30
0.0
 10
-15.6024190561
 20
-2.2398255001
 30
0.0
 10
-15.5900604797
 20
-2.3134835936
 30
0.0
 10
-15.5904938698
 20
-2.3483960899
 30
0.0
  0
SPLINE
  5
3E0
100
AcDbEntity
  8
ASSI
100
AcDbSpline
 62
250
  6
CONTINUOUS
 70
0
 71
3
 72
10
 73
6
 74
0
 42
0.0000001
 43
0.0000001
 44
0.0000000001
 40
0.0
 40
0.0
 40
0.0
 40
0.0
 40
0.5461416737
 40
0.7809242803
 40
1.0
 40
1.0
 40
1.0
 40
1.0
 10
-15.5904938698
 20
3.4414668549
 30
0.0
 10
-15.5901537476
 20
3.4143214417
 30
0.0
 10
-15.5952800381
 20
3.3743230566
 30
0.0
 10
-15.6198059389
 20
3.330454725
 30
0.0
 10
-15.636516613
 20
3.3146295329
 30
0.0
 10
-15.6455532699
 20
3.308552828
 30
0.0
  0
SPLINE
  5
3E1
100
AcDbEntity
  8
ASSI
100
AcDbSpline
 62
250
  6
CONTINUOUS
 70
0
 71
3
 72
10
 73
6
 74
0
 42
0.0000001
 43
0.0000001
 44
0.0000000001
 40
0.0
 40
0.0
 40
0.0
 40
0.0
 40
0.5461416737
 40
0.7809242803
 40
1.0
 40
1.0
 40
1.0
 40
1.0
 10
-15.5904938698
 20
22.6285183595
 30
0.0
 10
-15.5901537476
 20
22.6013729463
 30
0.0
 10
-15.5952800381
 20
22.5613745612
 30
0.0
 10
-15.6198059389
 20
22.5175062296
 30
0.0
 10
-15.636516613
 20
22.5016810375
 30
0.0
 10
-15.6455532699
 20
22.4956043327
 30
0.0
  0
SPLINE
  5
3E2
100
AcDbEntity
  8
ASSI
100
AcDbSpline
 62
250
  6
CONTINUOUS
 70
0
 71
3
 72
11
 73
7
 74
0
 42
0.0000001
 43
0.0000001
 44
0.0000000001
 40
0.0
 40
0.0
 40
0.0
 40
0.0
 40
0.2376510569
 40
0.4999342214
 40
0.7622435943
 40
1.0
 40
1.0
 40
1.0
 40
1.0
 10
-15.8025935954
 20
17.2060229154
 30
0.0
 10
-15.772156015
 20
17.1889482608
 30
0.0
 10
-15.714557781
 20
17.1414346
 30
0.0
 10
-15.6476362581
 20
17.0506052511
 30
0.0
 10
-15.6024190561
 20
16.9472260045
 30
0.0
 10
-15.5900604797
 20
16.873567911
 30
0.0
 10
-15.5904938698
 20
16.8386554147
 30
0.0
  0
SPLINE
  5
3E3
100
AcDbEntity
  8
ASSI
100
AcDbSpline
 62
250
  6
CONTINUOUS
 70
0
 71
3
 72
9
 73
5
 74
0
 42
0.0000001
 43
0.0000001
 44
0.0000000001
 40
0.0
 40
0.0
 40
0.0
 40
0.0
 40
0.5411876053
 40
1.0
 40
1.0
 40
1.0
 40
1.0
 10
-15.5904938698
 20
16.1365985319
 30
0.0
 10
-15.5714751581
 20
16.1485920572
 30
0.0
 10
-15.5388504195
 20
16.1761245346
 30
0.0
 10
-15.5220764738
 20
16.216715551
 30
0.0
 10
-15.5206176438
 20
16.2357217998
 30
0.0
  0
SPLINE
  5
3E4
100
AcDbEntity
  8
ASSI
100
AcDbSpline
 62
250
  6
CONTINUOUS
 70
0
 71
3
 72
10
 73
6
 74
0
 42
0.0000001
 43
0.0000001
 44
0.0000000001
 40
0.0
 40
0.0
 40
0.0
 40
0.0
 40
0.3606040285
 40
0.6415404703
 40
1.0
 40
1.0
 40
1.0
 40
1.0
 10
-2.8769145195
 20
-15.7800889493
 30
0.0
 10
-2.8751995508
 20
-15.7839263312
 30
0.0
 10
-2.8724036409
 20
-15.7909725515
 30
0.0
 10
-2.8694522708
 20
-15.8019186395
 30
0.0
 10
-2.8699964277
 20
-15.8107107425
 30
0.0
 10
-2.8729907294
 20
-15.8136247216
 30
0.0
  0
SPLINE
  5
3E5
100
AcDbEntity
  8
ASSI
100
AcDbSpline
 62
250
  6
CONTINUOUS
 70
0
 71
3
 72
9
 73
5
 74
0
 42
0.0000001
 43
0.0000001
 44
0.0000000001
 40
0.0
 40
0.0
 40
0.0
 40
0.0
 40
0.2725560258
 40
1.0
 40
1.0
 40
1.0
 40
1.0
 10
-15.9867108653
 20
4.3027262731
 30
0.0
 10
-15.989665123
 20
4.3013619701
 30
0.0
 10
-16.0006480548
 20
4.2967006646
 30
0.0
 10
-16.0123110721
 20
4.2934385457
 30
0.0
 10
-16.0209391612
 20
4.2924458112
 30
0.0
  0
SPLINE
  5
3E6
100
AcDbEntity
  8
ASSI
100
AcDbSpline
 62
250
  6
CONTINUOUS
 70
0
 71
3
 72
11
 73
7
 74
0
 42
0.0000001
 43
0.0000001
 44
0.0000000001
 40
0.0
 40
0.0
 40
0.0
 40
0.0
 40
0.2510505029
 40
0.4522061426
 40
0.6514885695
 40
1.0
 40
1.0
 40
1.0
 40
1.0
 10
-15.5904938698
 20
4.1435237377
 30
0.0
 10
-15.5874035537
 20
4.1702898503
 30
0.0
 10
-15.5913033904
 20
4.2197462764
 30
0.0
 10
-15.614341867
 20
4.2863216244
 30
0.0
 10
-15.6557810737
 20
4.3552184229
 30
0.0
 10
-15.7036057859
 20
4.396294486
 30
0.0
 10
-15.7389983495
 20
4.4083947781
 30
0.0
  0
SPLINE
  5
3E7
100
AcDbEntity
  8
ASSI
100
AcDbSpline
 62
250
  6
CONTINUOUS
 70
0
 71
3
 72
11
 73
7
 74
0
 42
0.0000001
 43
0.0000001
 44
0.0000000001
 40
0.0
 40
0.0
 40
0.0
 40
0.0
 40
0.2510505119
 40
0.4522061595
 40
0.6514885898
 40
1.0
 40
1.0
 40
1.0
 40
1.0
 10
-15.8382063856
 20
4.0378552327
 30
0.0
 10
-15.8351160729
 20
4.0646213459
 30
0.0
 10
-15.8390159152
 20
4.1140777717
 30
0.0
 10
-15.8620543956
 20
4.1806531185
 30
0.0
 10
-15.9034936016
 20
4.2495499136
 30
0.0
 10
-15.951318306
 20
4.2906259779
 30
0.0
 10
-15.9867108653
 20
4.3027262731
 30
0.0
  0
SPLINE
  5
3E8
100
AcDbEntity
  8
ASSI
100
AcDbSpline
 62
250
  6
CONTINUOUS
 70
0
 71
3
 72
9
 73
5
 74
0
 42
0.0000001
 43
0.0000001
 44
0.0000000001
 40
0.0
 40
0.0
 40
0.0
 40
0.0
 40
0.5478889287
 40
1.0
 40
1.0
 40
1.0
 40
1.0
 10
-16.0774350656
 20
4.2240840469
 30
0.0
 10
-16.0623090648
 20
4.2331279165
 30
0.0
 10
-16.0363450494
 20
4.2535237823
 30
0.0
 10
-16.0225706738
 20
4.2848287973
 30
0.0
 10
-16.0214957043
 20
4.2993316978
 30
0.0
  0
SPLINE
  5
3E9
100
AcDbEntity
  8
ASSI
100
AcDbSpline
 62
250
  6
CONTINUOUS
 70
0
 71
3
 72
10
 73
6
 74
0
 42
0.0000001
 43
0.0000001
 44
0.0000000001
 40
0.0
 40
0.0
 40
0.0
 40
0.0
 40
0.546374885
 40
0.7806295628
 40
1.0
 40
1.0
 40
1.0
 40
1.0
 10
-16.0774350656
 20
15.4737517739
 30
0.0
 10
-16.061519787
 20
15.4832675544
 30
0.0
 10
-16.0400972675
 20
15.5006798691
 30
0.0
 10
-16.0239768984
 20
15.531021087
 30
0.0
 10
-16.0213112085
 20
15.5465240995
 30
0.0
 10
-16.021311874
 20
15.5539691812
 30
0.0
  0
SPLINE
  5
3EA
100
AcDbEntity
  8
ASSI
100
AcDbSpline
 62
250
  6
CONTINUOUS
 70
0
 71
3
 72
9
 73
5
 74
0
 42
0.0000001
 43
0.0000001
 44
0.0000000001
 40
0.0
 40
0.0
 40
0.0
 40
0.0
 40
0.5609451159
 40
1.0
 40
1.0
 40
1.0
 40
1.0
 10
-15.8382063856
 20
15.9460513083
 30
0.0
 10
-15.8361174259
 20
15.9304562181
 30
0.0
 10
-15.8354182527
 20
15.9016443117
 30
0.0
 10
-15.8503622799
 20
15.8752485022
 30
0.0
 10
-15.8601296887
 20
15.8677474079
 30
0.0
  0
SPLINE
  5
3EB
100
AcDbEntity
  8
ASSI
100
AcDbSpline
 62
250
  6
CONTINUOUS
 70
0
 71
3
 72
9
 73
5
 74
0
 42
0.0000001
 43
0.0000001
 44
0.0000000001
 40
0.0
 40
0.0
 40
0.0
 40
0.0
 40
0.5609471573
 40
1.0
 40
1.0
 40
1.0
 40
1.0
 10
-15.5904938698
 20
16.1365985319
 30
0.0
 10
-15.5884048014
 20
16.1210025778
 30
0.0
 10
-15.5877056183
 20
16.0921889929
 30
0.0
 10
-15.6026522487
 20
16.0657923833
 30
0.0
 10
-15.6124208099
 20
16.0582918384
 30
0.0
  0
SPLINE
  5
3EC
100
AcDbEntity
  8
0
100
AcDbSpline
 62
250
  6
CONTINUOUS
 70
0
 71
3
 72
12
 73
8
 74
0
 42
0.0000001
 43
0.0000001
 44
0.0000000001
 40
0.0
 40
0.0
 40
0.0
 40
0.0
 40
0.3333333333
 40
0.5
 40
0.6666666667
 40
0.8333333333
 40
1.0
 40
1.0
 40
1.0
 40
1.0
 10
31.8077745367
 20
-42.9572623646
 30
0.0
 10
31.8050261969
 20
-42.9867335987
 30
0.0
 10
31.8027279253
 20
-43.0300187233
 30
0.0
 10
31.803253929
 20
-43.0857237179
 30
0.0
 10
31.8054452071
 20
-43.1266247554
 30
0.0
 10
31.8095980578
 20
-43.1668323106
 30
0.0
 10
31.8134539593
 20
-43.1931145098
 30
0.0
 10
31.815545377
 20
-43.2062678456
 30
0.0
  0
SPLINE
  5
3ED
100
AcDbEntity
  8
0
100
AcDbSpline
 62
250
  6
CONTINUOUS
 70
0
 71
3
 72
19
 73
15
 74
0
 42
0.0000001
 43
0.0000001
 44
0.0000000001
 40
0.0
 40
0.0
 40
0.0
 40
0.0
 40
0.1
 40
0.2
 40
0.25
 40
0.3
 40
0.4
 40
0.5
 40
0.6
 40
0.7
 40
0.75
 40
0.8
 40
0.9
 40
1.0
 40
1.0
 40
1.0
 40
1.0
 10
31.9728495603
 20
-42.6756519037
 30
0.0
 10
31.9648683133
 20
-42.6805662341
 30
0.0
 10
31.9494017366
 20
-42.6914827095
 30
0.0
 10
31.9301283678
 20
-42.7082902719
 30
0.0
 10
31.9150747782
 20
-42.7233954276
 30
0.0
 10
31.9002472878
 20
-42.7396518974
 30
0.0
 10
31.8825678277
 20
-42.76171
 30
0.0
 10
31.8627325767
 20
-42.7913934637
 30
0.0
 10
31.8455439819
 20
-42.8233383504
 30
0.0
 10
31.8337809415
 20
-42.850780211
 30
0.0
 10
31.8257784531
 20
-42.8732649194
 30
0.0
 10
31.8188272645
 20
-42.8957620456
 30
0.0
 10
31.8120558612
 20
-42.9240041506
 30
0.0
 10
31.8088182979
 20
-42.9460698133
 30
0.0
 10
31.8077745366
 20
-42.9572623647
 30
0.0
  0
SPLINE
  5
3EE
100
AcDbEntity
  8
0
100
AcDbSpline
 62
250
  6
CONTINUOUS
 70
0
 71
3
 72
15
 73
11
 74
0
 42
0.0000001
 43
0.0000001
 44
0.0000000001
 40
0.0
 40
0.0
 40
0.0
 40
0.0
 40
0.1666666667
 40
0.3333333333
 40
0.5
 40
0.5833333333
 40
0.6666666667
 40
0.75
 40
0.8333333333
 40
1.0
 40
1.0
 40
1.0
 40
1.0
 10
32.1778959475
 20
-42.8045751345
 30
0.0
 10
32.1774115064
 20
-42.7793763101
 30
0.0
 10
32.1732931296
 20
-42.7345198255
 30
0.0
 10
32.158480656
 20
-42.6846835994
 30
0.0
 10
32.1368739184
 20
-42.6556520986
 30
0.0
 10
32.1114935998
 20
-42.6431463353
 30
0.0
 10
32.0890123464
 20
-42.639082584
 30
0.0
 10
32.0641666401
 20
-42.6400439414
 30
0.0
 10
32.0272087661
 20
-42.647968313
 30
0.0
 10
31.9956511768
 20
-42.6616096763
 30
0.0
 10
31.9728133292
 20
-42.6756742249
 30
0.0
  0
SPLINE
  5
3EF
100
AcDbEntity
  8
0
100
AcDbSpline
 62
250
  6
CONTINUOUS
 70
0
 71
3
 72
16
 73
12
 74
0
 42
0.0000001
 43
0.0000001
 44
0.0000000001
 40
0.0
 40
0.0
 40
0.0
 40
0.0
 40
0.125
 40
0.25
 40
0.3125
 40
0.375
 40
0.5
 40
0.625
 40
0.75
 40
0.875
 40
1.0
 40
1.0
 40
1.0
 40
1.0
 10
32.5102355268
 20
-42.4259820211
 30
0.0
 10
32.5013834196
 20
-42.4351871452
 30
0.0
 10
32.4849088501
 20
-42.4538554829
 30
0.0
 10
32.4657196944
 20
-42.4792168171
 30
0.0
 10
32.4516697135
 20
-42.5002051543
 30
0.0
 10
32.4384683074
 20
-42.5217238336
 30
0.0
 10
32.4239915516
 20
-42.5489906402
 30
0.0
 10
32.4100431181
 20
-42.5825642846
 30
0.0
 10
32.4005552882
 20
-42.6157116845
 30
0.0
 10
32.395245956
 20
-42.6469244082
 30
0.0
 10
32.3940710038
 20
-42.6662951536
 30
0.0
 10
32.3940710038
 20
-42.6760215098
 30
0.0
  0
SPLINE
  5
3F0
100
AcDbEntity
  8
0
100
AcDbSpline
 62
250
  6
CONTINUOUS
 70
0
 71
3
 72
12
 73
8
 74
0
 42
0.0000001
 43
0.0000001
 44
0.0000000001
 40
0.0
 40
0.0
 40
0.0
 40
0.0
 40
0.1666666667
 40
0.3333333333
 40
0.5
 40
0.6666666667
 40
1.0
 40
1.0
 40
1.0
 40
1.0
 10
32.9106244681
 20
-42.0449422607
 30
0.0
 10
32.8864912755
 20
-42.0675253802
 30
0.0
 10
32.8388839903
 20
-42.1123694505
 30
0.0
 10
32.7693364716
 20
-42.1780434167
 30
0.0
 10
32.7013926976
 20
-42.241432506
 30
0.0
 10
32.6131468222
 20
-42.3234374997
 30
0.0
 10
32.5502428332
 20
-42.3843930852
 30
0.0
 10
32.5102632207
 20
-42.4259532427
 30
0.0
  0
SPLINE
  5
3F1
100
AcDbEntity
  8
0
100
AcDbSpline
 62
250
  6
CONTINUOUS
 70
0
 71
3
 72
10
 73
6
 74
0
 42
0.0000001
 43
0.0000001
 44
0.0000000001
 40
0.0
 40
0.0
 40
0.0
 40
0.0
 40
0.3333333333
 40
0.6666666667
 40
1.0
 40
1.0
 40
1.0
 40
1.0
 10
32.5533996741
 20
-42.0577613322
 30
0.0
 10
32.5943500349
 20
-42.0201660785
 30
0.0
 10
32.675500328
 20
-41.9463547923
 30
0.0
 10
32.7946259272
 20
-41.838745689
 30
0.0
 10
32.8723313015
 20
-41.7686121507
 30
0.0
 10
32.9106244681
 20
-41.7334943787
 30
0.0
  0
SPLINE
  5
3F2
100
AcDbEntity
  8
0
100
AcDbSpline
 62
250
  6
CONTINUOUS
 70
0
 71
3
 72
16
 73
12
 74
0
 42
0.0000001
 43
0.0000001
 44
0.0000000001
 40
0.0
 40
0.0
 40
0.0
 40
0.0
 40
0.1111111111
 40
0.2222222222
 40
0.3333333333
 40
0.4444444444
 40
0.5555555556
 40
0.6666666667
 40
0.7777777778
 40
0.8888888889
 40
1.0
 40
1.0
 40
1.0
 40
1.0
 10
32.2944859653
 20
-42.3992115453
 30
0.0
 10
32.29866268
 20
-42.3844048728
 30
0.0
 10
32.3092208049
 20
-42.3550649695
 30
0.0
 10
32.3312485552
 20
-42.311035141
 30
0.0
 10
32.3568474303
 20
-42.2699812083
 30
0.0
 10
32.3849667198
 20
-42.2313826042
 30
0.0
 10
32.4140345227
 20
-42.1959440239
 30
0.0
 10
32.4446952844
 20
-42.1619149114
 30
0.0
 10
32.4774708779
 20
-42.1283630863
 30
0.0
 10
32.5131725259
 20
-42.0944535049
 30
0.0
 10
32.5396438924
 20
-42.0703900882
 30
0.0
 10
32.5533996742
 20
-42.0577613324
 30
0.0
  0
SPLINE
  5
3F3
100
AcDbEntity
  8
0
100
AcDbSpline
 62
250
  6
CONTINUOUS
 70
0
 71
3
 72
34
 73
30
 74
0
 42
0.0000001
 43
0.0000001
 44
0.0000000001
 40
0.0
 40
0.0
 40
0.0
 40
0.0
 40
0.0277777778
 40
0.0555555556
 40
0.0833333333
 40
0.1111111111
 40
0.1388888889
 40
0.1666666667
 40
0.1944444444
 40
0.2222222222
 40
0.25
 40
0.2777777778
 40
0.3333333333
 40
0.3888888889
 40
0.4444444444
 40
0.5
 40
0.5555555556
 40
0.6111111111
 40
0.6666666667
 40
0.7222222222
 40
0.7777777778
 40
0.8055555556
 40
0.8333333333
 40
0.8611111111
 40
0.8888888889
 40
0.9166666667
 40
0.9444444444
 40
0.9722222222
 40
1.0
 40
1.0
 40
1.0
 40
1.0
 10
31.6199980139
 20
-42.8358733481
 30
0.0
 10
31.6235156764
 20
-42.822311135
 30
0.0
 10
31.6320765356
 20
-42.7946582451
 30
0.0
 10
31.6493457416
 20
-42.7506502311
 30
0.0
 10
31.6711785243
 20
-42.7031986218
 30
0.0
 10
31.696760627
 20
-42.655405453
 30
0.0
 10
31.7256339689
 20
-42.6086907955
 30
0.0
 10
31.7572877836
 20
-42.564052612
 30
0.0
 10
31.79105308
 20
-42.5223592016
 30
0.0
 10
31.8258669108
 20
-42.4848869667
 30
0.0
 10
31.859531139
 20
-42.4531343622
 30
0.0
 10
31.9035116655
 20
-42.4166342156
 30
0.0
 10
31.9541850329
 20
-42.3818205771
 30
0.0
 10
32.0085135212
 20
-42.3523861701
 30
0.0
 10
32.0571359419
 20
-42.3333390117
 30
0.0
 10
32.099663413
 20
-42.3230697738
 30
0.0
 10
32.1366365397
 20
-42.319656656
 30
0.0
 10
32.1684586332
 20
-42.3215910722
 30
0.0
 10
32.1955070674
 20
-42.3277407695
 30
0.0
 10
32.2182216884
 20
-42.3373587499
 30
0.0
 10
32.2341635648
 20
-42.3469347254
 30
0.0
 10
32.2456060845
 20
-42.3549009773
 30
0.0
 10
32.253641367
 20
-42.36094375
 30
0.0
 10
32.2611288006
 20
-42.3669348407
 30
0.0
 10
32.2682673719
 20
-42.3728001691
 30
0.0
 10
32.2750666292
 20
-42.3790689973
 30
0.0
 10
32.2807102686
 20
-42.3861007328
 30
0.0
 10
32.2847893225
 20
-42.3941631131
 30
0.0
 10
32.286287548
 20
-42.4004822412
 30
0.0
 10
32.2866862425
 20
-42.4038750169
 30
0.0
  0
SPLINE
  5
3F4
100
AcDbEntity
  8
0
100
AcDbSpline
 62
250
  6
CONTINUOUS
 70
0
 71
3
 72
15
 73
11
 74
0
 42
0.0000001
 43
0.0000001
 44
0.0000000001
 40
0.0
 40
0.0
 40
0.0
 40
0.0
 40
0.125
 40
0.25
 40
0.375
 40
0.5
 40
0.625
 40
0.75
 40
0.875
 40
1.0
 40
1.0
 40
1.0
 40
1.0
 10
31.606101046
 20
-43.6432453922
 30
0.0
 10
31.6011015509
 20
-43.6062984549
 30
0.0
 10
31.5918372387
 20
-43.5346768636
 30
0.0
 10
31.5813594805
 20
-43.4342490659
 30
0.0
 10
31.5745781603
 20
-43.3372320256
 30
0.0
 10
31.5719185954
 20
-43.2415518712
 30
0.0
 10
31.5739929486
 20
-43.1443744645
 30
0.0
 10
31.5817141704
 20
-43.0446672464
 30
0.0
 10
31.5961289854
 20
-42.9420450793
 30
0.0
 10
31.6106973166
 20
-42.8716879207
 30
0.0
 10
31.6199980139
 20
-42.8358733481
 30
0.0
  0
SPLINE
  5
3F5
100
AcDbEntity
  8
SMUSSO
100
AcDbSpline
 62
7
  6
CONTINUOUS
 70
0
 71
3
 72
11
 73
7
 74
0
 42
0.0000001
 43
0.0000001
 44
0.0000000001
 40
0.0
 40
0.0
 40
0.0
 40
0.0
 40
0.217767125
 40
0.4509439396
 40
0.7101951389
 40
1.0
 40
1.0
 40
1.0
 40
1.0
 10
-32.2026242432
 20
54.7603417405
 30
0.0
 10
-32.1696389693
 20
54.7793870357
 30
0.0
 10
-32.0938423354
 20
54.8069157399
 30
0.0
 10
-31.9679621939
 20
54.8100655705
 30
0.0
 10
-31.8337775383
 20
54.7777017531
 30
0.0
 10
-31.7464969484
 20
54.7361460627
 30
0.0
 10
-31.7026000831
 20
54.7108005629
 30
0.0
  0
SPLINE
  5
3F6
100
AcDbEntity
  8
SMUSSO
100
AcDbSpline
 62
7
  6
CONTINUOUS
 70
0
 71
3
 72
11
 73
7
 74
0
 42
0.0000001
 43
0.0000001
 44
0.0000000001
 40
0.0
 40
0.0
 40
0.0
 40
0.0
 40
0.2177736023
 40
0.4509563259
 40
0.7101814113
 40
1.0
 40
1.0
 40
1.0
 40
1.0
 10
-33.2632840706
 20
54.1479300494
 30
0.0
 10
-33.2962652659
 20
54.1288871093
 30
0.0
 10
-33.3579927189
 20
54.0770139391
 30
0.0
 10
-33.4236573649
 20
53.9695948996
 30
0.0
 10
-33.462689974
 20
53.8372207608
 30
0.0
 10
-33.4703670361
 20
53.7408761654
 30
0.0
 10
-33.4703670361
 20
53.6901929894
 30
0.0
  0
SPLINE
  5
3F7
100
AcDbEntity
  8
RACCORDO
100
AcDbSpline
 62
7
  6
CONTINUOUS
 70
0
 71
3
 72
11
 73
7
 74
0
 42
0.0000001
 43
0.0000001
 44
0.0000000001
 40
0.0
 40
0.0
 40
0.0
 40
0.0
 40
0.217767124
 40
0.4509439365
 40
0.7101951399
 40
1.0
 40
1.0
 40
1.0
 40
1.0
 10
-18.1958487906
 20
26.4173352139
 30
0.0
 10
-18.156266462
 20
26.4401895678
 30
0.0
 10
-18.0653105021
 20
26.4732240129
 30
0.0
 10
-17.914254332
 20
26.4770038101
 30
0.0
 10
-17.7532327451
 20
26.4381672291
 30
0.0
 10
-17.6484960366
 20
26.3883004004
 30
0.0
 10
-17.5958197984
 20
26.3578858007
 30
0.0
  0
SPLINE
  5
3F8
100
AcDbEntity
  8
SMUSSO
100
AcDbSpline
 62
7
  6
CONTINUOUS
 70
0
 71
3
 72
11
 73
7
 74
0
 42
0.0000001
 43
0.0000001
 44
0.0000000001
 40
0.0
 40
0.0
 40
0.0
 40
0.0
 40
0.2372413534
 40
0.5000061118
 40
0.7627675415
 40
1.0
 40
1.0
 40
1.0
 40
1.0
 10
30.8763500519
 20
18.5785385083
 30
0.0
 10
30.926544027
 20
18.5495571362
 30
0.0
 10
31.0215306976
 20
18.4696116639
 30
0.0
 10
31.1323942144
 20
18.3181128802
 30
0.0
 10
31.2081636379
 20
18.146354983
 30
0.0
 10
31.2299034424
 20
18.0241238438
 30
0.0
 10
31.2299034425
 20
17.9661660732
 30
0.0
  0
SPLINE
  5
3F9
100
AcDbEntity
  8
SMUSSO
100
AcDbSpline
 62
7
  6
CONTINUOUS
 70
0
 71
3
 72
11
 73
7
 74
0
 42
0.0000001
 43
0.0000001
 44
0.0000000001
 40
0.0
 40
0.0
 40
0.0
 40
0.0
 40
0.2898284316
 40
0.5490524938
 40
0.7822354338
 40
1.0
 40
1.0
 40
1.0
 40
1.0
 10
29.4621364895
 20
-55.3121004513
 30
0.0
 10
29.5060366783
 20
-55.3374478696
 30
0.0
 10
29.5933271306
 20
-55.3789763777
 30
0.0
 10
29.7275024112
 20
-55.4113725594
 30
0.0
 10
29.8533797137
 20
-55.4082124699
 30
0.0
 10
29.9291762933
 20
-55.3806863942
 30
0.0
 10
29.9621609941
 20
-55.3616414301
 30
0.0
  0
SPLINE
  5
3FA
100
AcDbEntity
  8
RACCORDO
100
AcDbSpline
 62
7
  6
CONTINUOUS
 70
0
 71
3
 72
11
 73
7
 74
0
 42
0.0000001
 43
0.0000001
 44
0.0000000001
 40
0.0
 40
0.0
 40
0.0
 40
0.0
 40
0.2372223812
 40
0.5000061068
 40
0.7627865084
 40
1.0
 40
1.0
 40
1.0
 40
1.0
 10
12.8804824707
 20
8.7612508283
 30
0.0
 10
13.0009384101
 20
8.6917010785
 30
0.0
 10
13.2289093808
 20
8.499836318
 30
0.0
 10
13.4949898644
 20
8.1362301384
 30
0.0
 10
13.6768403443
 20
7.7239996685
 30
0.0
 10
13.7290106081
 20
7.4306445502
 30
0.0
 10
13.7290106081
 20
7.2915569841
 30
0.0
  0
SPLINE
  5
3FB
100
AcDbEntity
  8
SMUSSO
100
AcDbSpline
 62
7
  6
CONTINUOUS
 70
0
 71
3
 72
11
 73
7
 74
0
 42
0.0000001
 43
0.0000001
 44
0.0000000001
 40
0.0
 40
0.0
 40
0.0
 40
0.0
 40
0.2897993086
 40
0.5490484826
 40
0.7822275283
 40
1.0
 40
1.0
 40
1.0
 40
1.0
 10
31.2299034425
 20
-54.2914928779
 30
0.0
 10
31.2299034426
 20
-54.3421728795
 30
0.0
 10
31.2222501465
 20
-54.438521961
 30
0.0
 10
31.1831893267
 20
-54.5708896428
 30
0.0
 10
31.1175306381
 20
-54.6783145107
 30
0.0
 10
31.0558019739
 20
-54.7301868235
 30
0.0
 10
31.0228208215
 20
-54.749229739
 30
0.0
  0
SPLINE
  5
3FC
100
AcDbEntity
  8
RACCORDO
100
AcDbSpline
 62
7
  6
CONTINUOUS
 70
0
 71
3
 72
11
 73
7
 74
0
 42
0.0000001
 43
0.0000001
 44
0.0000000001
 40
0.0
 40
0.0
 40
0.0
 40
0.0
 40
0.2897993086
 40
0.5490484826
 40
0.7822275283
 40
1.0
 40
1.0
 40
1.0
 40
1.0
 10
13.7290106081
 20
-27.8983119457
 30
0.0
 10
13.7290106081
 20
-27.9591279476
 30
0.0
 10
13.719826653
 20
-28.0747468454
 30
0.0
 10
13.6729536691
 20
-28.2335880636
 30
0.0
 10
13.5941632429
 20
-28.362497905
 30
0.0
 10
13.5200888459
 20
-28.4247446806
 30
0.0
 10
13.4805114629
 20
-28.447596179
 30
0.0
  0
SPLINE
  5
3FD
100
AcDbEntity
  8
RACCORDO
100
AcDbSpline
 62
7
  6
CONTINUOUS
 70
0
 71
3
 72
11
 73
7
 74
0
 42
0.0000001
 43
0.0000001
 44
0.0000000001
 40
0.0
 40
0.0
 40
0.0
 40
0.0
 40
0.2372134916
 40
0.4999938932
 40
0.7627776188
 40
1.0
 40
1.0
 40
1.0
 40
1.0
 10
-16.3230275923
 20
-8.0969941693
 30
0.0
 10
-16.3230275923
 20
-8.2360817354
 30
0.0
 10
-16.2708573285
 20
-8.5294368536
 30
0.0
 10
-16.0890068485
 20
-8.9416673235
 30
0.0
 10
-15.822926365
 20
-9.3052735032
 30
0.0
 10
-15.5949553942
 20
-9.4971382637
 30
0.0
 10
-15.4744994549
 20
-9.5666880134
 30
0.0
  0
SPLINE
  5
3FE
100
AcDbEntity
  8
SMUSSO
100
AcDbSpline
 62
7
  6
CONTINUOUS
 70
0
 71
3
 72
11
 73
7
 74
0
 42
0.0000001
 43
0.0000001
 44
0.0000000001
 40
0.0
 40
0.0
 40
0.0
 40
0.0
 40
0.2897812883
 40
0.549059632
 40
0.7822303178
 40
1.0
 40
1.0
 40
1.0
 40
1.0
 10
-32.7632602549
 20
54.0983886729
 30
0.0
 10
-32.8071537966
 20
54.1237322542
 30
0.0
 10
-32.8944245232
 20
54.165315127
 30
0.0
 10
-33.0286185536
 20
54.1976465808
 30
0.0
 10
-33.1545015359
 20
54.1945070081
 30
0.0
 10
-33.2302982235
 20
54.1669756753
 30
0.0
 10
-33.2632840706
 20
54.1479300494
 30
0.0
  0
SPLINE
  5
3FF
100
AcDbEntity
  8
RACCORDO
100
AcDbSpline
 62
7
  6
CONTINUOUS
 70
0
 71
3
 72
11
 73
7
 74
0
 42
0.0000001
 43
0.0000001
 44
0.0000000001
 40
0.0
 40
0.0
 40
0.0
 40
0.0
 40
0.2897993086
 40
0.5490484826
 40
0.7822275283
 40
1.0
 40
1.0
 40
1.0
 40
1.0
 10
-18.4443479358
 20
25.8680509805
 30
0.0
 10
-18.4443479358
 20
25.9288669825
 30
0.0
 10
-18.4351639807
 20
26.0444858803
 30
0.0
 10
-18.3882909968
 20
26.2033270984
 30
0.0
 10
-18.3095005706
 20
26.3322369399
 30
0.0
 10
-18.2354261736
 20
26.3944837155
 30
0.0
 10
-18.1958487906
 20
26.4173352139
 30
0.0
  0
SPLINE
  5
400
100
AcDbEntity
  8
SMUSSO
100
AcDbSpline
 62
7
  6
CONTINUOUS
 70
0
 71
3
 72
11
 73
7
 74
0
 42
0.0000001
 43
0.0000001
 44
0.0000000001
 40
0.0
 40
0.0
 40
0.0
 40
0.0
 40
0.2177713414
 40
0.4509467097
 40
0.7102199717
 40
1.0
 40
1.0
 40
1.0
 40
1.0
 10
29.9621609941
 20
-55.3616414301
 30
0.0
 10
29.995142104
 20
-55.3425985394
 30
0.0
 10
30.0568719793
 20
-55.2907270832
 30
0.0
 10
30.1225247112
 20
-55.1832963862
 30
0.0
 10
30.1616137412
 20
-55.0509351616
 30
0.0
 10
30.1692432707
 20
-54.9545815953
 30
0.0
 10
30.1692432707
 20
-54.9039047679
 30
0.0
  0
SPLINE
  5
401
100
AcDbEntity
  8
RACCORDO
100
AcDbSpline
 62
7
  6
CONTINUOUS
 70
0
 71
3
 72
11
 73
7
 74
0
 42
0.0000001
 43
0.0000001
 44
0.0000000001
 40
0.0
 40
0.0
 40
0.0
 40
0.0
 40
0.217767124
 40
0.4509439365
 40
0.7101951399
 40
1.0
 40
1.0
 40
1.0
 40
1.0
 10
13.4805114629
 20
-28.447596179
 30
0.0
 10
13.4409291343
 20
-28.4704505329
 30
0.0
 10
13.3499731744
 20
-28.503484978
 30
0.0
 10
13.1989170043
 20
-28.5072647752
 30
0.0
 10
13.0378954174
 20
-28.4684281942
 30
0.0
 10
12.9331587089
 20
-28.4185613655
 30
0.0
 10
12.8804824707
 20
-28.3881467658
 30
0.0
  0
SPLINE
  5
402
100
AcDbEntity
  8
RACCORDO
100
AcDbSpline
 62
7
  6
CONTINUOUS
 70
0
 71
3
 72
11
 73
7
 74
0
 42
0.0000001
 43
0.0000001
 44
0.0000000001
 40
0.0
 40
0.0
 40
0.0
 40
0.0
 40
0.2372223812
 40
0.5000061068
 40
0.7627865084
 40
1.0
 40
1.0
 40
1.0
 40
1.0
 10
-17.5958197984
 20
-10.7915117934
 30
0.0
 10
-17.7162757378
 20
-10.7219620437
 30
0.0
 10
-17.9442467085
 20
-10.5300972832
 30
0.0
 10
-18.2103271921
 20
-10.1664911035
 30
0.0
 10
-18.392177672
 20
-9.7542606336
 30
0.0
 10
-18.4443479358
 20
-9.4609055153
 30
0.0
 10
-18.4443479358
 20
-9.3218179492
 30
0.0
  0
SPLINE
  5
403
100
AcDbEntity
  8
SMUSSO
100
AcDbSpline
 62
7
  6
CONTINUOUS
 70
0
 71
3
 72
11
 73
7
 74
0
 42
0.0000001
 43
0.0000001
 44
0.0000000001
 40
0.0
 40
0.0
 40
0.0
 40
0.0
 40
0.2372223818
 40
0.5000061081
 40
0.7627865106
 40
1.0
 40
1.0
 40
1.0
 40
1.0
 10
30.5227966613
 20
18.78263635
 30
0.0
 10
30.6231766111
 20
18.7246782253
 30
0.0
 10
30.8131524204
 20
18.5647909241
 30
0.0
 10
31.0348861571
 20
18.2617857735
 30
0.0
 10
31.1864282232
 20
17.9182603818
 30
0.0
 10
31.2299034424
 20
17.6737977839
 30
0.0
 10
31.2299034425
 20
17.5578914799
 30
0.0
  0
SPLINE
  5
404
100
AcDbEntity
  8
SMUSSO
100
AcDbSpline
 62
7
  6
CONTINUOUS
 70
0
 71
3
 72
11
 73
7
 74
0
 42
0.0000001
 43
0.0000001
 44
0.0000000001
 40
0.0
 40
0.0
 40
0.0
 40
0.0
 40
0.2372134407
 40
0.499993973
 40
0.7627779037
 40
1.0
 40
1.0
 40
1.0
 40
1.0
 10
30.1692432707
 20
16.9454795899
 30
0.0
 10
30.1692432717
 20
17.0613858416
 30
0.0
 10
30.1257669946
 20
17.3058480632
 30
0.0
 10
29.9742273272
 20
17.6493748029
 30
0.0
 10
29.7524901778
 20
17.9523772267
 30
0.0
 10
29.5625162937
 20
18.1122664189
 30
0.0
 10
29.4621364895
 20
18.17022446
 30
0.0
  0
ELLIPSE
  5
405
100
AcDbEntity
  8
0
100
AcDbEllipse
 62
7
  6
CONTINUOUS
 10
33.4125608261
 20
-50.6416883441
 30
0.0
 11
-0.0320188688
 21
0.0554549875
 31
0.0
 40
0.5632057935
 41
-2.5265952341
 42
-2.3686251639
  0
ELLIPSE
  5
406
100
AcDbEntity
  8
0
100
AcDbEllipse
 62
7
  6
CONTINUOUS
 10
33.4125608261
 20
19.6347556951
 30
0.0
 11
-0.0312356712
 21
0.0540980115
 31
0.0
 40
0.5918118391
 41
-2.3438606673
 42
-0.7978336343
  0
ELLIPSE
  5
407
100
AcDbEntity
  8
0
100
AcDbEllipse
 62
7
  6
CONTINUOUS
 10
-27.4505857578
 20
54.7763737383
 30
0.0
 11
-0.0320188688
 21
0.0554549875
 31
0.0
 40
0.5632057935
 41
-0.7730595434
 42
-0.6150059205
  0
ELLIPSE
  5
408
100
AcDbEntity
  8
0
100
AcDbEllipse
 62
7
  6
CONTINUOUS
 10
-1.0810640716
 20
-14.5943223518
 30
0.0
 11
0.1999995634
 21
0.1164181051
 31
0.0
 40
0.0035896273
 41
-0.7351277754
 42
-0.6748017824
  0
ELLIPSE
  5
409
100
AcDbEntity
  8
0
100
AcDbEllipse
 62
7
  6
CONTINUOUS
 10
11.0028371145
 20
-21.0000506156
 30
0.0
 11
0.1998333781
 21
-0.0157785196
 31
0.0
 40
0.5172961965
 41
0.8262203412
 42
2.3446567905
  0
ELLIPSE
  5
40A
100
AcDbEntity
  8
0
100
AcDbEllipse
 62
7
  6
CONTINUOUS
 10
-4.9070654622
 20
-11.8138722658
 30
0.0
 11
0.1998333781
 21
-0.0157785196
 31
0.0
 40
0.5172961965
 41
0.8262203412
 42
2.3446567905
  0
ELLIPSE
  5
40B
100
AcDbEntity
  8
0
100
AcDbEllipse
 62
7
  6
CONTINUOUS
 10
9.4846095846
 20
-22.3034651285
 30
0.0
 11
0.5413005334
 21
0.8416911418
 31
0.0
 40
0.6067084637
 41
0.7148472392
 42
0.8145158917
  0
ELLIPSE
  5
40C
100
AcDbEntity
  8
0
100
AcDbEllipse
 62
7
  6
CONTINUOUS
 10
-6.4252929921
 20
-13.1172867787
 30
0.0
 11
0.5413005334
 21
0.8416911418
 31
0.0
 40
0.6067084637
 41
0.7148472392
 42
0.8145158917
  0
ELLIPSE
  5
40D
100
AcDbEntity
  8
0
100
AcDbEllipse
 62
7
  6
CONTINUOUS
 10
-1.0810640716
 20
-14.0229575176
 30
0.0
 11
0.1998333781
 21
-0.0157785196
 31
0.0
 40
0.5172961965
 41
-0.692216108
 42
0.8262203412
  0
ELLIPSE
  5
40E
100
AcDbEntity
  8
0
100
AcDbEllipse
 62
7
  6
CONTINUOUS
 10
-2.1789557338
 20
-15.5690686925
 30
0.0
 11
0.4625183445
 21
0.8873459255
 31
0.0
 40
0.5463614449
 41
0.662201126
 42
0.7618697785
  0
ELLIPSE
  5
40F
100
AcDbEntity
  8
0
100
AcDbEllipse
 62
7
  6
CONTINUOUS
 10
33.4030609577
 20
19.6466838535
 30
0.0
 11
1.1066889452
 21
-0.4882482052
 31
0.0
 40
0.0945009384
 41
-2.4253001261
 42
-2.3839902126
  0
ELLIPSE
  5
410
100
AcDbEntity
  8
0
100
AcDbEllipse
 62
7
  6
CONTINUOUS
 10
-27.8323862931
 20
55.0032636357
 30
0.0
 11
1.1066889452
 21
-0.4882482052
 31
0.0
 40
0.0945009384
 41
-2.4666100396
 42
-2.4253001261
  0
ELLIPSE
  5
411
100
AcDbEntity
  8
0
100
AcDbEllipse
 62
7
  6
CONTINUOUS
 10
33.4181597629
 20
-51.0857940145
 30
0.0
 11
0.1304932868
 21
1.2025842266
 31
0.0
 40
0.0944494463
 41
-3.8578203675
 42
-3.816510454
  0
ELLIPSE
  5
412
100
AcDbEntity
  8
0
100
AcDbEllipse
 62
7
  6
CONTINUOUS
 10
33.4181597629
 20
19.6205319558
 30
0.0
 11
0.1304932868
 21
1.2025842266
 31
0.0
 40
0.0944494463
 41
-3.899130281
 42
-3.8578203675
  0
ELLIPSE
  5
413
100
AcDbEntity
  8
ASSI
100
AcDbEllipse
 62
7
  6
CONTINUOUS
 10
33.4125608261
 20
-50.6416883441
 30
0.0
 11
-0.0320188688
 21
0.0554549875
 31
0.0
 40
0.5632057935
 41
-2.5265952341
 42
-2.3686251639
  0
ELLIPSE
  5
414
100
AcDbEntity
  8
ASSI
100
AcDbEllipse
 62
7
  6
CONTINUOUS
 10
33.4125608261
 20
19.6347556951
 30
0.0
 11
-0.0312356712
 21
0.0540980115
 31
0.0
 40
0.5918118391
 41
-2.3438606673
 42
-0.7978336343
  0
ELLIPSE
  5
415
100
AcDbEntity
  8
ASSI
100
AcDbEllipse
 62
7
  6
CONTINUOUS
 10
-27.4505857578
 20
54.7763737383
 30
0.0
 11
-0.0320188688
 21
0.0554549875
 31
0.0
 40
0.5632057935
 41
-0.7730595434
 42
-0.6150059205
  0
ELLIPSE
  5
416
100
AcDbEntity
  8
ASSI
100
AcDbEllipse
 62
7
  6
CONTINUOUS
 10
-1.0810640716
 20
-14.5943223518
 30
0.0
 11
0.1999995634
 21
0.1164181051
 31
0.0
 40
0.0035896273
 41
-0.7351277754
 42
-0.6748017824
  0
ELLIPSE
  5
417
100
AcDbEntity
  8
ASSI
100
AcDbEllipse
 62
7
  6
CONTINUOUS
 10
11.0028371145
 20
-21.0000506156
 30
0.0
 11
0.1998333781
 21
-0.0157785196
 31
0.0
 40
0.5172961965
 41
0.8262203412
 42
2.3446567905
  0
ELLIPSE
  5
418
100
AcDbEntity
  8
ASSI
100
AcDbEllipse
 62
7
  6
CONTINUOUS
 10
-4.9070654622
 20
-11.8138722658
 30
0.0
 11
0.1998333781
 21
-0.0157785196
 31
0.0
 40
0.5172961965
 41
0.8262203412
 42
2.3446567905
  0
ELLIPSE
  5
419
100
AcDbEntity
  8
ASSI
100
AcDbEllipse
 62
7
  6
CONTINUOUS
 10
9.4846095846
 20
-22.3034651285
 30
0.0
 11
0.5413005334
 21
0.8416911418
 31
0.0
 40
0.6067084637
 41
0.7148472392
 42
0.8145158917
  0
ELLIPSE
  5
41A
100
AcDbEntity
  8
ASSI
100
AcDbEllipse
 62
7
  6
CONTINUOUS
 10
-6.4252929921
 20
-13.1172867787
 30
0.0
 11
0.5413005334
 21
0.8416911418
 31
0.0
 40
0.6067084637
 41
0.7148472392
 42
0.8145158917
  0
ELLIPSE
  5
41B
100
AcDbEntity
  8
ASSI
100
AcDbEllipse
 62
7
  6
CONTINUOUS
 10
33.4030609577
 20
19.6466838535
 30
0.0
 11
1.1066889452
 21
-0.4882482052
 31
0.0
 40
0.0945009384
 41
-2.4253001261
 42
-2.3839902126
  0
ELLIPSE
  5
41C
100
AcDbEntity
  8
ASSI
100
AcDbEllipse
 62
7
  6
CONTINUOUS
 10
-27.8323862931
 20
55.0032636357
 30
0.0
 11
1.1066889452
 21
-0.4882482052
 31
0.0
 40
0.0945009384
 41
-2.4666100396
 42
-2.4253001261
  0
ELLIPSE
  5
41D
100
AcDbEntity
  8
ASSI
100
AcDbEllipse
 62
7
  6
CONTINUOUS
 10
33.4181597629
 20
-51.0857940145
 30
0.0
 11
0.1304932868
 21
1.2025842266
 31
0.0
 40
0.0944494463
 41
-3.8578203675
 42
-3.816510454
  0
ELLIPSE
  5
41E
100
AcDbEntity
  8
ASSI
100
AcDbEllipse
 62
7
  6
CONTINUOUS
 10
33.4181597629
 20
19.6205319558
 30
0.0
 11
0.1304932868
 21
1.2025842266
 31
0.0
 40
0.0944494463
 41
-3.899130281
 42
-3.8578203675
  0
ELLIPSE
  5
41F
100
AcDbEntity
  8
ASSI
100
AcDbEllipse
 62
7
  6
CONTINUOUS
 10
-1.0810640716
 20
-14.0229575176
 30
0.0
 11
0.1998333781
 21
-0.0157785196
 31
0.0
 40
0.5172961965
 41
-0.692216108
 42
0.8262203412
  0
ELLIPSE
  5
420
100
AcDbEntity
  8
ASSI
100
AcDbEllipse
 62
7
  6
CONTINUOUS
 10
-2.1789557338
 20
-15.5690686925
 30
0.0
 11
0.4625183445
 21
0.8873459255
 31
0.0
 40
0.5463614449
 41
0.662201126
 42
0.7618697785
  0
ENDSEC
  0
SECTION
  2
OBJECTS
  0
DICTIONARY
  5
C
100
AcDbDictionary
280
0
281
1
  3
ACAD_GROUP
350
D
  3
ACAD_MLINESTYLE
350
17
  3
ACAD_LAYOUT
350
1A
  3
ACAD_PLOTSETTINGS
350
19
  3
ACAD_PLOTSTYLENAME
350
E
  0
DICTIONARY
  5
D
102
{ACAD_REACTORS
330
C
102
}
100
AcDbDictionary
280
0
281
1
  0
ACDBDICTIONARYWDFLT
  5
E
102
{ACAD_REACTORS
330
C
102
}
100
AcDbDictionary
281
1
  3
Normal
350
F
100
AcDbDictionaryWithDefault
340
F
  0
DICTIONARY
  5
17
102
{ACAD_REACTORS
330
C
102
}
100
AcDbDictionary
280
0
281
1
  3
Standard
350
18
  0
DICTIONARY
  5
19
102
{ACAD_REACTORS
330
C
102
}
100
AcDbDictionary
281
1
  0
DICTIONARY
  5
1A
102
{ACAD_REACTORS
330
C
102
}
100
AcDbDictionary
281
1
  3
Model
350
421
  3
Layout1
350
422
  0
ACDBPLACEHOLDER
  5
F
102
{ACAD_REACTORS
330
E
102
}
  0
MLINESTYLE
  5
18
102
{ACAD_REACTORS
330
17
102
}
100
AcDbMlineStyle
  2
STANDARD
 70
0
  3

 62
256
 51
90.0
 52
90.0
 71
2
 49
0.5
 62
256
  6
BYLAYER
 49
-0.5
 62
256
  6
BYLAYER
  0
LAYOUT
  5
421
102
{ACAD_REACTORS
330
1A
102
}
100
AcDbPlotSettings
  1

  2
none_device
  4
ISO_A4_(297.00_x_210.00_MM)
  6

 40
0.0
 41
0.0
 42
0.0
 43
0.0
 44
297.0
 45
210.0
 46
0.0
 47
0.0
 48
0.0
 49
0.0
140
0.0
141
0.0
142
1.0
143
1.0
 70
1024
 72
1
 73
0
 74
0
  7

 75
0
147
1.0
148
0.0
149
0.0
100
AcDbLayout
  1
Model
 70
0
 71
0
 10
0.0
 20
0.0
 11
297.0
 21
210.0
 12
0.0
 22
0.0
 32
0.0
 14
0.0
 24
0.0
 34
0.0
 15
0.0
 25
0.0
 35
0.0
146
0.0
 13
0.0
 23
0.0
 33
0.0
 16
1.0
 26
0.0
 36
0.0
 17
0.0
 27
1.0
 37
0.0
 76
0
330
224
345
0
346
0
  0
LAYOUT
  5
422
102
{ACAD_REACTORS
330
1A
102
}
100
AcDbPlotSettings
  1

  2
none_device
  4
ISO_A4_(297.00_x_210.00_MM)
  6

 40
0.0
 41
0.0
 42
0.0
 43
0.0
 44
297.0
 45
210.0
 46
0.0
 47
0.0
 48
0.0
 49
0.0
140
0.0
141
0.0
142
1.0
143
1.0
 70
0
 72
1
 73
0
 74
0
  7

 75
0
147
1.0
148
0.0
149
0.0
100
AcDbLayout
  1
Layout1
 70
0
 71
1
 10
0.0
 20
0.0
 11
297.0
 21
210.0
 12
0.0
 22
0.0
 32
0.0
 14
0.0
 24
0.0
 34
0.0
 15
0.0
 25
0.0
 35
0.0
146
0.0
 13
0.0
 23
0.0
 33
0.0
 16
1.0
 26
0.0
 36
0.0
 17
0.0
 27
1.0
 37
0.0
 76
0
330
225
345
0
346
0
  0
ENDSEC
  0
EOF
