  0
SECTION
  2
HEADER
  9
$ACADVER
  1
AC1024
  9
$DWGCODEPAGE
  3
ANSI_1252
  9
$EXTMAX
 10
297.0
 20
210.0
 30
0.0
  9
$EXTMIN
 10
0.0
 20
0.0
 30
0.0
  9
$LIMMIN
 10
0.0
 20
0.0
  9
$LIMMAX
 10
297.0
 20
210.0
  9
$VIEWCTR
 10
148.5
 20
105.0
  9
$VIEWSIZE
 40
210.0
  9
$CLAYER
  8
0
  9
$LTSCALE
 40
16.335
  9
$CELTYPE
  6
BYLAYER
  9
$DIMSCALE
 40
1.0
  9
$DIMASZ
 40
3.0
  9
$DIMEXO
 40
0.5
  9
$DIMDLI
 40
11.286
  9
$DIMEXE
 40
1.5
  9
$DIMCEN
 40
2.673
  9
$DIMLFAC
 40
1.0
  9
$DIMBLK
  1
_FILLED
  9
$DIMALT
 70
0
  9
$DIMALTF
 40
0.0393700787
  9
$DIMTXT
 40
3.0
  9
$DIMTOL
 70
1
  9
$DIMLIM
 70
0
  9
$DIMTFAC
 40
1.0
  9
$DIMTP
 40
0.01
  9
$DIMTM
 40
0.01
  9
$DIMGAP
 40
0.625
  9
$DIMDSEP
 70
44
  9
$AUNITS
 70
0
  9
$PDMODE
 70
3
  9
$PDSIZE
 40
3.0
  9
$HANDSEED
  5
417
  9
$TILEMODE
 70
1
  9
$MEASUREMENT
 70
1
  9
$INSUNITS
 70
4
  0
ENDSEC
  0
SECTION
  2
CLASSES
  0
CLASS
  1
ACDBDICTIONARYWDFLT
  2
AcDbDictionaryWithDefault
  3
AutoCAD 2000
 90
0
 91
1
280
0
281
0
  0
CLASS
  1
ACDBPLACEHOLDER
  2
AcDbPlaceHolder
  3
AutoCAD 2000
 90
0
 91
1
280
0
281
0
  0
CLASS
  1
LAYOUT
  2
AcDbLayout
  3
AutoCAD 2000
 90
0
 91
0
280
0
281
0
  0
ENDSEC
  0
SECTION
  2
TABLES
  0
TABLE
  2
VPORT
  5
8
100
AcDbSymbolTable
 70
2
  0
VPORT
  5
1F4
100
AcDbSymbolTableRecord
100
AcDbViewportTableRecord
  2
*ACTIVE
 70
0
 10
0.0
 20
0.0
 11
1.0
 21
1.0
 12
148.5
 22
105.0
 13
0.0
 23
0.0
 14
1.0
 24
1.0
 15
0.0
 25
0.0
 16
0.0
 26
0.0
 36
1.0
 17
0.0
 27
0.0
 37
0.0
 40
210.0
 41
1.4142857143
 42
50.0
 43
0.0
 44
0.0
 50
0.0
 51
0.0
 71
0
 72
100
 73
1
 74
1
 75
0
 76
0
 77
0
 78
0
  0
ENDTAB
  0
TABLE
  2
LTYPE
  5
5
100
AcDbSymbolTable
 70
6
  0
LTYPE
  5
14
100
AcDbSymbolTableRecord
100
AcDbLinetypeTableRecord
  2
BYBLOCK
 70
0
  3

 72
65
 73
0
 40
0.0
  0
LTYPE
  5
15
100
AcDbSymbolTableRecord
100
AcDbLinetypeTableRecord
  2
BYLAYER
 70
0
  3

 72
65
 73
0
 40
0.0
  0
LTYPE
  5
16
100
AcDbSymbolTableRecord
100
AcDbLinetypeTableRecord
  2
CONTINUOUS
 70
64
  3
Solid line
 72
65
 73
0
 40
0.0
  0
LTYPE
  5
1F5
100
AcDbSymbolTableRecord
100
AcDbLinetypeTableRecord
  2
CENTER
 70
64
  3
____ _ ____ _ ____ _ ____ _ ____ _ ____ _ ____
 72
65
 73
4
 40
0.6
 49
0.375
 74
0
 49
-0.075
 74
0
 49
0.075
 74
0
 49
-0.075
 74
0
  0
LTYPE
  5
1F6
100
AcDbSymbolTableRecord
100
AcDbLinetypeTableRecord
  2
HIDDEN
 70
64
  3
- - - - - - - - - - - - - - - - - - - -
 72
65
 73
2
 40
0.2
 49
0.1
 74
0
 49
-0.1
 74
0
  0
LTYPE
  5
1F7
100
AcDbSymbolTableRecord
100
AcDbLinetypeTableRecord
  2
PHANTOM
 70
64
  3
_____ _ _ _____ _ _ _____ _ _ _____
 72
65
 73
6
 40
0.8
 49
0.45
 74
0
 49
-0.05
 74
0
 49
0.1
 74
0
 49
-0.05
 74
0
 49
0.1
 74
0
 49
-0.05
 74
0
  0
LTYPE
  5
1F8
100
AcDbSymbolTableRecord
100
AcDbLinetypeTableRecord
  2
DOT
 70
64
  3
. . . . . . . . . . . . . . . . . . . .
 72
65
 73
2
 40
0.2
 49
0.1
 74
0
 49
-0.1
 74
0
  0
LTYPE
  5
1F9
100
AcDbSymbolTableRecord
100
AcDbLinetypeTableRecord
  2
DASHED
 70
64
  3
- - - - - - - - - - - - - - - - - - - -
 72
65
 73
2
 40
0.2
 49
0.1
 74
0
 49
-0.1
 74
0
  0
ENDTAB
  0
TABLE
  2
LAYER
  5
2
100
AcDbSymbolTable
 70
36
  0
LAYER
  5
10
100
AcDbSymbolTableRecord
100
AcDbLayerTableRecord
  2
0
 70
0
 62
7
  6
CONTINUOUS
370
-3
390
F
  0
LAYER
  5
1FA
100
AcDbSymbolTableRecord
100
AcDbLayerTableRecord
  2
DEFAULT_1
 70
0
 62
7
  6
CENTER
370
-3
390
F
  0
LAYER
  5
1FB
100
AcDbSymbolTableRecord
100
AcDbLayerTableRecord
  2
DEFAULT_2
 70
0
 62
7
  6
HIDDEN
370
-3
390
F
  0
LAYER
  5
1FC
100
AcDbSymbolTableRecord
100
AcDbLayerTableRecord
  2
DEFAULT_3
 70
0
 62
7
  6
PHANTOM
370
-3
390
F
  0
LAYER
  5
1FD
100
AcDbSymbolTableRecord
100
AcDbLayerTableRecord
  2
ASSI
 70
0
 62
7
  6
CONTINUOUS
370
-3
390
F
  0
LAYER
  5
1FE
100
AcDbSymbolTableRecord
100
AcDbLayerTableRecord
  2
COORDINATE
 70
0
 62
7
  6
CONTINUOUS
370
-3
390
F
  0
LAYER
  5
1FF
100
AcDbSymbolTableRecord
100
AcDbLayerTableRecord
  2
COORD_ORIGINE
 70
0
 62
7
  6
CONTINUOUS
370
-3
390
F
  0
LAYER
  5
200
100
AcDbSymbolTableRecord
100
AcDbLayerTableRecord
  2
COPY_PUBLISH
 70
0
 62
7
  6
CONTINUOUS
370
-3
390
F
  0
LAYER
  5
201
100
AcDbSymbolTableRecord
100
AcDbLayerTableRecord
  2
COSMETIC
 70
0
 62
7
  6
CONTINUOUS
370
-3
390
F
  0
LAYER
  5
202
100
AcDbSymbolTableRecord
100
AcDbLayerTableRecord
  2
COSMETICI
 70
0
 62
7
  6
CONTINUOUS
370
-3
390
F
  0
LAYER
  5
203
100
AcDbSymbolTableRecord
100
AcDbLayerTableRecord
  2
CURVE
 70
0
 62
7
  6
CONTINUOUS
370
-3
390
F
  0
LAYER
  5
204
100
AcDbSymbolTableRecord
100
AcDbLayerTableRecord
  2
CURVE_TASSELLI
 70
0
 62
7
  6
CONTINUOUS
370
-3
390
F
  0
LAYER
  5
205
100
AcDbSymbolTableRecord
100
AcDbLayerTableRecord
  2
DRAFT
 70
0
 62
7
  6
CONTINUOUS
370
-3
390
F
  0
LAYER
  5
206
100
AcDbSymbolTableRecord
100
AcDbLayerTableRecord
  2
IMPORT_IGES
 70
0
 62
7
  6
CONTINUOUS
370
-3
390
F
  0
LAYER
  5
207
100
AcDbSymbolTableRecord
100
AcDbLayerTableRecord
  2
INTFCLR_2
 70
0
 62
7
  6
CONTINUOUS
370
-3
390
F
  0
LAYER
  5
208
100
AcDbSymbolTableRecord
100
AcDbLayerTableRecord
  2
INTFCLR_3
 70
0
 62
7
  6
CONTINUOUS
370
-3
390
F
  0
LAYER
  5
209
100
AcDbSymbolTableRecord
100
AcDbLayerTableRecord
  2
INTF_1
 70
0
 62
7
  6
CONTINUOUS
370
-3
390
F
  0
LAYER
  5
20A
100
AcDbSymbolTableRecord
100
AcDbLayerTableRecord
  2
INTF_14
 70
0
 62
7
  6
CONTINUOUS
370
-3
390
F
  0
LAYER
  5
20B
100
AcDbSymbolTableRecord
100
AcDbLayerTableRecord
  2
INTF_15
 70
0
 62
7
  6
CONTINUOUS
370
-3
390
F
  0
LAYER
  5
20C
100
AcDbSymbolTableRecord
100
AcDbLayerTableRecord
  2
INTF_18
 70
0
 62
7
  6
CONTINUOUS
370
-3
390
F
  0
LAYER
  5
20D
100
AcDbSymbolTableRecord
100
AcDbLayerTableRecord
  2
INTF_19
 70
0
 62
7
  6
CONTINUOUS
370
-3
390
F
  0
LAYER
  5
20E
100
AcDbSymbolTableRecord
100
AcDbLayerTableRecord
  2
INTF_2
 70
0
 62
7
  6
CONTINUOUS
370
-3
390
F
  0
LAYER
  5
20F
100
AcDbSymbolTableRecord
100
AcDbLayerTableRecord
  2
INTF_7
 70
0
 62
7
  6
CONTINUOUS
370
-3
390
F
  0
LAYER
  5
210
100
AcDbSymbolTableRecord
100
AcDbLayerTableRecord
  2
INTF_CYAN
 70
0
 62
7
  6
CONTINUOUS
370
-3
390
F
  0
LAYER
  5
211
100
AcDbSymbolTableRecord
100
AcDbLayerTableRecord
  2
INTF_YELLOW
 70
0
 62
7
  6
CONTINUOUS
370
-3
390
F
  0
LAYER
  5
212
100
AcDbSymbolTableRecord
100
AcDbLayerTableRecord
  2
LIVELLO_1
 70
0
 62
7
  6
CONTINUOUS
370
-3
390
F
  0
LAYER
  5
213
100
AcDbSymbolTableRecord
100
AcDbLayerTableRecord
  2
NOTE
 70
0
 62
7
  6
CONTINUOUS
370
-3
390
F
  0
LAYER
  5
214
100
AcDbSymbolTableRecord
100
AcDbLayerTableRecord
  2
PIANI
 70
0
 62
7
  6
CONTINUOUS
370
-3
390
F
  0
LAYER
  5
215
100
AcDbSymbolTableRecord
100
AcDbLayerTableRecord
  2
PIANI_ORIGINE
 70
0
 62
7
  6
CONTINUOUS
370
-3
390
F
  0
LAYER
  5
216
100
AcDbSymbolTableRecord
100
AcDbLayerTableRecord
  2
PIANI_RIFERIMENTO
 70
0
 62
7
  6
CONTINUOUS
370
-3
390
F
  0
LAYER
  5
217
100
AcDbSymbolTableRecord
100
AcDbLayerTableRecord
  2
PUNTI
 70
0
 62
7
  6
CONTINUOUS
370
-3
390
F
  0
LAYER
  5
218
100
AcDbSymbolTableRecord
100
AcDbLayerTableRecord
  2
RACCORDO
 70
0
 62
7
  6
CONTINUOUS
370
-3
390
F
  0
LAYER
  5
219
100
AcDbSymbolTableRecord
100
AcDbLayerTableRecord
  2
RGB__255__255__255__
 70
0
 62
7
  6
CONTINUOUS
370
-3
390
F
  0
LAYER
  5
21A
100
AcDbSymbolTableRecord
100
AcDbLayerTableRecord
  2
RGB____0____0____0__
 70
0
 62
7
  6
CONTINUOUS
370
-3
390
F
  0
LAYER
  5
21B
100
AcDbSymbolTableRecord
100
AcDbLayerTableRecord
  2
SIMBOLI
 70
0
 62
7
  6
CONTINUOUS
370
-3
390
F
  0
LAYER
  5
21C
100
AcDbSymbolTableRecord
100
AcDbLayerTableRecord
  2
SMUSSO
 70
0
 62
7
  6
CONTINUOUS
370
-3
390
F
  0
LAYER
  5
21D
100
AcDbSymbolTableRecord
100
AcDbLayerTableRecord
  2
SNAPLINE
 70
0
 62
7
  6
CONTINUOUS
370
-3
390
F
  0
LAYER
  5
21E
100
AcDbSymbolTableRecord
100
AcDbLayerTableRecord
  2
SUPERFICI
 70
0
 62
7
  6
CONTINUOUS
370
-3
390
F
  0
LAYER
  5
21F
100
AcDbSymbolTableRecord
100
AcDbLayerTableRecord
  2
TRASH
 70
0
 62
7
  6
CONTINUOUS
370
-3
390
F
  0
LAYER
  5
220
100
AcDbSymbolTableRecord
100
AcDbLayerTableRecord
  2
WHITE
 70
0
 62
7
  6
CONTINUOUS
370
-3
390
F
  0
LAYER
  5
221
100
AcDbSymbolTableRecord
100
AcDbLayerTableRecord
  2
XSEC_DATUMS
 70
0
 62
7
  6
CONTINUOUS
370
-3
390
F
  0
ENDTAB
  0
TABLE
  2
STYLE
  5
3
100
AcDbSymbolTable
 70
1
  0
STYLE
  5
11
100
AcDbSymbolTableRecord
100
AcDbTextStyleTableRecord
  2
STANDARD
 70
0
 40
0.0
 41
0.8
 50
0.0
 71
0
 42
0.2
  3
txt
  4

  0
STYLE
  5
222
100
AcDbSymbolTableRecord
100
AcDbTextStyleTableRecord
  2
TEXTSTYLE_1
 70
0
 40
0.0
 41
0.8
 50
0.0
 71
0
 42
0.2
  3
gdt
  4

  0
ENDTAB
  0
TABLE
  2
VIEW
  5
6
100
AcDbSymbolTable
 70
0
  0
ENDTAB
  0
TABLE
  2
UCS
  5
7
100
AcDbSymbolTable
 70
0
  0
ENDTAB
  0
TABLE
  2
APPID
  5
9
100
AcDbSymbolTable
 70
1
  0
APPID
  5
223
100
AcDbSymbolTableRecord
100
AcDbRegAppTableRecord
  2
ACAD
 70
0
  0
ENDTAB
  0
TABLE
  2
BLOCK_RECORD
  5
1
100
AcDbSymbolTable
 70
0
  0
BLOCK_RECORD
  5
224
100
AcDbSymbolTableRecord
100
AcDbBlockTableRecord
  2
*Model_Space
  0
BLOCK_RECORD
  5
225
100
AcDbSymbolTableRecord
100
AcDbBlockTableRecord
  2
*Paper_Space
  0
BLOCK_RECORD
  5
226
100
AcDbSymbolTableRecord
100
AcDbBlockTableRecord
  2
_FILLED
  0
ENDTAB
  0
TABLE
  2
DIMSTYLE
  5
A
100
AcDbSymbolTable
 70
1
100
AcDbDimStyleTable
 71
0
  0
DIMSTYLE
105
227
100
AcDbSymbolTableRecord
100
AcDbDimStyleTableRecord
  2
STANDARD
 70
0
  3

  4

 40
1.0
 41
3.0
 42
0.5
 43
0.38
 44
1.5
 45
0.0
 46
0.0
 47
0.01
 48
0.01
140
3.0
141
0.09
142
0.0
143
25.4
144
1.0
145
0.0
146
1.0
147
0.625
 71
1
 72
0
 73
0
 74
0
 75
0
 76
0
 77
1
 78
8
 79
2
170
0
171
1
172
0
173
0
174
0
175
0
176
0
177
0
178
0
270
2
179
2
271
2
272
2
273
2
274
2
275
0
280
0
281
0
282
0
283
1
284
8
285
0
286
0
287
3
288
0
340
11
278
44
341
226
342
226
343
226
344
226
  0
ENDTAB
  0
ENDSEC
  0
SECTION
  2
BLOCKS
  0
BLOCK
  5
20
100
AcDbEntity
  8
0
100
AcDbBlockBegin
  2
*Model_Space
 70
0
 10
0.0
 20
0.0
 30
0.0
  3
*Model_Space
  1

  0
ENDBLK
  5
21
100
AcDbEntity
  8
0
100
AcDbBlockEnd
  0
BLOCK
  5
1C
100
AcDbEntity
  8
0
100
AcDbBlockBegin
  2
*Paper_Space
 70
0
 10
0.0
 20
0.0
 30
0.0
  3
*Paper_Space
  1

  0
ENDBLK
  5
1D
100
AcDbEntity
  8
0
100
AcDbBlockEnd
  0
BLOCK
  5
228
100
AcDbEntity
  8
0
100
AcDbBlockBegin
  2
_FILLED
 70
64
 10
0.0
 20
0.0
  3
_FILLED
  1

  0
SOLID
  5
229
100
AcDbEntity
  8
0
  6
BYBLOCK
 62
0
100
AcDbTrace
 10
0.0
 20
0.0
 11
-1.0
 21
0.3166666667
 12
-1.0
 22
-0.3166666667
 13
-1.0
 23
-0.3166666667
  0
ENDBLK
  5
22A
100
AcDbEntity
  8
0
  6
BYBLOCK
 62
0
100
AcDbBlockEnd
  0
ENDSEC
  0
SECTION
  2
ENTITIES
  0
LINE
  5
22B
100
AcDbEntity
  8
SMUSSO
100
AcDbLine
 62
7
  6
CONTINUOUS
 10
-33.4703670361
 20
53.6431282401
 11
-31.7026000831
 21
54.6637752685
  0
LINE
  5
22C
100
AcDbEntity
  8
0
100
AcDbLine
 62
250
  6
CONTINUOUS
 10
-28.697396263
 20
55.2558286657
 11
-30.7480059285
 21
54.113161816
  0
LINE
  5
22D
100
AcDbEntity
  8
ASSI
100
AcDbLine
 62
250
  6
CONTINUOUS
 10
-28.697396263
 20
55.2558286657
 11
-30.7480059285
 21
54.113161816
  0
LINE
  5
22E
100
AcDbEntity
  8
0
100
AcDbLine
 62
7
  6
CONTINUOUS
 10
-29.1756684165
 20
55.3174035478
 11
-31.0508833429
 21
54.2874821906
  0
LINE
  5
22F
100
AcDbEntity
  8
ASSI
100
AcDbLine
 62
7
  6
CONTINUOUS
 10
-29.1756684165
 20
55.3174035478
 11
-31.0508833429
 21
54.2874821906
  0
LINE
  5
230
100
AcDbEntity
  8
0
100
AcDbLine
 62
250
  6
CONTINUOUS
 10
31.5906796841
 20
-47.6360990025
 11
32.4992387902
 21
-47.3975827305
  0
LINE
  5
231
100
AcDbEntity
  8
0
100
AcDbLine
 62
250
  6
CONTINUOUS
 10
32.9106246446
 20
-47.0219399541
 11
31.5906796841
 21
-47.3125310153
  0
LINE
  5
232
100
AcDbEntity
  8
0
100
AcDbLine
 62
250
  6
CONTINUOUS
 10
32.4432150905
 20
-44.0846927158
 11
31.9533667375
 21
-44.216353915
  0
LINE
  5
233
100
AcDbEntity
  8
0
100
AcDbLine
 62
250
  6
CONTINUOUS
 10
32.9106246446
 20
-43.9608059147
 11
32.6471165682
 21
-44.0290124539
  0
LINE
  5
234
100
AcDbEntity
  8
0
100
AcDbLine
 62
250
  6
CONTINUOUS
 10
31.5906796841
 20
-44.5837354868
 11
32.9106246446
 21
-44.2810827102
  0
LINE
  5
235
100
AcDbEntity
  8
0
100
AcDbLine
 62
250
  6
CONTINUOUS
 10
31.5906796841
 20
-45.5865340784
 11
32.3235169479
 21
-45.4721582984
  0
LINE
  5
236
100
AcDbEntity
  8
0
100
AcDbLine
 62
250
  6
CONTINUOUS
 10
32.9106246446
 20
-45.1001877365
 11
32.0523185268
 21
-45.2283847268
  0
LINE
  5
237
100
AcDbEntity
  8
SMUSSO
100
AcDbLine
 62
7
  6
CONTINUOUS
 10
-33.4703670361
 20
53.6431282401
 11
-33.4703670361
 21
-19.0227658494
  0
LINE
  5
238
100
AcDbEntity
  8
RACCORDO
100
AcDbLine
 62
250
  6
CONTINUOUS
 10
-18.3382819187
 20
25.6373139557
 11
-17.4897947853
 21
26.1272197924
  0
LINE
  5
239
100
AcDbEntity
  8
SMUSSO
100
AcDbLine
 62
7
  6
CONTINUOUS
 10
-33.4703670361
 20
-19.0227658494
 11
29.4621364895
 21
-55.3591652006
  0
LWPOLYLINE
  5
23A
100
AcDbEntity
  8
0
100
AcDbPolyline
 62
7
  6
CONTINUOUS
 90
13
 70
0
 10
-15.648822079
 20
22.44647207
 10
-15.633977643
 20
22.4563470348
 10
-15.6155990859
 20
22.4707332638
 10
-15.5984154113
 20
22.4868008392
 10
-15.5826303232
 20
22.5044078832
 10
-15.5683856537
 20
22.5234305907
 10
-15.555774469
 20
22.5437955404
 10
-15.5449274827
 20
22.5653550308
 10
-15.5359770522
 20
22.587892764
 10
-15.5289925936
 20
22.6112647861
 10
-15.5240323737
 20
22.6353214085
 10
-15.5211447265
 20
22.6598516367
 10
-15.5203288327
 20
22.6817185742
  0
LWPOLYLINE
  5
23B
100
AcDbEntity
  8
ASSI
100
AcDbPolyline
 62
7
  6
CONTINUOUS
 90
13
 70
0
 10
-15.6488220792
 20
22.4464720699
 10
-15.6339776429
 20
22.4563470349
 10
-15.6155990858
 20
22.4707332639
 10
-15.5984154111
 20
22.4868008394
 10
-15.5826303231
 20
22.5044078834
 10
-15.5683856536
 20
22.5234305908
 10
-15.5557744689
 20
22.5437955405
 10
-15.5449274826
 20
22.5653550309
 10
-15.5359770522
 20
22.587892764
 10
-15.5289925936
 20
22.6112647861
 10
-15.5240323737
 20
22.6353214085
 10
-15.5211447265
 20
22.6598516368
 10
-15.5203288327
 20
22.6817185742
  0
LINE
  5
23C
100
AcDbEntity
  8
0
100
AcDbLine
 62
250
  6
CONTINUOUS
 10
-16.2169615751
 20
22.194076039
 11
-15.5904938698
 21
22.5814930652
  0
LINE
  5
23D
100
AcDbEntity
  8
ASSI
100
AcDbLine
 62
250
  6
CONTINUOUS
 10
-16.2169615751
 20
22.194076039
 11
-15.5904938698
 21
22.5814930652
  0
LINE
  5
23E
100
AcDbEntity
  8
0
100
AcDbLine
 62
7
  6
CONTINUOUS
 10
-16.2169615751
 20
22.0951260493
 11
-15.6487569977
 21
22.4465122832
  0
LINE
  5
23F
100
AcDbEntity
  8
ASSI
100
AcDbLine
 62
7
  6
CONTINUOUS
 10
-16.2169615751
 20
22.0951260493
 11
-15.6487569977
 21
22.4465122832
  0
LWPOLYLINE
  5
240
100
AcDbEntity
  8
0
100
AcDbPolyline
 62
7
  6
CONTINUOUS
 90
11
 70
0
 10
-15.6124216778
 20
16.0112643087
 10
-15.610307673
 20
16.0129090918
 10
-15.5922498494
 20
16.0286295562
 10
-15.5758041586
 20
16.0461081312
 10
-15.5612194954
 20
16.0651216405
 10
-15.5486390499
 20
16.0855448696
 10
-15.5382187376
 20
16.1071823103
 10
-15.5301021587
 20
16.1297673739
 10
-15.5243850225
 20
16.1530602789
 10
-15.521132945
 20
16.1768499356
 10
-15.5203353223
 20
16.1960043306
  0
LWPOLYLINE
  5
241
100
AcDbEntity
  8
ASSI
100
AcDbPolyline
 62
7
  6
CONTINUOUS
 90
11
 70
0
 10
-15.6124216779
 20
16.0112643086
 10
-15.6103076802
 20
16.0129090861
 10
-15.5922498565
 20
16.0286295495
 10
-15.5758041653
 20
16.0461081237
 10
-15.5612195012
 20
16.0651216322
 10
-15.5486390547
 20
16.0855448608
 10
-15.5382187413
 20
16.1071823013
 10
-15.5301021613
 20
16.1297673652
 10
-15.5243850239
 20
16.153060271
 10
-15.5211329455
 20
16.1768499288
 10
-15.5203353224
 20
16.1960043273
  0
LINE
  5
242
100
AcDbEntity
  8
0
100
AcDbLine
 62
250
  6
CONTINUOUS
 10
-15.8382063856
 20
15.899026014
 11
-15.5904938698
 21
16.0895732376
  0
LINE
  5
243
100
AcDbEntity
  8
ASSI
100
AcDbLine
 62
250
  6
CONTINUOUS
 10
-15.8382063856
 20
15.899026014
 11
-15.5904938698
 21
16.0895732376
  0
LINE
  5
244
100
AcDbEntity
  8
0
100
AcDbLine
 62
7
  6
CONTINUOUS
 10
-15.8601325414
 20
15.8207183559
 11
-15.6124200524
 21
16.0112655589
  0
LINE
  5
245
100
AcDbEntity
  8
ASSI
100
AcDbLine
 62
7
  6
CONTINUOUS
 10
-15.8601325414
 20
15.8207183559
 11
-15.6124200524
 21
16.0112655589
  0
LINE
  5
246
100
AcDbEntity
  8
0
100
AcDbLine
 62
250
  6
CONTINUOUS
 10
-15.8025935954
 20
17.158997621
 11
-16.2169615751
 21
16.9197459213
  0
LINE
  5
247
100
AcDbEntity
  8
ASSI
100
AcDbLine
 62
250
  6
CONTINUOUS
 10
-15.8025935954
 20
17.158997621
 11
-16.2169615751
 21
16.9197459213
  0
LINE
  5
248
100
AcDbEntity
  8
0
100
AcDbLine
 62
250
  6
CONTINUOUS
 10
-15.5904938698
 20
16.7916301204
 11
-16.2169615751
 21
16.4299142768
  0
LINE
  5
249
100
AcDbEntity
  8
ASSI
100
AcDbLine
 62
250
  6
CONTINUOUS
 10
-15.5904938698
 20
16.7916301204
 11
-16.2169615751
 21
16.4299142768
  0
LINE
  5
24A
100
AcDbEntity
  8
RACCORDO
100
AcDbLine
 62
7
  6
CONTINUOUS
 10
-18.3382819187
 20
25.6373139557
 11
-18.3382819187
 21
-9.3076138911
  0
LINE
  5
24B
100
AcDbEntity
  8
RACCORDO
100
AcDbLine
 62
7
  6
CONTINUOUS
 10
-17.4897537812
 20
-10.7773077352
 11
12.7744164535
 21
-28.2514603296
  0
LWPOLYLINE
  5
24C
100
AcDbEntity
  8
0
100
AcDbPolyline
 62
7
  6
CONTINUOUS
 90
14
 70
0
 10
-15.5203288782
 20
-2.2952481857
 10
-15.5215838029
 20
-2.267796948
 10
-15.5250768757
 20
-2.2417960956
 10
-15.5307649091
 20
-2.2160560275
 10
-15.538632108
 20
-2.1906286093
 10
-15.5484094201
 20
-2.1661962978
 10
-15.5601960883
 20
-2.1423993621
 10
-15.574089251
 20
-2.1192033774
 10
-15.589539355
 20
-2.0975421777
 10
-15.6065421565
 20
-2.0773344806
 10
-15.6253683196
 20
-2.0583456761
 10
-15.6455260143
 20
-2.0411643805
 10
-15.6669321215
 20
-2.0258573433
 10
-15.680774187
 20
-2.0173603621
  0
LWPOLYLINE
  5
24D
100
AcDbEntity
  8
ASSI
100
AcDbPolyline
 62
7
  6
CONTINUOUS
 90
14
 70
0
 10
-15.5203288782
 20
-2.2952481852
 10
-15.5215838088
 20
-2.2677968829
 10
-15.5250768875
 20
-2.2417960283
 10
-15.5307649269
 20
-2.2160559602
 10
-15.5386321315
 20
-2.1906285431
 10
-15.5484094487
 20
-2.1661962339
 10
-15.5601961209
 20
-2.1423993022
 10
-15.5740892868
 20
-2.1192033229
 10
-15.5895393927
 20
-2.0975421291
 10
-15.6065421948
 20
-2.0773344387
 10
-15.6253683569
 20
-2.0583456415
 10
-15.6455260498
 20
-2.0411643528
 10
-15.6669321538
 20
-2.0258573223
 10
-15.680774187
 20
-2.0173603621
  0
LWPOLYLINE
  5
24E
100
AcDbEntity
  8
0
100
AcDbPolyline
 62
7
  6
CONTINUOUS
 90
14
 70
0
 10
-15.5203288782
 20
16.8918033189
 10
-15.5215838029
 20
16.9192545566
 10
-15.5250768757
 20
16.945255409
 10
-15.5307649091
 20
16.9709954772
 10
-15.538632108
 20
16.9964228953
 10
-15.5484094201
 20
17.0208552068
 10
-15.5601960883
 20
17.0446521425
 10
-15.574089251
 20
17.0678481272
 10
-15.589539355
 20
17.089509327
 10
-15.6065421565
 20
17.109717024
 10
-15.6253683196
 20
17.1287058285
 10
-15.6455260143
 20
17.1458871241
 10
-15.6669321215
 20
17.1611941614
 10
-15.680774187
 20
17.1696911425
  0
LWPOLYLINE
  5
24F
100
AcDbEntity
  8
ASSI
100
AcDbPolyline
 62
7
  6
CONTINUOUS
 90
14
 70
0
 10
-15.5203288782
 20
16.8918033194
 10
-15.5215838088
 20
16.9192546217
 10
-15.5250768875
 20
16.9452554763
 10
-15.5307649269
 20
16.9709955444
 10
-15.5386321315
 20
16.9964229615
 10
-15.5484094487
 20
17.0208552708
 10
-15.5601961209
 20
17.0446522025
 10
-15.5740892868
 20
17.0678481817
 10
-15.5895393927
 20
17.0895093756
 10
-15.6065421948
 20
17.1097170659
 10
-15.6253683569
 20
17.1287058632
 10
-15.6455260498
 20
17.1458871518
 10
-15.6669321538
 20
17.1611941824
 10
-15.680774187
 20
17.1696911425
  0
LWPOLYLINE
  5
250
100
AcDbEntity
  8
0
100
AcDbPolyline
 62
7
  6
CONTINUOUS
 90
15
 70
0
 10
-15.520335546
 20
4.1906121238
 10
-15.5203492827
 20
4.1930298484
 10
-15.5216930953
 20
4.2143582867
 10
-15.5252130534
 20
4.2354101474
 10
-15.5308794918
 20
4.2560199985
 10
-15.5386176144
 20
4.2759253635
 10
-15.5483360898
 20
4.2949263841
 10
-15.5600042994
 20
4.3129538326
 10
-15.5735765251
 20
4.3298736004
 10
-15.5888382368
 20
4.3453885159
 10
-15.6055246001
 20
4.3592741703
 10
-15.623533856
 20
4.3715047937
 10
-15.642589869
 20
4.3819731223
 10
-15.6622550706
 20
4.3905787998
 10
-15.6649388276
 20
4.3915995268
  0
LWPOLYLINE
  5
251
100
AcDbEntity
  8
ASSI
100
AcDbPolyline
 62
7
  6
CONTINUOUS
 90
15
 70
0
 10
-15.5203355461
 20
4.1906121261
 10
-15.5203492824
 20
4.1930298186
 10
-15.5216930912
 20
4.2143582506
 10
-15.5252130441
 20
4.2354101054
 10
-15.5308794763
 20
4.256019952
 10
-15.5386175921
 20
4.2759253138
 10
-15.5483360602
 20
4.2949263328
 10
-15.5600042629
 20
4.3129537819
 10
-15.5735764824
 20
4.3298735523
 10
-15.588838189
 20
4.3453884719
 10
-15.6055245497
 20
4.3592741325
 10
-15.6235338064
 20
4.3715047635
 10
-15.6425898234
 20
4.3819730999
 10
-15.6622550312
 20
4.3905787845
 10
-15.6649388272
 20
4.3915995267
  0
LINE
  5
252
100
AcDbEntity
  8
RACCORDO
100
AcDbLine
 62
7
  6
CONTINUOUS
 10
-16.2169615751
 20
25.3922545078
 11
-16.2169615751
 21
-8.0827901111
  0
LINE
  5
253
100
AcDbEntity
  8
0
100
AcDbLine
 62
250
  6
CONTINUOUS
 10
-16.0774350656
 20
4.1770587526
 11
-16.0774350656
 21
15.4267264795
  0
LINE
  5
254
100
AcDbEntity
  8
ASSI
100
AcDbLine
 62
250
  6
CONTINUOUS
 10
-16.0774350656
 20
4.1770587526
 11
-16.0774350656
 21
15.4267264795
  0
LINE
  5
255
100
AcDbEntity
  8
0
100
AcDbLine
 62
7
  6
CONTINUOUS
 10
-16.0213030257
 20
4.25727616
 11
-16.0213030257
 21
15.5069438872
  0
LINE
  5
256
100
AcDbEntity
  8
ASSI
100
AcDbLine
 62
7
  6
CONTINUOUS
 10
-16.0213030257
 20
4.25727616
 11
-16.0213030257
 21
15.5069438872
  0
LINE
  5
257
100
AcDbEntity
  8
0
100
AcDbLine
 62
250
  6
CONTINUOUS
 10
-15.5904938698
 20
25.0305399063
 11
-15.5904938698
 21
22.5814930652
  0
LINE
  5
258
100
AcDbEntity
  8
ASSI
100
AcDbLine
 62
250
  6
CONTINUOUS
 10
-15.5904938698
 20
25.0305399063
 11
-15.5904938698
 21
22.5814930652
  0
LINE
  5
259
100
AcDbEntity
  8
0
100
AcDbLine
 62
250
  6
CONTINUOUS
 10
-15.5904938698
 20
16.7916301204
 11
-15.5904938698
 21
16.0895732376
  0
LINE
  5
25A
100
AcDbEntity
  8
ASSI
100
AcDbLine
 62
250
  6
CONTINUOUS
 10
-15.5904938698
 20
16.7916301204
 11
-15.5904938698
 21
16.0895732376
  0
LINE
  5
25B
100
AcDbEntity
  8
0
100
AcDbLine
 62
250
  6
CONTINUOUS
 10
-15.5904938698
 20
4.0964984434
 11
-15.5904938698
 21
3.3944415606
  0
LINE
  5
25C
100
AcDbEntity
  8
ASSI
100
AcDbLine
 62
250
  6
CONTINUOUS
 10
-15.5904938698
 20
4.0964984434
 11
-15.5904938698
 21
3.3944415606
  0
LINE
  5
25D
100
AcDbEntity
  8
0
100
AcDbLine
 62
250
  6
CONTINUOUS
 10
-15.5904938698
 20
-2.3954213843
 11
-15.5904938698
 21
-9.3899967134
  0
LINE
  5
25E
100
AcDbEntity
  8
ASSI
100
AcDbLine
 62
250
  6
CONTINUOUS
 10
-15.5904938698
 20
-2.3954213843
 11
-15.5904938698
 21
-9.3899967134
  0
LINE
  5
25F
100
AcDbEntity
  8
0
100
AcDbLine
 62
7
  6
CONTINUOUS
 10
-15.5203288199
 20
24.9900274858
 11
-15.5203288199
 21
22.6817648335
  0
LINE
  5
260
100
AcDbEntity
  8
ASSI
100
AcDbLine
 62
7
  6
CONTINUOUS
 10
-15.5203288199
 20
24.9900274858
 11
-15.5203288199
 21
22.6817648335
  0
LINE
  5
261
100
AcDbEntity
  8
0
100
AcDbLine
 62
7
  6
CONTINUOUS
 10
-15.5203288199
 20
16.8919018797
 11
-15.5203288199
 21
16.1959691459
  0
LINE
  5
262
100
AcDbEntity
  8
ASSI
100
AcDbLine
 62
7
  6
CONTINUOUS
 10
-15.5203288199
 20
16.8919018797
 11
-15.5203288199
 21
16.1959691456
  0
LINE
  5
263
100
AcDbEntity
  8
0
100
AcDbLine
 62
7
  6
CONTINUOUS
 10
-15.5203288199
 20
4.1906467829
 11
-15.5203288199
 21
3.4947133289
  0
LINE
  5
264
100
AcDbEntity
  8
ASSI
100
AcDbLine
 62
7
  6
CONTINUOUS
 10
-15.5203288199
 20
4.1906467826
 11
-15.5203288199
 21
3.4947133289
  0
LINE
  5
265
100
AcDbEntity
  8
0
100
AcDbLine
 62
7
  6
CONTINUOUS
 10
-15.5203288199
 20
-2.2951496249
 11
-15.5203288199
 21
-9.4485551311
  0
LINE
  5
266
100
AcDbEntity
  8
ASSI
100
AcDbLine
 62
7
  6
CONTINUOUS
 10
-15.5203288199
 20
-2.2951496249
 11
-15.5203288199
 21
-9.4485551311
  0
LWPOLYLINE
  5
267
100
AcDbEntity
  8
0
100
AcDbPolyline
 62
7
  6
CONTINUOUS
 90
20
 70
0
 10
-16.0213030264
 20
15.506953735
 10
-16.021243568
 20
15.5118305671
 10
-16.0204722612
 20
15.5259057633
 10
-16.0186578634
 20
15.5419065306
 10
-16.0156279784
 20
15.5596975986
 10
-16.0113223445
 20
15.5787688657
 10
-16.0056985994
 20
15.5988433529
 10
-15.9987285193
 20
15.619700668
 10
-15.9905044698
 20
15.6408744279
 10
-15.9811067454
 20
15.6620714817
 10
-15.9706218234
 20
15.6830578521
 10
-15.9592357004
 20
15.7034662946
 10
-15.9471076811
 20
15.7230544629
 10
-15.9343942336
 20
15.7416372363
 10
-15.9213234034
 20
15.7589678305
 10
-15.9080783112
 20
15.7749089902
 10
-15.8948663045
 20
15.7893338664
 10
-15.8819853558
 20
15.802060228
 10
-15.8696270555
 20
15.8130636337
 10
-15.8601289334
 20
15.8207211316
  0
LWPOLYLINE
  5
268
100
AcDbEntity
  8
ASSI
100
AcDbPolyline
 62
7
  6
CONTINUOUS
 90
20
 70
0
 10
-16.0213030264
 20
15.5069537351
 10
-16.0212435679
 20
15.5118305693
 10
-16.0204722611
 20
15.5259057653
 10
-16.0186578632
 20
15.5419065324
 10
-16.015627978
 20
15.5596976004
 10
-16.0113223441
 20
15.5787688676
 10
-16.0056985988
 20
15.5988433548
 10
-15.9987285187
 20
15.6197006698
 10
-15.9905044692
 20
15.6408744295
 10
-15.9811067448
 20
15.6620714831
 10
-15.9706218228
 20
15.6830578532
 10
-15.9592356999
 20
15.7034662955
 10
-15.9471076806
 20
15.7230544637
 10
-15.9343942331
 20
15.7416372369
 10
-15.9213234028
 20
15.7589678313
 10
-15.9080783105
 20
15.7749089911
 10
-15.8948663036
 20
15.7893338673
 10
-15.8819853551
 20
15.8020602286
 10
-15.8696270553
 20
15.8130636339
 10
-15.8601289335
 20
15.8207211315
  0
LINE
  5
269
100
AcDbEntity
  8
RACCORDO
100
AcDbLine
 62
7
  6
CONTINUOUS
 10
-15.3684334377
 20
-9.5524839552
 11
13.622944591
 21
-26.2917422817
  0
LINE
  5
26A
100
AcDbEntity
  8
0
100
AcDbLine
 62
7
  6
CONTINUOUS
 10
11.4309135693
 20
-24.9850702538
 11
7.5418262728
 21
-22.7395599905
  0
LINE
  5
26B
100
AcDbEntity
  8
ASSI
100
AcDbLine
 62
7
  6
CONTINUOUS
 10
11.4309135693
 20
-24.9850702538
 11
7.5418262728
 21
-22.7395599905
  0
LINE
  5
26C
100
AcDbEntity
  8
0
100
AcDbLine
 62
7
  6
CONTINUOUS
 10
-4.4789890074
 20
-15.798891904
 11
-8.3680763039
 21
-13.5533816407
  0
LINE
  5
26D
100
AcDbEntity
  8
ASSI
100
AcDbLine
 62
7
  6
CONTINUOUS
 10
-4.4789890074
 20
-15.798891904
 11
-8.3680763039
 21
-13.5533816407
  0
LINE
  5
26E
100
AcDbEntity
  8
0
100
AcDbLine
 62
7
  6
CONTINUOUS
 10
11.6784009427
 20
-24.9646446877
 11
7.683247629
 21
-22.6579050719
  0
LINE
  5
26F
100
AcDbEntity
  8
ASSI
100
AcDbLine
 62
7
  6
CONTINUOUS
 10
11.6784009427
 20
-24.9646446877
 11
7.683247629
 21
-22.6579050719
  0
LINE
  5
270
100
AcDbEntity
  8
0
100
AcDbLine
 62
7
  6
CONTINUOUS
 10
-4.231501634
 20
-15.7784663378
 11
-8.2266549477
 21
-13.471726722
  0
LINE
  5
271
100
AcDbEntity
  8
ASSI
100
AcDbLine
 62
7
  6
CONTINUOUS
 10
-4.231501634
 20
-15.7784663378
 11
-8.2266549477
 21
-13.471726722
  0
LINE
  5
272
100
AcDbEntity
  8
0
100
AcDbLine
 62
7
  6
CONTINUOUS
 10
11.7844669599
 20
-24.7809329572
 11
7.8953796634
 21
-22.5354226939
  0
LINE
  5
273
100
AcDbEntity
  8
ASSI
100
AcDbLine
 62
7
  6
CONTINUOUS
 10
11.7844669599
 20
-24.7809329572
 11
7.8953796634
 21
-22.5354226939
  0
LINE
  5
274
100
AcDbEntity
  8
0
100
AcDbLine
 62
7
  6
CONTINUOUS
 10
-4.1254356168
 20
-15.5947546073
 11
-8.0145229133
 21
-13.349244344
  0
LINE
  5
275
100
AcDbEntity
  8
ASSI
100
AcDbLine
 62
7
  6
CONTINUOUS
 10
-4.1254356168
 20
-15.5947546073
 11
-8.0145229133
 21
-13.349244344
  0
LINE
  5
276
100
AcDbEntity
  8
0
100
AcDbLine
 62
7
  6
CONTINUOUS
 10
12.0319543333
 20
-24.760507391
 11
8.0368010196
 21
-22.4537677752
  0
LINE
  5
277
100
AcDbEntity
  8
ASSI
100
AcDbLine
 62
7
  6
CONTINUOUS
 10
12.0319543333
 20
-24.760507391
 11
8.0368010196
 21
-22.4537677752
  0
LINE
  5
278
100
AcDbEntity
  8
0
100
AcDbLine
 62
7
  6
CONTINUOUS
 10
-3.8779482434
 20
-15.5743290412
 11
-7.8731015571
 21
-13.2675894253
  0
LINE
  5
279
100
AcDbEntity
  8
ASSI
100
AcDbLine
 62
7
  6
CONTINUOUS
 10
-3.8779482434
 20
-15.5743290412
 11
-7.8731015571
 21
-13.2675894253
  0
LINE
  5
27A
100
AcDbEntity
  8
0
100
AcDbLine
 62
7
  6
CONTINUOUS
 10
12.1380203505
 20
-24.5767956605
 11
8.2489330539
 21
-22.3312853972
  0
LINE
  5
27B
100
AcDbEntity
  8
ASSI
100
AcDbLine
 62
7
  6
CONTINUOUS
 10
12.1380203505
 20
-24.5767956605
 11
8.2489330539
 21
-22.3312853972
  0
LINE
  5
27C
100
AcDbEntity
  8
0
100
AcDbLine
 62
7
  6
CONTINUOUS
 10
-3.7718822262
 20
-15.3906173106
 11
-7.6609695227
 21
-13.1451070473
  0
LINE
  5
27D
100
AcDbEntity
  8
ASSI
100
AcDbLine
 62
7
  6
CONTINUOUS
 10
-3.7718822262
 20
-15.3906173106
 11
-7.6609695227
 21
-13.1451070473
  0
LINE
  5
27E
100
AcDbEntity
  8
0
100
AcDbLine
 62
7
  6
CONTINUOUS
 10
12.3855077239
 20
-24.5563700944
 11
8.3903544102
 21
-22.2496304785
  0
LINE
  5
27F
100
AcDbEntity
  8
ASSI
100
AcDbLine
 62
7
  6
CONTINUOUS
 10
12.3855077239
 20
-24.5563700944
 11
8.3903544102
 21
-22.2496304785
  0
LINE
  5
280
100
AcDbEntity
  8
0
100
AcDbLine
 62
7
  6
CONTINUOUS
 10
-3.5243948528
 20
-15.3701917445
 11
-7.5195481665
 21
-13.0634521287
  0
LINE
  5
281
100
AcDbEntity
  8
ASSI
100
AcDbLine
 62
7
  6
CONTINUOUS
 10
-3.5243948528
 20
-15.3701917445
 11
-7.5195481665
 21
-13.0634521287
  0
LINE
  5
282
100
AcDbEntity
  8
0
100
AcDbLine
 62
7
  6
CONTINUOUS
 10
12.4915737411
 20
-24.3726583639
 11
8.6024864445
 21
-22.1271481005
  0
LINE
  5
283
100
AcDbEntity
  8
ASSI
100
AcDbLine
 62
7
  6
CONTINUOUS
 10
12.4915737411
 20
-24.3726583639
 11
8.6024864445
 21
-22.1271481005
  0
LINE
  5
284
100
AcDbEntity
  8
0
100
AcDbLine
 62
7
  6
CONTINUOUS
 10
-3.4183288356
 20
-15.186480014
 11
-7.3074161322
 21
-12.9409697507
  0
LINE
  5
285
100
AcDbEntity
  8
ASSI
100
AcDbLine
 62
7
  6
CONTINUOUS
 10
-3.4183288356
 20
-15.186480014
 11
-7.3074161322
 21
-12.9409697507
  0
LINE
  5
286
100
AcDbEntity
  8
0
100
AcDbLine
 62
7
  6
CONTINUOUS
 10
12.7390611145
 20
-24.3522327977
 11
8.7439078008
 21
-22.0454931819
  0
LINE
  5
287
100
AcDbEntity
  8
ASSI
100
AcDbLine
 62
7
  6
CONTINUOUS
 10
12.7390611145
 20
-24.3522327977
 11
8.7439078008
 21
-22.0454931819
  0
LINE
  5
288
100
AcDbEntity
  8
0
100
AcDbLine
 62
7
  6
CONTINUOUS
 10
-3.1708414622
 20
-15.1660544478
 11
-7.1659947759
 21
-12.859314832
  0
LINE
  5
289
100
AcDbEntity
  8
ASSI
100
AcDbLine
 62
7
  6
CONTINUOUS
 10
-3.1708414622
 20
-15.1660544478
 11
-7.1659947759
 21
-12.859314832
  0
LINE
  5
28A
100
AcDbEntity
  8
0
100
AcDbLine
 62
7
  6
CONTINUOUS
 10
12.8451271317
 20
-24.1685210672
 11
8.9560398351
 21
-21.9230108039
  0
LINE
  5
28B
100
AcDbEntity
  8
ASSI
100
AcDbLine
 62
7
  6
CONTINUOUS
 10
12.8451271317
 20
-24.1685210672
 11
8.9560398351
 21
-21.9230108039
  0
LINE
  5
28C
100
AcDbEntity
  8
0
100
AcDbLine
 62
7
  6
CONTINUOUS
 10
-3.064775445
 20
-14.9823427173
 11
-6.9538627416
 21
-12.736832454
  0
LINE
  5
28D
100
AcDbEntity
  8
ASSI
100
AcDbLine
 62
7
  6
CONTINUOUS
 10
-3.064775445
 20
-14.9823427173
 11
-6.9538627416
 21
-12.736832454
  0
LINE
  5
28E
100
AcDbEntity
  8
0
100
AcDbLine
 62
7
  6
CONTINUOUS
 10
13.0926145051
 20
-24.148095501
 11
9.0974611914
 21
-21.8413558852
  0
LINE
  5
28F
100
AcDbEntity
  8
ASSI
100
AcDbLine
 62
7
  6
CONTINUOUS
 10
13.0926145051
 20
-24.148095501
 11
9.0974611914
 21
-21.8413558852
  0
LINE
  5
290
100
AcDbEntity
  8
0
100
AcDbLine
 62
7
  6
CONTINUOUS
 10
-2.8172880716
 20
-14.9619171512
 11
-6.8124413853
 21
-12.6551775353
  0
LINE
  5
291
100
AcDbEntity
  8
ASSI
100
AcDbLine
 62
7
  6
CONTINUOUS
 10
-2.8172880716
 20
-14.9619171512
 11
-6.8124413853
 21
-12.6551775353
  0
LINE
  5
292
100
AcDbEntity
  8
0
100
AcDbLine
 62
7
  6
CONTINUOUS
 10
13.1986805223
 20
-23.9643837705
 11
9.3095932257
 21
-21.7188735072
  0
LINE
  5
293
100
AcDbEntity
  8
ASSI
100
AcDbLine
 62
7
  6
CONTINUOUS
 10
13.1986805223
 20
-23.9643837705
 11
9.3095932257
 21
-21.7188735072
  0
LINE
  5
294
100
AcDbEntity
  8
0
100
AcDbLine
 62
7
  6
CONTINUOUS
 10
-2.7112220544
 20
-14.7782054206
 11
-6.600309351
 21
-12.5326951573
  0
LINE
  5
295
100
AcDbEntity
  8
ASSI
100
AcDbLine
 62
7
  6
CONTINUOUS
 10
-2.7112220544
 20
-14.7782054206
 11
-6.600309351
 21
-12.5326951573
  0
LINE
  5
296
100
AcDbEntity
  8
0
100
AcDbLine
 62
7
  6
CONTINUOUS
 10
13.4461678957
 20
-23.9439582044
 11
9.451014582
 21
-21.6372185886
  0
LINE
  5
297
100
AcDbEntity
  8
ASSI
100
AcDbLine
 62
7
  6
CONTINUOUS
 10
13.4461678957
 20
-23.9439582044
 11
9.451014582
 21
-21.6372185886
  0
LINE
  5
298
100
AcDbEntity
  8
0
100
AcDbLine
 62
7
  6
CONTINUOUS
 10
-2.463734681
 20
-14.7577798545
 11
-6.4588879947
 21
-12.4510402387
  0
LINE
  5
299
100
AcDbEntity
  8
ASSI
100
AcDbLine
 62
7
  6
CONTINUOUS
 10
-2.463734681
 20
-14.7577798545
 11
-6.4588879947
 21
-12.4510402387
  0
LINE
  5
29A
100
AcDbEntity
  8
0
100
AcDbLine
 62
250
  6
CONTINUOUS
 10
13.622944591
 20
-23.9234429132
 11
9.4846095846
 21
-21.5340201461
  0
LINE
  5
29B
100
AcDbEntity
  8
ASSI
100
AcDbLine
 62
250
  6
CONTINUOUS
 10
13.622944591
 20
-23.9234429132
 11
9.4846095846
 21
-21.5340201461
  0
LINE
  5
29C
100
AcDbEntity
  8
0
100
AcDbLine
 62
250
  6
CONTINUOUS
 10
-2.1789557338
 20
-14.79962371
 11
-6.4252929921
 21
-12.3478417962
  0
LINE
  5
29D
100
AcDbEntity
  8
ASSI
100
AcDbLine
 62
250
  6
CONTINUOUS
 10
-2.1789557338
 20
-14.79962371
 11
-6.4252929921
 21
-12.3478417962
  0
LINE
  5
29E
100
AcDbEntity
  8
0
100
AcDbLine
 62
250
  6
CONTINUOUS
 10
13.622944591
 20
-23.8462452191
 11
9.5586567375
 21
-21.49957635
  0
LINE
  5
29F
100
AcDbEntity
  8
ASSI
100
AcDbLine
 62
250
  6
CONTINUOUS
 10
13.622944591
 20
-23.8462452191
 11
9.5586567375
 21
-21.49957635
  0
LINE
  5
2A0
100
AcDbEntity
  8
0
100
AcDbLine
 62
250
  6
CONTINUOUS
 10
-2.1122833778
 20
-14.7609217986
 11
-6.3512458392
 21
-12.3133980001
  0
LINE
  5
2A1
100
AcDbEntity
  8
ASSI
100
AcDbLine
 62
250
  6
CONTINUOUS
 10
-2.1122833778
 20
-14.7609217986
 11
-6.3512458392
 21
-12.3133980001
  0
LINE
  5
2A2
100
AcDbEntity
  8
0
100
AcDbLine
 62
7
  6
CONTINUOUS
 10
-4.765644106
 20
-11.795572047
 11
-0.9396427154
 21
-14.0046572988
  0
LINE
  5
2A3
100
AcDbEntity
  8
ASSI
100
AcDbLine
 62
7
  6
CONTINUOUS
 10
-4.765644106
 20
-11.795572047
 11
-0.9396427154
 21
-14.0046572988
  0
LINE
  5
2A4
100
AcDbEntity
  8
0
100
AcDbLine
 62
7
  6
CONTINUOUS
 10
11.1442584707
 20
-20.9817503968
 11
13.622944591
 21
-22.4129126974
  0
LINE
  5
2A5
100
AcDbEntity
  8
ASSI
100
AcDbLine
 62
7
  6
CONTINUOUS
 10
11.1442584707
 20
-20.9817503968
 11
13.622944591
 21
-22.4129126974
  0
LWPOLYLINE
  5
2A6
100
AcDbEntity
  8
0
100
AcDbPolyline
 62
7
  6
CONTINUOUS
 90
13
 70
0
 10
-15.648822079
 20
3.2594205654
 10
-15.633977643
 20
3.2692955302
 10
-15.6155990859
 20
3.2836817592
 10
-15.5984154113
 20
3.2997493346
 10
-15.5826303232
 20
3.3173563786
 10
-15.5683856537
 20
3.336379086
 10
-15.555774469
 20
3.3567440357
 10
-15.5449274827
 20
3.3783035262
 10
-15.5359770522
 20
3.4008412593
 10
-15.5289925936
 20
3.4242132815
 10
-15.5240323737
 20
3.4482699039
 10
-15.5211447265
 20
3.4728001321
 10
-15.5203288327
 20
3.4946670696
  0
LWPOLYLINE
  5
2A7
100
AcDbEntity
  8
ASSI
100
AcDbPolyline
 62
7
  6
CONTINUOUS
 90
13
 70
0
 10
-15.6488220792
 20
3.2594205653
 10
-15.6339776429
 20
3.2692955302
 10
-15.6155990858
 20
3.2836817593
 10
-15.5984154111
 20
3.2997493348
 10
-15.5826303231
 20
3.3173563788
 10
-15.5683856536
 20
3.3363790862
 10
-15.5557744689
 20
3.3567440359
 10
-15.5449274826
 20
3.3783035263
 10
-15.5359770522
 20
3.4008412594
 10
-15.5289925936
 20
3.4242132815
 10
-15.5240323737
 20
3.4482699039
 10
-15.5211447265
 20
3.4728001321
 10
-15.5203288327
 20
3.4946670696
  0
LINE
  5
2A8
100
AcDbEntity
  8
0
100
AcDbLine
 62
250
  6
CONTINUOUS
 10
-16.2169615751
 20
3.0070245344
 11
-15.5904938698
 21
3.3944415606
  0
LINE
  5
2A9
100
AcDbEntity
  8
ASSI
100
AcDbLine
 62
250
  6
CONTINUOUS
 10
-16.2169615751
 20
3.0070245344
 11
-15.5904938698
 21
3.3944415606
  0
LINE
  5
2AA
100
AcDbEntity
  8
0
100
AcDbLine
 62
7
  6
CONTINUOUS
 10
-16.2169615751
 20
2.9080745447
 11
-15.6487569977
 21
3.2594607786
  0
LINE
  5
2AB
100
AcDbEntity
  8
ASSI
100
AcDbLine
 62
7
  6
CONTINUOUS
 10
-16.2169615751
 20
2.9080745447
 11
-15.6487569977
 21
3.2594607786
  0
LINE
  5
2AC
100
AcDbEntity
  8
0
100
AcDbLine
 62
250
  6
CONTINUOUS
 10
-15.7389983495
 20
4.3613694838
 11
-15.9867108653
 21
4.2557009787
  0
LINE
  5
2AD
100
AcDbEntity
  8
ASSI
100
AcDbLine
 62
250
  6
CONTINUOUS
 10
-15.7389983495
 20
4.3613694838
 11
-15.9867108653
 21
4.2557009787
  0
LINE
  5
2AE
100
AcDbEntity
  8
0
100
AcDbLine
 62
250
  6
CONTINUOUS
 10
-15.5904938698
 20
4.0964984434
 11
-15.8382063856
 21
3.9908299383
  0
LINE
  5
2AF
100
AcDbEntity
  8
ASSI
100
AcDbLine
 62
250
  6
CONTINUOUS
 10
-15.5904938698
 20
4.0964984434
 11
-15.8382063856
 21
3.9908299383
  0
LINE
  5
2B0
100
AcDbEntity
  8
0
100
AcDbLine
 62
250
  6
CONTINUOUS
 10
-16.2169615751
 20
-1.7888030054
 11
-15.8025935954
 21
-2.0280538836
  0
LINE
  5
2B1
100
AcDbEntity
  8
ASSI
100
AcDbLine
 62
250
  6
CONTINUOUS
 10
-16.2169615751
 20
-1.7888030054
 11
-15.8025935954
 21
-2.0280538836
  0
LINE
  5
2B2
100
AcDbEntity
  8
0
100
AcDbLine
 62
7
  6
CONTINUOUS
 10
-16.2169615751
 20
-1.7077723891
 11
-15.6806726964
 21
-2.0174188664
  0
LINE
  5
2B3
100
AcDbEntity
  8
ASSI
100
AcDbLine
 62
7
  6
CONTINUOUS
 10
-16.2169615751
 20
-1.7077723891
 11
-15.6806726964
 21
-2.0174188664
  0
LWPOLYLINE
  5
2B4
100
AcDbEntity
  8
ASSI
100
AcDbPolyline
 62
7
  6
CONTINUOUS
 90
8
 70
0
 10
-16.0171764139
 20
4.2236097788
 10
-16.0169612597
 20
4.2231953314
 10
-16.0171880834
 20
4.2238013313
 10
-16.0180332663
 20
4.226509548
 10
-16.0191399547
 20
4.2312943245
 10
-16.0201929772
 20
4.2379403914
 10
-16.0209715109
 20
4.2463146625
 10
-16.0213030274
 20
4.2572613052
  0
LWPOLYLINE
  5
2B5
100
AcDbEntity
  8
0
100
AcDbPolyline
 62
7
  6
CONTINUOUS
 90
8
 70
0
 10
-16.0171764145
 20
4.2236097799
 10
-16.0169612598
 20
4.2231953317
 10
-16.0171880829
 20
4.2238013299
 10
-16.0180332656
 20
4.2265095452
 10
-16.0191399539
 20
4.2312943204
 10
-16.0201929765
 20
4.2379403863
 10
-16.0209715105
 20
4.2463146568
 10
-16.0213030274
 20
4.2572613052
  0
LINE
  5
2B6
100
AcDbEntity
  8
0
100
AcDbLine
 62
250
  6
CONTINUOUS
 10
-15.8025935954
 20
-2.0280538836
 11
-16.2169615751
 21
-2.2673055833
  0
LINE
  5
2B7
100
AcDbEntity
  8
ASSI
100
AcDbLine
 62
250
  6
CONTINUOUS
 10
-15.8025935954
 20
-2.0280538836
 11
-16.2169615751
 21
-2.2673055833
  0
LINE
  5
2B8
100
AcDbEntity
  8
0
100
AcDbLine
 62
250
  6
CONTINUOUS
 10
-15.5904938698
 20
-2.3954213843
 11
-16.2169615751
 21
-2.7571372278
  0
LINE
  5
2B9
100
AcDbEntity
  8
ASSI
100
AcDbLine
 62
250
  6
CONTINUOUS
 10
-15.5904938698
 20
-2.3954213843
 11
-16.2169615751
 21
-2.7571372278
  0
LINE
  5
2BA
100
AcDbEntity
  8
0
100
AcDbLine
 62
250
  6
CONTINUOUS
 10
-0.9324351065
 20
-14.1481069522
 11
-0.9324351065
 21
-14.5554765901
  0
LINE
  5
2BB
100
AcDbEntity
  8
ASSI
100
AcDbLine
 62
250
  6
CONTINUOUS
 10
-0.9324351065
 20
-14.1481069522
 11
-0.9324351065
 21
-14.5554765901
  0
LINE
  5
2BC
100
AcDbEntity
  8
0
100
AcDbLine
 62
7
  6
CONTINUOUS
 10
-0.8810640716
 20
-14.0815294453
 11
-0.8810640716
 21
-14.5249312953
  0
LINE
  5
2BD
100
AcDbEntity
  8
ASSI
100
AcDbLine
 62
7
  6
CONTINUOUS
 10
-0.8810640716
 20
-14.0815294453
 11
-0.8810640716
 21
-14.5249312953
  0
LINE
  5
2BE
100
AcDbEntity
  8
0
100
AcDbLine
 62
7
  6
CONTINUOUS
 10
-8.3858385403
 20
-13.5841467365
 11
-8.3680763039
 21
-13.5533816407
  0
LINE
  5
2BF
100
AcDbEntity
  8
ASSI
100
AcDbLine
 62
7
  6
CONTINUOUS
 10
-8.3858385403
 20
-13.5841467365
 11
-8.3680763039
 21
-13.5533816407
  0
LINE
  5
2C0
100
AcDbEntity
  8
0
100
AcDbLine
 62
7
  6
CONTINUOUS
 10
-8.1205889305
 20
-13.5329560745
 11
-8.0145229133
 21
-13.349244344
  0
LINE
  5
2C1
100
AcDbEntity
  8
ASSI
100
AcDbLine
 62
7
  6
CONTINUOUS
 10
-8.1205889305
 20
-13.5329560745
 11
-8.0145229133
 21
-13.349244344
  0
LINE
  5
2C2
100
AcDbEntity
  8
0
100
AcDbLine
 62
7
  6
CONTINUOUS
 10
-7.7670355399
 20
-13.3288187779
 11
-7.6609695227
 21
-13.1451070473
  0
LINE
  5
2C3
100
AcDbEntity
  8
ASSI
100
AcDbLine
 62
7
  6
CONTINUOUS
 10
-7.7670355399
 20
-13.3288187779
 11
-7.6609695227
 21
-13.1451070473
  0
LINE
  5
2C4
100
AcDbEntity
  8
0
100
AcDbLine
 62
7
  6
CONTINUOUS
 10
-7.4134821493
 20
-13.1246814812
 11
-7.3074161322
 21
-12.9409697507
  0
LINE
  5
2C5
100
AcDbEntity
  8
ASSI
100
AcDbLine
 62
7
  6
CONTINUOUS
 10
-7.4134821493
 20
-13.1246814812
 11
-7.3074161322
 21
-12.9409697507
  0
LINE
  5
2C6
100
AcDbEntity
  8
0
100
AcDbLine
 62
7
  6
CONTINUOUS
 10
-7.0599287587
 20
-12.9205441845
 11
-6.9538627416
 21
-12.736832454
  0
LINE
  5
2C7
100
AcDbEntity
  8
ASSI
100
AcDbLine
 62
7
  6
CONTINUOUS
 10
-7.0599287587
 20
-12.9205441845
 11
-6.9538627416
 21
-12.736832454
  0
LINE
  5
2C8
100
AcDbEntity
  8
0
100
AcDbLine
 62
7
  6
CONTINUOUS
 10
-6.7063753681
 20
-12.7164068879
 11
-6.600309351
 21
-12.5326951573
  0
LINE
  5
2C9
100
AcDbEntity
  8
ASSI
100
AcDbLine
 62
7
  6
CONTINUOUS
 10
-6.7063753681
 20
-12.7164068879
 11
-6.600309351
 21
-12.5326951573
  0
LINE
  5
2CA
100
AcDbEntity
  8
RACCORDO
100
AcDbLine
 62
250
  6
CONTINUOUS
 10
-18.3382819187
 20
-9.3076138911
 11
-16.2169615751
 21
-8.0827901111
  0
LINE
  5
2CB
100
AcDbEntity
  8
SMUSSO
100
AcDbLine
 62
7
  6
CONTINUOUS
 10
29.4621364895
 20
18.1231991657
 11
30.5227966613
 21
18.7356110557
  0
LINE
  5
2CC
100
AcDbEntity
  8
SMUSSO
100
AcDbLine
 62
7
  6
CONTINUOUS
 10
29.4621364895
 20
17.306689434
 11
28.7550297084
 21
16.8984542956
  0
LINE
  5
2CD
100
AcDbEntity
  8
SMUSSO
100
AcDbLine
 62
7
  6
CONTINUOUS
 10
30.1692432707
 20
16.8984542956
 11
31.2299034425
 21
17.5108661856
  0
LINE
  5
2CE
100
AcDbEntity
  8
0
100
AcDbLine
 62
250
  6
CONTINUOUS
 10
30.4874413223
 20
18.7565820338
 11
32.5380509877
 21
19.8992488836
  0
LINE
  5
2CF
100
AcDbEntity
  8
ASSI
100
AcDbLine
 62
250
  6
CONTINUOUS
 10
30.4874413223
 20
18.7565820338
 11
32.5380509877
 21
19.8992488836
  0
LINE
  5
2D0
100
AcDbEntity
  8
0
100
AcDbLine
 62
250
  6
CONTINUOUS
 10
-16.0175789709
 20
4.2672391422
 11
-15.9867108653
 21
4.2557009787
  0
LINE
  5
2D1
100
AcDbEntity
  8
ASSI
100
AcDbLine
 62
250
  6
CONTINUOUS
 10
-16.0175789709
 20
4.2672391422
 11
-15.9867108653
 21
4.2557009787
  0
LINE
  5
2D2
100
AcDbEntity
  8
0
100
AcDbLine
 62
250
  6
CONTINUOUS
 10
-16.0213030257
 20
4.4942099726
 11
-15.7396100005
 21
4.3889161714
  0
LINE
  5
2D3
100
AcDbEntity
  8
ASSI
100
AcDbLine
 62
250
  6
CONTINUOUS
 10
-16.0213030257
 20
4.4942099726
 11
-15.7396100005
 21
4.3889161714
  0
LINE
  5
2D4
100
AcDbEntity
  8
0
100
AcDbLine
 62
7
  6
CONTINUOUS
 10
-16.0213030257
 20
4.524804604
 11
-15.6649476947
 21
4.3916028418
  0
LINE
  5
2D5
100
AcDbEntity
  8
ASSI
100
AcDbLine
 62
7
  6
CONTINUOUS
 10
-16.0213030257
 20
4.524804604
 11
-15.6649476947
 21
4.3916028418
  0
LINE
  5
2D6
100
AcDbEntity
  8
0
100
AcDbLine
 62
7
  6
CONTINUOUS
 10
-4.4967512438
 20
-15.8296569998
 11
-4.4789890074
 21
-15.798891904
  0
LINE
  5
2D7
100
AcDbEntity
  8
ASSI
100
AcDbLine
 62
7
  6
CONTINUOUS
 10
-4.4967512438
 20
-15.8296569998
 11
-4.4789890074
 21
-15.798891904
  0
LINE
  5
2D8
100
AcDbEntity
  8
0
100
AcDbLine
 62
7
  6
CONTINUOUS
 10
-4.231501634
 20
-15.7784663378
 11
-4.1254356168
 21
-15.5947546073
  0
LINE
  5
2D9
100
AcDbEntity
  8
ASSI
100
AcDbLine
 62
7
  6
CONTINUOUS
 10
-4.231501634
 20
-15.7784663378
 11
-4.1254356168
 21
-15.5947546073
  0
LINE
  5
2DA
100
AcDbEntity
  8
0
100
AcDbLine
 62
7
  6
CONTINUOUS
 10
-3.8779482434
 20
-15.5743290412
 11
-3.7718822262
 21
-15.3906173106
  0
LINE
  5
2DB
100
AcDbEntity
  8
ASSI
100
AcDbLine
 62
7
  6
CONTINUOUS
 10
-3.8779482434
 20
-15.5743290412
 11
-3.7718822262
 21
-15.3906173106
  0
LINE
  5
2DC
100
AcDbEntity
  8
0
100
AcDbLine
 62
7
  6
CONTINUOUS
 10
-3.5243948528
 20
-15.3701917445
 11
-3.4183288356
 21
-15.186480014
  0
LINE
  5
2DD
100
AcDbEntity
  8
ASSI
100
AcDbLine
 62
7
  6
CONTINUOUS
 10
-3.5243948528
 20
-15.3701917445
 11
-3.4183288356
 21
-15.186480014
  0
LINE
  5
2DE
100
AcDbEntity
  8
0
100
AcDbLine
 62
7
  6
CONTINUOUS
 10
-3.1708414622
 20
-15.1660544478
 11
-3.064775445
 21
-14.9823427173
  0
LINE
  5
2DF
100
AcDbEntity
  8
ASSI
100
AcDbLine
 62
7
  6
CONTINUOUS
 10
-3.1708414622
 20
-15.1660544478
 11
-3.064775445
 21
-14.9823427173
  0
LINE
  5
2E0
100
AcDbEntity
  8
0
100
AcDbLine
 62
250
  6
CONTINUOUS
 10
31.2303416283
 20
17.4698409601
 11
33.2451577689
 21
18.6745040134
  0
LINE
  5
2E1
100
AcDbEntity
  8
ASSI
100
AcDbLine
 62
250
  6
CONTINUOUS
 10
31.2303416283
 20
17.4698409601
 11
33.2451577689
 21
18.6745040134
  0
LINE
  5
2E2
100
AcDbEntity
  8
RACCORDO
100
AcDbLine
 62
250
  6
CONTINUOUS
 10
-17.4897537812
 20
-10.7773077352
 11
-15.3684334377
 21
-9.5524839552
  0
LINE
  5
2E3
100
AcDbEntity
  8
0
100
AcDbLine
 62
7
  6
CONTINUOUS
 10
-2.8172880716
 20
-14.9619171512
 11
-2.7112220544
 21
-14.7782054206
  0
LINE
  5
2E4
100
AcDbEntity
  8
ASSI
100
AcDbLine
 62
7
  6
CONTINUOUS
 10
-2.8172880716
 20
-14.9619171512
 11
-2.7112220544
 21
-14.7782054206
  0
LINE
  5
2E5
100
AcDbEntity
  8
0
100
AcDbLine
 62
7
  6
CONTINUOUS
 10
-8.3680763039
 20
-13.5533816407
 11
-8.2266549477
 21
-13.471726722
  0
LINE
  5
2E6
100
AcDbEntity
  8
ASSI
100
AcDbLine
 62
7
  6
CONTINUOUS
 10
-8.3680763039
 20
-13.5533816407
 11
-8.2266549477
 21
-13.471726722
  0
LINE
  5
2E7
100
AcDbEntity
  8
0
100
AcDbLine
 62
7
  6
CONTINUOUS
 10
-8.0145229133
 20
-13.349244344
 11
-7.8731015571
 21
-13.2675894253
  0
LINE
  5
2E8
100
AcDbEntity
  8
ASSI
100
AcDbLine
 62
7
  6
CONTINUOUS
 10
-8.0145229133
 20
-13.349244344
 11
-7.8731015571
 21
-13.2675894253
  0
LINE
  5
2E9
100
AcDbEntity
  8
0
100
AcDbLine
 62
7
  6
CONTINUOUS
 10
-7.6609695227
 20
-13.1451070473
 11
-7.5195481665
 21
-13.0634521287
  0
LINE
  5
2EA
100
AcDbEntity
  8
ASSI
100
AcDbLine
 62
7
  6
CONTINUOUS
 10
-7.6609695227
 20
-13.1451070473
 11
-7.5195481665
 21
-13.0634521287
  0
LINE
  5
2EB
100
AcDbEntity
  8
0
100
AcDbLine
 62
7
  6
CONTINUOUS
 10
-7.3074161322
 20
-12.9409697507
 11
-7.1659947759
 21
-12.859314832
  0
LINE
  5
2EC
100
AcDbEntity
  8
ASSI
100
AcDbLine
 62
7
  6
CONTINUOUS
 10
-7.3074161322
 20
-12.9409697507
 11
-7.1659947759
 21
-12.859314832
  0
LINE
  5
2ED
100
AcDbEntity
  8
0
100
AcDbLine
 62
7
  6
CONTINUOUS
 10
-6.9538627416
 20
-12.736832454
 11
-6.8124413853
 21
-12.6551775353
  0
LINE
  5
2EE
100
AcDbEntity
  8
ASSI
100
AcDbLine
 62
7
  6
CONTINUOUS
 10
-6.9538627416
 20
-12.736832454
 11
-6.8124413853
 21
-12.6551775353
  0
LINE
  5
2EF
100
AcDbEntity
  8
0
100
AcDbLine
 62
7
  6
CONTINUOUS
 10
-6.600309351
 20
-12.5326951573
 11
-6.4588879947
 21
-12.4510402387
  0
LINE
  5
2F0
100
AcDbEntity
  8
ASSI
100
AcDbLine
 62
7
  6
CONTINUOUS
 10
-6.600309351
 20
-12.5326951573
 11
-6.4588879947
 21
-12.4510402387
  0
LINE
  5
2F1
100
AcDbEntity
  8
0
100
AcDbLine
 62
7
  6
CONTINUOUS
 10
-8.583650093
 20
-13.4699328251
 11
-6.4252929921
 21
-12.3478417962
  0
LINE
  5
2F2
100
AcDbEntity
  8
ASSI
100
AcDbLine
 62
7
  6
CONTINUOUS
 10
-8.583650093
 20
-13.4699328251
 11
-6.4252929921
 21
-12.3478417962
  0
LINE
  5
2F3
100
AcDbEntity
  8
0
100
AcDbLine
 62
7
  6
CONTINUOUS
 10
-6.3512458392
 20
-12.3133980001
 11
-5.0408915835
 21
-11.7759356735
  0
LINE
  5
2F4
100
AcDbEntity
  8
ASSI
100
AcDbLine
 62
7
  6
CONTINUOUS
 10
-6.3512458392
 20
-12.3133980001
 11
-5.0408915835
 21
-11.7759356735
  0
LINE
  5
2F5
100
AcDbEntity
  8
0
100
AcDbLine
 62
250
  6
CONTINUOUS
 10
-16.2169615751
 20
17.3982484993
 11
-15.8025935954
 21
17.158997621
  0
LINE
  5
2F6
100
AcDbEntity
  8
ASSI
100
AcDbLine
 62
250
  6
CONTINUOUS
 10
-16.2169615751
 20
17.3982484993
 11
-15.8025935954
 21
17.158997621
  0
LINE
  5
2F7
100
AcDbEntity
  8
0
100
AcDbLine
 62
7
  6
CONTINUOUS
 10
-16.2169615751
 20
17.4792791155
 11
-15.6806726964
 21
17.1696326382
  0
LINE
  5
2F8
100
AcDbEntity
  8
ASSI
100
AcDbLine
 62
7
  6
CONTINUOUS
 10
-16.2169615751
 20
17.4792791155
 11
-15.6806726964
 21
17.1696326382
  0
LINE
  5
2F9
100
AcDbEntity
  8
0
100
AcDbLine
 62
250
  6
CONTINUOUS
 10
-2.8769145195
 20
-15.8271142436
 11
-2.5409695546
 21
-15.5003606538
  0
LINE
  5
2FA
100
AcDbEntity
  8
ASSI
100
AcDbLine
 62
250
  6
CONTINUOUS
 10
-2.8769145195
 20
-15.8271142436
 11
-2.5409695546
 21
-15.5003606538
  0
LINE
  5
2FB
100
AcDbEntity
  8
0
100
AcDbLine
 62
7
  6
CONTINUOUS
 10
-2.8729896249
 20
-15.8606494082
 11
-2.4440052813
 21
-15.4434019753
  0
LINE
  5
2FC
100
AcDbEntity
  8
ASSI
100
AcDbLine
 62
7
  6
CONTINUOUS
 10
-2.8729896249
 20
-15.8606494082
 11
-2.4440052813
 21
-15.4434019753
  0
LINE
  5
2FD
100
AcDbEntity
  8
0
100
AcDbLine
 62
7
  6
CONTINUOUS
 10
-2.1789557338
 20
-14.79962371
 11
-4.1223491965
 21
-16.0458320495
  0
LINE
  5
2FE
100
AcDbEntity
  8
ASSI
100
AcDbLine
 62
7
  6
CONTINUOUS
 10
-2.1789557338
 20
-14.79962371
 11
-4.1223491965
 21
-16.0458320495
  0
LINE
  5
2FF
100
AcDbEntity
  8
0
100
AcDbLine
 62
7
  6
CONTINUOUS
 10
-3.793143145
 20
-16.2359114978
 11
-0.9324351065
 21
-14.5554765901
  0
LINE
  5
300
100
AcDbEntity
  8
ASSI
100
AcDbLine
 62
7
  6
CONTINUOUS
 10
-3.793143145
 20
-16.2359114978
 11
-0.9324351065
 21
-14.5554765901
  0
LINE
  5
301
100
AcDbEntity
  8
0
100
AcDbLine
 62
7
  6
CONTINUOUS
 10
-2.9316039746
 20
-15.9051134333
 11
-3.6470665773
 21
-16.3202542772
  0
LINE
  5
302
100
AcDbEntity
  8
ASSI
100
AcDbLine
 62
7
  6
CONTINUOUS
 10
-2.9316039746
 20
-15.9051134333
 11
-3.6470665773
 21
-16.3202542772
  0
LINE
  5
303
100
AcDbEntity
  8
0
100
AcDbLine
 62
250
  6
CONTINUOUS
 10
-2.8769145195
 20
-15.8271142436
 11
-3.687299674
 21
-16.2970241914
  0
LINE
  5
304
100
AcDbEntity
  8
ASSI
100
AcDbLine
 62
250
  6
CONTINUOUS
 10
-2.8769145195
 20
-15.8271142436
 11
-3.687299674
 21
-16.2970241914
  0
LINE
  5
305
100
AcDbEntity
  8
0
100
AcDbLine
 62
7
  6
CONTINUOUS
 10
-4.4789890074
 20
-15.798891904
 11
-4.3375676512
 21
-15.7172369853
  0
LINE
  5
306
100
AcDbEntity
  8
ASSI
100
AcDbLine
 62
7
  6
CONTINUOUS
 10
-4.4789890074
 20
-15.798891904
 11
-4.3375676512
 21
-15.7172369853
  0
LINE
  5
307
100
AcDbEntity
  8
0
100
AcDbLine
 62
7
  6
CONTINUOUS
 10
-4.1254356168
 20
-15.5947546073
 11
-3.9840142606
 21
-15.5130996886
  0
LINE
  5
308
100
AcDbEntity
  8
ASSI
100
AcDbLine
 62
7
  6
CONTINUOUS
 10
-4.1254356168
 20
-15.5947546073
 11
-3.9840142606
 21
-15.5130996886
  0
LINE
  5
309
100
AcDbEntity
  8
0
100
AcDbLine
 62
7
  6
CONTINUOUS
 10
-3.7718822262
 20
-15.3906173106
 11
-3.63046087
 21
-15.308962392
  0
LINE
  5
30A
100
AcDbEntity
  8
ASSI
100
AcDbLine
 62
7
  6
CONTINUOUS
 10
-3.7718822262
 20
-15.3906173106
 11
-3.63046087
 21
-15.308962392
  0
LINE
  5
30B
100
AcDbEntity
  8
0
100
AcDbLine
 62
7
  6
CONTINUOUS
 10
-3.064775445
 20
-14.9823427173
 11
-2.9233540888
 21
-14.9006877986
  0
LINE
  5
30C
100
AcDbEntity
  8
0
100
AcDbLine
 62
7
  6
CONTINUOUS
 10
-3.4183288356
 20
-15.186480014
 11
-3.2769074794
 21
-15.1048250953
  0
LINE
  5
30D
100
AcDbEntity
  8
ASSI
100
AcDbLine
 62
7
  6
CONTINUOUS
 10
-3.064775445
 20
-14.9823427173
 11
-2.9233540888
 21
-14.9006877986
  0
LINE
  5
30E
100
AcDbEntity
  8
ASSI
100
AcDbLine
 62
7
  6
CONTINUOUS
 10
-3.4183288356
 20
-15.186480014
 11
-3.2769074794
 21
-15.1048250953
  0
LINE
  5
30F
100
AcDbEntity
  8
0
100
AcDbLine
 62
7
  6
CONTINUOUS
 10
-2.7112220544
 20
-14.7782054206
 11
-2.5698006982
 21
-14.696550502
  0
LINE
  5
310
100
AcDbEntity
  8
ASSI
100
AcDbLine
 62
7
  6
CONTINUOUS
 10
-2.7112220544
 20
-14.7782054206
 11
-2.5698006982
 21
-14.696550502
  0
LINE
  5
311
100
AcDbEntity
  8
0
100
AcDbLine
 62
7
  6
CONTINUOUS
 10
-2.463734681
 20
-14.7577798545
 11
-4.4084559965
 21
-15.880637569
  0
LINE
  5
312
100
AcDbEntity
  8
ASSI
100
AcDbLine
 62
7
  6
CONTINUOUS
 10
-2.463734681
 20
-14.7577798545
 11
-4.4084559965
 21
-15.880637569
  0
LINE
  5
313
100
AcDbEntity
  8
0
100
AcDbLine
 62
7
  6
CONTINUOUS
 10
-0.9324351065
 20
-14.1481069522
 11
-2.1122833778
 21
-14.7609217986
  0
LINE
  5
314
100
AcDbEntity
  8
ASSI
100
AcDbLine
 62
7
  6
CONTINUOUS
 10
-0.9324351065
 20
-14.1481069522
 11
-2.1122833778
 21
-14.7609217986
  0
LINE
  5
315
100
AcDbEntity
  8
RACCORDO
100
AcDbLine
 62
7
  6
CONTINUOUS
 10
13.622944591
 20
-27.7616255095
 11
13.622944591
 21
7.1833023373
  0
LINE
  5
316
100
AcDbEntity
  8
RACCORDO
100
AcDbLine
 62
7
  6
CONTINUOUS
 10
12.7744164535
 20
8.6529961814
 11
-17.4897537812
 21
26.1271487758
  0
LINE
  5
317
100
AcDbEntity
  8
0
100
AcDbLine
 62
7
  6
CONTINUOUS
 10
7.5240640364
 20
-22.7703250864
 11
7.5418262728
 21
-22.7395599905
  0
LINE
  5
318
100
AcDbEntity
  8
ASSI
100
AcDbLine
 62
7
  6
CONTINUOUS
 10
7.5240640364
 20
-22.7703250864
 11
7.5418262728
 21
-22.7395599905
  0
LINE
  5
319
100
AcDbEntity
  8
0
100
AcDbLine
 62
7
  6
CONTINUOUS
 10
7.7893136462
 20
-22.7191344244
 11
7.8953796634
 21
-22.5354226939
  0
LINE
  5
31A
100
AcDbEntity
  8
ASSI
100
AcDbLine
 62
7
  6
CONTINUOUS
 10
7.7893136462
 20
-22.7191344244
 11
7.8953796634
 21
-22.5354226939
  0
LINE
  5
31B
100
AcDbEntity
  8
0
100
AcDbLine
 62
7
  6
CONTINUOUS
 10
8.1428670368
 20
-22.5149971277
 11
8.2489330539
 21
-22.3312853972
  0
LINE
  5
31C
100
AcDbEntity
  8
ASSI
100
AcDbLine
 62
7
  6
CONTINUOUS
 10
8.1428670368
 20
-22.5149971277
 11
8.2489330539
 21
-22.3312853972
  0
LINE
  5
31D
100
AcDbEntity
  8
0
100
AcDbLine
 62
7
  6
CONTINUOUS
 10
8.4964204274
 20
-22.3108598311
 11
8.6024864445
 21
-22.1271481005
  0
LINE
  5
31E
100
AcDbEntity
  8
ASSI
100
AcDbLine
 62
7
  6
CONTINUOUS
 10
8.4964204274
 20
-22.3108598311
 11
8.6024864445
 21
-22.1271481005
  0
LINE
  5
31F
100
AcDbEntity
  8
0
100
AcDbLine
 62
7
  6
CONTINUOUS
 10
8.849973818
 20
-22.1067225344
 11
8.9560398351
 21
-21.9230108039
  0
LINE
  5
320
100
AcDbEntity
  8
ASSI
100
AcDbLine
 62
7
  6
CONTINUOUS
 10
8.849973818
 20
-22.1067225344
 11
8.9560398351
 21
-21.9230108039
  0
LINE
  5
321
100
AcDbEntity
  8
0
100
AcDbLine
 62
7
  6
CONTINUOUS
 10
9.2035272085
 20
-21.9025852377
 11
9.3095932257
 21
-21.7188735072
  0
LINE
  5
322
100
AcDbEntity
  8
ASSI
100
AcDbLine
 62
7
  6
CONTINUOUS
 10
9.2035272085
 20
-21.9025852377
 11
9.3095932257
 21
-21.7188735072
  0
LINE
  5
323
100
AcDbEntity
  8
0
100
AcDbLine
 62
7
  6
CONTINUOUS
 10
11.4131513329
 20
-25.0158353497
 11
11.4309135693
 21
-24.9850702538
  0
LINE
  5
324
100
AcDbEntity
  8
ASSI
100
AcDbLine
 62
7
  6
CONTINUOUS
 10
11.4131513329
 20
-25.0158353497
 11
11.4309135693
 21
-24.9850702538
  0
LINE
  5
325
100
AcDbEntity
  8
0
100
AcDbLine
 62
7
  6
CONTINUOUS
 10
11.6784009427
 20
-24.9646446877
 11
11.7844669599
 21
-24.7809329572
  0
LINE
  5
326
100
AcDbEntity
  8
ASSI
100
AcDbLine
 62
7
  6
CONTINUOUS
 10
11.6784009427
 20
-24.9646446877
 11
11.7844669599
 21
-24.7809329572
  0
LINE
  5
327
100
AcDbEntity
  8
0
100
AcDbLine
 62
7
  6
CONTINUOUS
 10
12.0319543333
 20
-24.760507391
 11
12.1380203505
 21
-24.5767956605
  0
LINE
  5
328
100
AcDbEntity
  8
ASSI
100
AcDbLine
 62
7
  6
CONTINUOUS
 10
12.0319543333
 20
-24.760507391
 11
12.1380203505
 21
-24.5767956605
  0
LINE
  5
329
100
AcDbEntity
  8
0
100
AcDbLine
 62
7
  6
CONTINUOUS
 10
12.3855077239
 20
-24.5563700944
 11
12.4915737411
 21
-24.3726583639
  0
LINE
  5
32A
100
AcDbEntity
  8
ASSI
100
AcDbLine
 62
7
  6
CONTINUOUS
 10
12.3855077239
 20
-24.5563700944
 11
12.4915737411
 21
-24.3726583639
  0
LINE
  5
32B
100
AcDbEntity
  8
0
100
AcDbLine
 62
7
  6
CONTINUOUS
 10
12.7390611145
 20
-24.3522327977
 11
12.8451271317
 21
-24.1685210672
  0
LINE
  5
32C
100
AcDbEntity
  8
ASSI
100
AcDbLine
 62
7
  6
CONTINUOUS
 10
12.7390611145
 20
-24.3522327977
 11
12.8451271317
 21
-24.1685210672
  0
LINE
  5
32D
100
AcDbEntity
  8
0
100
AcDbLine
 62
7
  6
CONTINUOUS
 10
13.0926145051
 20
-24.148095501
 11
13.1986805223
 21
-23.9643837705
  0
LINE
  5
32E
100
AcDbEntity
  8
ASSI
100
AcDbLine
 62
7
  6
CONTINUOUS
 10
13.0926145051
 20
-24.148095501
 11
13.1986805223
 21
-23.9643837705
  0
LINE
  5
32F
100
AcDbEntity
  8
0
100
AcDbLine
 62
7
  6
CONTINUOUS
 10
7.5418262728
 20
-22.7395599905
 11
7.683247629
 21
-22.6579050719
  0
LINE
  5
330
100
AcDbEntity
  8
ASSI
100
AcDbLine
 62
7
  6
CONTINUOUS
 10
7.5418262728
 20
-22.7395599905
 11
7.683247629
 21
-22.6579050719
  0
LINE
  5
331
100
AcDbEntity
  8
0
100
AcDbLine
 62
7
  6
CONTINUOUS
 10
7.8953796634
 20
-22.5354226939
 11
8.0368010196
 21
-22.4537677752
  0
LINE
  5
332
100
AcDbEntity
  8
ASSI
100
AcDbLine
 62
7
  6
CONTINUOUS
 10
7.8953796634
 20
-22.5354226939
 11
8.0368010196
 21
-22.4537677752
  0
LINE
  5
333
100
AcDbEntity
  8
0
100
AcDbLine
 62
7
  6
CONTINUOUS
 10
8.2489330539
 20
-22.3312853972
 11
8.3903544102
 21
-22.2496304785
  0
LINE
  5
334
100
AcDbEntity
  8
ASSI
100
AcDbLine
 62
7
  6
CONTINUOUS
 10
8.2489330539
 20
-22.3312853972
 11
8.3903544102
 21
-22.2496304785
  0
LINE
  5
335
100
AcDbEntity
  8
0
100
AcDbLine
 62
7
  6
CONTINUOUS
 10
8.6024864445
 20
-22.1271481005
 11
8.7439078008
 21
-22.0454931819
  0
LINE
  5
336
100
AcDbEntity
  8
ASSI
100
AcDbLine
 62
7
  6
CONTINUOUS
 10
8.6024864445
 20
-22.1271481005
 11
8.7439078008
 21
-22.0454931819
  0
LINE
  5
337
100
AcDbEntity
  8
0
100
AcDbLine
 62
7
  6
CONTINUOUS
 10
8.9560398351
 20
-21.9230108039
 11
9.0974611914
 21
-21.8413558852
  0
LINE
  5
338
100
AcDbEntity
  8
ASSI
100
AcDbLine
 62
7
  6
CONTINUOUS
 10
8.9560398351
 20
-21.9230108039
 11
9.0974611914
 21
-21.8413558852
  0
LINE
  5
339
100
AcDbEntity
  8
0
100
AcDbLine
 62
7
  6
CONTINUOUS
 10
9.3095932257
 20
-21.7188735072
 11
9.451014582
 21
-21.6372185886
  0
LINE
  5
33A
100
AcDbEntity
  8
ASSI
100
AcDbLine
 62
7
  6
CONTINUOUS
 10
9.3095932257
 20
-21.7188735072
 11
9.451014582
 21
-21.6372185886
  0
LINE
  5
33B
100
AcDbEntity
  8
0
100
AcDbLine
 62
7
  6
CONTINUOUS
 10
7.3262524837
 20
-22.656111175
 11
9.4846095846
 21
-21.5340201461
  0
LINE
  5
33C
100
AcDbEntity
  8
ASSI
100
AcDbLine
 62
7
  6
CONTINUOUS
 10
7.3262524837
 20
-22.656111175
 11
9.4846095846
 21
-21.5340201461
  0
LINE
  5
33D
100
AcDbEntity
  8
0
100
AcDbLine
 62
7
  6
CONTINUOUS
 10
9.5586567375
 20
-21.49957635
 11
10.8690109932
 21
-20.9621140233
  0
LINE
  5
33E
100
AcDbEntity
  8
ASSI
100
AcDbLine
 62
7
  6
CONTINUOUS
 10
9.5586567375
 20
-21.49957635
 11
10.8690109932
 21
-20.9621140233
  0
LINE
  5
33F
100
AcDbEntity
  8
SMUSSO
100
AcDbLine
 62
7
  6
CONTINUOUS
 10
28.7550297084
 20
-54.9509300622
 11
28.7550297084
 21
16.8984542956
  0
LINE
  5
340
100
AcDbEntity
  8
SMUSSO
100
AcDbLine
 62
7
  6
CONTINUOUS
 10
29.4621364895
 20
18.1231991657
 11
29.4621364895
 21
17.306689434
  0
LINE
  5
341
100
AcDbEntity
  8
SMUSSO
100
AcDbLine
 62
7
  6
CONTINUOUS
 10
30.1692432707
 20
-54.9509300622
 11
30.1692432707
 21
16.8984542956
  0
LINE
  5
342
100
AcDbEntity
  8
0
100
AcDbLine
 62
250
  6
CONTINUOUS
 10
33.2453053626
 20
18.7082618574
 11
33.4572898032
 21
19.5631835766
  0
LINE
  5
343
100
AcDbEntity
  8
ASSI
100
AcDbLine
 62
250
  6
CONTINUOUS
 10
33.2453053626
 20
18.7082618574
 11
33.4572898032
 21
19.5631835766
  0
LINE
  5
344
100
AcDbEntity
  8
0
100
AcDbLine
 62
7
  6
CONTINUOUS
 10
13.622944591
 20
-24.0550589086
 11
11.7875533802
 21
-25.2320103994
  0
LINE
  5
345
100
AcDbEntity
  8
ASSI
100
AcDbLine
 62
7
  6
CONTINUOUS
 10
13.622944591
 20
-24.0550589086
 11
11.7875533802
 21
-25.2320103994
  0
LINE
  5
346
100
AcDbEntity
  8
0
100
AcDbLine
 62
7
  6
CONTINUOUS
 10
12.1167594317
 20
-25.4220898476
 11
13.622944591
 21
-24.537327724
  0
LINE
  5
347
100
AcDbEntity
  8
ASSI
100
AcDbLine
 62
7
  6
CONTINUOUS
 10
12.1167594317
 20
-25.4220898476
 11
13.622944591
 21
-24.537327724
  0
LINE
  5
348
100
AcDbEntity
  8
0
100
AcDbLine
 62
7
  6
CONTINUOUS
 10
11.4309135693
 20
-24.9850702538
 11
11.5723349255
 21
-24.9034153352
  0
LINE
  5
349
100
AcDbEntity
  8
ASSI
100
AcDbLine
 62
7
  6
CONTINUOUS
 10
11.4309135693
 20
-24.9850702538
 11
11.5723349255
 21
-24.9034153352
  0
LINE
  5
34A
100
AcDbEntity
  8
0
100
AcDbLine
 62
7
  6
CONTINUOUS
 10
11.7844669599
 20
-24.7809329572
 11
11.9258883161
 21
-24.6992780385
  0
LINE
  5
34B
100
AcDbEntity
  8
ASSI
100
AcDbLine
 62
7
  6
CONTINUOUS
 10
11.7844669599
 20
-24.7809329572
 11
11.9258883161
 21
-24.6992780385
  0
LINE
  5
34C
100
AcDbEntity
  8
0
100
AcDbLine
 62
7
  6
CONTINUOUS
 10
12.1380203505
 20
-24.5767956605
 11
12.2794417067
 21
-24.4951407418
  0
LINE
  5
34D
100
AcDbEntity
  8
ASSI
100
AcDbLine
 62
7
  6
CONTINUOUS
 10
12.1380203505
 20
-24.5767956605
 11
12.2794417067
 21
-24.4951407418
  0
LINE
  5
34E
100
AcDbEntity
  8
0
100
AcDbLine
 62
7
  6
CONTINUOUS
 10
12.4915737411
 20
-24.3726583639
 11
12.6329950973
 21
-24.2910034452
  0
LINE
  5
34F
100
AcDbEntity
  8
ASSI
100
AcDbLine
 62
7
  6
CONTINUOUS
 10
12.4915737411
 20
-24.3726583639
 11
12.6329950973
 21
-24.2910034452
  0
LINE
  5
350
100
AcDbEntity
  8
0
100
AcDbLine
 62
7
  6
CONTINUOUS
 10
12.8451271317
 20
-24.1685210672
 11
12.9865484879
 21
-24.0868661485
  0
LINE
  5
351
100
AcDbEntity
  8
ASSI
100
AcDbLine
 62
7
  6
CONTINUOUS
 10
12.8451271317
 20
-24.1685210672
 11
12.9865484879
 21
-24.0868661485
  0
LINE
  5
352
100
AcDbEntity
  8
0
100
AcDbLine
 62
7
  6
CONTINUOUS
 10
13.1986805223
 20
-23.9643837705
 11
13.3401018785
 21
-23.8827288519
  0
LINE
  5
353
100
AcDbEntity
  8
ASSI
100
AcDbLine
 62
7
  6
CONTINUOUS
 10
13.1986805223
 20
-23.9643837705
 11
13.3401018785
 21
-23.8827288519
  0
LINE
  5
354
100
AcDbEntity
  8
0
100
AcDbLine
 62
7
  6
CONTINUOUS
 10
13.4461678957
 20
-23.9439582044
 11
11.5014465802
 21
-25.0668159189
  0
LINE
  5
355
100
AcDbEntity
  8
ASSI
100
AcDbLine
 62
7
  6
CONTINUOUS
 10
13.4461678957
 20
-23.9439582044
 11
11.5014465802
 21
-25.0668159189
  0
LINE
  5
356
100
AcDbEntity
  8
0
100
AcDbLine
 62
250
  6
CONTINUOUS
 10
32.5673608127
 20
19.8824962614
 11
33.413668618
 21
19.6387376858
  0
LINE
  5
357
100
AcDbEntity
  8
ASSI
100
AcDbLine
 62
250
  6
CONTINUOUS
 10
32.5673608127
 20
19.8824962614
 11
33.413668618
 21
19.6387376858
  0
LINE
  5
358
100
AcDbEntity
  8
SMUSSO
100
AcDbLine
 62
7
  6
CONTINUOUS
 10
28.7550297084
 20
16.8984542956
 11
-33.4703670361
 21
52.8266185084
  0
LINE
  5
359
100
AcDbEntity
  8
SMUSSO
100
AcDbLine
 62
7
  6
CONTINUOUS
 10
29.4621364895
 20
17.306689434
 11
30.1692432707
 21
16.8984542956
  0
LINE
  5
35A
100
AcDbEntity
  8
SMUSSO
100
AcDbLine
 62
7
  6
CONTINUOUS
 10
29.4621364895
 20
18.1231991657
 11
-32.7632602549
 21
54.0513633785
  0
LINE
  5
35B
100
AcDbEntity
  8
SMUSSO
100
AcDbLine
 62
7
  6
CONTINUOUS
 10
31.2299034425
 20
-54.3385181722
 11
31.2299034425
 21
18.3273759173
  0
LINE
  5
35C
100
AcDbEntity
  8
0
100
AcDbLine
 62
250
  6
CONTINUOUS
 10
31.5906004809
 20
-47.1924192569
 11
31.5906004809
 21
-46.8686300062
  0
LINE
  5
35D
100
AcDbEntity
  8
0
100
AcDbLine
 62
250
  6
CONTINUOUS
 10
31.5906796841
 20
-44.2705080957
 11
31.5906796841
 21
-44.5837354868
  0
LINE
  5
35E
100
AcDbEntity
  8
0
100
AcDbLine
 62
250
  6
CONTINUOUS
 10
31.5906796841
 20
-45.2661756359
 11
31.5906796841
 21
-45.5865340784
  0
LINE
  5
35F
100
AcDbEntity
  8
0
100
AcDbLine
 62
250
  6
CONTINUOUS
 10
31.5906796841
 20
-46.2306932021
 11
31.5906796841
 21
-46.5542146504
  0
LINE
  5
360
100
AcDbEntity
  8
0
100
AcDbLine
 62
250
  6
CONTINUOUS
 10
31.5906796841
 20
-47.3125310153
 11
31.5906796841
 21
-47.6360990025
  0
LINE
  5
361
100
AcDbEntity
  8
0
100
AcDbLine
 62
250
  6
CONTINUOUS
 10
31.5906796841
 20
-48.2364928699
 11
31.5906796841
 21
-48.5882282652
  0
LINE
  5
362
100
AcDbEntity
  8
0
100
AcDbLine
 62
250
  6
CONTINUOUS
 10
32.1778959475
 20
-43.0366429276
 11
32.1778959475
 21
-42.8516004288
  0
LINE
  5
363
100
AcDbEntity
  8
0
100
AcDbLine
 62
250
  6
CONTINUOUS
 10
32.3940710038
 20
-42.7230468041
 11
32.3940710038
 21
-42.8966550072
  0
LINE
  5
364
100
AcDbEntity
  8
0
100
AcDbLine
 62
250
  6
CONTINUOUS
 10
32.4432150905
 20
-43.7746871164
 11
32.4432150905
 21
-44.0846927158
  0
LINE
  5
365
100
AcDbEntity
  8
0
100
AcDbLine
 62
250
  6
CONTINUOUS
 10
32.6471165682
 20
-44.0290124539
 11
32.6471165682
 21
-43.5880646174
  0
LINE
  5
366
100
AcDbEntity
  8
0
100
AcDbLine
 62
250
  6
CONTINUOUS
 10
32.9106246446
 20
-47.3072799864
 11
32.9106246446
 21
-47.0219399541
  0
LINE
  5
367
100
AcDbEntity
  8
0
100
AcDbLine
 62
250
  6
CONTINUOUS
 10
32.9106246446
 20
-45.9050780154
 11
32.9106246446
 21
-45.5953173571
  0
LINE
  5
368
100
AcDbEntity
  8
0
100
AcDbLine
 62
250
  6
CONTINUOUS
 10
32.9106246446
 20
-45.1455989969
 11
32.9106246446
 21
-45.1001877365
  0
LINE
  5
369
100
AcDbEntity
  8
0
100
AcDbLine
 62
250
  6
CONTINUOUS
 10
32.9106246446
 20
-44.6486780405
 11
32.9106246446
 21
-44.3319259472
  0
LINE
  5
36A
100
AcDbEntity
  8
0
100
AcDbLine
 62
250
  6
CONTINUOUS
 10
32.9106246446
 20
-44.2810827102
 11
32.9106246446
 21
-43.9608059147
  0
LINE
  5
36B
100
AcDbEntity
  8
0
100
AcDbLine
 62
250
  6
CONTINUOUS
 10
32.9106246446
 20
-43.3466341113
 11
32.9106246446
 21
-43.0053732133
  0
LINE
  5
36C
100
AcDbEntity
  8
0
100
AcDbLine
 62
250
  6
CONTINUOUS
 10
32.9106244681
 20
-41.780519673
 11
32.9106244681
 21
-42.091967555
  0
LINE
  5
36D
100
AcDbEntity
  8
0
100
AcDbLine
 62
250
  6
CONTINUOUS
 10
32.9106244681
 20
-42.5878065416
 11
32.9106244681
 21
-42.91029323
  0
LINE
  5
36E
100
AcDbEntity
  8
0
100
AcDbLine
 62
250
  6
CONTINUOUS
 10
32.9106246446
 20
-46.0793846218
 11
32.9106246446
 21
-46.4031738725
  0
LINE
  5
36F
100
AcDbEntity
  8
0
100
AcDbLine
 62
7
  6
CONTINUOUS
 10
33.2451577689
 20
18.6745040134
 11
33.2451577689
 21
-52.0318219568
  0
LINE
  5
370
100
AcDbEntity
  8
ASSI
100
AcDbLine
 62
7
  6
CONTINUOUS
 10
33.2451577689
 20
18.6745040134
 11
33.2451577689
 21
-52.0318219568
  0
LINE
  5
371
100
AcDbEntity
  8
0
100
AcDbLine
 62
7
  6
CONTINUOUS
 10
33.4572898032
 20
19.5631835766
 11
33.4572898032
 21
-50.715818716
  0
LINE
  5
372
100
AcDbEntity
  8
ASSI
100
AcDbLine
 62
7
  6
CONTINUOUS
 10
33.4572898032
 20
19.5631835766
 11
33.4572898032
 21
-50.715818716
  0
LINE
  5
373
100
AcDbEntity
  8
RACCORDO
100
AcDbLine
 62
250
  6
CONTINUOUS
 10
12.7744164535
 20
-28.2514603296
 11
13.6229035869
 21
-27.7615544929
  0
LINE
  5
374
100
AcDbEntity
  8
SMUSSO
100
AcDbLine
 62
7
  6
CONTINUOUS
 10
-31.7026000831
 20
54.6637752685
 11
31.2299034425
 21
18.3273759173
  0
LINE
  5
375
100
AcDbEntity
  8
0
100
AcDbLine
 62
7
  6
CONTINUOUS
 10
-28.697396263
 20
55.2558286657
 11
32.5380509877
 21
19.8992488836
  0
LINE
  5
376
100
AcDbEntity
  8
ASSI
100
AcDbLine
 62
7
  6
CONTINUOUS
 10
-28.697396263
 20
55.2558286657
 11
32.5380509877
 21
19.8992488836
  0
LINE
  5
377
100
AcDbEntity
  8
0
100
AcDbLine
 62
7
  6
CONTINUOUS
 10
-27.4516935497
 20
54.7816349792
 11
33.413668618
 21
19.6387376858
  0
LINE
  5
378
100
AcDbEntity
  8
ASSI
100
AcDbLine
 62
7
  6
CONTINUOUS
 10
-27.4516935497
 20
54.7816349792
 11
33.413668618
 21
19.6387376858
  0
LINE
  5
379
100
AcDbEntity
  8
0
100
AcDbLine
 62
7
  6
CONTINUOUS
 10
33.4567328802
 20
-50.7236034192
 11
33.2377214562
 21
-52.1779171481
  0
LINE
  5
37A
100
AcDbEntity
  8
ASSI
100
AcDbLine
 62
7
  6
CONTINUOUS
 10
33.4567328802
 20
-50.7236034192
 11
33.2377214562
 21
-52.1779171481
  0
LINE
  5
37B
100
AcDbEntity
  8
0
100
AcDbLine
 62
250
  6
CONTINUOUS
 10
33.2453053626
 20
-52.0640458629
 11
33.4572898032
 21
-50.715818716
  0
LINE
  5
37C
100
AcDbEntity
  8
ASSI
100
AcDbLine
 62
250
  6
CONTINUOUS
 10
33.2453053626
 20
-52.0640458629
 11
33.4572898032
 21
-50.715818716
  0
LINE
  5
37D
100
AcDbEntity
  8
0
100
AcDbLine
 62
250
  6
CONTINUOUS
 10
-28.7252301507
 20
55.2720701071
 11
-27.4516935497
 21
54.7816349792
  0
LINE
  5
37E
100
AcDbEntity
  8
ASSI
100
AcDbLine
 62
250
  6
CONTINUOUS
 10
-28.7252301507
 20
55.2720701071
 11
-27.4516935497
 21
54.7816349792
  0
LINE
  5
37F
100
AcDbEntity
  8
0
100
AcDbLine
 62
7
  6
CONTINUOUS
 10
-27.458717681
 20
54.7850468869
 11
-28.8276952133
 21
55.3224659562
  0
LINE
  5
380
100
AcDbEntity
  8
ASSI
100
AcDbLine
 62
7
  6
CONTINUOUS
 10
-27.458717681
 20
54.7850468869
 11
-28.8276952133
 21
55.3224659562
  0
LINE
  5
381
100
AcDbEntity
  8
0
100
AcDbLine
 62
250
  6
CONTINUOUS
 10
32.0487252064
 20
-46.0407746061
 11
32.9106246446
 21
-45.1455989969
  0
LINE
  5
382
100
AcDbEntity
  8
0
100
AcDbLine
 62
250
  6
CONTINUOUS
 10
32.3235169479
 20
-45.4721582984
 11
31.5906796841
 21
-46.2306932021
  0
LINE
  5
383
100
AcDbEntity
  8
0
100
AcDbLine
 62
250
  6
CONTINUOUS
 10
32.9106246446
 20
-43.0053732133
 11
31.5906796841
 21
-44.2705080957
  0
LINE
  5
384
100
AcDbEntity
  8
0
100
AcDbLine
 62
250
  6
CONTINUOUS
 10
32.6471165682
 20
-43.5880646174
 11
32.9106246446
 21
-43.3466341113
  0
LINE
  5
385
100
AcDbEntity
  8
0
100
AcDbLine
 62
250
  6
CONTINUOUS
 10
31.9533667375
 20
-44.216353915
 11
32.4432150905
 21
-43.7746871164
  0
LINE
  5
386
100
AcDbEntity
  8
0
100
AcDbLine
 62
250
  6
CONTINUOUS
 10
32.9106246446
 20
-44.3319259472
 11
31.5906796841
 21
-45.2661756359
  0
LINE
  5
387
100
AcDbEntity
  8
0
100
AcDbLine
 62
250
  6
CONTINUOUS
 10
32.0523185268
 20
-45.2283847268
 11
32.9106246446
 21
-44.6486780405
  0
LINE
  5
388
100
AcDbEntity
  8
0
100
AcDbLine
 62
250
  6
CONTINUOUS
 10
32.2866862425
 20
-42.4509003113
 11
32.2944859653
 21
-42.4462368397
  0
LINE
  5
389
100
AcDbEntity
  8
0
100
AcDbLine
 62
250
  6
CONTINUOUS
 10
32.3940710038
 20
-42.8966550072
 11
32.9106244681
 21
-42.5878065416
  0
LINE
  5
38A
100
AcDbEntity
  8
0
100
AcDbLine
 62
250
  6
CONTINUOUS
 10
31.815545377
 20
-43.2532931399
 11
32.1778959475
 21
-43.0366429276
  0
LINE
  5
38B
100
AcDbEntity
  8
0
100
AcDbLine
 62
250
  6
CONTINUOUS
 10
32.9106244681
 20
-42.91029323
 11
31.606101046
 21
-43.6902706865
  0
LINE
  5
38C
100
AcDbEntity
  8
0
100
AcDbLine
 62
250
  6
CONTINUOUS
 10
31.5906004809
 20
-46.8686300062
 11
32.9106246446
 21
-46.0793846218
  0
LINE
  5
38D
100
AcDbEntity
  8
0
100
AcDbLine
 62
250
  6
CONTINUOUS
 10
32.9106246446
 20
-45.5953173571
 11
32.0487252064
 21
-46.0407746061
  0
LINE
  5
38E
100
AcDbEntity
  8
0
100
AcDbLine
 62
250
  6
CONTINUOUS
 10
31.5906796841
 20
-46.5542146504
 11
32.9106246446
 21
-45.9050780154
  0
LINE
  5
38F
100
AcDbEntity
  8
0
100
AcDbLine
 62
250
  6
CONTINUOUS
 10
31.5906796841
 20
-48.5882282652
 11
32.9106246446
 21
-47.3072799864
  0
LINE
  5
390
100
AcDbEntity
  8
0
100
AcDbLine
 62
250
  6
CONTINUOUS
 10
32.4992387902
 20
-47.3975827305
 11
31.5906796841
 21
-48.2364928699
  0
LINE
  5
391
100
AcDbEntity
  8
0
100
AcDbLine
 62
7
  6
CONTINUOUS
 10
31.2299034425
 20
-53.5858526692
 11
33.059371863
 21
-52.4767367318
  0
LINE
  5
392
100
AcDbEntity
  8
ASSI
100
AcDbLine
 62
7
  6
CONTINUOUS
 10
31.2299034425
 20
-53.5858526692
 11
33.059371863
 21
-52.4767367318
  0
LINE
  5
393
100
AcDbEntity
  8
0
100
AcDbLine
 62
250
  6
CONTINUOUS
 10
32.9106246446
 20
-46.4031738725
 11
31.5906004809
 21
-47.1924192569
  0
LINE
  5
394
100
AcDbEntity
  8
0
100
AcDbLine
 62
250
  6
CONTINUOUS
 10
31.2303416283
 20
-53.2364850101
 11
33.2451577689
 21
-52.0318219568
  0
LINE
  5
395
100
AcDbEntity
  8
ASSI
100
AcDbLine
 62
250
  6
CONTINUOUS
 10
31.2303416283
 20
-53.2364850101
 11
33.2451577689
 21
-52.0318219568
  0
LINE
  5
396
100
AcDbEntity
  8
SMUSSO
100
AcDbLine
 62
7
  6
CONTINUOUS
 10
31.2299034425
 20
-54.3385181722
 11
29.4621364895
 21
-55.3591652006
  0
ARC
  5
397
100
AcDbEntity
  8
0
100
AcDbCircle
 62
250
  6
CONTINUOUS
 10
-15.5103950252
 20
15.4788886316
 40
0.5329839358
100
AcDbArc
 50
131.2069066476
 51
134.463366043
  0
ARC
  5
398
100
AcDbEntity
  8
ASSI
100
AcDbCircle
 62
250
  6
CONTINUOUS
 10
-15.5103953153
 20
15.4788889437
 40
0.5329835099
100
AcDbArc
 50
131.2068860779
 51
134.4633339779
  0
ARC
  5
399
100
AcDbEntity
  8
0
100
AcDbCircle
 62
250
  6
CONTINUOUS
 10
-15.5458490628
 20
15.5195197444
 40
0.4790593
100
AcDbArc
 50
127.6093006157
 51
131.2181059964
  0
ARC
  5
39A
100
AcDbEntity
  8
ASSI
100
AcDbCircle
 62
250
  6
CONTINUOUS
 10
-15.5458491469
 20
15.5195198471
 40
0.4790591672
100
AcDbArc
 50
127.6093001469
 51
131.218085152
  0
ARC
  5
39B
100
AcDbEntity
  8
0
100
AcDbCircle
 62
7
  6
CONTINUOUS
 10
-3.0823233769
 20
-15.6454654875
 40
0.3
100
AcDbArc
 50
300.108989426
 51
314.2001404117
  0
ARC
  5
39C
100
AcDbEntity
  8
ASSI
100
AcDbCircle
 62
7
  6
CONTINUOUS
 10
-3.0823233769
 20
-15.6454654875
 40
0.3
100
AcDbArc
 50
300.1089895303
 51
314.2001404167
  0
ARC
  5
39D
100
AcDbEntity
  8
0
100
AcDbCircle
 62
250
  6
CONTINUOUS
 10
-2.9819880674
 20
-15.8183063682
 40
0.1003697089
100
AcDbArc
 50
300.1329136956
 51
304.4945957255
  0
ARC
  5
39E
100
AcDbEntity
  8
ASSI
100
AcDbCircle
 62
250
  6
CONTINUOUS
 10
-2.9819880674
 20
-15.8183063682
 40
0.1003697089
100
AcDbArc
 50
300.1329136958
 51
304.4945957407
  0
ARC
  5
39F
100
AcDbEntity
  8
0
100
AcDbCircle
 62
250
  6
CONTINUOUS
 10
-15.7013289543
 20
3.3444702603
 40
0.0999521029
100
AcDbArc
 50
301.7336665387
 51
303.9192952529
  0
ARC
  5
3A0
100
AcDbEntity
  8
0
100
AcDbCircle
 62
250
  6
CONTINUOUS
 10
-15.7013289543
 20
22.531521765
 40
0.0999521029
100
AcDbArc
 50
301.7336665389
 51
303.9192952518
  0
ARC
  5
3A1
100
AcDbEntity
  8
ASSI
100
AcDbCircle
 62
250
  6
CONTINUOUS
 10
-15.7013289538
 20
3.3444702595
 40
0.0999521019
100
AcDbArc
 50
301.7336665863
 51
303.9192624646
  0
ARC
  5
3A2
100
AcDbEntity
  8
ASSI
100
AcDbCircle
 62
250
  6
CONTINUOUS
 10
-15.7013289538
 20
22.5315217641
 40
0.099952102
100
AcDbArc
 50
301.7336665867
 51
303.9192624643
  0
ARC
  5
3A3
100
AcDbEntity
  8
0
100
AcDbCircle
 62
250
  6
CONTINUOUS
 10
-15.6153506843
 20
16.1959681429
 40
0.0950117133
100
AcDbArc
 50
355.6104665415
 51
0.0016296983
  0
ARC
  5
3A4
100
AcDbEntity
  8
ASSI
100
AcDbCircle
 62
250
  6
CONTINUOUS
 10
-15.6153506697
 20
16.19596814
 40
0.0950116986
100
AcDbArc
 50
355.6106270445
 51
0.0016313026
  0
ARC
  5
3A5
100
AcDbEntity
  8
0
100
AcDbCircle
 62
250
  6
CONTINUOUS
 10
-16.0884870248
 20
4.2572726846
 40
0.0671751514
100
AcDbArc
 50
355.7602358916
 51
359.990294503
  0
ARC
  5
3A6
100
AcDbEntity
  8
ASSI
100
AcDbCircle
 62
250
  6
CONTINUOUS
 10
-16.0884870248
 20
4.2572726846
 40
0.0671751514
100
AcDbArc
 50
355.7602358915
 51
359.9902945013
  0
SPLINE
  5
3A7
100
AcDbEntity
  8
0
100
AcDbSpline
 62
7
  6
CONTINUOUS
 70
0
 71
3
 72
10
 73
6
 74
0
 42
0.0000001
 43
0.0000001
 44
0.0000000001
 40
0.0
 40
0.0
 40
0.0
 40
0.0
 40
0.5278685352
 40
0.7673006673
 40
1.0
 40
1.0
 40
1.0
 40
1.0
 10
-28.8276944548
 20
55.322457712
 30
0.0
 10
-28.8863469351
 20
55.3454934254
 30
0.0
 10
-28.978770914
 20
55.366636596
 30
0.0
 10
-29.0981979015
 20
55.3516883414
 30
0.0
 10
-29.1513194137
 20
55.3307728913
 30
0.0
 10
-29.1756666538
 20
55.3173995143
 30
0.0
  0
SPLINE
  5
3A8
100
AcDbEntity
  8
0
100
AcDbSpline
 62
7
  6
CONTINUOUS
 70
0
 71
3
 72
10
 73
6
 74
0
 42
0.0000001
 43
0.0000001
 44
0.0000000001
 40
0.0
 40
0.0
 40
0.0
 40
0.0
 40
0.2326995781
 40
0.4721317903
 40
1.0
 40
1.0
 40
1.0
 40
1.0
 10
33.0593692523
 20
-52.4767331903
 30
0.0
 10
33.0831228546
 20
-52.4623337789
 30
0.0
 10
33.1277932581
 20
-52.4267858773
 30
0.0
 10
33.2004447491
 20
-52.3308334058
 30
0.0
 10
33.2283410007
 20
-52.2402226879
 30
0.0
 10
33.2377146873
 20
-52.1779123637
 30
0.0
  0
SPLINE
  5
3A9
100
AcDbEntity
  8
0
100
AcDbSpline
 62
250
  6
CONTINUOUS
 70
0
 71
3
 72
11
 73
7
 74
0
 42
0.0000001
 43
0.0000001
 44
0.0000000001
 40
0.0
 40
0.0
 40
0.0
 40
0.0
 40
0.2187182257
 40
0.4522864185
 40
0.7114901475
 40
1.0
 40
1.0
 40
1.0
 40
1.0
 10
-15.5203398889
 20
3.4946670713
 30
0.0
 10
-15.5203441903
 20
3.4853641094
 30
0.0
 10
-15.5236837641
 20
3.4660008141
 30
0.0
 10
-15.5380696706
 20
3.4389170256
 30
0.0
 10
-15.5608590134
 20
3.4143359637
 30
0.0
 10
-15.5799614276
 20
3.4007389323
 30
0.0
 10
-15.5904938698
 20
3.3944415603
 30
0.0
  0
SPLINE
  5
3AA
100
AcDbEntity
  8
0
100
AcDbSpline
 62
250
  6
CONTINUOUS
 70
0
 71
3
 72
11
 73
7
 74
0
 42
0.0000001
 43
0.0000001
 44
0.0000000001
 40
0.0
 40
0.0
 40
0.0
 40
0.0
 40
0.2135303911
 40
0.4448067609
 40
0.7056250959
 40
1.0
 40
1.0
 40
1.0
 40
1.0
 10
-15.5203392931
 20
4.1906177962
 30
0.0
 10
-15.5203413812
 20
4.1818883156
 30
0.0
 10
-15.5237428843
 20
4.1635785349
 30
0.0
 10
-15.5382076056
 20
4.1381456728
 30
0.0
 10
-15.5610343183
 20
4.1151080084
 30
0.0
 10
-15.5800170588
 20
4.1024201483
 30
0.0
 10
-15.5904938698
 20
4.0964984434
 30
0.0
  0
SPLINE
  5
3AB
100
AcDbEntity
  8
0
100
AcDbSpline
 62
250
  6
CONTINUOUS
 70
0
 71
3
 72
9
 73
5
 74
0
 42
0.0000001
 43
0.0000001
 44
0.0000000001
 40
0.0
 40
0.0
 40
0.0
 40
0.0
 40
0.4810829056
 40
1.0
 40
1.0
 40
1.0
 40
1.0
 10
-15.6649491125
 20
4.3915990495
 30
0.0
 10
-15.6763654376
 20
4.3958680154
 30
0.0
 10
-15.7021960335
 20
4.3997064271
 30
0.0
 10
-15.7273777168
 20
4.3937341263
 30
0.0
 10
-15.7396100005
 20
4.3889161714
 30
0.0
  0
SPLINE
  5
3AC
100
AcDbEntity
  8
0
100
AcDbSpline
 62
250
  6
CONTINUOUS
 70
0
 71
3
 72
11
 73
7
 74
0
 42
0.0000001
 43
0.0000001
 44
0.0000000001
 40
0.0
 40
0.0
 40
0.0
 40
0.0
 40
0.2187065999
 40
0.4522834141
 40
0.7114952413
 40
1.0
 40
1.0
 40
1.0
 40
1.0
 10
-15.6807797082
 20
-2.0173699339
 30
0.0
 10
-15.6888375199
 20
-2.0127315042
 30
0.0
 10
-15.7072710173
 20
-2.0059597229
 30
0.0
 10
-15.7379028281
 20
-2.0048919077
 30
0.0
 10
-15.7705658934
 20
-2.0123422289
 30
0.0
 10
-15.7918799535
 20
-2.022083898
 30
0.0
 10
-15.8025935954
 20
-2.0280538836
 30
0.0
  0
SPLINE
  5
3AD
100
AcDbEntity
  8
0
100
AcDbSpline
 62
250
  6
CONTINUOUS
 70
0
 71
3
 72
11
 73
7
 74
0
 42
0.0000001
 43
0.0000001
 44
0.0000000001
 40
0.0
 40
0.0
 40
0.0
 40
0.0
 40
0.2187168269
 40
0.4522947598
 40
0.7115020841
 40
1.0
 40
1.0
 40
1.0
 40
1.0
 10
-15.5203399294
 20
-2.2952481817
 30
0.0
 10
-15.5203500304
 20
-2.3045473079
 30
0.0
 10
-15.5236989395
 20
-2.3239007793
 30
0.0
 10
-15.5380878024
 20
-2.3509688137
 30
0.0
 10
-15.5608714276
 20
-2.375536242
 30
0.0
 10
-15.5799661328
 20
-2.3891268268
 30
0.0
 10
-15.5904938698
 20
-2.3954213843
 30
0.0
  0
SPLINE
  5
3AE
100
AcDbEntity
  8
0
100
AcDbSpline
 62
250
  6
CONTINUOUS
 70
0
 71
3
 72
11
 73
7
 74
0
 42
0.0000001
 43
0.0000001
 44
0.0000000001
 40
0.0
 40
0.0
 40
0.0
 40
0.0
 40
0.2187182257
 40
0.4522864185
 40
0.7114901475
 40
1.0
 40
1.0
 40
1.0
 40
1.0
 10
-15.5203398889
 20
22.6817185759
 30
0.0
 10
-15.5203441903
 20
22.6724156141
 30
0.0
 10
-15.5236837641
 20
22.6530523188
 30
0.0
 10
-15.5380696706
 20
22.6259685303
 30
0.0
 10
-15.5608590134
 20
22.6013874684
 30
0.0
 10
-15.5799614276
 20
22.587790437
 30
0.0
 10
-15.5904938698
 20
22.5814930649
 30
0.0
  0
SPLINE
  5
3AF
100
AcDbEntity
  8
0
100
AcDbSpline
 62
250
  6
CONTINUOUS
 70
0
 71
3
 72
11
 73
7
 74
0
 42
0.0000001
 43
0.0000001
 44
0.0000000001
 40
0.0
 40
0.0
 40
0.0
 40
0.0
 40
0.2187065999
 40
0.4522834141
 40
0.7114952413
 40
1.0
 40
1.0
 40
1.0
 40
1.0
 10
-15.6807797082
 20
17.1696815707
 30
0.0
 10
-15.6888375199
 20
17.1743200004
 30
0.0
 10
-15.7072710173
 20
17.1810917817
 30
0.0
 10
-15.7379028281
 20
17.1821595969
 30
0.0
 10
-15.7705658934
 20
17.1747092757
 30
0.0
 10
-15.7918799535
 20
17.1649676066
 30
0.0
 10
-15.8025935954
 20
17.158997621
 30
0.0
  0
SPLINE
  5
3B0
100
AcDbEntity
  8
0
100
AcDbSpline
 62
250
  6
CONTINUOUS
 70
0
 71
3
 72
11
 73
7
 74
0
 42
0.0000001
 43
0.0000001
 44
0.0000000001
 40
0.0
 40
0.0
 40
0.0
 40
0.0
 40
0.2187168269
 40
0.4522947598
 40
0.7115020841
 40
1.0
 40
1.0
 40
1.0
 40
1.0
 10
-15.5203399294
 20
16.8918033229
 30
0.0
 10
-15.5203500304
 20
16.8825041967
 30
0.0
 10
-15.5236989395
 20
16.8631507254
 30
0.0
 10
-15.5380878024
 20
16.8360826909
 30
0.0
 10
-15.5608714276
 20
16.8115152626
 30
0.0
 10
-15.5799661328
 20
16.7979246778
 30
0.0
 10
-15.5904938698
 20
16.7916301204
 30
0.0
  0
SPLINE
  5
3B1
100
AcDbEntity
  8
0
100
AcDbSpline
 62
7
  6
CONTINUOUS
 70
0
 71
3
 72
9
 73
5
 74
0
 42
0.0000001
 43
0.0000001
 44
0.0000000001
 40
0.0
 40
0.0
 40
0.0
 40
0.0
 40
0.2421136351
 40
1.0
 40
1.0
 40
1.0
 40
1.0
 10
33.2377146873
 20
-52.1779123637
 30
0.0
 10
33.2390855967
 20
-52.1687994272
 30
0.0
 10
33.2439226143
 20
-52.1310380521
 30
0.0
 10
33.2455761693
 20
-52.0928917232
 30
0.0
 10
33.2453053626
 20
-52.0640458629
 30
0.0
  0
SPLINE
  5
3B2
100
AcDbEntity
  8
0
100
AcDbSpline
 62
250
  6
CONTINUOUS
 70
0
 71
3
 72
9
 73
5
 74
0
 42
0.0000001
 43
0.0000001
 44
0.0000000001
 40
0.0
 40
0.0
 40
0.0
 40
0.0
 40
0.4808335537
 40
1.0
 40
1.0
 40
1.0
 40
1.0
 10
-2.9251458406
 20
-15.9010290357
 30
0.0
 10
-2.915912387
 20
-15.894684844
 30
0.0
 10
-2.8988760653
 20
-15.8781202575
 30
0.0
 10
-2.8876759333
 20
-15.857325959
 30
0.0
 10
-2.8831881431
 20
-15.8460932453
 30
0.0
  0
SPLINE
  5
3B3
100
AcDbEntity
  8
0
100
AcDbSpline
 62
250
  6
CONTINUOUS
 70
0
 71
3
 72
8
 73
4
 74
0
 42
0.0000001
 43
0.0000001
 44
0.0000000001
 40
0.0
 40
0.0
 40
0.0
 40
0.0
 40
1.0
 40
1.0
 40
1.0
 40
1.0
 10
-2.8831881431
 20
-15.8460932453
 30
0.0
 10
-2.8807160796
 20
-15.8399057941
 30
0.0
 10
-2.8786365849
 20
-15.8335508687
 30
0.0
 10
-2.8769145195
 20
-15.8271142436
 30
0.0
  0
SPLINE
  5
3B4
100
AcDbEntity
  8
0
100
AcDbSpline
 62
250
  6
CONTINUOUS
 70
0
 71
3
 72
15
 73
11
 74
0
 42
0.0000001
 43
0.0000001
 44
0.0000000001
 40
0.0
 40
0.0
 40
0.0
 40
0.0
 40
0.1361087462
 40
0.2586151375
 40
0.3711966236
 40
0.4802342645
 40
0.5928207851
 40
0.7148948377
 40
0.8502342615
 40
1.0
 40
1.0
 40
1.0
 40
1.0
 10
-15.8382063856
 20
3.9908299383
 30
0.0
 10
-15.8538709857
 20
3.9841502646
 30
0.0
 10
-15.8848702875
 20
3.9740108619
 30
0.0
 10
-15.9316134029
 20
3.9698503383
 30
0.0
 10
-15.9745283201
 20
3.97820893
 30
0.0
 10
-16.0116230131
 20
3.9990377494
 30
0.0
 10
-16.0411469115
 20
4.0311705124
 30
0.0
 10
-16.0623228097
 20
4.0728634838
 30
0.0
 10
-16.0749161783
 20
4.1225592911
 30
0.0
 10
-16.0774342534
 20
4.1583207306
 30
0.0
 10
-16.0774350656
 20
4.1770587526
 30
0.0
  0
SPLINE
  5
3B5
100
AcDbEntity
  8
0
100
AcDbSpline
 62
250
  6
CONTINUOUS
 70
0
 71
3
 72
9
 73
5
 74
0
 42
0.0000001
 43
0.0000001
 44
0.0000000001
 40
0.0
 40
0.0
 40
0.0
 40
0.0
 40
0.233236062
 40
1.0
 40
1.0
 40
1.0
 40
1.0
 10
-16.0774350656
 20
15.4267264795
 30
0.0
 10
-16.0774343085
 20
15.4404208159
 30
0.0
 10
-16.0743694553
 20
15.4991271479
 30
0.0
 10
-16.0605236143
 20
15.5569927907
 30
0.0
 10
-16.0457638352
 20
15.5995246978
 30
0.0
  0
SPLINE
  5
3B6
100
AcDbEntity
  8
0
100
AcDbSpline
 62
250
  6
CONTINUOUS
 70
0
 71
3
 72
9
 73
5
 74
0
 42
0.0000001
 43
0.0000001
 44
0.0000000001
 40
0.0
 40
0.0
 40
0.0
 40
0.0
 40
0.2477444721
 40
1.0
 40
1.0
 40
1.0
 40
1.0
 10
-16.0457638352
 20
15.5995246978
 30
0.0
 10
-16.0399008308
 20
15.6164195821
 30
0.0
 10
-16.0134687762
 20
15.6836194238
 30
0.0
 10
-15.9767408069
 20
15.7467953271
 30
0.0
 10
-15.9440807124
 20
15.7901765364
 30
0.0
  0
SPLINE
  5
3B7
100
AcDbEntity
  8
0
100
AcDbSpline
 62
250
  6
CONTINUOUS
 70
0
 71
3
 72
9
 73
5
 74
0
 42
0.0000001
 43
0.0000001
 44
0.0000000001
 40
0.0
 40
0.0
 40
0.0
 40
0.0
 40
0.2551415964
 40
1.0
 40
1.0
 40
1.0
 40
1.0
 10
-15.9440807124
 20
15.7901765364
 30
0.0
 10
-15.9393850894
 20
15.7964135608
 30
0.0
 10
-15.920555072
 20
15.8205332221
 30
0.0
 10
-15.8999984917
 20
15.8433208629
 30
0.0
 10
-15.883725265
 20
15.859278442
 30
0.0
  0
SPLINE
  5
3B8
100
AcDbEntity
  8
0
100
AcDbSpline
 62
250
  6
CONTINUOUS
 70
0
 71
3
 72
11
 73
7
 74
0
 42
0.0000001
 43
0.0000001
 44
0.0000000001
 40
0.0
 40
0.0
 40
0.0
 40
0.0
 40
0.2990310466
 40
0.4993355137
 40
0.699741113
 40
1.0
 40
1.0
 40
1.0
 40
1.0
 10
-15.7396100005
 20
4.3889161714
 30
0.0
 10
-15.7357474561
 20
4.3874718755
 30
0.0
 10
-15.7293786718
 20
4.3847305352
 30
0.0
 10
-15.7232930464
 20
4.3755344853
 30
0.0
 10
-15.7289289126
 20
4.3660290115
 30
0.0
 10
-15.7351899257
 20
4.3629946249
 30
0.0
 10
-15.7389983495
 20
4.3613694838
 30
0.0
  0
SPLINE
  5
3B9
100
AcDbEntity
  8
0
100
AcDbSpline
 62
250
  6
CONTINUOUS
 70
0
 71
3
 72
9
 73
5
 74
0
 42
0.0000001
 43
0.0000001
 44
0.0000000001
 40
0.0
 40
0.0
 40
0.0
 40
0.0
 40
0.5609471573
 40
1.0
 40
1.0
 40
1.0
 40
1.0
 10
-15.5904938698
 20
16.0895732376
 30
0.0
 10
-15.5884048014
 20
16.0739772834
 30
0.0
 10
-15.5877056183
 20
16.0451636986
 30
0.0
 10
-15.6026522487
 20
16.0187670889
 30
0.0
 10
-15.6124208099
 20
16.0112665441
 30
0.0
  0
SPLINE
  5
3BA
100
AcDbEntity
  8
0
100
AcDbSpline
 62
250
  6
CONTINUOUS
 70
0
 71
3
 72
9
 73
5
 74
0
 42
0.0000001
 43
0.0000001
 44
0.0000000001
 40
0.0
 40
0.0
 40
0.0
 40
0.0
 40
0.5609451158
 40
1.0
 40
1.0
 40
1.0
 40
1.0
 10
-15.8382063856
 20
15.899026014
 30
0.0
 10
-15.8361174259
 20
15.8834309238
 30
0.0
 10
-15.8354182527
 20
15.8546190175
 30
0.0
 10
-15.8503622798
 20
15.828223208
 30
0.0
 10
-15.8601296885
 20
15.8207221137
 30
0.0
  0
SPLINE
  5
3BB
100
AcDbEntity
  8
0
100
AcDbSpline
 62
250
  6
CONTINUOUS
 70
0
 71
3
 72
10
 73
6
 74
0
 42
0.0000001
 43
0.0000001
 44
0.0000000001
 40
0.0
 40
0.0
 40
0.0
 40
0.0
 40
0.546374885
 40
0.7806295628
 40
1.0
 40
1.0
 40
1.0
 40
1.0
 10
-16.0774350656
 20
15.4267264795
 30
0.0
 10
-16.061519787
 20
15.4362422601
 30
0.0
 10
-16.0400972675
 20
15.4536545747
 30
0.0
 10
-16.0239768984
 20
15.4839957927
 30
0.0
 10
-16.0213112085
 20
15.4994988052
 30
0.0
 10
-16.021311874
 20
15.5069438869
 30
0.0
  0
SPLINE
  5
3BC
100
AcDbEntity
  8
0
100
AcDbSpline
 62
250
  6
CONTINUOUS
 70
0
 71
3
 72
9
 73
5
 74
0
 42
0.0000001
 43
0.0000001
 44
0.0000000001
 40
0.0
 40
0.0
 40
0.0
 40
0.0
 40
0.5478889287
 40
1.0
 40
1.0
 40
1.0
 40
1.0
 10
-16.0774350656
 20
4.1770587526
 30
0.0
 10
-16.0623090648
 20
4.1861026222
 30
0.0
 10
-16.0363450494
 20
4.2064984879
 30
0.0
 10
-16.0225706738
 20
4.237803503
 30
0.0
 10
-16.0214957043
 20
4.2523064034
 30
0.0
  0
SPLINE
  5
3BD
100
AcDbEntity
  8
0
100
AcDbSpline
 62
250
  6
CONTINUOUS
 70
0
 71
3
 72
11
 73
7
 74
0
 42
0.0000001
 43
0.0000001
 44
0.0000000001
 40
0.0
 40
0.0
 40
0.0
 40
0.0
 40
0.2510505119
 40
0.4522061595
 40
0.6514885898
 40
1.0
 40
1.0
 40
1.0
 40
1.0
 10
-15.8382063856
 20
3.9908299383
 30
0.0
 10
-15.8351160729
 20
4.0175960516
 30
0.0
 10
-15.8390159152
 20
4.0670524774
 30
0.0
 10
-15.8620543956
 20
4.1336278242
 30
0.0
 10
-15.9034936016
 20
4.2025246192
 30
0.0
 10
-15.951318306
 20
4.2436006836
 30
0.0
 10
-15.9867108653
 20
4.2557009787
 30
0.0
  0
SPLINE
  5
3BE
100
AcDbEntity
  8
0
100
AcDbSpline
 62
7
  6
CONTINUOUS
 70
0
 71
3
 72
11
 73
7
 74
0
 42
0.0000001
 43
0.0000001
 44
0.0000000001
 40
0.0
 40
0.0
 40
0.0
 40
0.0
 40
0.2398961039
 40
0.4999946021
 40
0.7600960345
 40
1.0
 40
1.0
 40
1.0
 40
1.0
 10
33.2453053626
 20
18.7082618574
 30
0.0
 10
33.2462694513
 20
18.820974659
 30
0.0
 10
33.208562042
 20
19.0566876027
 30
0.0
 10
33.0654779144
 20
19.3872536901
 30
0.0
 10
32.8507387355
 20
19.6764538519
 30
0.0
 10
32.6654568588
 20
19.8269705596
 30
0.0
 10
32.5673608127
 20
19.8824962614
 30
0.0
  0
SPLINE
  5
3BF
100
AcDbEntity
  8
0
100
AcDbSpline
 62
7
  6
CONTINUOUS
 70
0
 71
3
 72
9
 73
5
 74
0
 42
0.0000001
 43
0.0000001
 44
0.0000000001
 40
0.0
 40
0.0
 40
0.0
 40
0.0
 40
0.2580518931
 40
1.0
 40
1.0
 40
1.0
 40
1.0
 10
-28.7252301507
 20
55.2720701071
 30
0.0
 10
-28.7336942726
 20
55.2770637554
 30
0.0
 10
-28.7668388455
 20
55.2958190835
 30
0.0
 10
-28.8013944988
 20
55.3121284259
 30
0.0
 10
-28.8276944548
 20
55.322457712
 30
0.0
  0
SPLINE
  5
3C0
100
AcDbEntity
  8
0
100
AcDbSpline
 62
250
  6
CONTINUOUS
 70
0
 71
3
 72
11
 73
7
 74
0
 42
0.0000001
 43
0.0000001
 44
0.0000000001
 40
0.0
 40
0.0
 40
0.0
 40
0.0
 40
0.2510505029
 40
0.4522061426
 40
0.6514885695
 40
1.0
 40
1.0
 40
1.0
 40
1.0
 10
-15.5904938698
 20
4.0964984434
 30
0.0
 10
-15.5874035537
 20
4.123264556
 30
0.0
 10
-15.5913033904
 20
4.172720982
 30
0.0
 10
-15.614341867
 20
4.23929633
 30
0.0
 10
-15.6557810737
 20
4.3081931286
 30
0.0
 10
-15.7036057859
 20
4.3492691917
 30
0.0
 10
-15.7389983495
 20
4.3613694838
 30
0.0
  0
SPLINE
  5
3C1
100
AcDbEntity
  8
0
100
AcDbSpline
 62
250
  6
CONTINUOUS
 70
0
 71
3
 72
9
 73
5
 74
0
 42
0.0000001
 43
0.0000001
 44
0.0000000001
 40
0.0
 40
0.0
 40
0.0
 40
0.0
 40
0.2725560186
 40
1.0
 40
1.0
 40
1.0
 40
1.0
 10
-15.9867108653
 20
4.2557009787
 30
0.0
 10
-15.9896651226
 20
4.2543366759
 30
0.0
 10
-16.0006480532
 20
4.249675371
 30
0.0
 10
-16.0123110691
 20
4.2464132523
 30
0.0
 10
-16.0209391573
 20
4.2454205173
 30
0.0
  0
SPLINE
  5
3C2
100
AcDbEntity
  8
0
100
AcDbSpline
 62
250
  6
CONTINUOUS
 70
0
 71
3
 72
11
 73
7
 74
0
 42
0.0000001
 43
0.0000001
 44
0.0000000001
 40
0.0
 40
0.0
 40
0.0
 40
0.0
 40
0.2376510532
 40
0.4999342143
 40
0.7622435858
 40
1.0
 40
1.0
 40
1.0
 40
1.0
 10
-15.8025935954
 20
-2.0280538836
 30
0.0
 10
-15.7721560154
 20
-2.045128538
 30
0.0
 10
-15.7145577822
 20
-2.0926421979
 30
0.0
 10
-15.6476362596
 20
-2.1834715455
 30
0.0
 10
-15.6024190566
 20
-2.2868507922
 30
0.0
 10
-15.5900604796
 20
-2.3605088867
 30
0.0
 10
-15.5904938698
 20
-2.3954213843
 30
0.0
  0
SPLINE
  5
3C3
100
AcDbEntity
  8
0
100
AcDbSpline
 62
250
  6
CONTINUOUS
 70
0
 71
3
 72
10
 73
6
 74
0
 42
0.0000001
 43
0.0000001
 44
0.0000000001
 40
0.0
 40
0.0
 40
0.0
 40
0.0
 40
0.5461416648
 40
0.7809242798
 40
1.0
 40
1.0
 40
1.0
 40
1.0
 10
-15.5904938698
 20
3.3944415606
 30
0.0
 10
-15.5901537478
 20
3.367296158
 30
0.0
 10
-15.5952800341
 20
3.3272977894
 30
0.0
 10
-15.6198059124
 20
3.2834294678
 30
0.0
 10
-15.6365165723
 20
3.2676042734
 30
0.0
 10
-15.6455532223
 20
3.2615275657
 30
0.0
  0
SPLINE
  5
3C4
100
AcDbEntity
  8
0
100
AcDbSpline
 62
250
  6
CONTINUOUS
 70
0
 71
3
 72
10
 73
6
 74
0
 42
0.0000001
 43
0.0000001
 44
0.0000000001
 40
0.0
 40
0.0
 40
0.0
 40
0.0
 40
0.5461416648
 40
0.7809242798
 40
1.0
 40
1.0
 40
1.0
 40
1.0
 10
-15.5904938698
 20
22.5814930652
 30
0.0
 10
-15.5901537478
 20
22.5543476627
 30
0.0
 10
-15.5952800341
 20
22.514349294
 30
0.0
 10
-15.6198059124
 20
22.4704809724
 30
0.0
 10
-15.6365165723
 20
22.4546557781
 30
0.0
 10
-15.6455532223
 20
22.4485790703
 30
0.0
  0
SPLINE
  5
3C5
100
AcDbEntity
  8
0
100
AcDbSpline
 62
250
  6
CONTINUOUS
 70
0
 71
3
 72
11
 73
7
 74
0
 42
0.0000001
 43
0.0000001
 44
0.0000000001
 40
0.0
 40
0.0
 40
0.0
 40
0.0
 40
0.2376510532
 40
0.4999342143
 40
0.7622435858
 40
1.0
 40
1.0
 40
1.0
 40
1.0
 10
-15.8025935954
 20
17.158997621
 30
0.0
 10
-15.7721560154
 20
17.1419229667
 30
0.0
 10
-15.7145577822
 20
17.0944093068
 30
0.0
 10
-15.6476362596
 20
17.0035799592
 30
0.0
 10
-15.6024190566
 20
16.9002007125
 30
0.0
 10
-15.5900604796
 20
16.8265426179
 30
0.0
 10
-15.5904938698
 20
16.7916301204
 30
0.0
  0
SPLINE
  5
3C6
100
AcDbEntity
  8
0
100
AcDbSpline
 62
250
  6
CONTINUOUS
 70
0
 71
3
 72
9
 73
5
 74
0
 42
0.0000001
 43
0.0000001
 44
0.0000000001
 40
0.0
 40
0.0
 40
0.0
 40
0.0
 40
0.5411875522
 40
1.0
 40
1.0
 40
1.0
 40
1.0
 10
-15.5904938698
 20
16.0895732376
 30
0.0
 10
-15.571475199
 20
16.1015667373
 30
0.0
 10
-15.538850527
 20
16.1290991461
 30
0.0
 10
-15.5220765445
 20
16.1696900338
 30
0.0
 10
-15.520617664
 20
16.1886962419
 30
0.0
  0
SPLINE
  5
3C7
100
AcDbEntity
  8
0
100
AcDbSpline
 62
250
  6
CONTINUOUS
 70
0
 71
3
 72
10
 73
6
 74
0
 42
0.0000001
 43
0.0000001
 44
0.0000000001
 40
0.0
 40
0.0
 40
0.0
 40
0.0
 40
0.3606040288
 40
0.6415404703
 40
1.0
 40
1.0
 40
1.0
 40
1.0
 10
-2.8769145195
 20
-15.8271142436
 30
0.0
 10
-2.8751995508
 20
-15.8309516256
 30
0.0
 10
-2.872403641
 20
-15.8379978458
 30
0.0
 10
-2.8694522708
 20
-15.8489439338
 30
0.0
 10
-2.8699964277
 20
-15.8577360368
 30
0.0
 10
-2.8729907294
 20
-15.8606500159
 30
0.0
  0
SPLINE
  5
3C8
100
AcDbEntity
  8
ASSI
100
AcDbSpline
 62
7
  6
CONTINUOUS
 70
0
 71
3
 72
10
 73
6
 74
0
 42
0.0000001
 43
0.0000001
 44
0.0000000001
 40
0.0
 40
0.0
 40
0.0
 40
0.0
 40
0.5278685352
 40
0.7673006673
 40
1.0
 40
1.0
 40
1.0
 40
1.0
 10
-28.8276944548
 20
55.322457712
 30
0.0
 10
-28.8863469351
 20
55.3454934254
 30
0.0
 10
-28.978770914
 20
55.366636596
 30
0.0
 10
-29.0981979015
 20
55.3516883414
 30
0.0
 10
-29.1513194137
 20
55.3307728913
 30
0.0
 10
-29.1756666538
 20
55.3173995143
 30
0.0
  0
SPLINE
  5
3C9
100
AcDbEntity
  8
ASSI
100
AcDbSpline
 62
7
  6
CONTINUOUS
 70
0
 71
3
 72
10
 73
6
 74
0
 42
0.0000001
 43
0.0000001
 44
0.0000000001
 40
0.0
 40
0.0
 40
0.0
 40
0.0
 40
0.2326995781
 40
0.4721317903
 40
1.0
 40
1.0
 40
1.0
 40
1.0
 10
33.0593692523
 20
-52.4767331903
 30
0.0
 10
33.0831228546
 20
-52.4623337789
 30
0.0
 10
33.1277932581
 20
-52.4267858773
 30
0.0
 10
33.2004447491
 20
-52.3308334058
 30
0.0
 10
33.2283410007
 20
-52.2402226879
 30
0.0
 10
33.2377146873
 20
-52.1779123637
 30
0.0
  0
SPLINE
  5
3CA
100
AcDbEntity
  8
ASSI
100
AcDbSpline
 62
250
  6
CONTINUOUS
 70
0
 71
3
 72
9
 73
5
 74
0
 42
0.0000001
 43
0.0000001
 44
0.0000000001
 40
0.0
 40
0.0
 40
0.0
 40
0.0
 40
0.2332360618
 40
1.0
 40
1.0
 40
1.0
 40
1.0
 10
-16.0774350656
 20
15.4267264795
 30
0.0
 10
-16.0774343085
 20
15.4404208134
 30
0.0
 10
-16.0743694566
 20
15.4991271346
 30
0.0
 10
-16.0605236201
 20
15.556992767
 30
0.0
 10
-16.0457638459
 20
15.5995246671
 30
0.0
  0
SPLINE
  5
3CB
100
AcDbEntity
  8
ASSI
100
AcDbSpline
 62
250
  6
CONTINUOUS
 70
0
 71
3
 72
9
 73
5
 74
0
 42
0.0000001
 43
0.0000001
 44
0.0000000001
 40
0.0
 40
0.0
 40
0.0
 40
0.0
 40
0.2477444781
 40
1.0
 40
1.0
 40
1.0
 40
1.0
 10
-16.0457638459
 20
15.5995246671
 30
0.0
 10
-16.0399008333
 20
15.6164195775
 30
0.0
 10
-16.0134687379
 20
15.68361952
 30
0.0
 10
-15.9767406975
 20
15.7467955125
 30
0.0
 10
-15.9440805348
 20
15.7901767723
 30
0.0
  0
SPLINE
  5
3CC
100
AcDbEntity
  8
ASSI
100
AcDbSpline
 62
250
  6
CONTINUOUS
 70
0
 71
3
 72
9
 73
5
 74
0
 42
0.0000001
 43
0.0000001
 44
0.0000000001
 40
0.0
 40
0.0
 40
0.0
 40
0.0
 40
0.2551416147
 40
1.0
 40
1.0
 40
1.0
 40
1.0
 10
-15.9440805348
 20
15.7901767723
 30
0.0
 10
-15.9393849079
 20
15.7964137961
 30
0.0
 10
-15.9205548765
 20
15.8205334525
 30
0.0
 10
-15.8999982816
 20
15.843321087
 30
0.0
 10
-15.8837250439
 20
15.8592786591
 30
0.0
  0
SPLINE
  5
3CD
100
AcDbEntity
  8
ASSI
100
AcDbSpline
 62
250
  6
CONTINUOUS
 70
0
 71
3
 72
15
 73
11
 74
0
 42
0.0000001
 43
0.0000001
 44
0.0000000001
 40
0.0
 40
0.0
 40
0.0
 40
0.0
 40
0.1361087443
 40
0.258615133
 40
0.3711966206
 40
0.4802342622
 40
0.592820783
 40
0.7148948358
 40
0.8502342607
 40
1.0
 40
1.0
 40
1.0
 40
1.0
 10
-15.8382063856
 20
3.9908299383
 30
0.0
 10
-15.8538709855
 20
3.9841502646
 30
0.0
 10
-15.8848702866
 20
3.9740108615
 30
0.0
 10
-15.9316134016
 20
3.9698503387
 30
0.0
 10
-15.9745283189
 20
3.9782089295
 30
0.0
 10
-16.0116230124
 20
3.9990377487
 30
0.0
 10
-16.041146911
 20
4.0311705117
 30
0.0
 10
-16.0623228095
 20
4.0728634831
 30
0.0
 10
-16.0749161782
 20
4.1225592908
 30
0.0
 10
-16.0774342534
 20
4.1583207305
 30
0.0
 10
-16.0774350656
 20
4.1770587526
 30
0.0
  0
SPLINE
  5
3CE
100
AcDbEntity
  8
ASSI
100
AcDbSpline
 62
250
  6
CONTINUOUS
 70
0
 71
3
 72
11
 73
7
 74
0
 42
0.0000001
 43
0.0000001
 44
0.0000000001
 40
0.0
 40
0.0
 40
0.0
 40
0.0
 40
0.2135304008
 40
0.4448067725
 40
0.7056250979
 40
1.0
 40
1.0
 40
1.0
 40
1.0
 10
-15.5203392933
 20
4.1906177977
 30
0.0
 10
-15.5203413813
 20
4.1818883166
 30
0.0
 10
-15.5237428839
 20
4.163578535
 30
0.0
 10
-15.5382076064
 20
4.1381456731
 30
0.0
 10
-15.5610343177
 20
4.1151080075
 30
0.0
 10
-15.5800170586
 20
4.1024201481
 30
0.0
 10
-15.5904938698
 20
4.0964984434
 30
0.0
  0
SPLINE
  5
3CF
100
AcDbEntity
  8
ASSI
100
AcDbSpline
 62
7
  6
CONTINUOUS
 70
0
 71
3
 72
9
 73
5
 74
0
 42
0.0000001
 43
0.0000001
 44
0.0000000001
 40
0.0
 40
0.0
 40
0.0
 40
0.0
 40
0.2421136351
 40
1.0
 40
1.0
 40
1.0
 40
1.0
 10
33.2377146873
 20
-52.1779123637
 30
0.0
 10
33.2390855967
 20
-52.1687994272
 30
0.0
 10
33.2439226143
 20
-52.1310380521
 30
0.0
 10
33.2455761693
 20
-52.0928917232
 30
0.0
 10
33.2453053626
 20
-52.0640458629
 30
0.0
  0
SPLINE
  5
3D0
100
AcDbEntity
  8
ASSI
100
AcDbSpline
 62
250
  6
CONTINUOUS
 70
0
 71
3
 72
9
 73
5
 74
0
 42
0.0000001
 43
0.0000001
 44
0.0000000001
 40
0.0
 40
0.0
 40
0.0
 40
0.0
 40
0.4810829056
 40
1.0
 40
1.0
 40
1.0
 40
1.0
 10
-15.6649491125
 20
4.3915990495
 30
0.0
 10
-15.6763654376
 20
4.3958680154
 30
0.0
 10
-15.7021960335
 20
4.3997064271
 30
0.0
 10
-15.7273777168
 20
4.3937341263
 30
0.0
 10
-15.7396100005
 20
4.3889161714
 30
0.0
  0
SPLINE
  5
3D1
100
AcDbEntity
  8
ASSI
100
AcDbSpline
 62
250
  6
CONTINUOUS
 70
0
 71
3
 72
9
 73
5
 74
0
 42
0.0000001
 43
0.0000001
 44
0.0000000001
 40
0.0
 40
0.0
 40
0.0
 40
0.0
 40
0.4808335537
 40
1.0
 40
1.0
 40
1.0
 40
1.0
 10
-2.9251458406
 20
-15.9010290357
 30
0.0
 10
-2.915912387
 20
-15.894684844
 30
0.0
 10
-2.8988760653
 20
-15.8781202575
 30
0.0
 10
-2.8876759333
 20
-15.857325959
 30
0.0
 10
-2.8831881431
 20
-15.8460932453
 30
0.0
  0
SPLINE
  5
3D2
100
AcDbEntity
  8
ASSI
100
AcDbSpline
 62
250
  6
CONTINUOUS
 70
0
 71
3
 72
8
 73
4
 74
0
 42
0.0000001
 43
0.0000001
 44
0.0000000001
 40
0.0
 40
0.0
 40
0.0
 40
0.0
 40
1.0
 40
1.0
 40
1.0
 40
1.0
 10
-2.8831881431
 20
-15.8460932453
 30
0.0
 10
-2.8807160795
 20
-15.8399057941
 30
0.0
 10
-2.8786365849
 20
-15.8335508686
 30
0.0
 10
-2.8769145195
 20
-15.8271142436
 30
0.0
  0
SPLINE
  5
3D3
100
AcDbEntity
  8
ASSI
100
AcDbSpline
 62
250
  6
CONTINUOUS
 70
0
 71
3
 72
11
 73
7
 74
0
 42
0.0000001
 43
0.0000001
 44
0.0000000001
 40
0.0
 40
0.0
 40
0.0
 40
0.0
 40
0.2990310466
 40
0.4993355207
 40
0.6997411256
 40
1.0
 40
1.0
 40
1.0
 40
1.0
 10
-15.7396100005
 20
4.3889161714
 30
0.0
 10
-15.7357474561
 20
4.3874718755
 30
0.0
 10
-15.7293786717
 20
4.3847305352
 30
0.0
 10
-15.7232930463
 20
4.375534485
 30
0.0
 10
-15.728928913
 20
4.3660290114
 30
0.0
 10
-15.7351899258
 20
4.3629946248
 30
0.0
 10
-15.7389983495
 20
4.3613694838
 30
0.0
  0
SPLINE
  5
3D4
100
AcDbEntity
  8
ASSI
100
AcDbSpline
 62
250
  6
CONTINUOUS
 70
0
 71
3
 72
11
 73
7
 74
0
 42
0.0000001
 43
0.0000001
 44
0.0000000001
 40
0.0
 40
0.0
 40
0.0
 40
0.0
 40
0.2187182257
 40
0.4522864185
 40
0.7114901475
 40
1.0
 40
1.0
 40
1.0
 40
1.0
 10
-15.5203398889
 20
3.4946670713
 30
0.0
 10
-15.5203441903
 20
3.4853641095
 30
0.0
 10
-15.5236837641
 20
3.4660008141
 30
0.0
 10
-15.5380696706
 20
3.4389170256
 30
0.0
 10
-15.5608590134
 20
3.4143359637
 30
0.0
 10
-15.5799614276
 20
3.4007389323
 30
0.0
 10
-15.5904938698
 20
3.3944415603
 30
0.0
  0
SPLINE
  5
3D5
100
AcDbEntity
  8
ASSI
100
AcDbSpline
 62
250
  6
CONTINUOUS
 70
0
 71
3
 72
11
 73
7
 74
0
 42
0.0000001
 43
0.0000001
 44
0.0000000001
 40
0.0
 40
0.0
 40
0.0
 40
0.0
 40
0.2187065999
 40
0.4522834141
 40
0.7114952413
 40
1.0
 40
1.0
 40
1.0
 40
1.0
 10
-15.6807797082
 20
-2.0173699339
 30
0.0
 10
-15.6888375199
 20
-2.0127315042
 30
0.0
 10
-15.7072710173
 20
-2.0059597229
 30
0.0
 10
-15.7379028281
 20
-2.0048919077
 30
0.0
 10
-15.7705658934
 20
-2.0123422289
 30
0.0
 10
-15.7918799535
 20
-2.022083898
 30
0.0
 10
-15.8025935954
 20
-2.0280538836
 30
0.0
  0
SPLINE
  5
3D6
100
AcDbEntity
  8
ASSI
100
AcDbSpline
 62
250
  6
CONTINUOUS
 70
0
 71
3
 72
11
 73
7
 74
0
 42
0.0000001
 43
0.0000001
 44
0.0000000001
 40
0.0
 40
0.0
 40
0.0
 40
0.0
 40
0.2187168269
 40
0.4522947597
 40
0.711502084
 40
1.0
 40
1.0
 40
1.0
 40
1.0
 10
-15.5203399294
 20
-2.2952481812
 30
0.0
 10
-15.5203500303
 20
-2.3045473074
 30
0.0
 10
-15.5236989393
 20
-2.3239007789
 30
0.0
 10
-15.5380878022
 20
-2.3509688135
 30
0.0
 10
-15.5608714275
 20
-2.3755362419
 30
0.0
 10
-15.5799661328
 20
-2.3891268268
 30
0.0
 10
-15.5904938698
 20
-2.3954213843
 30
0.0
  0
SPLINE
  5
3D7
100
AcDbEntity
  8
ASSI
100
AcDbSpline
 62
250
  6
CONTINUOUS
 70
0
 71
3
 72
11
 73
7
 74
0
 42
0.0000001
 43
0.0000001
 44
0.0000000001
 40
0.0
 40
0.0
 40
0.0
 40
0.0
 40
0.2187182257
 40
0.4522864185
 40
0.7114901475
 40
1.0
 40
1.0
 40
1.0
 40
1.0
 10
-15.5203398889
 20
22.6817185759
 30
0.0
 10
-15.5203441903
 20
22.6724156141
 30
0.0
 10
-15.5236837641
 20
22.6530523188
 30
0.0
 10
-15.5380696706
 20
22.6259685303
 30
0.0
 10
-15.5608590134
 20
22.6013874684
 30
0.0
 10
-15.5799614276
 20
22.587790437
 30
0.0
 10
-15.5904938698
 20
22.5814930649
 30
0.0
  0
SPLINE
  5
3D8
100
AcDbEntity
  8
ASSI
100
AcDbSpline
 62
7
  6
CONTINUOUS
 70
0
 71
3
 72
11
 73
7
 74
0
 42
0.0000001
 43
0.0000001
 44
0.0000000001
 40
0.0
 40
0.0
 40
0.0
 40
0.0
 40
0.2398961039
 40
0.4999946021
 40
0.7600960345
 40
1.0
 40
1.0
 40
1.0
 40
1.0
 10
33.2453053626
 20
18.7082618574
 30
0.0
 10
33.2462694513
 20
18.820974659
 30
0.0
 10
33.208562042
 20
19.0566876027
 30
0.0
 10
33.0654779144
 20
19.3872536901
 30
0.0
 10
32.8507387355
 20
19.6764538519
 30
0.0
 10
32.6654568588
 20
19.8269705596
 30
0.0
 10
32.5673608127
 20
19.8824962614
 30
0.0
  0
SPLINE
  5
3D9
100
AcDbEntity
  8
ASSI
100
AcDbSpline
 62
7
  6
CONTINUOUS
 70
0
 71
3
 72
9
 73
5
 74
0
 42
0.0000001
 43
0.0000001
 44
0.0000000001
 40
0.0
 40
0.0
 40
0.0
 40
0.0
 40
0.2580518931
 40
1.0
 40
1.0
 40
1.0
 40
1.0
 10
-28.7252301507
 20
55.2720701071
 30
0.0
 10
-28.7336942726
 20
55.2770637554
 30
0.0
 10
-28.7668388455
 20
55.2958190835
 30
0.0
 10
-28.8013944988
 20
55.3121284259
 30
0.0
 10
-28.8276944548
 20
55.322457712
 30
0.0
  0
SPLINE
  5
3DA
100
AcDbEntity
  8
ASSI
100
AcDbSpline
 62
250
  6
CONTINUOUS
 70
0
 71
3
 72
11
 73
7
 74
0
 42
0.0000001
 43
0.0000001
 44
0.0000000001
 40
0.0
 40
0.0
 40
0.0
 40
0.0
 40
0.2187065999
 40
0.4522834141
 40
0.7114952413
 40
1.0
 40
1.0
 40
1.0
 40
1.0
 10
-15.6807797082
 20
17.1696815707
 30
0.0
 10
-15.6888375199
 20
17.1743200004
 30
0.0
 10
-15.7072710173
 20
17.1810917817
 30
0.0
 10
-15.7379028281
 20
17.1821595969
 30
0.0
 10
-15.7705658934
 20
17.1747092757
 30
0.0
 10
-15.7918799535
 20
17.1649676066
 30
0.0
 10
-15.8025935954
 20
17.158997621
 30
0.0
  0
SPLINE
  5
3DB
100
AcDbEntity
  8
ASSI
100
AcDbSpline
 62
250
  6
CONTINUOUS
 70
0
 71
3
 72
11
 73
7
 74
0
 42
0.0000001
 43
0.0000001
 44
0.0000000001
 40
0.0
 40
0.0
 40
0.0
 40
0.0
 40
0.2187168269
 40
0.4522947597
 40
0.711502084
 40
1.0
 40
1.0
 40
1.0
 40
1.0
 10
-15.5203399294
 20
16.8918033234
 30
0.0
 10
-15.5203500303
 20
16.8825041972
 30
0.0
 10
-15.5236989393
 20
16.8631507258
 30
0.0
 10
-15.5380878022
 20
16.8360826912
 30
0.0
 10
-15.5608714275
 20
16.8115152627
 30
0.0
 10
-15.5799661328
 20
16.7979246778
 30
0.0
 10
-15.5904938698
 20
16.7916301204
 30
0.0
  0
SPLINE
  5
3DC
100
AcDbEntity
  8
ASSI
100
AcDbSpline
 62
250
  6
CONTINUOUS
 70
0
 71
3
 72
11
 73
7
 74
0
 42
0.0000001
 43
0.0000001
 44
0.0000000001
 40
0.0
 40
0.0
 40
0.0
 40
0.0
 40
0.2376510569
 40
0.4999342214
 40
0.7622435943
 40
1.0
 40
1.0
 40
1.0
 40
1.0
 10
-15.8025935954
 20
-2.0280538836
 30
0.0
 10
-15.772156015
 20
-2.0451285382
 30
0.0
 10
-15.714557781
 20
-2.092642199
 30
0.0
 10
-15.6476362581
 20
-2.1834715479
 30
0.0
 10
-15.6024190561
 20
-2.2868507945
 30
0.0
 10
-15.5900604797
 20
-2.360508888
 30
0.0
 10
-15.5904938698
 20
-2.3954213843
 30
0.0
  0
SPLINE
  5
3DD
100
AcDbEntity
  8
ASSI
100
AcDbSpline
 62
250
  6
CONTINUOUS
 70
0
 71
3
 72
10
 73
6
 74
0
 42
0.0000001
 43
0.0000001
 44
0.0000000001
 40
0.0
 40
0.0
 40
0.0
 40
0.0
 40
0.5461416737
 40
0.7809242803
 40
1.0
 40
1.0
 40
1.0
 40
1.0
 10
-15.5904938698
 20
3.3944415606
 30
0.0
 10
-15.5901537476
 20
3.3672961474
 30
0.0
 10
-15.5952800381
 20
3.3272977622
 30
0.0
 10
-15.6198059389
 20
3.2834294306
 30
0.0
 10
-15.636516613
 20
3.2676042386
 30
0.0
 10
-15.6455532699
 20
3.2615275337
 30
0.0
  0
SPLINE
  5
3DE
100
AcDbEntity
  8
ASSI
100
AcDbSpline
 62
250
  6
CONTINUOUS
 70
0
 71
3
 72
10
 73
6
 74
0
 42
0.0000001
 43
0.0000001
 44
0.0000000001
 40
0.0
 40
0.0
 40
0.0
 40
0.0
 40
0.5461416737
 40
0.7809242803
 40
1.0
 40
1.0
 40
1.0
 40
1.0
 10
-15.5904938698
 20
22.5814930652
 30
0.0
 10
-15.5901537476
 20
22.554347652
 30
0.0
 10
-15.5952800381
 20
22.5143492669
 30
0.0
 10
-15.6198059389
 20
22.4704809353
 30
0.0
 10
-15.636516613
 20
22.4546557432
 30
0.0
 10
-15.6455532699
 20
22.4485790383
 30
0.0
  0
SPLINE
  5
3DF
100
AcDbEntity
  8
ASSI
100
AcDbSpline
 62
250
  6
CONTINUOUS
 70
0
 71
3
 72
11
 73
7
 74
0
 42
0.0000001
 43
0.0000001
 44
0.0000000001
 40
0.0
 40
0.0
 40
0.0
 40
0.0
 40
0.2376510569
 40
0.4999342214
 40
0.7622435943
 40
1.0
 40
1.0
 40
1.0
 40
1.0
 10
-15.8025935954
 20
17.158997621
 30
0.0
 10
-15.772156015
 20
17.1419229664
 30
0.0
 10
-15.714557781
 20
17.0944093056
 30
0.0
 10
-15.6476362581
 20
17.0035799567
 30
0.0
 10
-15.6024190561
 20
16.9002007102
 30
0.0
 10
-15.5900604797
 20
16.8265426167
 30
0.0
 10
-15.5904938698
 20
16.7916301204
 30
0.0
  0
SPLINE
  5
3E0
100
AcDbEntity
  8
ASSI
100
AcDbSpline
 62
250
  6
CONTINUOUS
 70
0
 71
3
 72
9
 73
5
 74
0
 42
0.0000001
 43
0.0000001
 44
0.0000000001
 40
0.0
 40
0.0
 40
0.0
 40
0.0
 40
0.5411876053
 40
1.0
 40
1.0
 40
1.0
 40
1.0
 10
-15.5904938698
 20
16.0895732376
 30
0.0
 10
-15.5714751581
 20
16.1015667629
 30
0.0
 10
-15.5388504195
 20
16.1290992402
 30
0.0
 10
-15.5220764738
 20
16.1696902566
 30
0.0
 10
-15.5206176438
 20
16.1886965055
 30
0.0
  0
SPLINE
  5
3E1
100
AcDbEntity
  8
ASSI
100
AcDbSpline
 62
250
  6
CONTINUOUS
 70
0
 71
3
 72
10
 73
6
 74
0
 42
0.0000001
 43
0.0000001
 44
0.0000000001
 40
0.0
 40
0.0
 40
0.0
 40
0.0
 40
0.3606040285
 40
0.6415404703
 40
1.0
 40
1.0
 40
1.0
 40
1.0
 10
-2.8769145195
 20
-15.8271142436
 30
0.0
 10
-2.8751995508
 20
-15.8309516256
 30
0.0
 10
-2.8724036409
 20
-15.8379978458
 30
0.0
 10
-2.8694522708
 20
-15.8489439338
 30
0.0
 10
-2.8699964277
 20
-15.8577360368
 30
0.0
 10
-2.8729907294
 20
-15.8606500159
 30
0.0
  0
SPLINE
  5
3E2
100
AcDbEntity
  8
ASSI
100
AcDbSpline
 62
250
  6
CONTINUOUS
 70
0
 71
3
 72
9
 73
5
 74
0
 42
0.0000001
 43
0.0000001
 44
0.0000000001
 40
0.0
 40
0.0
 40
0.0
 40
0.0
 40
0.2725560258
 40
1.0
 40
1.0
 40
1.0
 40
1.0
 10
-15.9867108653
 20
4.2557009787
 30
0.0
 10
-15.989665123
 20
4.2543366757
 30
0.0
 10
-16.0006480548
 20
4.2496753703
 30
0.0
 10
-16.0123110721
 20
4.2464132513
 30
0.0
 10
-16.0209391612
 20
4.2454205168
 30
0.0
  0
SPLINE
  5
3E3
100
AcDbEntity
  8
ASSI
100
AcDbSpline
 62
250
  6
CONTINUOUS
 70
0
 71
3
 72
11
 73
7
 74
0
 42
0.0000001
 43
0.0000001
 44
0.0000000001
 40
0.0
 40
0.0
 40
0.0
 40
0.0
 40
0.2510505029
 40
0.4522061426
 40
0.6514885695
 40
1.0
 40
1.0
 40
1.0
 40
1.0
 10
-15.5904938698
 20
4.0964984434
 30
0.0
 10
-15.5874035537
 20
4.123264556
 30
0.0
 10
-15.5913033904
 20
4.172720982
 30
0.0
 10
-15.614341867
 20
4.23929633
 30
0.0
 10
-15.6557810737
 20
4.3081931286
 30
0.0
 10
-15.7036057859
 20
4.3492691917
 30
0.0
 10
-15.7389983495
 20
4.3613694838
 30
0.0
  0
SPLINE
  5
3E4
100
AcDbEntity
  8
ASSI
100
AcDbSpline
 62
250
  6
CONTINUOUS
 70
0
 71
3
 72
11
 73
7
 74
0
 42
0.0000001
 43
0.0000001
 44
0.0000000001
 40
0.0
 40
0.0
 40
0.0
 40
0.0
 40
0.2510505119
 40
0.4522061595
 40
0.6514885898
 40
1.0
 40
1.0
 40
1.0
 40
1.0
 10
-15.8382063856
 20
3.9908299383
 30
0.0
 10
-15.8351160729
 20
4.0175960516
 30
0.0
 10
-15.8390159152
 20
4.0670524774
 30
0.0
 10
-15.8620543956
 20
4.1336278242
 30
0.0
 10
-15.9034936016
 20
4.2025246192
 30
0.0
 10
-15.951318306
 20
4.2436006836
 30
0.0
 10
-15.9867108653
 20
4.2557009787
 30
0.0
  0
SPLINE
  5
3E5
100
AcDbEntity
  8
ASSI
100
AcDbSpline
 62
250
  6
CONTINUOUS
 70
0
 71
3
 72
9
 73
5
 74
0
 42
0.0000001
 43
0.0000001
 44
0.0000000001
 40
0.0
 40
0.0
 40
0.0
 40
0.0
 40
0.5478889287
 40
1.0
 40
1.0
 40
1.0
 40
1.0
 10
-16.0774350656
 20
4.1770587526
 30
0.0
 10
-16.0623090648
 20
4.1861026222
 30
0.0
 10
-16.0363450494
 20
4.2064984879
 30
0.0
 10
-16.0225706738
 20
4.237803503
 30
0.0
 10
-16.0214957043
 20
4.2523064034
 30
0.0
  0
SPLINE
  5
3E6
100
AcDbEntity
  8
ASSI
100
AcDbSpline
 62
250
  6
CONTINUOUS
 70
0
 71
3
 72
10
 73
6
 74
0
 42
0.0000001
 43
0.0000001
 44
0.0000000001
 40
0.0
 40
0.0
 40
0.0
 40
0.0
 40
0.546374885
 40
0.7806295628
 40
1.0
 40
1.0
 40
1.0
 40
1.0
 10
-16.0774350656
 20
15.4267264795
 30
0.0
 10
-16.061519787
 20
15.4362422601
 30
0.0
 10
-16.0400972675
 20
15.4536545747
 30
0.0
 10
-16.0239768984
 20
15.4839957927
 30
0.0
 10
-16.0213112085
 20
15.4994988052
 30
0.0
 10
-16.021311874
 20
15.5069438869
 30
0.0
  0
SPLINE
  5
3E7
100
AcDbEntity
  8
ASSI
100
AcDbSpline
 62
250
  6
CONTINUOUS
 70
0
 71
3
 72
9
 73
5
 74
0
 42
0.0000001
 43
0.0000001
 44
0.0000000001
 40
0.0
 40
0.0
 40
0.0
 40
0.0
 40
0.5609451159
 40
1.0
 40
1.0
 40
1.0
 40
1.0
 10
-15.8382063856
 20
15.899026014
 30
0.0
 10
-15.8361174259
 20
15.8834309238
 30
0.0
 10
-15.8354182527
 20
15.8546190173
 30
0.0
 10
-15.8503622799
 20
15.8282232078
 30
0.0
 10
-15.8601296887
 20
15.8207221136
 30
0.0
  0
SPLINE
  5
3E8
100
AcDbEntity
  8
ASSI
100
AcDbSpline
 62
250
  6
CONTINUOUS
 70
0
 71
3
 72
9
 73
5
 74
0
 42
0.0000001
 43
0.0000001
 44
0.0000000001
 40
0.0
 40
0.0
 40
0.0
 40
0.0
 40
0.5609471573
 40
1.0
 40
1.0
 40
1.0
 40
1.0
 10
-15.5904938698
 20
16.0895732376
 30
0.0
 10
-15.5884048014
 20
16.0739772834
 30
0.0
 10
-15.5877056183
 20
16.0451636986
 30
0.0
 10
-15.6026522487
 20
16.0187670889
 30
0.0
 10
-15.6124208099
 20
16.0112665441
 30
0.0
  0
SPLINE
  5
3E9
100
AcDbEntity
  8
0
100
AcDbSpline
 62
250
  6
CONTINUOUS
 70
0
 71
3
 72
12
 73
8
 74
0
 42
0.0000001
 43
0.0000001
 44
0.0000000001
 40
0.0
 40
0.0
 40
0.0
 40
0.0
 40
0.3333333333
 40
0.5
 40
0.6666666667
 40
0.8333333333
 40
1.0
 40
1.0
 40
1.0
 40
1.0
 10
31.8077745367
 20
-43.0042876589
 30
0.0
 10
31.8050261969
 20
-43.0337588931
 30
0.0
 10
31.8027279253
 20
-43.0770440176
 30
0.0
 10
31.803253929
 20
-43.1327490122
 30
0.0
 10
31.8054452071
 20
-43.1736500497
 30
0.0
 10
31.8095980578
 20
-43.2138576049
 30
0.0
 10
31.8134539593
 20
-43.2401398041
 30
0.0
 10
31.815545377
 20
-43.2532931399
 30
0.0
  0
SPLINE
  5
3EA
100
AcDbEntity
  8
0
100
AcDbSpline
 62
250
  6
CONTINUOUS
 70
0
 71
3
 72
19
 73
15
 74
0
 42
0.0000001
 43
0.0000001
 44
0.0000000001
 40
0.0
 40
0.0
 40
0.0
 40
0.0
 40
0.1
 40
0.2
 40
0.25
 40
0.3
 40
0.4
 40
0.5
 40
0.6
 40
0.7
 40
0.75
 40
0.8
 40
0.9
 40
1.0
 40
1.0
 40
1.0
 40
1.0
 10
31.9728495603
 20
-42.7226771981
 30
0.0
 10
31.9648683133
 20
-42.7275915284
 30
0.0
 10
31.9494017366
 20
-42.7385080038
 30
0.0
 10
31.9301283678
 20
-42.7553155662
 30
0.0
 10
31.9150747782
 20
-42.7704207219
 30
0.0
 10
31.9002472878
 20
-42.7866771917
 30
0.0
 10
31.8825678277
 20
-42.8087352944
 30
0.0
 10
31.8627325767
 20
-42.838418758
 30
0.0
 10
31.8455439819
 20
-42.8703636447
 30
0.0
 10
31.8337809415
 20
-42.8978055054
 30
0.0
 10
31.8257784531
 20
-42.9202902138
 30
0.0
 10
31.8188272645
 20
-42.94278734
 30
0.0
 10
31.8120558612
 20
-42.9710294449
 30
0.0
 10
31.8088182979
 20
-42.9930951077
 30
0.0
 10
31.8077745366
 20
-43.004287659
 30
0.0
  0
SPLINE
  5
3EB
100
AcDbEntity
  8
0
100
AcDbSpline
 62
250
  6
CONTINUOUS
 70
0
 71
3
 72
15
 73
11
 74
0
 42
0.0000001
 43
0.0000001
 44
0.0000000001
 40
0.0
 40
0.0
 40
0.0
 40
0.0
 40
0.1666666667
 40
0.3333333333
 40
0.5
 40
0.5833333333
 40
0.6666666667
 40
0.75
 40
0.8333333333
 40
1.0
 40
1.0
 40
1.0
 40
1.0
 10
32.1778959475
 20
-42.8516004288
 30
0.0
 10
32.1774115064
 20
-42.8264016045
 30
0.0
 10
32.1732931296
 20
-42.7815451199
 30
0.0
 10
32.158480656
 20
-42.7317088937
 30
0.0
 10
32.1368739184
 20
-42.7026773929
 30
0.0
 10
32.1114935998
 20
-42.6901716296
 30
0.0
 10
32.0890123464
 20
-42.6861078783
 30
0.0
 10
32.0641666401
 20
-42.6870692357
 30
0.0
 10
32.0272087661
 20
-42.6949936073
 30
0.0
 10
31.9956511768
 20
-42.7086349707
 30
0.0
 10
31.9728133292
 20
-42.7226995192
 30
0.0
  0
SPLINE
  5
3EC
100
AcDbEntity
  8
0
100
AcDbSpline
 62
250
  6
CONTINUOUS
 70
0
 71
3
 72
16
 73
12
 74
0
 42
0.0000001
 43
0.0000001
 44
0.0000000001
 40
0.0
 40
0.0
 40
0.0
 40
0.0
 40
0.125
 40
0.25
 40
0.3125
 40
0.375
 40
0.5
 40
0.625
 40
0.75
 40
0.875
 40
1.0
 40
1.0
 40
1.0
 40
1.0
 10
32.5102355268
 20
-42.4730073154
 30
0.0
 10
32.5013834196
 20
-42.4822124395
 30
0.0
 10
32.4849088501
 20
-42.5008807773
 30
0.0
 10
32.4657196944
 20
-42.5262421114
 30
0.0
 10
32.4516697135
 20
-42.5472304486
 30
0.0
 10
32.4384683074
 20
-42.568749128
 30
0.0
 10
32.4239915516
 20
-42.5960159345
 30
0.0
 10
32.4100431181
 20
-42.6295895789
 30
0.0
 10
32.4005552882
 20
-42.6627369788
 30
0.0
 10
32.395245956
 20
-42.6939497025
 30
0.0
 10
32.3940710038
 20
-42.7133204479
 30
0.0
 10
32.3940710038
 20
-42.7230468041
 30
0.0
  0
SPLINE
  5
3ED
100
AcDbEntity
  8
0
100
AcDbSpline
 62
250
  6
CONTINUOUS
 70
0
 71
3
 72
12
 73
8
 74
0
 42
0.0000001
 43
0.0000001
 44
0.0000000001
 40
0.0
 40
0.0
 40
0.0
 40
0.0
 40
0.1666666667
 40
0.3333333333
 40
0.5
 40
0.6666666667
 40
1.0
 40
1.0
 40
1.0
 40
1.0
 10
32.9106244681
 20
-42.091967555
 30
0.0
 10
32.8864912755
 20
-42.1145506745
 30
0.0
 10
32.8388839903
 20
-42.1593947448
 30
0.0
 10
32.7693364716
 20
-42.225068711
 30
0.0
 10
32.7013926976
 20
-42.2884578003
 30
0.0
 10
32.6131468222
 20
-42.370462794
 30
0.0
 10
32.5502428332
 20
-42.4314183795
 30
0.0
 10
32.5102632207
 20
-42.4729785371
 30
0.0
  0
SPLINE
  5
3EE
100
AcDbEntity
  8
0
100
AcDbSpline
 62
250
  6
CONTINUOUS
 70
0
 71
3
 72
10
 73
6
 74
0
 42
0.0000001
 43
0.0000001
 44
0.0000000001
 40
0.0
 40
0.0
 40
0.0
 40
0.0
 40
0.3333333333
 40
0.6666666667
 40
1.0
 40
1.0
 40
1.0
 40
1.0
 10
32.5533996741
 20
-42.1047866265
 30
0.0
 10
32.5943500349
 20
-42.0671913729
 30
0.0
 10
32.675500328
 20
-41.9933800866
 30
0.0
 10
32.7946259272
 20
-41.8857709834
 30
0.0
 10
32.8723313015
 20
-41.815637445
 30
0.0
 10
32.9106244681
 20
-41.780519673
 30
0.0
  0
SPLINE
  5
3EF
100
AcDbEntity
  8
0
100
AcDbSpline
 62
250
  6
CONTINUOUS
 70
0
 71
3
 72
16
 73
12
 74
0
 42
0.0000001
 43
0.0000001
 44
0.0000000001
 40
0.0
 40
0.0
 40
0.0
 40
0.0
 40
0.1111111111
 40
0.2222222222
 40
0.3333333333
 40
0.4444444444
 40
0.5555555556
 40
0.6666666667
 40
0.7777777778
 40
0.8888888889
 40
1.0
 40
1.0
 40
1.0
 40
1.0
 10
32.2944859653
 20
-42.4462368397
 30
0.0
 10
32.29866268
 20
-42.4314301671
 30
0.0
 10
32.3092208049
 20
-42.4020902638
 30
0.0
 10
32.3312485552
 20
-42.3580604354
 30
0.0
 10
32.3568474303
 20
-42.3170065026
 30
0.0
 10
32.3849667198
 20
-42.2784078986
 30
0.0
 10
32.4140345227
 20
-42.2429693182
 30
0.0
 10
32.4446952844
 20
-42.2089402057
 30
0.0
 10
32.4774708779
 20
-42.1753883806
 30
0.0
 10
32.5131725259
 20
-42.1414787993
 30
0.0
 10
32.5396438924
 20
-42.1174153825
 30
0.0
 10
32.5533996742
 20
-42.1047866267
 30
0.0
  0
SPLINE
  5
3F0
100
AcDbEntity
  8
0
100
AcDbSpline
 62
250
  6
CONTINUOUS
 70
0
 71
3
 72
34
 73
30
 74
0
 42
0.0000001
 43
0.0000001
 44
0.0000000001
 40
0.0
 40
0.0
 40
0.0
 40
0.0
 40
0.0277777778
 40
0.0555555556
 40
0.0833333333
 40
0.1111111111
 40
0.1388888889
 40
0.1666666667
 40
0.1944444444
 40
0.2222222222
 40
0.25
 40
0.2777777778
 40
0.3333333333
 40
0.3888888889
 40
0.4444444444
 40
0.5
 40
0.5555555556
 40
0.6111111111
 40
0.6666666667
 40
0.7222222222
 40
0.7777777778
 40
0.8055555556
 40
0.8333333333
 40
0.8611111111
 40
0.8888888889
 40
0.9166666667
 40
0.9444444444
 40
0.9722222222
 40
1.0
 40
1.0
 40
1.0
 40
1.0
 10
31.6199980139
 20
-42.8828986425
 30
0.0
 10
31.6235156764
 20
-42.8693364293
 30
0.0
 10
31.6320765356
 20
-42.8416835395
 30
0.0
 10
31.6493457416
 20
-42.7976755254
 30
0.0
 10
31.6711785243
 20
-42.7502239162
 30
0.0
 10
31.696760627
 20
-42.7024307474
 30
0.0
 10
31.7256339689
 20
-42.6557160898
 30
0.0
 10
31.7572877836
 20
-42.6110779063
 30
0.0
 10
31.79105308
 20
-42.5693844959
 30
0.0
 10
31.8258669108
 20
-42.531912261
 30
0.0
 10
31.859531139
 20
-42.5001596565
 30
0.0
 10
31.9035116655
 20
-42.4636595099
 30
0.0
 10
31.9541850329
 20
-42.4288458714
 30
0.0
 10
32.0085135212
 20
-42.3994114644
 30
0.0
 10
32.0571359419
 20
-42.3803643061
 30
0.0
 10
32.099663413
 20
-42.3700950681
 30
0.0
 10
32.1366365397
 20
-42.3666819503
 30
0.0
 10
32.1684586332
 20
-42.3686163665
 30
0.0
 10
32.1955070674
 20
-42.3747660638
 30
0.0
 10
32.2182216884
 20
-42.3843840442
 30
0.0
 10
32.2341635648
 20
-42.3939600197
 30
0.0
 10
32.2456060845
 20
-42.4019262716
 30
0.0
 10
32.253641367
 20
-42.4079690443
 30
0.0
 10
32.2611288006
 20
-42.4139601351
 30
0.0
 10
32.2682673719
 20
-42.4198254634
 30
0.0
 10
32.2750666292
 20
-42.4260942917
 30
0.0
 10
32.2807102686
 20
-42.4331260271
 30
0.0
 10
32.2847893225
 20
-42.4411884074
 30
0.0
 10
32.286287548
 20
-42.4475075355
 30
0.0
 10
32.2866862425
 20
-42.4509003113
 30
0.0
  0
SPLINE
  5
3F1
100
AcDbEntity
  8
0
100
AcDbSpline
 62
250
  6
CONTINUOUS
 70
0
 71
3
 72
15
 73
11
 74
0
 42
0.0000001
 43
0.0000001
 44
0.0000000001
 40
0.0
 40
0.0
 40
0.0
 40
0.0
 40
0.125
 40
0.25
 40
0.375
 40
0.5
 40
0.625
 40
0.75
 40
0.875
 40
1.0
 40
1.0
 40
1.0
 40
1.0
 10
31.606101046
 20
-43.6902706865
 30
0.0
 10
31.6011015509
 20
-43.6533237493
 30
0.0
 10
31.5918372387
 20
-43.581702158
 30
0.0
 10
31.5813594805
 20
-43.4812743603
 30
0.0
 10
31.5745781603
 20
-43.3842573199
 30
0.0
 10
31.5719185954
 20
-43.2885771655
 30
0.0
 10
31.5739929486
 20
-43.1913997589
 30
0.0
 10
31.5817141704
 20
-43.0916925407
 30
0.0
 10
31.5961289854
 20
-42.9890703736
 30
0.0
 10
31.6106973166
 20
-42.918713215
 30
0.0
 10
31.6199980139
 20
-42.8828986425
 30
0.0
  0
SPLINE
  5
3F2
100
AcDbEntity
  8
RACCORDO
100
AcDbSpline
 62
7
  6
CONTINUOUS
 70
0
 71
3
 72
11
 73
7
 74
0
 42
0.0000001
 43
0.0000001
 44
0.0000000001
 40
0.0
 40
0.0
 40
0.0
 40
0.0
 40
0.217767124
 40
0.4509439365
 40
0.7101951399
 40
1.0
 40
1.0
 40
1.0
 40
1.0
 10
-18.0897827734
 20
26.186598189
 30
0.0
 10
-18.0502004448
 20
26.209452543
 30
0.0
 10
-17.9592444849
 20
26.2424869881
 30
0.0
 10
-17.8081883148
 20
26.2462667852
 30
0.0
 10
-17.6471667279
 20
26.2074302043
 30
0.0
 10
-17.5424300194
 20
26.1575633756
 30
0.0
 10
-17.4897537812
 20
26.1271487758
 30
0.0
  0
SPLINE
  5
3F3
100
AcDbEntity
  8
RACCORDO
100
AcDbSpline
 62
7
  6
CONTINUOUS
 70
0
 71
3
 72
11
 73
7
 74
0
 42
0.0000001
 43
0.0000001
 44
0.0000000001
 40
0.0
 40
0.0
 40
0.0
 40
0.0
 40
0.2372134916
 40
0.4999938932
 40
0.7627776188
 40
1.0
 40
1.0
 40
1.0
 40
1.0
 10
-16.2169615751
 20
-8.0827901111
 30
0.0
 10
-16.2169615751
 20
-8.2218776772
 30
0.0
 10
-16.1647913113
 20
-8.5152327954
 30
0.0
 10
-15.9829408313
 20
-8.9274632653
 30
0.0
 10
-15.7168603478
 20
-9.291069445
 30
0.0
 10
-15.4888893771
 20
-9.4829342055
 30
0.0
 10
-15.3684334377
 20
-9.5524839552
 30
0.0
  0
SPLINE
  5
3F4
100
AcDbEntity
  8
RACCORDO
100
AcDbSpline
 62
7
  6
CONTINUOUS
 70
0
 71
3
 72
11
 73
7
 74
0
 42
0.0000001
 43
0.0000001
 44
0.0000000001
 40
0.0
 40
0.0
 40
0.0
 40
0.0
 40
0.2372223812
 40
0.5000061068
 40
0.7627865084
 40
1.0
 40
1.0
 40
1.0
 40
1.0
 10
12.7744164535
 20
8.6529961814
 30
0.0
 10
12.8948723929
 20
8.5834464317
 30
0.0
 10
13.1228433637
 20
8.3915816712
 30
0.0
 10
13.3889238472
 20
8.0279754915
 30
0.0
 10
13.5707743272
 20
7.6157450216
 30
0.0
 10
13.622944591
 20
7.3223899034
 30
0.0
 10
13.622944591
 20
7.1833023373
 30
0.0
  0
SPLINE
  5
3F5
100
AcDbEntity
  8
RACCORDO
100
AcDbSpline
 62
7
  6
CONTINUOUS
 70
0
 71
3
 72
11
 73
7
 74
0
 42
0.0000001
 43
0.0000001
 44
0.0000000001
 40
0.0
 40
0.0
 40
0.0
 40
0.0
 40
0.2897993086
 40
0.5490484826
 40
0.7822275283
 40
1.0
 40
1.0
 40
1.0
 40
1.0
 10
13.622944591
 20
-27.7616255095
 30
0.0
 10
13.622944591
 20
-27.8224415114
 30
0.0
 10
13.6137606358
 20
-27.9380604092
 30
0.0
 10
13.5668876519
 20
-28.0969016274
 30
0.0
 10
13.4880972257
 20
-28.2258114688
 30
0.0
 10
13.4140228287
 20
-28.2880582444
 30
0.0
 10
13.3744454457
 20
-28.3109097428
 30
0.0
  0
SPLINE
  5
3F6
100
AcDbEntity
  8
RACCORDO
100
AcDbSpline
 62
7
  6
CONTINUOUS
 70
0
 71
3
 72
11
 73
7
 74
0
 42
0.0000001
 43
0.0000001
 44
0.0000000001
 40
0.0
 40
0.0
 40
0.0
 40
0.0
 40
0.217767124
 40
0.4509439365
 40
0.7101951399
 40
1.0
 40
1.0
 40
1.0
 40
1.0
 10
13.3744454457
 20
-28.3109097428
 30
0.0
 10
13.3348631171
 20
-28.3337640967
 30
0.0
 10
13.2439071572
 20
-28.3667985419
 30
0.0
 10
13.0928509871
 20
-28.370578339
 30
0.0
 10
12.9318294002
 20
-28.3317417581
 30
0.0
 10
12.8270926917
 20
-28.2818749294
 30
0.0
 10
12.7744164535
 20
-28.2514603296
 30
0.0
  0
SPLINE
  5
3F7
100
AcDbEntity
  8
RACCORDO
100
AcDbSpline
 62
7
  6
CONTINUOUS
 70
0
 71
3
 72
11
 73
7
 74
0
 42
0.0000001
 43
0.0000001
 44
0.0000000001
 40
0.0
 40
0.0
 40
0.0
 40
0.0
 40
0.2897993086
 40
0.5490484826
 40
0.7822275283
 40
1.0
 40
1.0
 40
1.0
 40
1.0
 10
-18.3382819187
 20
25.6373139557
 30
0.0
 10
-18.3382819187
 20
25.6981299576
 30
0.0
 10
-18.3290979635
 20
25.8137488554
 30
0.0
 10
-18.2822249796
 20
25.9725900736
 30
0.0
 10
-18.2034345534
 20
26.101499915
 30
0.0
 10
-18.1293601564
 20
26.1637466906
 30
0.0
 10
-18.0897827734
 20
26.186598189
 30
0.0
  0
SPLINE
  5
3F8
100
AcDbEntity
  8
RACCORDO
100
AcDbSpline
 62
7
  6
CONTINUOUS
 70
0
 71
3
 72
11
 73
7
 74
0
 42
0.0000001
 43
0.0000001
 44
0.0000000001
 40
0.0
 40
0.0
 40
0.0
 40
0.0
 40
0.2372223812
 40
0.5000061068
 40
0.7627865084
 40
1.0
 40
1.0
 40
1.0
 40
1.0
 10
-17.4897537812
 20
-10.7773077352
 30
0.0
 10
-17.6102097206
 20
-10.7077579855
 30
0.0
 10
-17.8381806914
 20
-10.515893225
 30
0.0
 10
-18.1042611749
 20
-10.1522870453
 30
0.0
 10
-18.2861116549
 20
-9.7400565754
 30
0.0
 10
-18.3382819187
 20
-9.4467014572
 30
0.0
 10
-18.3382819187
 20
-9.3076138911
 30
0.0
  0
ELLIPSE
  5
3F9
100
AcDbEntity
  8
0
100
AcDbEllipse
 62
7
  6
CONTINUOUS
 10
33.4125608261
 20
-50.6887136385
 30
0.0
 11
-0.0320188688
 21
0.0554549875
 31
0.0
 40
0.5632057935
 41
-2.5265952341
 42
-2.3686251639
  0
ELLIPSE
  5
3FA
100
AcDbEntity
  8
0
100
AcDbEllipse
 62
7
  6
CONTINUOUS
 10
33.4125608261
 20
19.5877304008
 30
0.0
 11
-0.0312356712
 21
0.0540980115
 31
0.0
 40
0.5918118391
 41
-2.3438606673
 42
-0.7978336343
  0
ELLIPSE
  5
3FB
100
AcDbEntity
  8
0
100
AcDbEllipse
 62
7
  6
CONTINUOUS
 10
-27.4505857578
 20
54.7293484439
 30
0.0
 11
-0.0320188688
 21
0.0554549875
 31
0.0
 40
0.5632057935
 41
-0.7730595434
 42
-0.6150059205
  0
ELLIPSE
  5
3FC
100
AcDbEntity
  8
0
100
AcDbEllipse
 62
7
  6
CONTINUOUS
 10
-1.0810640716
 20
-14.6413476462
 30
0.0
 11
0.1999995634
 21
0.1164181051
 31
0.0
 40
0.0035896273
 41
-0.7351277754
 42
-0.6748017824
  0
ELLIPSE
  5
3FD
100
AcDbEntity
  8
0
100
AcDbEllipse
 62
7
  6
CONTINUOUS
 10
11.0028371145
 20
-21.04707591
 30
0.0
 11
0.1998333781
 21
-0.0157785196
 31
0.0
 40
0.5172961965
 41
0.8262203412
 42
2.3446567905
  0
ELLIPSE
  5
3FE
100
AcDbEntity
  8
0
100
AcDbEllipse
 62
7
  6
CONTINUOUS
 10
-4.9070654622
 20
-11.8608975601
 30
0.0
 11
0.1998333781
 21
-0.0157785196
 31
0.0
 40
0.5172961965
 41
0.8262203412
 42
2.3446567905
  0
ELLIPSE
  5
3FF
100
AcDbEntity
  8
0
100
AcDbEllipse
 62
7
  6
CONTINUOUS
 10
9.4846095846
 20
-22.3504904229
 30
0.0
 11
0.5413005334
 21
0.8416911418
 31
0.0
 40
0.6067084637
 41
0.7148472392
 42
0.8145158917
  0
ELLIPSE
  5
400
100
AcDbEntity
  8
0
100
AcDbEllipse
 62
7
  6
CONTINUOUS
 10
-6.4252929921
 20
-13.164312073
 30
0.0
 11
0.5413005334
 21
0.8416911418
 31
0.0
 40
0.6067084637
 41
0.7148472392
 42
0.8145158917
  0
ELLIPSE
  5
401
100
AcDbEntity
  8
0
100
AcDbEllipse
 62
7
  6
CONTINUOUS
 10
-1.0810640716
 20
-14.0699828119
 30
0.0
 11
0.1998333781
 21
-0.0157785196
 31
0.0
 40
0.5172961965
 41
-0.692216108
 42
0.8262203412
  0
ELLIPSE
  5
402
100
AcDbEntity
  8
0
100
AcDbEllipse
 62
7
  6
CONTINUOUS
 10
-2.1789557338
 20
-15.6160939868
 30
0.0
 11
0.4625183445
 21
0.8873459255
 31
0.0
 40
0.5463614449
 41
0.662201126
 42
0.7618697785
  0
ELLIPSE
  5
403
100
AcDbEntity
  8
0
100
AcDbEllipse
 62
7
  6
CONTINUOUS
 10
33.4030609577
 20
19.5996585591
 30
0.0
 11
1.1066889452
 21
-0.4882482052
 31
0.0
 40
0.0945009384
 41
-2.4253001261
 42
-2.3839902126
  0
ELLIPSE
  5
404
100
AcDbEntity
  8
0
100
AcDbEllipse
 62
7
  6
CONTINUOUS
 10
-27.8323862931
 20
54.9562383413
 30
0.0
 11
1.1066889452
 21
-0.4882482052
 31
0.0
 40
0.0945009384
 41
-2.4666100396
 42
-2.4253001261
  0
ELLIPSE
  5
405
100
AcDbEntity
  8
0
100
AcDbEllipse
 62
7
  6
CONTINUOUS
 10
33.4181597629
 20
-51.1328193088
 30
0.0
 11
0.1304932868
 21
1.2025842266
 31
0.0
 40
0.0944494463
 41
-3.8578203675
 42
-3.816510454
  0
ELLIPSE
  5
406
100
AcDbEntity
  8
0
100
AcDbEllipse
 62
7
  6
CONTINUOUS
 10
33.4181597629
 20
19.5735066614
 30
0.0
 11
0.1304932868
 21
1.2025842266
 31
0.0
 40
0.0944494463
 41
-3.899130281
 42
-3.8578203675
  0
ELLIPSE
  5
407
100
AcDbEntity
  8
ASSI
100
AcDbEllipse
 62
7
  6
CONTINUOUS
 10
33.4125608261
 20
-50.6887136385
 30
0.0
 11
-0.0320188688
 21
0.0554549875
 31
0.0
 40
0.5632057935
 41
-2.5265952341
 42
-2.3686251639
  0
ELLIPSE
  5
408
100
AcDbEntity
  8
ASSI
100
AcDbEllipse
 62
7
  6
CONTINUOUS
 10
33.4125608261
 20
19.5877304008
 30
0.0
 11
-0.0312356712
 21
0.0540980115
 31
0.0
 40
0.5918118391
 41
-2.3438606673
 42
-0.7978336343
  0
ELLIPSE
  5
409
100
AcDbEntity
  8
ASSI
100
AcDbEllipse
 62
7
  6
CONTINUOUS
 10
-27.4505857578
 20
54.7293484439
 30
0.0
 11
-0.0320188688
 21
0.0554549875
 31
0.0
 40
0.5632057935
 41
-0.7730595434
 42
-0.6150059205
  0
ELLIPSE
  5
40A
100
AcDbEntity
  8
ASSI
100
AcDbEllipse
 62
7
  6
CONTINUOUS
 10
-1.0810640716
 20
-14.6413476462
 30
0.0
 11
0.1999995634
 21
0.1164181051
 31
0.0
 40
0.0035896273
 41
-0.7351277754
 42
-0.6748017824
  0
ELLIPSE
  5
40B
100
AcDbEntity
  8
ASSI
100
AcDbEllipse
 62
7
  6
CONTINUOUS
 10
11.0028371145
 20
-21.04707591
 30
0.0
 11
0.1998333781
 21
-0.0157785196
 31
0.0
 40
0.5172961965
 41
0.8262203412
 42
2.3446567905
  0
ELLIPSE
  5
40C
100
AcDbEntity
  8
ASSI
100
AcDbEllipse
 62
7
  6
CONTINUOUS
 10
-4.9070654622
 20
-11.8608975601
 30
0.0
 11
0.1998333781
 21
-0.0157785196
 31
0.0
 40
0.5172961965
 41
0.8262203412
 42
2.3446567905
  0
ELLIPSE
  5
40D
100
AcDbEntity
  8
ASSI
100
AcDbEllipse
 62
7
  6
CONTINUOUS
 10
9.4846095846
 20
-22.3504904229
 30
0.0
 11
0.5413005334
 21
0.8416911418
 31
0.0
 40
0.6067084637
 41
0.7148472392
 42
0.8145158917
  0
ELLIPSE
  5
40E
100
AcDbEntity
  8
ASSI
100
AcDbEllipse
 62
7
  6
CONTINUOUS
 10
-6.4252929921
 20
-13.164312073
 30
0.0
 11
0.5413005334
 21
0.8416911418
 31
0.0
 40
0.6067084637
 41
0.7148472392
 42
0.8145158917
  0
ELLIPSE
  5
40F
100
AcDbEntity
  8
ASSI
100
AcDbEllipse
 62
7
  6
CONTINUOUS
 10
33.4030609577
 20
19.5996585591
 30
0.0
 11
1.1066889452
 21
-0.4882482052
 31
0.0
 40
0.0945009384
 41
-2.4253001261
 42
-2.3839902126
  0
ELLIPSE
  5
410
100
AcDbEntity
  8
ASSI
100
AcDbEllipse
 62
7
  6
CONTINUOUS
 10
-27.8323862931
 20
54.9562383413
 30
0.0
 11
1.1066889452
 21
-0.4882482052
 31
0.0
 40
0.0945009384
 41
-2.4666100396
 42
-2.4253001261
  0
ELLIPSE
  5
411
100
AcDbEntity
  8
ASSI
100
AcDbEllipse
 62
7
  6
CONTINUOUS
 10
33.4181597629
 20
-51.1328193088
 30
0.0
 11
0.1304932868
 21
1.2025842266
 31
0.0
 40
0.0944494463
 41
-3.8578203675
 42
-3.816510454
  0
ELLIPSE
  5
412
100
AcDbEntity
  8
ASSI
100
AcDbEllipse
 62
7
  6
CONTINUOUS
 10
33.4181597629
 20
19.5735066614
 30
0.0
 11
0.1304932868
 21
1.2025842266
 31
0.0
 40
0.0944494463
 41
-3.899130281
 42
-3.8578203675
  0
ELLIPSE
  5
413
100
AcDbEntity
  8
ASSI
100
AcDbEllipse
 62
7
  6
CONTINUOUS
 10
-1.0810640716
 20
-14.0699828119
 30
0.0
 11
0.1998333781
 21
-0.0157785196
 31
0.0
 40
0.5172961965
 41
-0.692216108
 42
0.8262203412
  0
ELLIPSE
  5
414
100
AcDbEntity
  8
ASSI
100
AcDbEllipse
 62
7
  6
CONTINUOUS
 10
-2.1789557338
 20
-15.6160939868
 30
0.0
 11
0.4625183445
 21
0.8873459255
 31
0.0
 40
0.5463614449
 41
0.662201126
 42
0.7618697785
  0
ENDSEC
  0
SECTION
  2
OBJECTS
  0
DICTIONARY
  5
C
100
AcDbDictionary
280
0
281
1
  3
ACAD_GROUP
350
D
  3
ACAD_MLINESTYLE
350
17
  3
ACAD_LAYOUT
350
1A
  3
ACAD_PLOTSETTINGS
350
19
  3
ACAD_PLOTSTYLENAME
350
E
  0
DICTIONARY
  5
D
102
{ACAD_REACTORS
330
C
102
}
100
AcDbDictionary
280
0
281
1
  0
ACDBDICTIONARYWDFLT
  5
E
102
{ACAD_REACTORS
330
C
102
}
100
AcDbDictionary
281
1
  3
Normal
350
F
100
AcDbDictionaryWithDefault
340
F
  0
DICTIONARY
  5
17
102
{ACAD_REACTORS
330
C
102
}
100
AcDbDictionary
280
0
281
1
  3
Standard
350
18
  0
DICTIONARY
  5
19
102
{ACAD_REACTORS
330
C
102
}
100
AcDbDictionary
281
1
  0
DICTIONARY
  5
1A
102
{ACAD_REACTORS
330
C
102
}
100
AcDbDictionary
281
1
  3
Model
350
415
  3
Layout1
350
416
  0
ACDBPLACEHOLDER
  5
F
102
{ACAD_REACTORS
330
E
102
}
  0
MLINESTYLE
  5
18
102
{ACAD_REACTORS
330
17
102
}
100
AcDbMlineStyle
  2
STANDARD
 70
0
  3

 62
256
 51
90.0
 52
90.0
 71
2
 49
0.5
 62
256
  6
BYLAYER
 49
-0.5
 62
256
  6
BYLAYER
  0
LAYOUT
  5
415
102
{ACAD_REACTORS
330
1A
102
}
100
AcDbPlotSettings
  1

  2
none_device
  4
ISO_A4_(297.00_x_210.00_MM)
  6

 40
0.0
 41
0.0
 42
0.0
 43
0.0
 44
297.0
 45
210.0
 46
0.0
 47
0.0
 48
0.0
 49
0.0
140
0.0
141
0.0
142
1.0
143
1.0
 70
1024
 72
1
 73
0
 74
0
  7

 75
0
147
1.0
148
0.0
149
0.0
100
AcDbLayout
  1
Model
 70
0
 71
0
 10
0.0
 20
0.0
 11
297.0
 21
210.0
 12
0.0
 22
0.0
 32
0.0
 14
0.0
 24
0.0
 34
0.0
 15
0.0
 25
0.0
 35
0.0
146
0.0
 13
0.0
 23
0.0
 33
0.0
 16
1.0
 26
0.0
 36
0.0
 17
0.0
 27
1.0
 37
0.0
 76
0
330
224
345
0
346
0
  0
LAYOUT
  5
416
102
{ACAD_REACTORS
330
1A
102
}
100
AcDbPlotSettings
  1

  2
none_device
  4
ISO_A4_(297.00_x_210.00_MM)
  6

 40
0.0
 41
0.0
 42
0.0
 43
0.0
 44
297.0
 45
210.0
 46
0.0
 47
0.0
 48
0.0
 49
0.0
140
0.0
141
0.0
142
1.0
143
1.0
 70
0
 72
1
 73
0
 74
0
  7

 75
0
147
1.0
148
0.0
149
0.0
100
AcDbLayout
  1
Layout1
 70
0
 71
1
 10
0.0
 20
0.0
 11
297.0
 21
210.0
 12
0.0
 22
0.0
 32
0.0
 14
0.0
 24
0.0
 34
0.0
 15
0.0
 25
0.0
 35
0.0
146
0.0
 13
0.0
 23
0.0
 33
0.0
 16
1.0
 26
0.0
 36
0.0
 17
0.0
 27
1.0
 37
0.0
 76
0
330
225
345
0
346
0
  0
ENDSEC
  0
EOF
