  0
SECTION
  2
HEADER
  9
$ACADVER
  1
AC1021
  9
$DWGCODEPAGE
  3
ANSI_1252
  9
$EXTMAX
 10
297.0
 20
210.0
 30
0.0
  9
$EXTMIN
 10
0.0
 20
0.0
 30
0.0
  9
$LIMMIN
 10
0.0
 20
0.0
  9
$LIMMAX
 10
297.0
 20
210.0
  9
$VIEWCTR
 10
148.5
 20
105.0
  9
$VIEWSIZE
 40
210.0
  9
$CLAYER
  8
0
  9
$LTSCALE
 40
16.335
  9
$CELTYPE
  6
BYLAYER
  9
$DIMSCALE
 40
1.0
  9
$DIMASZ
 40
3.0
  9
$DIMEXO
 40
0.5
  9
$DIMDLI
 40
11.286
  9
$DIMEXE
 40
1.5
  9
$DIMCEN
 40
2.673
  9
$DIMLFAC
 40
1.0
  9
$DIMBLK
  1
_FILLED
  9
$DIMALT
 70
0
  9
$DIMALTF
 40
25.4
  9
$DIMTXT
 40
3.0
  9
$DIMTOL
 70
1
  9
$DIMLIM
 70
0
  9
$DIMTFAC
 40
1.0
  9
$DIMTP
 40
0.01
  9
$DIMTM
 40
0.01
  9
$DIMGAP
 40
0.625
  9
$DIMDSEP
 70
44
  9
$AUNITS
 70
0
  9
$PDMODE
 70
3
  9
$PDSIZE
 40
3.0
  9
$HANDSEED
  5
405
  9
$TILEMODE
 70
1
  9
$MEASUREMENT
 70
1
  9
$INSUNITS
 70
4
  0
ENDSEC
  0
SECTION
  2
CLASSES
  0
CLASS
  1
ACDBDICTIONARYWDFLT
  2
AcDbDictionaryWithDefault
  3
AutoCAD 2000
 90
0
 91
1
280
0
281
0
  0
CLASS
  1
ACDBPLACEHOLDER
  2
AcDbPlaceHolder
  3
AutoCAD 2000
 90
0
 91
1
280
0
281
0
  0
CLASS
  1
LAYOUT
  2
AcDbLayout
  3
AutoCAD 2000
 90
0
 91
0
280
0
281
0
  0
ENDSEC
  0
SECTION
  2
TABLES
  0
TABLE
  2
VPORT
  5
8
100
AcDbSymbolTable
 70
2
  0
VPORT
  5
1F4
100
AcDbSymbolTableRecord
100
AcDbViewportTableRecord
  2
*ACTIVE
 70
0
 10
0.0
 20
0.0
 11
1.0
 21
1.0
 12
148.5
 22
105.0
 13
0.0
 23
0.0
 14
1.0
 24
1.0
 15
0.0
 25
0.0
 16
0.0
 26
0.0
 36
1.0
 17
0.0
 27
0.0
 37
0.0
 40
210.0
 41
1.4142857143
 42
50.0
 43
0.0
 44
0.0
 50
0.0
 51
0.0
 71
0
 72
100
 73
1
 74
1
 75
0
 76
0
 77
0
 78
0
  0
ENDTAB
  0
TABLE
  2
LTYPE
  5
5
100
AcDbSymbolTable
 70
6
  0
LTYPE
  5
14
100
AcDbSymbolTableRecord
100
AcDbLinetypeTableRecord
  2
BYBLOCK
 70
0
  3

 72
65
 73
0
 40
0.0
  0
LTYPE
  5
15
100
AcDbSymbolTableRecord
100
AcDbLinetypeTableRecord
  2
BYLAYER
 70
0
  3

 72
65
 73
0
 40
0.0
  0
LTYPE
  5
16
100
AcDbSymbolTableRecord
100
AcDbLinetypeTableRecord
  2
CONTINUOUS
 70
64
  3
Solid line
 72
65
 73
0
 40
0.0
  0
LTYPE
  5
1F5
100
AcDbSymbolTableRecord
100
AcDbLinetypeTableRecord
  2
CENTER
 70
64
  3
____ _ ____ _ ____ _ ____ _ ____ _ ____ _ ____
 72
65
 73
4
 40
0.6
 49
0.375
 74
0
 49
-0.075
 74
0
 49
0.075
 74
0
 49
-0.075
 74
0
  0
LTYPE
  5
1F6
100
AcDbSymbolTableRecord
100
AcDbLinetypeTableRecord
  2
HIDDEN
 70
64
  3
- - - - - - - - - - - - - - - - - - - -
 72
65
 73
2
 40
0.2
 49
0.1
 74
0
 49
-0.1
 74
0
  0
LTYPE
  5
1F7
100
AcDbSymbolTableRecord
100
AcDbLinetypeTableRecord
  2
PHANTOM
 70
64
  3
_____ _ _ _____ _ _ _____ _ _ _____
 72
65
 73
6
 40
0.8
 49
0.45
 74
0
 49
-0.05
 74
0
 49
0.1
 74
0
 49
-0.05
 74
0
 49
0.1
 74
0
 49
-0.05
 74
0
  0
LTYPE
  5
1F8
100
AcDbSymbolTableRecord
100
AcDbLinetypeTableRecord
  2
DOT
 70
64
  3
. . . . . . . . . . . . . . . . . . . .
 72
65
 73
2
 40
0.2
 49
0.1
 74
0
 49
-0.1
 74
0
  0
LTYPE
  5
1F9
100
AcDbSymbolTableRecord
100
AcDbLinetypeTableRecord
  2
DASHED
 70
64
  3
- - - - - - - - - - - - - - - - - - - -
 72
65
 73
2
 40
0.2
 49
0.1
 74
0
 49
-0.1
 74
0
  0
ENDTAB
  0
TABLE
  2
LAYER
  5
2
100
AcDbSymbolTable
 70
36
  0
LAYER
  5
10
100
AcDbSymbolTableRecord
100
AcDbLayerTableRecord
  2
0
 70
0
 62
7
  6
CONTINUOUS
370
-3
390
F
  0
LAYER
  5
1FA
100
AcDbSymbolTableRecord
100
AcDbLayerTableRecord
  2
DEFAULT_1
 70
0
 62
7
  6
CENTER
370
-3
390
F
  0
LAYER
  5
1FB
100
AcDbSymbolTableRecord
100
AcDbLayerTableRecord
  2
DEFAULT_2
 70
0
 62
7
  6
HIDDEN
370
-3
390
F
  0
LAYER
  5
1FC
100
AcDbSymbolTableRecord
100
AcDbLayerTableRecord
  2
DEFAULT_3
 70
0
 62
7
  6
PHANTOM
370
-3
390
F
  0
LAYER
  5
1FD
100
AcDbSymbolTableRecord
100
AcDbLayerTableRecord
  2
ASSI
 70
0
 62
7
  6
CONTINUOUS
370
-3
390
F
  0
LAYER
  5
1FE
100
AcDbSymbolTableRecord
100
AcDbLayerTableRecord
  2
COORDINATE
 70
0
 62
7
  6
CONTINUOUS
370
-3
390
F
  0
LAYER
  5
1FF
100
AcDbSymbolTableRecord
100
AcDbLayerTableRecord
  2
COORD_ORIGINE
 70
0
 62
7
  6
CONTINUOUS
370
-3
390
F
  0
LAYER
  5
200
100
AcDbSymbolTableRecord
100
AcDbLayerTableRecord
  2
COPY_PUBLISH
 70
0
 62
7
  6
CONTINUOUS
370
-3
390
F
  0
LAYER
  5
201
100
AcDbSymbolTableRecord
100
AcDbLayerTableRecord
  2
COSMETIC
 70
0
 62
7
  6
CONTINUOUS
370
-3
390
F
  0
LAYER
  5
202
100
AcDbSymbolTableRecord
100
AcDbLayerTableRecord
  2
COSMETICI
 70
0
 62
7
  6
CONTINUOUS
370
-3
390
F
  0
LAYER
  5
203
100
AcDbSymbolTableRecord
100
AcDbLayerTableRecord
  2
CURVE
 70
0
 62
7
  6
CONTINUOUS
370
-3
390
F
  0
LAYER
  5
204
100
AcDbSymbolTableRecord
100
AcDbLayerTableRecord
  2
CURVE_TASSELLI
 70
0
 62
7
  6
CONTINUOUS
370
-3
390
F
  0
LAYER
  5
205
100
AcDbSymbolTableRecord
100
AcDbLayerTableRecord
  2
DRAFT
 70
0
 62
7
  6
CONTINUOUS
370
-3
390
F
  0
LAYER
  5
206
100
AcDbSymbolTableRecord
100
AcDbLayerTableRecord
  2
IMPORT_IGES
 70
0
 62
7
  6
CONTINUOUS
370
-3
390
F
  0
LAYER
  5
207
100
AcDbSymbolTableRecord
100
AcDbLayerTableRecord
  2
INTFCLR_2
 70
0
 62
7
  6
CONTINUOUS
370
-3
390
F
  0
LAYER
  5
208
100
AcDbSymbolTableRecord
100
AcDbLayerTableRecord
  2
INTF_1
 70
0
 62
7
  6
CONTINUOUS
370
-3
390
F
  0
LAYER
  5
209
100
AcDbSymbolTableRecord
100
AcDbLayerTableRecord
  2
INTF_21
 70
0
 62
7
  6
CONTINUOUS
370
-3
390
F
  0
LAYER
  5
20A
100
AcDbSymbolTableRecord
100
AcDbLayerTableRecord
  2
INTF_7
 70
0
 62
7
  6
CONTINUOUS
370
-3
390
F
  0
LAYER
  5
20B
100
AcDbSymbolTableRecord
100
AcDbLayerTableRecord
  2
INTF_CYAN
 70
0
 62
7
  6
CONTINUOUS
370
-3
390
F
  0
LAYER
  5
20C
100
AcDbSymbolTableRecord
100
AcDbLayerTableRecord
  2
NOTE
 70
0
 62
7
  6
CONTINUOUS
370
-3
390
F
  0
LAYER
  5
20D
100
AcDbSymbolTableRecord
100
AcDbLayerTableRecord
  2
PIANI
 70
0
 62
7
  6
CONTINUOUS
370
-3
390
F
  0
LAYER
  5
20E
100
AcDbSymbolTableRecord
100
AcDbLayerTableRecord
  2
PIANI_ORIGINE
 70
0
 62
7
  6
CONTINUOUS
370
-3
390
F
  0
LAYER
  5
20F
100
AcDbSymbolTableRecord
100
AcDbLayerTableRecord
  2
PIANI_RIFERIMENTO
 70
0
 62
7
  6
CONTINUOUS
370
-3
390
F
  0
LAYER
  5
210
100
AcDbSymbolTableRecord
100
AcDbLayerTableRecord
  2
PUNTI
 70
0
 62
7
  6
CONTINUOUS
370
-3
390
F
  0
LAYER
  5
211
100
AcDbSymbolTableRecord
100
AcDbLayerTableRecord
  2
RACCORDO
 70
0
 62
7
  6
CONTINUOUS
370
-3
390
F
  0
LAYER
  5
212
100
AcDbSymbolTableRecord
100
AcDbLayerTableRecord
  2
RGB__255__255__255__
 70
0
 62
7
  6
CONTINUOUS
370
-3
390
F
  0
LAYER
  5
213
100
AcDbSymbolTableRecord
100
AcDbLayerTableRecord
  2
RGB____0____0____0__
 70
0
 62
7
  6
CONTINUOUS
370
-3
390
F
  0
LAYER
  5
214
100
AcDbSymbolTableRecord
100
AcDbLayerTableRecord
  2
SIMBOLI
 70
0
 62
7
  6
CONTINUOUS
370
-3
390
F
  0
LAYER
  5
215
100
AcDbSymbolTableRecord
100
AcDbLayerTableRecord
  2
SMUSSO
 70
0
 62
7
  6
CONTINUOUS
370
-3
390
F
  0
LAYER
  5
216
100
AcDbSymbolTableRecord
100
AcDbLayerTableRecord
  2
SNAPLINE
 70
0
 62
7
  6
CONTINUOUS
370
-3
390
F
  0
LAYER
  5
217
100
AcDbSymbolTableRecord
100
AcDbLayerTableRecord
  2
SUPERFICI
 70
0
 62
7
  6
CONTINUOUS
370
-3
390
F
  0
LAYER
  5
218
100
AcDbSymbolTableRecord
100
AcDbLayerTableRecord
  2
TRASH
 70
0
 62
7
  6
CONTINUOUS
370
-3
390
F
  0
LAYER
  5
219
100
AcDbSymbolTableRecord
100
AcDbLayerTableRecord
  2
XSEC_DATUMS
 70
0
 62
7
  6
CONTINUOUS
370
-3
390
F
  0
ENDTAB
  0
TABLE
  2
STYLE
  5
3
100
AcDbSymbolTable
 70
1
  0
STYLE
  5
11
100
AcDbSymbolTableRecord
100
AcDbTextStyleTableRecord
  2
STANDARD
 70
0
 40
0.0
 41
0.8
 50
0.0
 71
0
 42
0.2
  3
txt
  4

  0
STYLE
  5
21A
100
AcDbSymbolTableRecord
100
AcDbTextStyleTableRecord
  2
TEXTSTYLE_1
 70
0
 40
0.0
 41
0.8
 50
0.0
 71
0
 42
0.2
  3
gdt
  4

  0
ENDTAB
  0
TABLE
  2
VIEW
  5
6
100
AcDbSymbolTable
 70
0
  0
ENDTAB
  0
TABLE
  2
UCS
  5
7
100
AcDbSymbolTable
 70
0
  0
ENDTAB
  0
TABLE
  2
APPID
  5
9
100
AcDbSymbolTable
 70
1
  0
APPID
  5
21B
100
AcDbSymbolTableRecord
100
AcDbRegAppTableRecord
  2
ACAD
 70
0
  0
ENDTAB
  0
TABLE
  2
BLOCK_RECORD
  5
1
100
AcDbSymbolTable
 70
0
  0
BLOCK_RECORD
  5
21C
100
AcDbSymbolTableRecord
100
AcDbBlockTableRecord
  2
*Model_Space
  0
BLOCK_RECORD
  5
21D
100
AcDbSymbolTableRecord
100
AcDbBlockTableRecord
  2
*Paper_Space
  0
BLOCK_RECORD
  5
21E
100
AcDbSymbolTableRecord
100
AcDbBlockTableRecord
  2
_FILLED
  0
ENDTAB
  0
TABLE
  2
DIMSTYLE
  5
A
100
AcDbSymbolTable
 70
1
100
AcDbDimStyleTable
 71
0
  0
DIMSTYLE
105
21F
100
AcDbSymbolTableRecord
100
AcDbDimStyleTableRecord
  2
STANDARD
 70
0
  3

  4

 40
1.0
 41
3.0
 42
0.5
 43
0.38
 44
1.5
 45
0.0
 46
0.0
 47
0.01
 48
0.01
140
3.0
141
0.09
142
0.0
143
25.4
144
1.0
145
0.0
146
1.0
147
0.625
 71
1.0
 72
0.0
 73
0
 74
0
 75
0
 76
0
 77
1
 78
8
 79
2
170
0
171
1
172
0
173
0
174
0
175
0
176
0
177
0
178
0
270
2
179
2
271
2
272
2
273
2
274
2
275
0
280
0
281
0
282
0
283
1
284
8
285
0
286
0
287
3
288
0
340
11
278
44
341
21E
342
21E
343
21E
344
21E
  0
ENDTAB
  0
ENDSEC
  0
SECTION
  2
BLOCKS
  0
BLOCK
  5
20
100
AcDbEntity
  8
0
100
AcDbBlockBegin
  2
*Model_Space
 70
0
 10
0.0
 20
0.0
 30
0.0
  3
*Model_Space
  1

  0
ENDBLK
  5
21
100
AcDbEntity
  8
0
100
AcDbBlockEnd
  0
BLOCK
  5
1C
100
AcDbEntity
  8
0
100
AcDbBlockBegin
  2
*Paper_Space
 70
0
 10
0.0
 20
0.0
 30
0.0
  3
*Paper_Space
  1

  0
ENDBLK
  5
1D
100
AcDbEntity
  8
0
100
AcDbBlockEnd
  0
BLOCK
  5
220
100
AcDbEntity
  8
0
100
AcDbBlockBegin
  2
_FILLED
 70
64
 10
0.0
 20
0.0
  3
_FILLED
  1

  0
SOLID
  5
221
100
AcDbEntity
  8
0
  6
BYBLOCK
 62
0
100
AcDbTrace
 10
0.0
 20
0.0
 11
-1.0
 21
0.3166666667
 12
-1.0
 22
-0.3166666667
 13
-1.0
 23
-0.3166666667
  0
ENDBLK
  5
222
100
AcDbEntity
  8
0
  6
BYBLOCK
 62
0
100
AcDbBlockEnd
  0
ENDSEC
  0
SECTION
  2
ENTITIES
  0
LINE
  5
223
100
AcDbEntity
  8
SMUSSO
100
AcDbLine
 62
7
  6
CONTINUOUS
 10
111.2484863905
 20
163.2609523006
 11
115.0363001777
 21
165.7645191919
  0
LINE
  5
224
100
AcDbEntity
  8
ASSI
100
AcDbLine
 62
7
  6
CONTINUOUS
 10
111.2484863905
 20
163.2609523006
 11
115.0363001777
 21
165.7645191919
  0
LINE
  5
225
100
AcDbEntity
  8
SMUSSO
100
AcDbLine
 62
7
  6
CONTINUOUS
 10
111.9560236598
 20
163.6693964945
 11
115.743837447
 21
166.1729633858
  0
LINE
  5
226
100
AcDbEntity
  8
ASSI
100
AcDbLine
 62
7
  6
CONTINUOUS
 10
111.9560236598
 20
163.6693964945
 11
115.743837447
 21
166.1729633858
  0
LINE
  5
227
100
AcDbEntity
  8
SMUSSO
100
AcDbLine
 62
7
  6
CONTINUOUS
 10
111.9352600457
 20
163.6565571435
 11
111.9560236598
 21
163.6693964945
  0
LINE
  5
228
100
AcDbEntity
  8
ASSI
100
AcDbLine
 62
7
  6
CONTINUOUS
 10
111.9352600457
 20
163.6565571435
 11
111.9560236598
 21
163.6693964945
  0
LINE
  5
229
100
AcDbEntity
  8
SMUSSO
100
AcDbLine
 62
7
  6
CONTINUOUS
 10
115.0363001777
 20
165.7645191919
 11
115.743837447
 21
166.1729633858
  0
LINE
  5
22A
100
AcDbEntity
  8
ASSI
100
AcDbLine
 62
7
  6
CONTINUOUS
 10
115.0363001777
 20
165.7645191919
 11
115.743837447
 21
166.1729633858
  0
LINE
  5
22B
100
AcDbEntity
  8
SMUSSO
100
AcDbLine
 62
7
  6
CONTINUOUS
 10
111.9352600457
 20
163.6565571435
 11
111.248861698
 21
163.2603159391
  0
LINE
  5
22C
100
AcDbEntity
  8
ASSI
100
AcDbLine
 62
7
  6
CONTINUOUS
 10
111.9352600457
 20
163.6565571435
 11
111.248861698
 21
163.2603159391
  0
LINE
  5
22D
100
AcDbEntity
  8
SMUSSO
100
AcDbLine
 62
7
  6
CONTINUOUS
 10
111.5525707458
 20
162.2413287051
 11
111.2735948117
 21
162.0802826295
  0
LINE
  5
22E
100
AcDbEntity
  8
ASSI
100
AcDbLine
 62
7
  6
CONTINUOUS
 10
111.5525707458
 20
162.2413287051
 11
111.2735948117
 21
162.0802826295
  0
LINE
  5
22F
100
AcDbEntity
  8
SMUSSO
100
AcDbLine
 62
7
  6
CONTINUOUS
 10
111.5525707458
 20
162.2413287051
 11
111.9352600457
 21
163.6565571435
  0
LINE
  5
230
100
AcDbEntity
  8
ASSI
100
AcDbLine
 62
7
  6
CONTINUOUS
 10
111.5525707458
 20
162.2413287051
 11
111.9352600457
 21
163.6565571435
  0
LINE
  5
231
100
AcDbEntity
  8
SMUSSO
100
AcDbLine
 62
7
  6
CONTINUOUS
 10
173.1755170169
 20
55.5072549622
 11
174.5924761478
 21
55.1310755063
  0
LINE
  5
232
100
AcDbEntity
  8
ASSI
100
AcDbLine
 62
7
  6
CONTINUOUS
 10
173.1755170169
 20
55.5072549622
 11
174.5924761478
 21
55.1310755063
  0
LINE
  5
233
100
AcDbEntity
  8
SMUSSO
100
AcDbLine
 62
7
  6
CONTINUOUS
 10
111.2735948117
 20
91.2486490302
 11
111.5525707458
 21
90.7654485387
  0
LINE
  5
234
100
AcDbEntity
  8
ASSI
100
AcDbLine
 62
7
  6
CONTINUOUS
 10
111.2735948117
 20
91.2486490302
 11
111.5525707458
 21
90.7654485387
  0
LINE
  5
235
100
AcDbEntity
  8
SMUSSO
100
AcDbLine
 62
7
  6
CONTINUOUS
 10
111.2735948117
 20
91.2486490302
 11
111.248861698
 21
91.7048846077
  0
LINE
  5
236
100
AcDbEntity
  8
ASSI
100
AcDbLine
 62
7
  6
CONTINUOUS
 10
111.2735948117
 20
91.2486490302
 11
111.248861698
 21
91.7048846077
  0
LINE
  5
237
100
AcDbEntity
  8
SMUSSO
100
AcDbLine
 62
7
  6
CONTINUOUS
 10
111.5525707458
 20
90.7654485387
 11
111.9352600457
 21
90.5160077966
  0
LINE
  5
238
100
AcDbEntity
  8
ASSI
100
AcDbLine
 62
7
  6
CONTINUOUS
 10
111.5525707458
 20
90.7654485387
 11
111.9352600457
 21
90.5160077966
  0
LINE
  5
239
100
AcDbEntity
  8
SMUSSO
100
AcDbLine
 62
7
  6
CONTINUOUS
 10
111.2735948117
 20
162.0802826295
 11
111.248861698
 21
163.2603159391
  0
LINE
  5
23A
100
AcDbEntity
  8
ASSI
100
AcDbLine
 62
7
  6
CONTINUOUS
 10
111.2735948117
 20
162.0802826295
 11
111.248861698
 21
163.2603159391
  0
LINE
  5
23B
100
AcDbEntity
  8
SMUSSO
100
AcDbLine
 62
7
  6
CONTINUOUS
 10
111.248861698
 20
91.7048846077
 11
111.2484863905
 21
91.7290774684
  0
LINE
  5
23C
100
AcDbEntity
  8
ASSI
100
AcDbLine
 62
7
  6
CONTINUOUS
 10
111.248861698
 20
91.7048846077
 11
111.2484863905
 21
91.7290774684
  0
LINE
  5
23D
100
AcDbEntity
  8
SMUSSO
100
AcDbLine
 62
7
  6
CONTINUOUS
 10
111.2484863905
 20
163.2609523006
 11
111.2484863905
 21
91.7290774684
  0
LINE
  5
23E
100
AcDbEntity
  8
ASSI
100
AcDbLine
 62
7
  6
CONTINUOUS
 10
111.2484863905
 20
163.2609523006
 11
111.2484863905
 21
91.7290774684
  0
LINE
  5
23F
100
AcDbEntity
  8
SMUSSO
100
AcDbLine
 62
7
  6
CONTINUOUS
 10
111.2735948117
 20
162.0802826295
 11
111.2735948117
 21
91.2486490302
  0
LINE
  5
240
100
AcDbEntity
  8
ASSI
100
AcDbLine
 62
7
  6
CONTINUOUS
 10
111.2735948117
 20
162.0802826295
 11
111.2735948117
 21
91.2486490302
  0
LWPOLYLINE
  5
241
100
AcDbEntity
  8
0
100
AcDbPolyline
 62
7
  6
CONTINUOUS
 90
13
 70
0
 10
126.4220030849
 20
136.4982588499
 10
126.4226599172
 20
136.4985419444
 10
126.427765933
 20
136.5002747686
 10
126.4347313817
 20
136.5016862906
 10
126.4437701846
 20
136.5024473066
 10
126.4549853609
 20
136.502209836
 10
126.4683546235
 20
136.5006515704
 10
126.4838483224
 20
136.4974791603
 10
126.5011312215
 20
136.4925008856
 10
126.5196235899
 20
136.4857198707
 10
126.5389656243
 20
136.4771943281
 10
126.5590018416
 20
136.4669399733
 10
126.568044293
 20
136.4618599812
  0
LWPOLYLINE
  5
242
100
AcDbEntity
  8
ASSI
100
AcDbPolyline
 62
7
  6
CONTINUOUS
 90
13
 70
0
 10
126.4220030849
 20
136.4982588499
 10
126.4226599172
 20
136.4985419444
 10
126.427765933
 20
136.5002747686
 10
126.4347313817
 20
136.5016862906
 10
126.4437701846
 20
136.5024473066
 10
126.4549853609
 20
136.502209836
 10
126.4683546235
 20
136.5006515704
 10
126.4838483224
 20
136.4974791603
 10
126.5011312215
 20
136.4925008856
 10
126.5196235899
 20
136.4857198707
 10
126.5389656243
 20
136.4771943281
 10
126.5590018416
 20
136.4669399733
 10
126.568044293
 20
136.4618599812
  0
LINE
  5
243
100
AcDbEntity
  8
0
100
AcDbLine
 62
250
  6
CONTINUOUS
 10
126.3055851167
 20
136.2628154516
 11
126.6548298434
 21
136.4117509917
  0
LINE
  5
244
100
AcDbEntity
  8
ASSI
100
AcDbLine
 62
250
  6
CONTINUOUS
 10
126.3055851167
 20
136.2628154516
 11
126.6548298434
 21
136.4117509917
  0
LINE
  5
245
100
AcDbEntity
  8
SMUSSO
100
AcDbLine
 62
7
  6
CONTINUOUS
 10
111.9560236598
 20
90.503586971
 11
173.9064402304
 21
54.7341928642
  0
LINE
  5
246
100
AcDbEntity
  8
ASSI
100
AcDbLine
 62
7
  6
CONTINUOUS
 10
111.9560236598
 20
90.503586971
 11
173.9064402304
 21
54.7341928642
  0
LINE
  5
247
100
AcDbEntity
  8
SMUSSO
100
AcDbLine
 62
7
  6
CONTINUOUS
 10
111.5525707458
 20
90.7654485387
 11
172.8965410828
 21
55.3462088866
  0
LINE
  5
248
100
AcDbEntity
  8
ASSI
100
AcDbLine
 62
7
  6
CONTINUOUS
 10
111.5525707458
 20
90.7654485387
 11
172.8965410828
 21
55.3462088866
  0
LINE
  5
249
100
AcDbEntity
  8
SMUSSO
100
AcDbLine
 62
7
  6
CONTINUOUS
 10
111.9560236598
 20
90.503586971
 11
111.9352600457
 21
90.5160077966
  0
LINE
  5
24A
100
AcDbEntity
  8
ASSI
100
AcDbLine
 62
7
  6
CONTINUOUS
 10
111.9560236598
 20
90.503586971
 11
111.9352600457
 21
90.5160077966
  0
LINE
  5
24B
100
AcDbEntity
  8
SMUSSO
100
AcDbLine
 62
7
  6
CONTINUOUS
 10
172.8965410828
 20
55.3462088866
 11
173.9060778002
 21
54.7348343019
  0
LINE
  5
24C
100
AcDbEntity
  8
ASSI
100
AcDbLine
 62
7
  6
CONTINUOUS
 10
172.8965410828
 20
55.3462088866
 11
173.9060778002
 21
54.7348343019
  0
LWPOLYLINE
  5
24D
100
AcDbEntity
  8
0
100
AcDbPolyline
 62
250
  6
CONTINUOUS
 90
3
 70
0
 10
128.480395248
 20
132.0414734601
 10
128.4747711276
 20
132.0376361125
 10
128.4738481429
 20
132.0370583519
  0
LWPOLYLINE
  5
24E
100
AcDbEntity
  8
0
100
AcDbPolyline
 62
7
  6
CONTINUOUS
 90
13
 70
0
 10
128.4737832697
 20
132.0370182681
 10
128.4886274518
 20
132.0468930638
 10
128.5070059371
 20
132.0612792286
 10
128.5241895873
 20
132.0773467471
 10
128.5399746827
 20
132.0949537712
 10
128.5542193847
 20
132.1139764853
 10
128.5668306103
 20
132.1343414507
 10
128.5776776285
 20
132.1559009958
 10
128.5866280986
 20
132.1784387958
 10
128.59361257
 20
132.2018108605
 10
128.5985727995
 20
132.2258674526
 10
128.6014604468
 20
132.2503976587
 10
128.6022763376
 20
132.2722646426
  0
LINE
  5
24F
100
AcDbEntity
  8
0
100
AcDbLine
 62
250
  6
CONTINUOUS
 10
127.7995775781
 20
131.7190293101
 11
128.5321113006
 21
132.1720391523
  0
LINE
  5
250
100
AcDbEntity
  8
0
100
AcDbLine
 62
7
  6
CONTINUOUS
 10
127.7400601421
 20
131.5832728451
 11
128.4738481727
 21
132.0370583703
  0
LWPOLYLINE
  5
251
100
AcDbEntity
  8
0
100
AcDbPolyline
 62
250
  6
CONTINUOUS
 90
4
 70
0
 10
128.3492950193
 20
125.5103161309
 10
128.3691836237
 20
125.5358916983
 10
128.3900486594
 20
125.560053257
 10
128.4117526188
 20
125.5825095106
  0
LINE
  5
252
100
AcDbEntity
  8
0
100
AcDbLine
 62
250
  6
CONTINUOUS
 10
128.4117526188
 20
125.5825095106
 11
128.4344330094
 21
125.6035517554
  0
LINE
  5
253
100
AcDbEntity
  8
0
100
AcDbLine
 62
250
  6
CONTINUOUS
 10
128.4344330094
 20
125.6035517554
 11
128.4580898314
 21
125.6231799916
  0
LWPOLYLINE
  5
254
100
AcDbEntity
  8
0
100
AcDbPolyline
 62
7
  6
CONTINUOUS
 90
11
 70
0
 10
128.5101835806
 20
125.6018104634
 10
128.5123029332
 20
125.6034594564
 10
128.5303606981
 20
125.6191807395
 10
128.5468060412
 20
125.6366599444
 10
128.5613900974
 20
125.6556739907
 10
128.5739697158
 20
125.6760975934
 10
128.5843892319
 20
125.6977351697
 10
128.592504977
 20
125.7203200072
 10
128.5982212333
 20
125.7436123456
 10
128.6014726089
 20
125.7674011685
 10
128.6022698933
 20
125.7865528785
  0
LINE
  5
255
100
AcDbEntity
  8
0
100
AcDbLine
 62
250
  6
CONTINUOUS
 10
128.4580898314
 20
125.6231799916
 11
128.5321113006
 21
125.6801193247
  0
LINE
  5
256
100
AcDbEntity
  8
0
100
AcDbLine
 62
7
  6
CONTINUOUS
 10
128.4361636755
 20
125.5448723335
 11
128.5101851179
 21
125.601811646
  0
LWPOLYLINE
  5
257
100
AcDbEntity
  8
0
100
AcDbPolyline
 62
250
  6
CONTINUOUS
 90
8
 70
0
 10
128.5321113006
 20
125.6801193247
 10
128.5490411908
 20
125.6920157201
 10
128.5638797133
 20
125.7049107158
 10
128.576468357
 20
125.7186750536
 10
128.5866869966
 20
125.7332026648
 10
128.5944035422
 20
125.7483177068
 10
128.5995162809
 20
125.7637686644
 10
128.6019572653
 20
125.7790431863
  0
LWPOLYLINE
  5
258
100
AcDbEntity
  8
0
100
AcDbPolyline
 62
250
  6
CONTINUOUS
 90
9
 70
0
 10
128.2188611513
 20
125.1508804572
 10
128.2324519665
 20
125.1598969899
 10
128.244355719
 20
125.1696763904
 10
128.2544448684
 20
125.1801138791
 10
128.2626113168
 20
125.1910976251
 10
128.2687675667
 20
125.2025099455
 10
128.2728476586
 20
125.2142285653
 10
128.2748078772
 20
125.2261279277
 10
128.2749931913
 20
125.2310978645
  0
LINE
  5
259
100
AcDbEntity
  8
0
100
AcDbLine
 62
250
  6
CONTINUOUS
 10
128.3200115749
 20
126.7495437081
 11
127.7083059503
 21
126.3963513342
  0
LINE
  5
25A
100
AcDbEntity
  8
0
100
AcDbLine
 62
250
  6
CONTINUOUS
 10
128.5321113006
 20
126.3821762075
 11
127.7995775781
 21
125.9592189647
  0
LWPOLYLINE
  5
25B
100
AcDbEntity
  8
CURVE
100
AcDbPolyline
 62
250
  6
CONTINUOUS
 90
73
 70
0
 10
144.9153483337
 20
85.9925917327
 10
144.9190205328
 20
85.9913255018
 10
144.9225820845
 20
85.9906361201
 10
144.9260522133
 20
85.9903887213
 10
144.9294501437
 20
85.990448439
 10
144.9327951002
 20
85.9906804067
 10
144.9431189724
 20
85.9917423466
 10
144.9531378608
 20
85.9932633445
 10
144.9628825074
 20
85.9953305798
 10
144.9727257562
 20
85.9981175481
 10
144.9823094439
 20
86.0015212298
 10
144.9916358699
 20
86.0054771591
 10
145.0007073339
 20
86.0099208698
 10
145.0114638197
 20
86.0159486707
 10
145.0218322342
 20
86.022610492
 10
145.0318029657
 20
86.0299062753
 10
145.0413664028
 20
86.037835962
 10
145.0498304841
 20
86.0457225531
 10
145.0579301611
 20
86.0541386263
 10
145.0656568029
 20
86.0630727622
 10
145.0730017783
 20
86.0725135413
 10
145.0799564565
 20
86.0824495444
 10
145.0873201774
 20
86.094232121
 10
145.0941702727
 20
86.1066112613
 10
145.1005002912
 20
86.1195684477
 10
145.1063037818
 20
86.133085163
 10
145.1115742932
 20
86.1471428895
 10
145.1160341665
 20
86.1608189663
 10
145.1200217251
 20
86.1749325141
 10
145.1235403631
 20
86.189460231
 10
145.1265934749
 20
86.2043788146
 10
145.1291844547
 20
86.2196649629
 10
145.1313166969
 20
86.2352953736
 10
145.1331434737
 20
86.2529167179
 10
145.1344329501
 20
86.2709021413
 10
145.1352023565
 20
86.2892248479
 10
145.1354666657
 20
86.3092552325
 10
145.1351571836
 20
86.3296177941
 10
145.1342804519
 20
86.350286373
 10
145.1331609973
 20
86.3671667512
 10
145.1316605831
 20
86.3842240433
 10
145.1297631575
 20
86.4014530321
 10
145.1275939317
 20
86.4178739156
 10
145.1250509168
 20
86.4344345843
 10
145.1221286236
 20
86.451126385
 10
145.1184367061
 20
86.4697873418
 10
145.1142691631
 20
86.4885765518
 10
145.1096240259
 20
86.5074714944
 10
145.1044993259
 20
86.5264496489
 10
145.0988930943
 20
86.5454884948
 10
145.09336346
 20
86.5628747812
 10
145.087437972
 20
86.5802740933
 10
145.0811224296
 20
86.5976677472
 10
145.0744226323
 20
86.6150370596
 10
145.0673443793
 20
86.6323633467
 10
145.0587743477
 20
86.6521450651
 10
145.0497273749
 20
86.6718194946
 10
145.0402160579
 20
86.6913604098
 10
145.0302529937
 20
86.7107415854
 10
145.0200186414
 20
86.729636182
 10
145.0093739736
 20
86.7483283124
 10
144.9983340866
 20
86.7667956572
 10
144.9869140766
 20
86.7850158976
 10
144.9751290398
 20
86.8029667143
 10
144.9629940726
 20
86.8206257884
 10
144.950524271
 20
86.8379708006
 10
144.9412315656
 20
86.850398141
 10
144.9317683246
 20
86.8626091229
 10
144.9221338898
 20
86.8745661074
 10
144.9123276029
 20
86.8862314558
 10
144.9023488058
 20
86.8975675294
 10
144.8921968401
 20
86.9085366891
 10
144.8818710477
 20
86.9191012964
  0
LWPOLYLINE
  5
25C
100
AcDbEntity
  8
CURVE
100
AcDbPolyline
 62
250
  6
CONTINUOUS
 90
23
 70
0
 10
144.3931959899
 20
86.9351697128
 10
144.4050056859
 20
86.9306223041
 10
144.4168363097
 20
86.9259484487
 10
144.4286866562
 20
86.9211372174
 10
144.4405555205
 20
86.9161776807
 10
144.4524416976
 20
86.9110589096
 10
144.4643439825
 20
86.9057699747
 10
144.4762611703
 20
86.9002999469
 10
144.4881920561
 20
86.8946378967
 10
144.5001354348
 20
86.888772895
 10
144.5120901015
 20
86.8826940126
 10
144.5240548512
 20
86.8763903201
 10
144.5352971616
 20
86.8702595115
 10
144.546544637
 20
86.8639270116
 10
144.5577946149
 20
86.8573989702
 10
144.5690444329
 20
86.8506815366
 10
144.5802914287
 20
86.8437808607
 10
144.5915329398
 20
86.836703092
 10
144.6027663037
 20
86.8294543801
 10
144.6139888582
 20
86.8220408746
 10
144.6251979406
 20
86.8144687252
 10
144.6363908887
 20
86.8067440815
 10
144.64756504
 20
86.798873093
  0
LINE
  5
25D
100
AcDbEntity
  8
CURVE
100
AcDbLine
 62
250
  6
CONTINUOUS
 10
143.9852278798
 20
85.6806228204
 11
143.6430133998
 21
85.8782131722
  0
LINE
  5
25E
100
AcDbEntity
  8
CURVE
100
AcDbLine
 62
250
  6
CONTINUOUS
 10
143.0271242295
 20
86.2338198602
 11
142.7059523034
 21
86.4192605051
  0
LINE
  5
25F
100
AcDbEntity
  8
CURVE
100
AcDbLine
 62
250
  6
CONTINUOUS
 10
142.6549667417
 20
86.4486989294
 11
142.3373290699
 21
86.6320989402
  0
LINE
  5
260
100
AcDbEntity
  8
CURVE
100
AcDbLine
 62
250
  6
CONTINUOUS
 10
141.8845571027
 20
86.8935237995
 11
141.839019226
 21
86.9198167987
  0
LINE
  5
261
100
AcDbEntity
  8
CURVE
100
AcDbLine
 62
250
  6
CONTINUOUS
 10
141.3880436468
 20
87.1802044462
 11
141.0774167027
 21
87.3595565506
  0
LINE
  5
262
100
AcDbEntity
  8
CURVE
100
AcDbLine
 62
250
  6
CONTINUOUS
 10
139.9574322085
 20
88.0062215609
 11
139.6712946608
 21
88.1714337948
  0
LINE
  5
263
100
AcDbEntity
  8
CURVE
100
AcDbLine
 62
250
  6
CONTINUOUS
 10
140.5779282803
 20
87.6479549057
 11
140.9026233488
 21
87.4604800424
  0
LINE
  5
264
100
AcDbEntity
  8
CURVE
100
AcDbLine
 62
250
  6
CONTINUOUS
 10
144.0805741294
 20
85.6255707506
 11
144.4039623784
 21
85.4388504287
  0
LINE
  5
265
100
AcDbEntity
  8
CURVE
100
AcDbLine
 62
250
  6
CONTINUOUS
 10
144.9011875584
 20
85.1517588414
 11
145.2135061403
 21
84.9714300065
  0
LINE
  5
266
100
AcDbEntity
  8
CURVE
100
AcDbLine
 62
250
  6
CONTINUOUS
 10
143.5589002235
 20
86.2853408362
 11
143.1167199074
 21
86.540650209
  0
LINE
  5
267
100
AcDbEntity
  8
CURVE
100
AcDbLine
 62
250
  6
CONTINUOUS
 10
143.1831381076
 20
86.7797552558
 11
143.4940102493
 21
86.6002615773
  0
LINE
  5
268
100
AcDbEntity
  8
CURVE
100
AcDbLine
 62
250
  6
CONTINUOUS
 10
144.4039623784
 20
86.1417383066
 11
144.5780559297
 21
86.041218872
  0
LWPOLYLINE
  5
269
100
AcDbEntity
  8
CURVE
100
AcDbPolyline
 62
250
  6
CONTINUOUS
 90
46
 70
0
 10
144.5780559297
 20
86.041218872
 10
144.5833673751
 20
86.0380657186
 10
144.5886872369
 20
86.0347349344
 10
144.5940096299
 20
86.031229934
 10
144.5993286688
 20
86.0275541325
 10
144.6046384683
 20
86.0237109448
 10
144.6099331433
 20
86.0197037857
 10
144.6152068084
 20
86.0155360702
 10
144.6204535784
 20
86.0112112132
 10
144.625667568
 20
86.0067326297
 10
144.6308428919
 20
86.0021037344
 10
144.635973665
 20
85.9973279424
 10
144.6410540019
 20
85.9924086685
 10
144.6460780174
 20
85.9873493277
 10
144.6510398262
 20
85.9821533348
 10
144.655933543
 20
85.9768241048
 10
144.6607532827
 20
85.9713650526
 10
144.6653734648
 20
85.9659244376
 10
144.6699154732
 20
85.9603694199
 10
144.6743769625
 20
85.9547056191
 10
144.6787555878
 20
85.9489386551
 10
144.6830490038
 20
85.9430741475
 10
144.6872548654
 20
85.9371177161
 10
144.6913708274
 20
85.9310749807
 10
144.6953945446
 20
85.924951561
 10
144.699323672
 20
85.9187530768
 10
144.7031558643
 20
85.9124851478
 10
144.7068887764
 20
85.9061533938
 10
144.7105200632
 20
85.8997634345
 10
144.7140473795
 20
85.8933208896
 10
144.7177345915
 20
85.8863169578
 10
144.7212995327
 20
85.8792637509
 10
144.7247436962
 20
85.8721666676
 10
144.7280685756
 20
85.8650311067
 10
144.731275664
 20
85.857862467
 10
144.734366455
 20
85.8506661472
 10
144.7373424418
 20
85.8434475461
 10
144.7402051178
 20
85.8362120623
 10
144.7429559763
 20
85.8289650947
 10
144.7455965108
 20
85.821712042
 10
144.7481282145
 20
85.814458303
 10
144.7505525808
 20
85.8072092763
 10
144.7528711031
 20
85.7999703608
 10
144.7550852748
 20
85.7927469552
 10
144.7571965891
 20
85.7855444583
 10
144.7592065395
 20
85.7783682687
  0
LWPOLYLINE
  5
26A
100
AcDbEntity
  8
0
100
AcDbPolyline
 62
250
  6
CONTINUOUS
 90
25
 70
0
 10
127.5856607405
 20
100.7504969853
 10
127.587881219
 20
100.7241163405
 10
127.5914850443
 20
100.6969842144
 10
127.5964556163
 20
100.6692278953
 10
127.6027705324
 20
100.6410057893
 10
127.610396294
 20
100.6124153438
 10
127.6193029076
 20
100.5834901839
 10
127.6294691704
 20
100.554329307
 10
127.6408536626
 20
100.5250852081
 10
127.6534001259
 20
100.495870289
 10
127.6670633013
 20
100.466795272
 10
127.6817887031
 20
100.4379996919
 10
127.6974936032
 20
100.4096358309
 10
127.7140961482
 20
100.3818348217
 10
127.7315351432
 20
100.3546974286
 10
127.7497490511
 20
100.3283247697
 10
127.7686159752
 20
100.3028787658
 10
127.7880901951
 20
100.2784036312
 10
127.808237926
 20
100.2548431149
 10
127.8290537089
 20
100.2322436904
 10
127.8503881776
 20
100.2108098563
 10
127.8720936065
 20
100.1907295648
 10
127.8940501161
 20
100.1721225551
 10
127.9161723903
 20
100.1550560853
 10
127.9383528928
 20
100.1396162587
  0
LWPOLYLINE
  5
26B
100
AcDbEntity
  8
ASSI
100
AcDbPolyline
 62
250
  6
CONTINUOUS
 90
25
 70
0
 10
127.5856607405
 20
100.7504969853
 10
127.587881219
 20
100.7241163405
 10
127.5914850443
 20
100.6969842144
 10
127.5964556163
 20
100.6692278953
 10
127.6027705324
 20
100.6410057893
 10
127.610396294
 20
100.6124153438
 10
127.6193029076
 20
100.5834901839
 10
127.6294691704
 20
100.554329307
 10
127.6408536626
 20
100.5250852081
 10
127.6534001259
 20
100.495870289
 10
127.6670633013
 20
100.466795272
 10
127.6817887031
 20
100.4379996919
 10
127.6974936032
 20
100.4096358309
 10
127.7140961482
 20
100.3818348217
 10
127.7315351432
 20
100.3546974286
 10
127.7497490511
 20
100.3283247697
 10
127.7686159752
 20
100.3028787658
 10
127.7880901951
 20
100.2784036312
 10
127.808237926
 20
100.2548431149
 10
127.8290537089
 20
100.2322436904
 10
127.8503881776
 20
100.2108098563
 10
127.8720936065
 20
100.1907295648
 10
127.8940501161
 20
100.1721225551
 10
127.9161723903
 20
100.1550560853
 10
127.9383528928
 20
100.1396162587
  0
LWPOLYLINE
  5
26C
100
AcDbEntity
  8
0
100
AcDbPolyline
 62
250
  6
CONTINUOUS
 90
8
 70
0
 10
126.5267209679
 20
136.5533534411
 10
126.5278258294
 20
136.5336194573
 10
126.5311231503
 20
136.5154696853
 10
126.5365614098
 20
136.4991877173
 10
126.5440556343
 20
136.4850279606
 10
126.553488726
 20
136.4732116628
 10
126.5647132917
 20
136.4639234547
 10
126.568044293
 20
136.4618599812
  0
LWPOLYLINE
  5
26D
100
AcDbEntity
  8
ASSI
100
AcDbPolyline
 62
250
  6
CONTINUOUS
 90
8
 70
0
 10
126.5267209679
 20
136.5533534411
 10
126.5278258294
 20
136.5336194573
 10
126.5311231503
 20
136.5154696853
 10
126.5365614098
 20
136.4991877173
 10
126.5440556343
 20
136.4850279606
 10
126.553488726
 20
136.4732116628
 10
126.5647132917
 20
136.4639234547
 10
126.568044293
 20
136.4618599812
  0
LINE
  5
26E
100
AcDbEntity
  8
0
100
AcDbLine
 62
250
  6
CONTINUOUS
 10
126.0329519546
 20
100.0168834838
 11
126.0329519546
 21
136.2683125036
  0
LINE
  5
26F
100
AcDbEntity
  8
ASSI
100
AcDbLine
 62
250
  6
CONTINUOUS
 10
126.0329519546
 20
100.0168834838
 11
126.0329519546
 21
136.2683125036
  0
LINE
  5
270
100
AcDbEntity
  8
0
100
AcDbLine
 62
250
  6
CONTINUOUS
 10
126.3055851167
 20
100.0113864319
 11
126.3055851167
 21
136.2628154516
  0
LINE
  5
271
100
AcDbEntity
  8
ASSI
100
AcDbLine
 62
250
  6
CONTINUOUS
 10
126.3055851167
 20
100.0113864319
 11
126.3055851167
 21
136.2628154516
  0
LINE
  5
272
100
AcDbEntity
  8
RACCORDO
100
AcDbLine
 62
7
  6
CONTINUOUS
 10
127.3753135094
 20
135.9957527527
 11
127.3753135094
 21
100.629026397
  0
LINE
  5
273
100
AcDbEntity
  8
ASSI
100
AcDbLine
 62
7
  6
CONTINUOUS
 10
127.3753135094
 20
135.9957527527
 11
127.3753135094
 21
100.629026397
  0
LINE
  5
274
100
AcDbEntity
  8
0
100
AcDbLine
 62
250
  6
CONTINUOUS
 10
127.5856607405
 20
135.8743008978
 11
127.5856607405
 21
100.7504969853
  0
LINE
  5
275
100
AcDbEntity
  8
ASSI
100
AcDbLine
 62
250
  6
CONTINUOUS
 10
127.5856607405
 20
135.8743008978
 11
127.5856607405
 21
100.7504969853
  0
LINE
  5
276
100
AcDbEntity
  8
0
100
AcDbLine
 62
7
  6
CONTINUOUS
 10
127.7083059503
 20
135.8034870907
 11
127.7083059503
 21
100.9398971134
  0
LINE
  5
277
100
AcDbEntity
  8
ASSI
100
AcDbLine
 62
7
  6
CONTINUOUS
 10
127.7083059503
 20
135.8034870907
 11
127.7083059503
 21
100.9398971134
  0
LINE
  5
278
100
AcDbEntity
  8
0
100
AcDbLine
 62
7
  6
CONTINUOUS
 10
127.7995775781
 20
100.587179556
 11
127.7995775781
 21
106.77216746
  0
LINE
  5
279
100
AcDbEntity
  8
0
100
AcDbLine
 62
7
  6
CONTINUOUS
 10
127.7995775781
 20
112.5319778054
 11
127.7995775781
 21
125.9592189647
  0
LINE
  5
27A
100
AcDbEntity
  8
0
100
AcDbLine
 62
7
  6
CONTINUOUS
 10
127.7995775781
 20
131.7190293101
 11
127.7995775781
 21
135.7507879967
  0
LWPOLYLINE
  5
27B
100
AcDbEntity
  8
0
100
AcDbPolyline
 62
250
  6
CONTINUOUS
 90
13
 70
0
 10
126.3055851167
 20
136.2628154516
 10
126.3057952667
 20
136.2923772057
 10
126.3080555358
 20
136.3206707522
 10
126.3123413419
 20
136.3475321768
 10
126.3186107291
 20
136.3728076792
 10
126.3268276447
 20
136.3963482182
 10
126.3369582792
 20
136.4180147891
 10
126.3489363038
 20
136.4376815125
 10
126.3626857204
 20
136.4552457786
 10
126.3781436415
 20
136.4706226709
 10
126.3952205788
 20
136.4837246575
 10
126.413819884
 20
136.4944811853
 10
126.4219831651
 20
136.4982513522
  0
LWPOLYLINE
  5
27C
100
AcDbEntity
  8
ASSI
100
AcDbPolyline
 62
250
  6
CONTINUOUS
 90
13
 70
0
 10
126.3055851167
 20
136.2628154516
 10
126.3057952667
 20
136.2923772057
 10
126.3080555358
 20
136.3206707522
 10
126.3123413419
 20
136.3475321768
 10
126.3186107291
 20
136.3728076792
 10
126.3268276447
 20
136.3963482182
 10
126.3369582792
 20
136.4180147891
 10
126.3489363038
 20
136.4376815125
 10
126.3626857204
 20
136.4552457786
 10
126.3781436415
 20
136.4706226709
 10
126.3952205788
 20
136.4837246575
 10
126.413819884
 20
136.4944811853
 10
126.4219831651
 20
136.4982513522
  0
LWPOLYLINE
  5
27D
100
AcDbEntity
  8
0
100
AcDbPolyline
 62
7
  6
CONTINUOUS
 90
20
 70
0
 10
128.2749931905
 20
125.2311078749
 10
128.2750525369
 20
125.2359805039
 10
128.2758229833
 20
125.2500482172
 10
128.2776356453
 20
125.2660410433
 10
128.280662614
 20
125.2838230899
 10
128.2849643313
 20
125.3028851903
 10
128.290583457
 20
125.3229513237
 10
128.2975486073
 20
125.3438020863
 10
128.3057678817
 20
125.3649705284
 10
128.3151612752
 20
125.3861650045
 10
128.3256428017
 20
125.4071525592
 10
128.3370276163
 20
125.4275642968
 10
128.3491557883
 20
125.4471577624
 10
128.3618708093
 20
125.4657482607
 10
128.3749457068
 20
125.4830878744
 10
128.3881962237
 20
125.4990381704
 10
128.4014136351
 20
125.5134712218
 10
128.4142996637
 20
125.5262038714
 10
128.4266633489
 20
125.5372127176
 10
128.4361674167
 20
125.5448752116
  0
LWPOLYLINE
  5
27E
100
AcDbEntity
  8
0
100
AcDbPolyline
 62
250
  6
CONTINUOUS
 90
15
 70
0
 10
128.5321113006
 20
132.1720391523
 10
128.5318571148
 20
132.1565726023
 10
128.5307585147
 20
132.1421864147
 10
128.5289107268
 20
132.1288761565
 10
128.5264134987
 20
132.1166503432
 10
128.5233549726
 20
132.1054568509
 10
128.5197973388
 20
132.0951962495
 10
128.5158125114
 20
132.0858361237
 10
128.5114719859
 20
132.0773450051
 10
128.5068119194
 20
132.0696369429
 10
128.5018826616
 20
132.0626718671
 10
128.4967418626
 20
132.0564221186
 10
128.4914198981
 20
132.0508304984
 10
128.4859556929
 20
132.0458579419
 10
128.480395248
 20
132.0414734601
  0
LWPOLYLINE
  5
27F
100
AcDbEntity
  8
0
100
AcDbPolyline
 62
250
  6
CONTINUOUS
 90
22
 70
0
 10
126.0329519546
 20
136.2683125036
 10
126.0343887051
 20
136.3105141527
 10
126.0385060485
 20
136.3504599187
 10
126.0453039849
 20
136.3881498016
 10
126.0548532904
 20
136.4237741778
 10
126.0670831888
 20
136.457142671
 10
126.0817813518
 20
136.4876841516
 10
126.0989843186
 20
136.5153393916
 10
126.11865555
 20
136.540167619
 10
126.1404730997
 20
136.561775389
 10
126.1644609791
 20
136.5801144365
 10
126.1905951768
 20
136.5952330266
 10
126.2184817127
 20
136.6068825094
 10
126.2481521422
 20
136.6150191045
 10
126.2795749099
 20
136.6196865924
 10
126.3122613691
 20
136.6207676642
 10
126.3463160224
 20
136.6181621544
 10
126.3816343673
 20
136.6119702286
 10
126.4174142497
 20
136.6023750755
 10
126.4533882849
 20
136.589437758
 10
126.4898238576
 20
136.5730972132
 10
126.5267209679
 20
136.5533534411
  0
LWPOLYLINE
  5
280
100
AcDbEntity
  8
ASSI
100
AcDbPolyline
 62
250
  6
CONTINUOUS
 90
22
 70
0
 10
126.0329519546
 20
136.2683125036
 10
126.0343887051
 20
136.3105141527
 10
126.0385060485
 20
136.3504599187
 10
126.0453039849
 20
136.3881498016
 10
126.0548532904
 20
136.4237741778
 10
126.0670831888
 20
136.457142671
 10
126.0817813518
 20
136.4876841516
 10
126.0989843186
 20
136.5153393916
 10
126.11865555
 20
136.540167619
 10
126.1404730997
 20
136.561775389
 10
126.1644609791
 20
136.5801144365
 10
126.1905951768
 20
136.5952330266
 10
126.2184817127
 20
136.6068825094
 10
126.2481521422
 20
136.6150191045
 10
126.2795749099
 20
136.6196865924
 10
126.3122613691
 20
136.6207676642
 10
126.3463160224
 20
136.6181621544
 10
126.3816343673
 20
136.6119702286
 10
126.4174142497
 20
136.6023750755
 10
126.4533882849
 20
136.589437758
 10
126.4898238576
 20
136.5730972132
 10
126.5267209679
 20
136.5533534411
  0
LWPOLYLINE
  5
281
100
AcDbEntity
  8
0
100
AcDbPolyline
 62
250
  6
CONTINUOUS
 90
7
 70
0
 10
128.2188611513
 20
125.1508804572
 10
128.2198595411
 20
125.1781550457
 10
128.2224565989
 20
125.2057086113
 10
128.2266523249
 20
125.2335411541
 10
128.2324969429
 20
125.2617603912
 10
128.239940229
 20
125.2902586055
 10
128.2488315116
 20
125.3187126449
  0
LWPOLYLINE
  5
282
100
AcDbEntity
  8
0
100
AcDbPolyline
 62
250
  6
CONTINUOUS
 90
9
 70
0
 10
128.6022762915
 20
126.4823488296
 10
128.6020447078
 20
126.4762355437
 10
128.5995944337
 20
126.4613613394
 10
128.5944943178
 20
126.4467130637
 10
128.5867990042
 20
126.4324476628
 10
128.5765909429
 20
126.4187179804
 10
128.5639795062
 20
126.4056711206
 10
128.5490998169
 20
126.3934468715
 10
128.5321113006
 20
126.3821762075
  0
LWPOLYLINE
  5
283
100
AcDbEntity
  8
0
100
AcDbPolyline
 62
250
  6
CONTINUOUS
 90
10
 70
0
 10
127.7083059477
 20
100.9398675067
 10
127.7077183406
 20
100.9259049716
 10
127.7039645764
 20
100.9019362416
 10
127.6967662556
 20
100.8782313477
 10
127.686173415
 20
100.8549550254
 10
127.6722596808
 20
100.8322690298
 10
127.6551217499
 20
100.8103310049
 10
127.6348787257
 20
100.7892934024
 10
127.6116712944
 20
100.7693024217
 10
127.5856607405
 20
100.7504969853
  0
LWPOLYLINE
  5
284
100
AcDbEntity
  8
ASSI
100
AcDbPolyline
 62
250
  6
CONTINUOUS
 90
10
 70
0
 10
127.7083059477
 20
100.9398675067
 10
127.7077183406
 20
100.9259049716
 10
127.7039645764
 20
100.9019362416
 10
127.6967662556
 20
100.8782313477
 10
127.686173415
 20
100.8549550254
 10
127.6722596808
 20
100.8322690298
 10
127.6551217499
 20
100.8103310049
 10
127.6348787257
 20
100.7892934024
 10
127.6116712944
 20
100.7693024217
 10
127.5856607405
 20
100.7504969853
  0
LWPOLYLINE
  5
285
100
AcDbEntity
  8
0
100
AcDbPolyline
 62
250
  6
CONTINUOUS
 90
13
 70
0
 10
126.5267209679
 20
99.1616504666
 10
126.5278259234
 20
99.1826612368
 10
126.5311234856
 20
99.2046194631
 10
126.5365620694
 20
99.2271820024
 10
126.5440566325
 20
99.2499962717
 10
126.5534900178
 20
99.2727057942
 10
126.5647147958
 20
99.2949557687
 10
126.5775555372
 20
99.3163985436
 10
126.5918115779
 20
99.336699107
 10
126.6072601859
 20
99.3555403442
 10
126.6236599841
 20
99.3726279064
 10
126.6407547117
 20
99.38769482
 10
126.658277269
 20
99.4005057053
  0
LWPOLYLINE
  5
286
100
AcDbEntity
  8
ASSI
100
AcDbPolyline
 62
250
  6
CONTINUOUS
 90
13
 70
0
 10
126.5267209679
 20
99.1616504666
 10
126.5278259234
 20
99.1826612368
 10
126.5311234856
 20
99.2046194631
 10
126.5365620694
 20
99.2271820024
 10
126.5440566325
 20
99.2499962717
 10
126.5534900178
 20
99.2727057942
 10
126.5647147958
 20
99.2949557687
 10
126.5775555372
 20
99.3163985436
 10
126.5918115779
 20
99.336699107
 10
126.6072601859
 20
99.3555403442
 10
126.6236599841
 20
99.3726279064
 10
126.6407547117
 20
99.38769482
 10
126.658277269
 20
99.4005057053
  0
LWPOLYLINE
  5
287
100
AcDbEntity
  8
0
100
AcDbPolyline
 62
250
  6
CONTINUOUS
 90
8
 70
0
 10
128.6020447176
 20
132.2660986284
 10
128.5995944655
 20
132.251224417
 10
128.5944943672
 20
132.236576128
 10
128.5867990642
 20
132.2223107082
 10
128.5765910048
 20
132.2085810032
 10
128.5639795596
 20
132.1955341183
 10
128.54909985
 20
132.1833098427
 10
128.5321113006
 20
132.172039152
  0
LWPOLYLINE
  5
288
100
AcDbEntity
  8
0
100
AcDbPolyline
 62
250
  6
CONTINUOUS
 90
8
 70
0
 10
128.2488315116
 20
125.3187126449
 10
128.2591757677
 20
125.3471504391
 10
128.2709680204
 20
125.3755440584
 10
128.2840426671
 20
125.4034865627
 10
128.298308987
 20
125.430871973
 10
128.313857701
 20
125.4578062682
 10
128.3307953692
 20
125.4842004446
 10
128.3492950193
 20
125.5103161309
  0
LWPOLYLINE
  5
289
100
AcDbEntity
  8
0
100
AcDbPolyline
 62
250
  6
CONTINUOUS
 90
13
 70
0
 10
126.0329519546
 20
100.0168834838
 10
126.0516999822
 20
100.0073344741
 10
126.0723647929
 20
99.999210535
 10
126.0946234971
 20
99.9926386038
 10
126.1181283002
 20
99.9877213678
 10
126.1425119373
 20
99.9845356591
 10
126.1673934115
 20
99.9831312549
 10
126.1923839474
 20
99.983530099
 10
126.2170930653
 20
99.9857259595
 10
126.2411346827
 20
99.9896845259
 10
126.2641331469
 20
99.9953439452
 10
126.2857291046
 20
100.0026157883
 10
126.3055851167
 20
100.0113864319
  0
LWPOLYLINE
  5
28A
100
AcDbEntity
  8
ASSI
100
AcDbPolyline
 62
250
  6
CONTINUOUS
 90
13
 70
0
 10
126.0329519546
 20
100.0168834838
 10
126.0516999822
 20
100.0073344741
 10
126.0723647929
 20
99.999210535
 10
126.0946234971
 20
99.9926386038
 10
126.1181283002
 20
99.9877213678
 10
126.1425119373
 20
99.9845356591
 10
126.1673934115
 20
99.9831312549
 10
126.1923839474
 20
99.983530099
 10
126.2170930653
 20
99.9857259595
 10
126.2411346827
 20
99.9896845259
 10
126.2641331469
 20
99.9953439452
 10
126.2857291046
 20
100.0026157883
 10
126.3055851167
 20
100.0113864319
  0
LWPOLYLINE
  5
28B
100
AcDbEntity
  8
0
100
AcDbPolyline
 62
250
  6
CONTINUOUS
 90
10
 70
0
 10
128.1636717508
 20
100.1511590445
 10
128.1512809126
 20
100.1576336183
 10
128.1286478476
 20
100.1663650107
 10
128.1045209301
 20
100.1719814231
 10
128.0790678306
 20
100.1744438244
 10
128.0524654359
 20
100.1737351018
 10
128.02489862
 20
100.1698601808
 10
127.996558959
 20
100.1628459902
 10
127.9676434002
 20
100.1527412752
 10
127.9383528928
 20
100.1396162587
  0
LWPOLYLINE
  5
28C
100
AcDbEntity
  8
ASSI
100
AcDbPolyline
 62
250
  6
CONTINUOUS
 90
10
 70
0
 10
128.1636717508
 20
100.1511590445
 10
128.1512809126
 20
100.1576336183
 10
128.1286478476
 20
100.1663650107
 10
128.1045209301
 20
100.1719814231
 10
128.0790678306
 20
100.1744438244
 10
128.0524654359
 20
100.1737351018
 10
128.02489862
 20
100.1698601808
 10
127.996558959
 20
100.1628459902
 10
127.9676434002
 20
100.1527412752
 10
127.9383528928
 20
100.1396162587
  0
LINE
  5
28D
100
AcDbEntity
  8
CURVE
100
AcDbLine
 62
250
  6
CONTINUOUS
 10
144.5787558032
 20
86.3349698555
 11
144.3931959899
 21
86.4421097661
  0
LINE
  5
28E
100
AcDbEntity
  8
CURVE
100
AcDbLine
 62
250
  6
CONTINUOUS
 10
139.1781695257
 20
90.2522411978
 11
139.5308882449
 21
90.04858583
  0
LINE
  5
28F
100
AcDbEntity
  8
CURVE
100
AcDbLine
 62
250
  6
CONTINUOUS
 10
140.1329604146
 20
89.7009569049
 11
140.4574339904
 21
89.5136099289
  0
LINE
  5
290
100
AcDbEntity
  8
CURVE
100
AcDbLine
 62
250
  6
CONTINUOUS
 10
141.2178697876
 20
89.07454383
 11
141.5422959536
 21
88.8872242278
  0
LINE
  5
291
100
AcDbEntity
  8
CURVE
100
AcDbLine
 62
250
  6
CONTINUOUS
 10
142.1882562863
 20
88.5142548275
 11
142.5095096979
 21
88.3287671339
  0
LINE
  5
292
100
AcDbEntity
  8
CURVE
100
AcDbLine
 62
250
  6
CONTINUOUS
 10
143.1938579132
 20
87.9336330513
 11
143.50796059
 21
87.7522741023
  0
LINE
  5
293
100
AcDbEntity
  8
CURVE
100
AcDbLine
 62
250
  6
CONTINUOUS
 10
140.9026233488
 20
89.2566709469
 11
140.5779282803
 21
89.4441458101
  0
LINE
  5
294
100
AcDbEntity
  8
0
100
AcDbLine
 62
250
  6
CONTINUOUS
 10
157.9223908607
 20
81.0341841506
 11
126.5267209679
 21
99.1616504666
  0
LINE
  5
295
100
AcDbEntity
  8
ASSI
100
AcDbLine
 62
250
  6
CONTINUOUS
 10
157.9223908607
 20
81.0341841506
 11
126.5267209679
 21
99.1616504666
  0
LINE
  5
296
100
AcDbEntity
  8
0
100
AcDbLine
 62
250
  6
CONTINUOUS
 10
158.0539471619
 20
81.2730393894
 11
126.658277269
 21
99.4005057053
  0
LINE
  5
297
100
AcDbEntity
  8
ASSI
100
AcDbLine
 62
250
  6
CONTINUOUS
 10
158.0539471619
 20
81.2730393894
 11
126.658277269
 21
99.4005057053
  0
LINE
  5
298
100
AcDbEntity
  8
RACCORDO
100
AcDbLine
 62
7
  6
CONTINUOUS
 10
127.7280056617
 20
100.0181456704
 11
158.3575812302
 21
82.3330126159
  0
LINE
  5
299
100
AcDbEntity
  8
ASSI
100
AcDbLine
 62
7
  6
CONTINUOUS
 10
127.7280056617
 20
100.0181456704
 11
158.3575812302
 21
82.3330126159
  0
LINE
  5
29A
100
AcDbEntity
  8
0
100
AcDbLine
 62
250
  6
CONTINUOUS
 10
127.9383528928
 20
100.1396162587
 11
158.3575812302
 21
82.5759350592
  0
LINE
  5
29B
100
AcDbEntity
  8
ASSI
100
AcDbLine
 62
250
  6
CONTINUOUS
 10
127.9383528928
 20
100.1396162587
 11
158.3575812302
 21
82.5759350592
  0
LINE
  5
29C
100
AcDbEntity
  8
0
100
AcDbLine
 62
7
  6
CONTINUOUS
 10
128.163702335
 20
100.1511413899
 11
158.3575812302
 21
82.717574134
  0
LINE
  5
29D
100
AcDbEntity
  8
ASSI
100
AcDbLine
 62
7
  6
CONTINUOUS
 10
128.163702335
 20
100.1511413899
 11
158.3575812302
 21
82.717574134
  0
LINE
  5
29E
100
AcDbEntity
  8
0
100
AcDbLine
 62
7
  6
CONTINUOUS
 10
155.3767420444
 20
84.5034071849
 11
151.4876547478
 21
86.7489174482
  0
LINE
  5
29F
100
AcDbEntity
  8
0
100
AcDbLine
 62
7
  6
CONTINUOUS
 10
139.4668394677
 20
93.6895855348
 11
135.5777521711
 21
95.9350957981
  0
LINE
  5
2A0
100
AcDbEntity
  8
0
100
AcDbLine
 62
7
  6
CONTINUOUS
 10
155.6242294178
 20
84.5238327511
 11
151.6290761041
 21
86.8305723669
  0
LINE
  5
2A1
100
AcDbEntity
  8
0
100
AcDbLine
 62
7
  6
CONTINUOUS
 10
139.7143268411
 20
93.7100111009
 11
135.7191735274
 21
96.0167507167
  0
LINE
  5
2A2
100
AcDbEntity
  8
0
100
AcDbLine
 62
7
  6
CONTINUOUS
 10
155.730295435
 20
84.7075444816
 11
151.8412081384
 21
86.9530547449
  0
LINE
  5
2A3
100
AcDbEntity
  8
0
100
AcDbLine
 62
7
  6
CONTINUOUS
 10
139.8203928583
 20
93.8937228314
 11
135.9313055617
 21
96.1392330947
  0
LWPOLYLINE
  5
2A4
100
AcDbEntity
  8
0
100
AcDbPolyline
 62
250
  6
CONTINUOUS
 90
22
 70
0
 10
126.658277269
 20
99.4005057053
 10
126.6311245167
 20
99.4164259361
 10
126.6042088171
 20
99.434576502
 10
126.5776662855
 20
99.454850427
 10
126.5516173865
 20
99.4771297091
 10
126.5262117131
 20
99.501286347
 10
126.5016261426
 20
99.5271791775
 10
126.4780018421
 20
99.5546501047
 10
126.4554489747
 20
99.583547769
 10
126.4340919261
 20
99.6137277386
 10
126.41405448
 20
99.6450152139
 10
126.3954367073
 20
99.6772408183
 10
126.378323953
 20
99.7102642349
 10
126.3628178559
 20
99.7439138688
 10
126.34901218
 20
99.7779962715
 10
126.336976562
 20
99.8123356568
 10
126.3267788533
 20
99.8468223585
 10
126.3185127652
 20
99.8811856711
 10
126.3122458561
 20
99.9150147884
 10
126.3079983743
 20
99.9480627715
 10
126.305777655
 20
99.9802386871
 10
126.3055851167
 20
100.0113864319
  0
LWPOLYLINE
  5
2A5
100
AcDbEntity
  8
ASSI
100
AcDbPolyline
 62
250
  6
CONTINUOUS
 90
22
 70
0
 10
126.658277269
 20
99.4005057053
 10
126.6311245167
 20
99.4164259361
 10
126.6042088171
 20
99.434576502
 10
126.5776662855
 20
99.454850427
 10
126.5516173865
 20
99.4771297091
 10
126.5262117131
 20
99.501286347
 10
126.5016261426
 20
99.5271791775
 10
126.4780018421
 20
99.5546501047
 10
126.4554489747
 20
99.583547769
 10
126.4340919261
 20
99.6137277386
 10
126.41405448
 20
99.6450152139
 10
126.3954367073
 20
99.6772408183
 10
126.378323953
 20
99.7102642349
 10
126.3628178559
 20
99.7439138688
 10
126.34901218
 20
99.7779962715
 10
126.336976562
 20
99.8123356568
 10
126.3267788533
 20
99.8468223585
 10
126.3185127652
 20
99.8811856711
 10
126.3122458561
 20
99.9150147884
 10
126.3079983743
 20
99.9480627715
 10
126.305777655
 20
99.9802386871
 10
126.3055851167
 20
100.0113864319
  0
LWPOLYLINE
  5
2A6
100
AcDbEntity
  8
0
100
AcDbPolyline
 62
7
  6
CONTINUOUS
 90
27
 70
0
 10
128.1636717508
 20
100.1511590445
 10
128.1448320275
 20
100.1626360315
 10
128.1234265395
 20
100.1770561558
 10
128.1003180328
 20
100.1941882572
 10
128.0759301636
 20
100.2139770922
 10
128.0505151083
 20
100.2364476312
 10
128.0243180412
 20
100.2616061317
 10
127.9977388627
 20
100.2892655994
 10
127.9710274156
 20
100.3193371248
 10
127.9444463009
 20
100.3516900569
 10
127.9183732219
 20
100.3859963003
 10
127.8930364148
 20
100.4220541316
 10
127.868664445
 20
100.4596293358
 10
127.8455745729
 20
100.4982815239
 10
127.8239374777
 20
100.5377285055
 10
127.8039072498
 20
100.5776785625
 10
127.7856994338
 20
100.6176336338
 10
127.7693962925
 20
100.6572781357
 10
127.7550517391
 20
100.6963147977
 10
127.7427524888
 20
100.734253408
 10
127.7324732226
 20
100.770803816
 10
127.7241586529
 20
100.8057104733
 10
127.7177618521
 20
100.8385394577
 10
127.7131481827
 20
100.8690884968
 10
127.710163923
 20
100.8971568288
 10
127.708636874
 20
100.9223550034
 10
127.7083059477
 20
100.9398675067
  0
LWPOLYLINE
  5
2A7
100
AcDbEntity
  8
ASSI
100
AcDbPolyline
 62
7
  6
CONTINUOUS
 90
27
 70
0
 10
128.1636717508
 20
100.1511590445
 10
128.1448320275
 20
100.1626360315
 10
128.1234265395
 20
100.1770561558
 10
128.1003180328
 20
100.1941882572
 10
128.0759301636
 20
100.2139770922
 10
128.0505151083
 20
100.2364476312
 10
128.0243180412
 20
100.2616061317
 10
127.9977388627
 20
100.2892655994
 10
127.9710274156
 20
100.3193371248
 10
127.9444463009
 20
100.3516900569
 10
127.9183732219
 20
100.3859963003
 10
127.8930364148
 20
100.4220541316
 10
127.868664445
 20
100.4596293358
 10
127.8455745729
 20
100.4982815239
 10
127.8239374777
 20
100.5377285055
 10
127.8039072498
 20
100.5776785625
 10
127.7856994338
 20
100.6176336338
 10
127.7693962925
 20
100.6572781357
 10
127.7550517391
 20
100.6963147977
 10
127.7427524888
 20
100.734253408
 10
127.7324732226
 20
100.770803816
 10
127.7241586529
 20
100.8057104733
 10
127.7177618521
 20
100.8385394577
 10
127.7131481827
 20
100.8690884968
 10
127.710163923
 20
100.8971568288
 10
127.708636874
 20
100.9223550034
 10
127.7083059477
 20
100.9398675067
  0
LWPOLYLINE
  5
2A8
100
AcDbEntity
  8
0
100
AcDbPolyline
 62
250
  6
CONTINUOUS
 90
22
 70
0
 10
126.5267209679
 20
99.1616504666
 10
126.4894536455
 20
99.1848271145
 10
126.4527996122
 20
99.2107448395
 10
126.4167588679
 20
99.2394036415
 10
126.3811311449
 20
99.2710008751
 10
126.3461167109
 20
99.3053391859
 10
126.3123163689
 20
99.3418265097
 10
126.2797631423
 20
99.3804859699
 10
126.2484240076
 20
99.4212944432
 10
126.2188006978
 20
99.4635904958
 10
126.1909230062
 20
99.5073846504
 10
126.1647611396
 20
99.5526663843
 10
126.140727451
 20
99.5987426954
 10
126.1188440774
 20
99.6456372383
 10
126.0990888818
 20
99.6933263585
 10
126.0818078067
 20
99.7410460909
 10
126.0670353448
 20
99.7888971849
 10
126.0547370035
 20
99.8367788911
 10
126.0451552473
 20
99.8836249954
 10
126.0383708979
 20
99.9290800934
 10
126.0343031337
 20
99.9734995895
 10
126.0329519546
 20
100.0168834838
  0
LWPOLYLINE
  5
2A9
100
AcDbEntity
  8
ASSI
100
AcDbPolyline
 62
250
  6
CONTINUOUS
 90
22
 70
0
 10
126.5267209679
 20
99.1616504666
 10
126.4894536455
 20
99.1848271145
 10
126.4527996122
 20
99.2107448395
 10
126.4167588679
 20
99.2394036415
 10
126.3811311449
 20
99.2710008751
 10
126.3461167109
 20
99.3053391859
 10
126.3123163689
 20
99.3418265097
 10
126.2797631423
 20
99.3804859699
 10
126.2484240076
 20
99.4212944432
 10
126.2188006978
 20
99.4635904958
 10
126.1909230062
 20
99.5073846504
 10
126.1647611396
 20
99.5526663843
 10
126.140727451
 20
99.5987426954
 10
126.1188440774
 20
99.6456372383
 10
126.0990888818
 20
99.6933263585
 10
126.0818078067
 20
99.7410460909
 10
126.0670353448
 20
99.7888971849
 10
126.0547370035
 20
99.8367788911
 10
126.0451552473
 20
99.8836249954
 10
126.0383708979
 20
99.9290800934
 10
126.0343031337
 20
99.9734995895
 10
126.0329519546
 20
100.0168834838
  0
LWPOLYLINE
  5
2AA
100
AcDbEntity
  8
0
100
AcDbPolyline
 62
250
  6
CONTINUOUS
 90
8
 70
0
 10
158.416159874
 20
81.3192250881
 10
158.3996209142
 20
81.3300504512
 10
158.3855504227
 20
81.3419825188
 10
158.3741681997
 20
81.3548348119
 10
158.3656520334
 20
81.3684064732
 10
158.3601349102
 20
81.3824854279
 10
158.3577029559
 20
81.3968517002
 10
158.3575813293
 20
81.400765023
  0
LWPOLYLINE
  5
2AB
100
AcDbEntity
  8
ASSI
100
AcDbPolyline
 62
250
  6
CONTINUOUS
 90
8
 70
0
 10
158.416159874
 20
81.3192250881
 10
158.3996209142
 20
81.3300504512
 10
158.3855504227
 20
81.3419825188
 10
158.3741681997
 20
81.3548348119
 10
158.3656520334
 20
81.3684064732
 10
158.3601349102
 20
81.3824854279
 10
158.3577029559
 20
81.3968517002
 10
158.3575813293
 20
81.400765023
  0
LWPOLYLINE
  5
2AC
100
AcDbEntity
  8
CURVE
100
AcDbPolyline
 62
250
  6
CONTINUOUS
 90
49
 70
0
 10
144.64756504
 20
86.798873093
 10
144.6535158943
 20
86.7945466741
 10
144.6594671543
 20
86.7900342857
 10
144.6654122655
 20
86.7853402343
 10
144.6713446734
 20
86.7804688267
 10
144.6772578235
 20
86.7754243695
 10
144.6831451613
 20
86.7702111693
 10
144.6890001322
 20
86.7648335327
 10
144.6948161819
 20
86.7592957663
 10
144.7005867557
 20
86.7536021769
 10
144.7063052992
 20
86.7477570711
 10
144.7119652579
 20
86.7417647554
 10
144.7175600772
 20
86.7356295365
 10
144.7230832027
 20
86.7293557211
 10
144.7285280798
 20
86.7229476158
 10
144.733888154
 20
86.7164095272
 10
144.7391568709
 20
86.709745762
 10
144.744327676
 20
86.7029606268
 10
144.7493940146
 20
86.6960584282
 10
144.7543493323
 20
86.6890434728
 10
144.7591870747
 20
86.6819200674
 10
144.7639006872
 20
86.6746925185
 10
144.7684836152
 20
86.6673651328
 10
144.7729293044
 20
86.6599422169
 10
144.7772312001
 20
86.6524280774
 10
144.7813615485
 20
86.6448690408
 10
144.7853412821
 20
86.637233226
 10
144.7891685179
 20
86.6295298375
 10
144.7928413729
 20
86.6217680798
 10
144.796357964
 20
86.6139571572
 10
144.7997164081
 20
86.6061062742
 10
144.8029148221
 20
86.5982246353
 10
144.805951323
 20
86.5903214448
 10
144.8088240278
 20
86.5824059072
 10
144.8115310533
 20
86.5744872269
 10
144.8140705165
 20
86.5665746083
 10
144.8164405343
 20
86.5586772559
 10
144.8186392237
 20
86.5508043741
 10
144.8206647017
 20
86.5429651673
 10
144.822515085
 20
86.53516884
 10
144.8241884907
 20
86.5274245965
 10
144.8256830358
 20
86.5197416414
 10
144.8269968371
 20
86.512129179
 10
144.8281280116
 20
86.5045964138
 10
144.8290746762
 20
86.4971525502
 10
144.8298349478
 20
86.4898067926
 10
144.8304069434
 20
86.4825683455
 10
144.83078878
 20
86.4754464132
 10
144.8309785744
 20
86.4684502003
  0
LWPOLYLINE
  5
2AD
100
AcDbEntity
  8
CURVE
100
AcDbPolyline
 62
250
  6
CONTINUOUS
 90
30
 70
0
 10
144.8818710477
 20
86.9191012964
 10
144.8630744617
 20
86.9374287429
 10
144.8440953534
 20
86.9552281108
 10
144.824950351
 20
86.9725180388
 10
144.8056560826
 20
86.9893171661
 10
144.7862291762
 20
87.0056441313
 10
144.7666862599
 20
87.0215175736
 10
144.7470439617
 20
87.0369561317
 10
144.7273189097
 20
87.0519784445
 10
144.707527732
 20
87.066603151
 10
144.6876870566
 20
87.0808488901
 10
144.6678135117
 20
87.0947343007
 10
144.6479237252
 20
87.1082780216
 10
144.6186891706
 20
87.1275985431
 10
144.5894566807
 20
87.1462607876
 10
144.5602274853
 20
87.1643042432
 10
144.5310028144
 20
87.1817683982
 10
144.5017838977
 20
87.1986927408
 10
144.472571965
 20
87.2151167592
 10
144.4433682463
 20
87.2310799416
 10
144.4141739712
 20
87.2466217762
 10
144.3769721057
 20
87.2658772598
 10
144.3397925242
 20
87.2845378976
 10
144.3026401638
 20
87.302629444
 10
144.2655199617
 20
87.3201776539
 10
144.2284368552
 20
87.3372082817
 10
144.1913957816
 20
87.353747082
 10
144.1544016779
 20
87.3698198094
 10
144.1174594814
 20
87.3854522186
 10
144.0805741294
 20
87.400670064
  0
LWPOLYLINE
  5
2AE
100
AcDbEntity
  8
0
100
AcDbPolyline
 62
250
  6
CONTINUOUS
 90
8
 70
0
 10
128.4580898314
 20
125.6231799916
 10
128.4594425915
 20
125.6063934117
 10
128.458840937
 20
125.5909123343
 10
128.4562929649
 20
125.5769451074
 10
128.4518329666
 20
125.5646797053
 10
128.4455209658
 20
125.5542811986
 10
128.4374419107
 20
125.5458895328
 10
128.4361674167
 20
125.5448752116
  0
LWPOLYLINE
  5
2AF
100
AcDbEntity
  8
0
100
AcDbPolyline
 62
250
  6
CONTINUOUS
 90
8
 70
0
 10
128.5321113006
 20
125.6801193247
 10
128.5334640552
 20
125.6633326945
 10
128.5328623855
 20
125.6478515798
 10
128.5303143906
 20
125.6338843286
 10
128.5258543634
 20
125.6216189144
 10
128.5195423301
 20
125.6112204078
 10
128.5114632427
 20
125.6028287544
 10
128.5101851179
 20
125.601811646
  0
LWPOLYLINE
  5
2B0
100
AcDbEntity
  8
0
100
AcDbPolyline
 62
7
  6
CONTINUOUS
 90
14
 70
0
 10
128.6022762915
 20
107.295297325
 10
128.6010277938
 20
107.3226775131
 10
128.5975412687
 20
107.3486759654
 10
128.5918598954
 20
107.3744161028
 10
128.5839988611
 20
107.3998446967
 10
128.5742272235
 20
107.4242794533
 10
128.5624450016
 20
107.4480808055
 10
128.5485552224
 20
107.4712827604
 10
128.533107215
 20
107.4929504583
 10
128.5161050417
 20
107.5131655523
 10
128.4972778835
 20
107.5321623289
 10
128.4771181321
 20
107.5493512825
 10
128.4557084922
 20
107.5646656512
 10
128.4418309815
 20
107.5731857261
  0
LWPOLYLINE
  5
2B1
100
AcDbEntity
  8
0
100
AcDbPolyline
 62
7
  6
CONTINUOUS
 90
14
 70
0
 10
128.6022762915
 20
126.4823488296
 10
128.6010277938
 20
126.5097290177
 10
128.5975412687
 20
126.5357274701
 10
128.5918598954
 20
126.5614676074
 10
128.5839988611
 20
126.5868962014
 10
128.5742272235
 20
126.611330958
 10
128.5624450016
 20
126.6351323101
 10
128.5485552224
 20
126.658334265
 10
128.533107215
 20
126.6800019629
 10
128.5161050417
 20
126.7002170569
 10
128.4972778835
 20
126.7192138336
 10
128.4771181321
 20
126.7364027871
 10
128.4557084922
 20
126.7517171558
 10
128.4418309815
 20
126.7602372307
  0
LWPOLYLINE
  5
2B2
100
AcDbEntity
  8
0
100
AcDbPolyline
 62
7
  6
CONTINUOUS
 90
15
 70
0
 10
128.6022696834
 20
113.7811564996
 10
128.6022556824
 20
113.783598326
 10
128.6009089521
 20
113.8049315526
 10
128.5973851035
 20
113.8259878356
 10
128.5917140248
 20
113.8466011034
 10
128.5839707494
 20
113.8665088274
 10
128.5742468308
 20
113.8855110554
 10
128.5625734244
 20
113.9035380462
 10
128.548996492
 20
113.9204559486
 10
128.5337309544
 20
113.9359677388
 10
128.5170426371
 20
113.9498487776
 10
128.4990340155
 20
113.9620736367
 10
128.4799809057
 20
113.9725360682
 10
128.4603204085
 20
113.9811363718
 10
128.457666085
 20
113.9821457103
  0
LINE
  5
2B3
100
AcDbEntity
  8
0
100
AcDbLine
 62
250
  6
CONTINUOUS
 10
128.2188611513
 20
113.8416974755
 11
128.2188611513
 21
125.1508804572
  0
LINE
  5
2B4
100
AcDbEntity
  8
0
100
AcDbLine
 62
7
  6
CONTINUOUS
 10
128.2749931913
 20
113.9219148829
 11
128.2749931913
 21
125.2310978645
  0
LINE
  5
2B5
100
AcDbEntity
  8
0
100
AcDbLine
 62
250
  6
CONTINUOUS
 10
128.5321113006
 20
135.3278322062
 11
128.5321113006
 21
132.1720391523
  0
LINE
  5
2B6
100
AcDbEntity
  8
0
100
AcDbLine
 62
250
  6
CONTINUOUS
 10
128.5321113006
 20
126.3821762075
 11
128.5321113006
 21
125.6801193247
  0
LINE
  5
2B7
100
AcDbEntity
  8
0
100
AcDbLine
 62
250
  6
CONTINUOUS
 10
128.5321113006
 20
113.6870445304
 11
128.5321113006
 21
112.9849876476
  0
LINE
  5
2B8
100
AcDbEntity
  8
0
100
AcDbLine
 62
250
  6
CONTINUOUS
 10
128.5321113006
 20
107.1951247028
 11
128.5321113006
 21
99.9384266704
  0
LINE
  5
2B9
100
AcDbEntity
  8
0
100
AcDbLine
 62
7
  6
CONTINUOUS
 10
128.6022763505
 20
135.2873197857
 11
128.6022763505
 21
132.2723109206
  0
LINE
  5
2BA
100
AcDbEntity
  8
0
100
AcDbLine
 62
7
  6
CONTINUOUS
 10
128.6022763505
 20
126.4824479668
 11
128.6022763505
 21
125.7865154661
  0
LINE
  5
2BB
100
AcDbEntity
  8
0
100
AcDbLine
 62
7
  6
CONTINUOUS
 10
128.6022763505
 20
113.7811930563
 11
128.6022763505
 21
113.085259416
  0
LINE
  5
2BC
100
AcDbEntity
  8
0
100
AcDbLine
 62
7
  6
CONTINUOUS
 10
128.6022763505
 20
107.2953964622
 11
128.6022763505
 21
99.89791425
  0
LWPOLYLINE
  5
2BD
100
AcDbEntity
  8
0
100
AcDbPolyline
 62
250
  6
CONTINUOUS
 90
15
 70
0
 10
128.5321113006
 20
112.9849876476
 10
128.5318571148
 20
112.9695210976
 10
128.5307585147
 20
112.9551349101
 10
128.5289107268
 20
112.9418246519
 10
128.5264134987
 20
112.9295988386
 10
128.5233549726
 20
112.9184053462
 10
128.5197973388
 20
112.9081447449
 10
128.5158125114
 20
112.898784619
 10
128.5114719859
 20
112.8902935005
 10
128.5068119194
 20
112.8825854383
 10
128.5018826616
 20
112.8756203624
 10
128.4967418626
 20
112.869370614
 10
128.4914198981
 20
112.8637789938
 10
128.4859556929
 20
112.8588064373
 10
128.480395248
 20
112.8544219554
  0
LWPOLYLINE
  5
2BE
100
AcDbEntity
  8
0
100
AcDbPolyline
 62
250
  6
CONTINUOUS
 90
9
 70
0
 10
128.6022763449
 20
113.7811642184
 10
128.6021062181
 20
113.7762112697
 10
128.599848838
 20
113.7623994264
 10
128.5949439802
 20
113.7486710319
 10
128.5874030743
 20
113.7352152539
 10
128.5772646502
 20
113.7221674608
 10
128.5645977112
 20
113.7096802158
 10
128.5495028603
 20
113.697921191
 10
128.5321113006
 20
113.6870445304
  0
LWPOLYLINE
  5
2BF
100
AcDbEntity
  8
0
100
AcDbPolyline
 62
250
  6
CONTINUOUS
 90
9
 70
0
 10
128.6022762915
 20
107.295297325
 10
128.6020447078
 20
107.289184039
 10
128.5995944337
 20
107.2743098347
 10
128.5944943178
 20
107.2596615591
 10
128.5867990042
 20
107.2453961581
 10
128.5765909429
 20
107.2316664758
 10
128.5639795062
 20
107.218619616
 10
128.5490998169
 20
107.2063953669
 10
128.5321113006
 20
107.1951247028
  0
LWPOLYLINE
  5
2C0
100
AcDbEntity
  8
0
100
AcDbPolyline
 62
250
  6
CONTINUOUS
 90
16
 70
0
 10
128.4580898314
 20
113.6554686613
 10
128.4594425928
 20
113.6761101628
 10
128.458840933
 20
113.6975534484
 10
128.4562929509
 20
113.719509928
 10
128.4518329391
 20
113.7416841053
 10
128.445520923
 20
113.7637775542
 10
128.4374418529
 20
113.785492935
 10
128.4277044604
 20
113.8065379969
 10
128.4164397948
 20
113.8266295113
 10
128.4037994597
 20
113.8454970827
 10
128.3899535727
 20
113.8628867881
 10
128.3750884755
 20
113.8785645942
 10
128.359404226
 20
113.8923195078
 10
128.3431119063
 20
113.9039664137
 10
128.3264307822
 20
113.9133485668
 10
128.3095853517
 20
113.9203397017
  0
LWPOLYLINE
  5
2C1
100
AcDbEntity
  8
0
100
AcDbPolyline
 62
250
  6
CONTINUOUS
 90
16
 70
0
 10
128.5321113006
 20
113.6870445304
 10
128.5334640607
 20
113.7076859953
 10
128.5328624061
 20
113.7291292473
 10
128.5303144341
 20
113.751085698
 10
128.5258544358
 20
113.7732598524
 10
128.5195424349
 20
113.7953532854
 10
128.5114633799
 20
113.8170686585
 10
128.5017260006
 20
113.8381137209
 10
128.4904613448
 20
113.8582052434
 10
128.4778210151
 20
113.8770728294
 10
128.4639751279
 20
113.8944625546
 10
128.4491100244
 20
113.9101403838
 10
128.4334257628
 20
113.9238953213
 10
128.4171334254
 20
113.9355422497
 10
128.4004522785
 20
113.9449244221
 10
128.3836068209
 20
113.9519155709
  0
LWPOLYLINE
  5
2C2
100
AcDbEntity
  8
0
100
AcDbPolyline
 62
250
  6
CONTINUOUS
 90
8
 70
0
 10
128.6020447176
 20
113.0790471238
 10
128.5995944655
 20
113.0641729124
 10
128.5944943672
 20
113.0495246233
 10
128.5867990642
 20
113.0352592036
 10
128.5765910048
 20
113.0215294986
 10
128.5639795596
 20
113.0084826137
 10
128.54909985
 20
112.996258338
 10
128.5321113006
 20
112.9849876474
  0
LINE
  5
2C3
100
AcDbEntity
  8
0
100
AcDbLine
 62
7
  6
CONTINUOUS
 10
155.9777828084
 20
84.7279700477
 11
151.9826294947
 21
87.0347096635
  0
LINE
  5
2C4
100
AcDbEntity
  8
0
100
AcDbLine
 62
7
  6
CONTINUOUS
 10
140.0678802317
 20
93.9141483976
 11
136.072726918
 21
96.2208880134
  0
LINE
  5
2C5
100
AcDbEntity
  8
0
100
AcDbLine
 62
7
  6
CONTINUOUS
 10
156.0838488256
 20
84.9116817782
 11
152.194761529
 21
87.1571920415
  0
LINE
  5
2C6
100
AcDbEntity
  8
0
100
AcDbLine
 62
7
  6
CONTINUOUS
 10
140.1739462489
 20
94.0978601281
 11
136.2848589523
 21
96.3433703914
  0
LINE
  5
2C7
100
AcDbEntity
  8
0
100
AcDbLine
 62
7
  6
CONTINUOUS
 10
156.331336199
 20
84.9321073444
 11
152.3361828853
 21
87.2388469602
  0
LINE
  5
2C8
100
AcDbEntity
  8
0
100
AcDbLine
 62
7
  6
CONTINUOUS
 10
140.4214336223
 20
94.1182856943
 11
136.4262803086
 21
96.4250253101
  0
LINE
  5
2C9
100
AcDbEntity
  8
0
100
AcDbLine
 62
7
  6
CONTINUOUS
 10
156.4374022161
 20
85.1158190749
 11
152.5483149196
 21
87.3613293382
  0
LINE
  5
2CA
100
AcDbEntity
  8
0
100
AcDbLine
 62
7
  6
CONTINUOUS
 10
140.5274996394
 20
94.3019974248
 11
136.6384123429
 21
96.5475076881
  0
LINE
  5
2CB
100
AcDbEntity
  8
0
100
AcDbLine
 62
7
  6
CONTINUOUS
 10
156.6848895896
 20
85.136244641
 11
152.6897362759
 21
87.4429842569
  0
LINE
  5
2CC
100
AcDbEntity
  8
0
100
AcDbLine
 62
7
  6
CONTINUOUS
 10
140.7749870129
 20
94.3224229909
 11
136.7798336992
 21
96.6291626067
  0
LINE
  5
2CD
100
AcDbEntity
  8
0
100
AcDbLine
 62
7
  6
CONTINUOUS
 10
156.7909556067
 20
85.3199563716
 11
152.9018683102
 21
87.5654666349
  0
LINE
  5
2CE
100
AcDbEntity
  8
0
100
AcDbLine
 62
7
  6
CONTINUOUS
 10
140.88105303
 20
94.5061347214
 11
136.9919657335
 21
96.7516449847
  0
LINE
  5
2CF
100
AcDbEntity
  8
0
100
AcDbLine
 62
7
  6
CONTINUOUS
 10
157.0384429802
 20
85.3403819377
 11
153.0432896665
 21
87.6471215535
  0
LINE
  5
2D0
100
AcDbEntity
  8
0
100
AcDbLine
 62
7
  6
CONTINUOUS
 10
141.1285404035
 20
94.5265602876
 11
137.1333870898
 21
96.8332999034
  0
LINE
  5
2D1
100
AcDbEntity
  8
0
100
AcDbLine
 62
7
  6
CONTINUOUS
 10
157.1445089973
 20
85.5240936682
 11
153.2554217008
 21
87.7696039315
  0
LINE
  5
2D2
100
AcDbEntity
  8
0
100
AcDbLine
 62
7
  6
CONTINUOUS
 10
141.2346064206
 20
94.7102720181
 11
137.3455191241
 21
96.9557822814
  0
LINE
  5
2D3
100
AcDbEntity
  8
0
100
AcDbLine
 62
7
  6
CONTINUOUS
 10
157.3919963707
 20
85.5445192344
 11
153.396843057
 21
87.8512588502
  0
LINE
  5
2D4
100
AcDbEntity
  8
0
100
AcDbLine
 62
7
  6
CONTINUOUS
 10
141.4820937941
 20
94.7306975842
 11
137.4869404803
 21
97.0374372001
  0
LINE
  5
2D5
100
AcDbEntity
  8
0
100
AcDbLine
 62
7
  6
CONTINUOUS
 10
157.4980623879
 20
85.7282309649
 11
153.6089750914
 21
87.9737412282
  0
LINE
  5
2D6
100
AcDbEntity
  8
0
100
AcDbLine
 62
7
  6
CONTINUOUS
 10
141.5881598112
 20
94.9144093148
 11
137.6990725147
 21
97.1599195781
  0
LINE
  5
2D7
100
AcDbEntity
  8
0
100
AcDbLine
 62
7
  6
CONTINUOUS
 10
157.7455497613
 20
85.748656531
 11
153.7503964476
 21
88.0553961469
  0
LINE
  5
2D8
100
AcDbEntity
  8
0
100
AcDbLine
 62
7
  6
CONTINUOUS
 10
141.8356471846
 20
94.9348348809
 11
137.8404938709
 21
97.2415744967
  0
LINE
  5
2D9
100
AcDbEntity
  8
0
100
AcDbLine
 62
250
  6
CONTINUOUS
 10
158.0303287086
 20
85.7068126755
 11
153.7839914503
 21
88.1585945893
  0
LINE
  5
2DA
100
AcDbEntity
  8
0
100
AcDbLine
 62
250
  6
CONTINUOUS
 10
142.1204261319
 20
94.8929910254
 11
137.8740888736
 21
97.3447729392
  0
LINE
  5
2DB
100
AcDbEntity
  8
0
100
AcDbLine
 62
250
  6
CONTINUOUS
 10
158.0970010645
 20
85.7455145869
 11
153.8580386032
 21
88.1930383854
  0
LINE
  5
2DC
100
AcDbEntity
  8
0
100
AcDbLine
 62
250
  6
CONTINUOUS
 10
142.1870984878
 20
94.9316929368
 11
137.9481360265
 21
97.3792167353
  0
LINE
  5
2DD
100
AcDbEntity
  8
0
100
AcDbLine
 62
7
  6
CONTINUOUS
 10
139.5337377597
 20
97.8970426884
 11
143.3597391503
 21
95.6879574366
  0
LINE
  5
2DE
100
AcDbEntity
  8
0
100
AcDbLine
 62
7
  6
CONTINUOUS
 10
155.4436403364
 20
88.7108643386
 11
158.3575812302
 21
87.0283913868
  0
LWPOLYLINE
  5
2DF
100
AcDbEntity
  8
0
100
AcDbPolyline
 62
7
  6
CONTINUOUS
 90
8
 70
0
 10
128.2791219417
 20
113.8882449563
 10
128.2793340299
 20
113.8878370851
 10
128.2791036463
 20
113.8884530083
 10
128.278258154
 20
113.8911660812
 10
128.2771533424
 20
113.8959498491
 10
128.2761021377
 20
113.9025906123
 10
128.2753244101
 20
113.9109614754
 10
128.2749931899
 20
113.9219016073
  0
LWPOLYLINE
  5
2E0
100
AcDbEntity
  8
0
100
AcDbPolyline
 62
250
  6
CONTINUOUS
 90
3
 70
0
 10
128.480395248
 20
112.8544219554
 10
128.4747711276
 20
112.8505846079
 10
128.4738481429
 20
112.8500068472
  0
LWPOLYLINE
  5
2E1
100
AcDbEntity
  8
0
100
AcDbPolyline
 62
7
  6
CONTINUOUS
 90
13
 70
0
 10
128.4737832697
 20
112.8499667634
 10
128.4886274518
 20
112.8598415592
 10
128.5070059371
 20
112.874227724
 10
128.5241895873
 20
112.8902952424
 10
128.5399746827
 20
112.9079022666
 10
128.5542193847
 20
112.9269249807
 10
128.5668306103
 20
112.947289946
 10
128.5776776285
 20
112.9688494912
 10
128.5866280986
 20
112.9913872912
 10
128.59361257
 20
113.0147593559
 10
128.5985727995
 20
113.0388159479
 10
128.6014604468
 20
113.0633461541
 10
128.6022763376
 20
113.085213138
  0
LWPOLYLINE
  5
2E2
100
AcDbEntity
  8
0
100
AcDbPolyline
 62
250
  6
CONTINUOUS
 90
9
 70
0
 10
128.2188611513
 20
113.8416974755
 10
128.2324519644
 20
113.8507140067
 10
128.2443557158
 20
113.8604934059
 10
128.2544448652
 20
113.8709308937
 10
128.2626113142
 20
113.8819146396
 10
128.2687675651
 20
113.8933269604
 10
128.2728476579
 20
113.905045581
 10
128.2748078771
 20
113.9169449444
 10
128.2749931899
 20
113.9219016073
  0
LINE
  5
2E3
100
AcDbEntity
  8
0
100
AcDbLine
 62
250
  6
CONTINUOUS
 10
127.7995775781
 20
112.5319778054
 11
128.5321113006
 21
112.9849876476
  0
LINE
  5
2E4
100
AcDbEntity
  8
0
100
AcDbLine
 62
7
  6
CONTINUOUS
 10
127.7400601421
 20
112.3962213405
 11
128.4738481727
 21
112.8500068657
  0
LINE
  5
2E5
100
AcDbEntity
  8
0
100
AcDbLine
 62
250
  6
CONTINUOUS
 10
128.3836068209
 20
113.9519155709
 11
128.3095853517
 21
113.9203397017
  0
LINE
  5
2E6
100
AcDbEntity
  8
0
100
AcDbLine
 62
250
  6
CONTINUOUS
 10
128.5321113006
 20
113.6870445304
 11
128.4580898314
 21
113.6554686613
  0
LWPOLYLINE
  5
2E7
100
AcDbEntity
  8
0
100
AcDbPolyline
 62
250
  6
CONTINUOUS
 90
5
 70
0
 10
128.3095853517
 20
113.9203397017
 10
128.2997086859
 20
113.9161872189
 10
128.2901140653
 20
113.9130275364
 10
128.2808649097
 20
113.910879497
 10
128.2753969356
 20
113.9101808665
  0
LWPOLYLINE
  5
2E8
100
AcDbEntity
  8
0
100
AcDbPolyline
 62
250
  6
CONTINUOUS
 90
19
 70
0
 10
128.4580898314
 20
113.6554686613
 10
128.4370802611
 20
113.647513126
 10
128.4166311389
 20
113.6416929912
 10
128.3967424648
 20
113.6380082569
 10
128.3772950749
 20
113.6364614518
 10
128.3584081331
 20
113.6370500472
 10
128.3404391311
 20
113.6397664566
 10
128.3234605643
 20
113.644584894
 10
128.3073999372
 20
113.6515311456
 10
128.2923972547
 20
113.660674983
 10
128.2783850901
 20
113.671998178
 10
128.2654308701
 20
113.685518959
 10
128.2538768791
 20
113.7013617826
 10
128.2436809588
 20
113.7197063957
 10
128.2348852676
 20
113.7403730516
 10
128.2279585653
 20
113.7629469659
 10
128.2230571051
 20
113.7872898773
 10
128.2200246338
 20
113.8135400472
 10
128.2188611513
 20
113.8416974755
  0
LWPOLYLINE
  5
2E9
100
AcDbEntity
  8
0
100
AcDbPolyline
 62
250
  6
CONTINUOUS
 90
9
 70
0
 10
128.4418309814
 20
107.5731857262
 10
128.4364309052
 20
107.5760356806
 10
128.422325161
 20
107.5813493582
 10
128.4070901378
 20
107.5842552636
 10
128.3908890682
 20
107.5847222605
 10
128.3738955353
 20
107.5827453443
 10
128.3562916131
 20
107.5783456951
 10
128.3382659153
 20
107.5715704511
 10
128.3200115749
 20
107.5624922035
  0
LINE
  5
2EA
100
AcDbEntity
  8
0
100
AcDbLine
 62
250
  6
CONTINUOUS
 10
127.7083059503
 20
107.9156833647
 11
128.3200115749
 21
107.5624922035
  0
LINE
  5
2EB
100
AcDbEntity
  8
0
100
AcDbLine
 62
7
  6
CONTINUOUS
 10
127.7083059503
 20
107.9967139809
 11
128.441932474
 21
107.5731272207
  0
LWPOLYLINE
  5
2EC
100
AcDbEntity
  8
0
100
AcDbPolyline
 62
250
  6
CONTINUOUS
 90
19
 70
0
 10
128.3200115749
 20
107.5624922035
 10
128.3389432809
 20
107.5509042543
 10
128.357486989
 20
107.5376575275
 10
128.3755102508
 20
107.5229136944
 10
128.3928183328
 20
107.5069113856
 10
128.4093825877
 20
107.4897576592
 10
128.4253143889
 20
107.4713696284
 10
128.4405649165
 20
107.4517847299
 10
128.4549520476
 20
107.4312172964
 10
128.4683709463
 20
107.409811728
 10
128.4806528755
 20
107.3878521944
 10
128.4917920059
 20
107.3653657122
 10
128.501873611
 20
107.3420959674
 10
128.5107940174
 20
107.318069184
 10
128.5183470451
 20
107.2935901909
 10
128.5243954421
 20
107.2688284082
 10
128.5287962277
 20
107.2439947528
 10
128.5314099699
 20
107.2193402575
 10
128.5321113006
 20
107.1951247028
  0
LWPOLYLINE
  5
2ED
100
AcDbEntity
  8
0
100
AcDbPolyline
 62
250
  6
CONTINUOUS
 90
10
 70
0
 10
141.4224673461
 20
93.8655004918
 10
141.4247728415
 20
93.8600710026
 10
141.4266504647
 20
93.8549578068
 10
141.4280697161
 20
93.8501964187
 10
141.4289958656
 20
93.8458434336
 10
141.4294089634
 20
93.841909906
 10
141.4292768254
 20
93.8383872625
 10
141.4285446625
 20
93.8353336504
 10
141.4271573822
 20
93.8328196568
 10
141.4263918379
 20
93.8319649354
  0
LINE
  5
2EE
100
AcDbEntity
  8
CURVE
100
AcDbLine
 62
250
  6
CONTINUOUS
 10
141.839019226
 20
86.9198167987
 11
141.4581131442
 21
88.3125557636
  0
LINE
  5
2EF
100
AcDbEntity
  8
CURVE
100
AcDbLine
 62
250
  6
CONTINUOUS
 10
141.5422959536
 20
88.8872242278
 11
141.8635612177
 21
87.7045389733
  0
LINE
  5
2F0
100
AcDbEntity
  8
CURVE
100
AcDbLine
 62
250
  6
CONTINUOUS
 10
139.6712946608
 20
88.1714337948
 11
139.1781695257
 21
90.2522411978
  0
LINE
  5
2F1
100
AcDbEntity
  8
CURVE
100
AcDbLine
 62
250
  6
CONTINUOUS
 10
139.5308882449
 20
90.04858583
 11
139.8273959508
 21
88.6410865265
  0
LINE
  5
2F2
100
AcDbEntity
  8
CURVE
100
AcDbLine
 62
250
  6
CONTINUOUS
 10
142.5095096979
 20
88.3287671339
 11
142.6549667417
 21
86.4486989294
  0
LINE
  5
2F3
100
AcDbEntity
  8
CURVE
100
AcDbLine
 62
250
  6
CONTINUOUS
 10
142.3373290699
 20
86.6320989402
 11
142.2706197437
 21
87.8385354569
  0
LINE
  5
2F4
100
AcDbEntity
  8
CURVE
100
AcDbLine
 62
250
  6
CONTINUOUS
 10
140.5779282803
 20
89.4441458101
 11
140.5779282803
 21
87.6479549057
  0
LINE
  5
2F5
100
AcDbEntity
  8
CURVE
100
AcDbLine
 62
250
  6
CONTINUOUS
 10
140.9026233488
 20
87.4604800424
 11
140.9026233488
 21
89.2566709469
  0
LINE
  5
2F6
100
AcDbEntity
  8
0
100
AcDbLine
 62
250
  6
CONTINUOUS
 10
128.3200115749
 20
107.5624922035
 11
127.7083059503
 21
107.2092998296
  0
LINE
  5
2F7
100
AcDbEntity
  8
0
100
AcDbLine
 62
250
  6
CONTINUOUS
 10
128.5321113006
 20
107.1951247028
 11
127.7995775781
 21
106.77216746
  0
LWPOLYLINE
  5
2F8
100
AcDbEntity
  8
CURVE
100
AcDbPolyline
 62
250
  6
CONTINUOUS
 90
5
 70
0
 10
144.7592065395
 20
85.7783682687
 10
144.7645624792
 20
85.7583124874
 10
144.7696599216
 20
85.7383010259
 10
144.7745437963
 20
85.7183266122
 10
144.7792590327
 20
85.6983819737
  0
LINE
  5
2F9
100
AcDbEntity
  8
CURVE
100
AcDbLine
 62
250
  6
CONTINUOUS
 10
143.50796059
 20
87.7522741023
 11
143.9852278798
 21
85.6806228204
  0
LINE
  5
2FA
100
AcDbEntity
  8
CURVE
100
AcDbLine
 62
250
  6
CONTINUOUS
 10
144.7792590327
 20
85.6983819737
 11
144.7883633092
 21
85.6585529334
  0
LINE
  5
2FB
100
AcDbEntity
  8
CURVE
100
AcDbLine
 62
250
  6
CONTINUOUS
 10
144.7883633092
 20
85.6585529334
 11
144.8546293541
 21
85.3638239479
  0
LWPOLYLINE
  5
2FC
100
AcDbEntity
  8
CURVE
100
AcDbPolyline
 62
250
  6
CONTINUOUS
 90
37
 70
0
 10
145.0872012643
 20
85.5941936168
 10
145.0839739611
 20
85.608756996
 10
145.0806529957
 20
85.6233393155
 10
145.0772219865
 20
85.6379410679
 10
145.0736645523
 20
85.6525627457
 10
145.0699643117
 20
85.6672048417
 10
145.0661048835
 20
85.6818678483
 10
145.0620698862
 20
85.6965522582
 10
145.0578429385
 20
85.7112585641
 10
145.0534076591
 20
85.7259872584
 10
145.0487476666
 20
85.7407388339
 10
145.0438465797
 20
85.7555137832
 10
145.0403374021
 20
85.7656588053
 10
145.0367003535
 20
85.7758081845
 10
145.0329286538
 20
85.7859550534
 10
145.0290155227
 20
85.7960925448
 10
145.0249541802
 20
85.8062137914
 10
145.0207378462
 20
85.8163119258
 10
145.0163597403
 20
85.8263800808
 10
145.0118130826
 20
85.8364113891
 10
145.0070910928
 20
85.8463989834
 10
145.0021869908
 20
85.8563359964
 10
144.9970939964
 20
85.8662155608
 10
144.9918053296
 20
85.8760308093
 10
144.986785675
 20
85.8849568874
 10
144.9816018021
 20
85.8938083221
 10
144.9762593316
 20
85.9025701861
 10
144.9707638843
 20
85.9112275523
 10
144.9651210811
 20
85.9197654932
 10
144.9593365426
 20
85.9281690818
 10
144.9534158897
 20
85.9364233907
 10
144.9473647431
 20
85.9445134927
 10
144.9411887238
 20
85.9524244605
 10
144.9348934523
 20
85.9601413669
 10
144.9284845496
 20
85.9676492846
 10
144.9219676365
 20
85.9749332863
 10
144.9153483337
 20
85.9819784449
  0
LINE
  5
2FD
100
AcDbEntity
  8
CURVE
100
AcDbLine
 62
250
  6
CONTINUOUS
 10
144.8546293541
 20
85.3638239479
 11
144.9011875584
 21
85.1517588414
  0
LINE
  5
2FE
100
AcDbEntity
  8
CURVE
100
AcDbLine
 62
250
  6
CONTINUOUS
 10
145.0934404089
 20
85.5651217086
 11
145.0872012643
 21
85.5941936168
  0
LINE
  5
2FF
100
AcDbEntity
  8
CURVE
100
AcDbLine
 62
250
  6
CONTINUOUS
 10
143.6430133998
 20
85.8782131722
 11
143.5589002235
 21
86.2853408362
  0
LINE
  5
300
100
AcDbEntity
  8
CURVE
100
AcDbLine
 62
250
  6
CONTINUOUS
 10
145.1176711902
 20
85.4480117991
 11
145.0934404089
 21
85.5651217086
  0
LINE
  5
301
100
AcDbEntity
  8
CURVE
100
AcDbLine
 62
250
  6
CONTINUOUS
 10
145.2135061403
 20
84.9714300065
 11
145.1986921447
 21
85.0441068604
  0
LINE
  5
302
100
AcDbEntity
  8
CURVE
100
AcDbLine
 62
250
  6
CONTINUOUS
 10
145.1986921447
 20
85.0441068604
 11
145.1176711902
 21
85.4480117991
  0
LINE
  5
303
100
AcDbEntity
  8
CURVE
100
AcDbLine
 62
250
  6
CONTINUOUS
 10
143.4940102493
 20
86.6002615773
 11
143.3448085703
 21
87.3529580313
  0
LWPOLYLINE
  5
304
100
AcDbEntity
  8
CURVE
100
AcDbPolyline
 62
250
  6
CONTINUOUS
 90
58
 70
0
 10
144.8309785744
 20
86.4684502003
 10
144.8310274899
 20
86.4600948603
 10
144.8309467148
 20
86.451790365
 10
144.8307282027
 20
86.4435502636
 10
144.830363907
 20
86.4353881055
 10
144.8298457813
 20
86.4273174397
 10
144.829165779
 20
86.4193518156
 10
144.8283158537
 20
86.4115047824
 10
144.8272879589
 20
86.4037898893
 10
144.8260740481
 20
86.3962206856
 10
144.8246660748
 20
86.3888107204
 10
144.8230559924
 20
86.3815735431
 10
144.8212357546
 20
86.3745227029
 10
144.8191973149
 20
86.367671749
 10
144.8169326266
 20
86.3610342306
 10
144.8144336434
 20
86.354623697
 10
144.8116923188
 20
86.3484536974
 10
144.8089647653
 20
86.3430263745
 10
144.8060317774
 20
86.3378189787
 10
144.8028978251
 20
86.332838435
 10
144.7995673784
 20
86.3280916684
 10
144.7960449073
 20
86.3235856037
 10
144.7923348819
 20
86.3193271659
 10
144.7884417722
 20
86.31532328
 10
144.784370048
 20
86.3115808707
 10
144.7801241796
 20
86.3081068632
 10
144.7757086368
 20
86.3049081822
 10
144.7711278897
 20
86.3019917527
 10
144.7663864084
 20
86.2993644997
 10
144.7614886627
 20
86.2970333481
 10
144.7564391227
 20
86.2950052228
 10
144.751011774
 20
86.2932161341
 10
144.7454316036
 20
86.2917555054
 10
144.7397063024
 20
86.2906140993
 10
144.733843561
 20
86.2897826783
 10
144.7278510703
 20
86.289252005
 10
144.721736521
 20
86.289012842
 10
144.7155076039
 20
86.289055952
 10
144.7091720098
 20
86.2893720975
 10
144.7027374294
 20
86.2899520411
 10
144.6962115535
 20
86.2907865453
 10
144.6896020728
 20
86.2918663729
 10
144.6829166782
 20
86.2931822863
 10
144.6761630604
 20
86.2947250482
 10
144.6693489101
 20
86.2964854212
 10
144.6624819181
 20
86.2984541678
 10
144.6555697753
 20
86.3006220507
 10
144.6486201723
 20
86.3029798324
 10
144.6416407999
 20
86.3055182755
 10
144.6346393489
 20
86.3082281427
 10
144.6276235101
 20
86.3111001964
 10
144.6206009742
 20
86.3141251994
 10
144.613579432
 20
86.3172939141
 10
144.6065665743
 20
86.3205971033
 10
144.5995700917
 20
86.3240255294
 10
144.5925976752
 20
86.3275699551
 10
144.5856570155
 20
86.3312211429
 10
144.5787558032
 20
86.3349698555
  0
LINE
  5
305
100
AcDbEntity
  8
0
100
AcDbLine
 62
250
  6
CONTINUOUS
 10
143.3669467591
 20
95.5445077832
 11
143.3669467591
 21
95.1371381454
  0
LINE
  5
306
100
AcDbEntity
  8
0
100
AcDbLine
 62
7
  6
CONTINUOUS
 10
143.418317794
 20
95.6110852901
 11
143.418317794
 21
95.1676834401
  0
LINE
  5
307
100
AcDbEntity
  8
CURVE
100
AcDbLine
 62
250
  6
CONTINUOUS
 10
144.0805741294
 20
87.400670064
 11
144.0805741294
 21
85.6255707506
  0
LINE
  5
308
100
AcDbEntity
  8
CURVE
100
AcDbLine
 62
250
  6
CONTINUOUS
 10
144.3931959899
 20
86.4421097661
 11
144.3931959899
 21
86.9351697128
  0
LINE
  5
309
100
AcDbEntity
  8
CURVE
100
AcDbLine
 62
250
  6
CONTINUOUS
 10
144.4039623784
 20
85.4388504287
 11
144.4039623784
 21
86.1417383066
  0
LINE
  5
30A
100
AcDbEntity
  8
CURVE
100
AcDbLine
 62
250
  6
CONTINUOUS
 10
144.9153483337
 20
85.9819784449
 11
144.9153483337
 21
85.9925917327
  0
LINE
  5
30B
100
AcDbEntity
  8
CURVE
100
AcDbLine
 62
250
  6
CONTINUOUS
 10
141.4581131442
 20
88.3125557636
 11
141.3880436468
 21
87.1802044462
  0
LINE
  5
30C
100
AcDbEntity
  8
CURVE
100
AcDbLine
 62
250
  6
CONTINUOUS
 10
141.0774167027
 20
87.3595565506
 11
141.2178697876
 21
89.07454383
  0
LINE
  5
30D
100
AcDbEntity
  8
0
100
AcDbLine
 62
7
  6
CONTINUOUS
 10
135.5497220374
 20
95.8865461823
 11
135.5777521711
 21
95.9350957981
  0
LINE
  5
30E
100
AcDbEntity
  8
0
100
AcDbLine
 62
7
  6
CONTINUOUS
 10
135.8252395446
 20
95.9555213642
 11
135.9313055617
 21
96.1392330947
  0
LINE
  5
30F
100
AcDbEntity
  8
0
100
AcDbLine
 62
7
  6
CONTINUOUS
 10
136.1787929352
 20
96.1596586609
 11
136.2848589523
 21
96.3433703914
  0
LINE
  5
310
100
AcDbEntity
  8
0
100
AcDbLine
 62
7
  6
CONTINUOUS
 10
136.5323463257
 20
96.3637959576
 11
136.6384123429
 21
96.5475076881
  0
LINE
  5
311
100
AcDbEntity
  8
0
100
AcDbLine
 62
7
  6
CONTINUOUS
 10
136.8858997163
 20
96.5679332542
 11
136.9919657335
 21
96.7516449847
  0
LINE
  5
312
100
AcDbEntity
  8
0
100
AcDbLine
 62
7
  6
CONTINUOUS
 10
137.2394531069
 20
96.7720705509
 11
137.3455191241
 21
96.9557822814
  0
LINE
  5
313
100
AcDbEntity
  8
0
100
AcDbLine
 62
7
  6
CONTINUOUS
 10
137.5930064975
 20
96.9762078475
 11
137.6990725147
 21
97.1599195781
  0
LINE
  5
314
100
AcDbEntity
  8
SMUSSO
100
AcDbLine
 62
7
  6
CONTINUOUS
 10
173.9064402304
 20
127.9000023877
 11
177.9683732152
 21
130.2452962898
  0
LINE
  5
315
100
AcDbEntity
  8
ASSI
100
AcDbLine
 62
7
  6
CONTINUOUS
 10
173.9064402304
 20
127.9000023877
 11
177.9683732152
 21
130.2452962898
  0
LINE
  5
316
100
AcDbEntity
  8
0
100
AcDbLine
 62
250
  6
CONTINUOUS
 10
126.3055851167
 20
100.0113864319
 11
127.5856607405
 21
100.7504969853
  0
LINE
  5
317
100
AcDbEntity
  8
ASSI
100
AcDbLine
 62
250
  6
CONTINUOUS
 10
126.3055851167
 20
100.0113864319
 11
127.5856607405
 21
100.7504969853
  0
LINE
  5
318
100
AcDbEntity
  8
0
100
AcDbLine
 62
250
  6
CONTINUOUS
 10
126.658277269
 20
99.4005057053
 11
127.9383528928
 21
100.1396162587
  0
LINE
  5
319
100
AcDbEntity
  8
ASSI
100
AcDbLine
 62
250
  6
CONTINUOUS
 10
126.658277269
 20
99.4005057053
 11
127.9383528928
 21
100.1396162587
  0
LWPOLYLINE
  5
31A
100
AcDbEntity
  8
0
100
AcDbPolyline
 62
250
  6
CONTINUOUS
 90
6
 70
0
 10
128.4576574756
 20
113.9821489289
 10
128.4493862371
 20
113.9847913662
 10
128.4335306057
 20
113.9875573617
 10
128.4170228774
 20
113.9875849536
 10
128.4000975789
 20
113.9848737473
 10
128.3829951699
 20
113.9794622585
  0
LINE
  5
31B
100
AcDbEntity
  8
0
100
AcDbLine
 62
250
  6
CONTINUOUS
 10
128.2787172461
 20
113.9318778652
 11
128.3095853517
 21
113.9203397017
  0
LINE
  5
31C
100
AcDbEntity
  8
0
100
AcDbLine
 62
250
  6
CONTINUOUS
 10
128.2749931913
 20
114.0198322281
 11
128.3829951699
 21
113.9794622585
  0
LINE
  5
31D
100
AcDbEntity
  8
0
100
AcDbLine
 62
7
  6
CONTINUOUS
 10
128.2749931913
 20
114.0504268595
 11
128.4576574756
 21
113.9821489289
  0
LWPOLYLINE
  5
31E
100
AcDbEntity
  8
0
100
AcDbPolyline
 62
250
  6
CONTINUOUS
 90
16
 70
0
 10
128.3829951699
 20
113.9794622585
 10
128.3865213815
 20
113.9779722276
 10
128.3895669694
 20
113.9763875217
 10
128.3921319335
 20
113.9747081409
 10
128.394226433
 20
113.9729170976
 10
128.3958403088
 20
113.9710313794
 10
128.3969430834
 20
113.9691019483
 10
128.3975293428
 20
113.9671284946
 10
128.397604501
 20
113.9651113281
 10
128.3971543221
 20
113.96310234
 10
128.3961661304
 20
113.9610969151
 10
128.3946526015
 20
113.9590996687
 10
128.392637527
 20
113.9571763374
 10
128.3901288373
 20
113.9553488334
 10
128.3871186019
 20
113.9535952446
 10
128.3836068209
 20
113.9519155709
  0
LINE
  5
31F
100
AcDbEntity
  8
SMUSSO
100
AcDbLine
 62
7
  6
CONTINUOUS
 10
111.2484863905
 20
163.2609523006
 11
111.248861698
 21
163.2603159391
  0
LINE
  5
320
100
AcDbEntity
  8
ASSI
100
AcDbLine
 62
7
  6
CONTINUOUS
 10
111.2484863905
 20
163.2609523006
 11
111.248861698
 21
163.2603159391
  0
LINE
  5
321
100
AcDbEntity
  8
SMUSSO
100
AcDbLine
 62
7
  6
CONTINUOUS
 10
173.9060778002
 20
54.7348343019
 11
173.9064402304
 21
54.7341928642
  0
LINE
  5
322
100
AcDbEntity
  8
ASSI
100
AcDbLine
 62
7
  6
CONTINUOUS
 10
173.9060778002
 20
54.7348343019
 11
173.9064402304
 21
54.7341928642
  0
LINE
  5
323
100
AcDbEntity
  8
CURVE
100
AcDbLine
 62
250
  6
CONTINUOUS
 10
143.3448085703
 20
87.3529580313
 11
143.1831381076
 21
86.7797552558
  0
LINE
  5
324
100
AcDbEntity
  8
CURVE
100
AcDbLine
 62
250
  6
CONTINUOUS
 10
139.8273959508
 20
88.6410865265
 11
140.1329604146
 21
89.7009569049
  0
LINE
  5
325
100
AcDbEntity
  8
0
100
AcDbLine
 62
250
  6
CONTINUOUS
 10
141.4162063848
 20
93.8465195327
 11
141.4224673461
 21
93.8655004918
  0
LINE
  5
326
100
AcDbEntity
  8
CURVE
100
AcDbLine
 62
250
  6
CONTINUOUS
 10
140.4574339904
 20
89.5136099289
 11
139.9574322085
 21
88.0062215609
  0
LINE
  5
327
100
AcDbEntity
  8
0
100
AcDbLine
 62
7
  6
CONTINUOUS
 10
139.4388093339
 20
93.641035919
 11
139.4668394677
 21
93.6895855348
  0
LINE
  5
328
100
AcDbEntity
  8
0
100
AcDbLine
 62
7
  6
CONTINUOUS
 10
139.7143268411
 20
93.7100111009
 11
139.8203928583
 21
93.8937228314
  0
LINE
  5
329
100
AcDbEntity
  8
0
100
AcDbLine
 62
7
  6
CONTINUOUS
 10
140.0678802317
 20
93.9141483976
 11
140.1739462489
 21
94.0978601281
  0
LINE
  5
32A
100
AcDbEntity
  8
0
100
AcDbLine
 62
7
  6
CONTINUOUS
 10
140.4214336223
 20
94.1182856943
 11
140.5274996394
 21
94.3019974248
  0
LINE
  5
32B
100
AcDbEntity
  8
0
100
AcDbLine
 62
7
  6
CONTINUOUS
 10
140.7749870129
 20
94.3224229909
 11
140.88105303
 21
94.5061347214
  0
LINE
  5
32C
100
AcDbEntity
  8
0
100
AcDbLine
 62
7
  6
CONTINUOUS
 10
141.1285404035
 20
94.5265602876
 11
141.2346064206
 21
94.7102720181
  0
LINE
  5
32D
100
AcDbEntity
  8
0
100
AcDbLine
 62
7
  6
CONTINUOUS
 10
141.4820937941
 20
94.7306975842
 11
141.5881598112
 21
94.9144093148
  0
LINE
  5
32E
100
AcDbEntity
  8
SMUSSO
100
AcDbLine
 62
7
  6
CONTINUOUS
 10
174.6139774997
 20
126.6745118903
 11
178.6759104845
 21
129.0198057924
  0
LINE
  5
32F
100
AcDbEntity
  8
ASSI
100
AcDbLine
 62
7
  6
CONTINUOUS
 10
174.6139774997
 20
126.6745118903
 11
178.6759104845
 21
129.0198057924
  0
LINE
  5
330
100
AcDbEntity
  8
CURVE
100
AcDbLine
 62
250
  6
CONTINUOUS
 10
143.1167199074
 20
86.540650209
 11
143.0271242295
 21
86.2338198602
  0
LINE
  5
331
100
AcDbEntity
  8
CURVE
100
AcDbLine
 62
250
  6
CONTINUOUS
 10
142.7059523034
 20
86.4192605051
 11
143.1938579132
 21
87.9336330513
  0
LINE
  5
332
100
AcDbEntity
  8
CURVE
100
AcDbLine
 62
250
  6
CONTINUOUS
 10
141.8635612177
 20
87.7045389733
 11
142.1882562863
 21
88.5142548275
  0
LINE
  5
333
100
AcDbEntity
  8
CURVE
100
AcDbLine
 62
250
  6
CONTINUOUS
 10
142.2706197437
 20
87.8385354569
 11
141.8845571027
 21
86.8935237995
  0
LINE
  5
334
100
AcDbEntity
  8
SMUSSO
100
AcDbLine
 62
7
  6
CONTINUOUS
 10
172.8965410828
 20
126.822089053
 11
173.9060778002
 21
127.8753836488
  0
LINE
  5
335
100
AcDbEntity
  8
ASSI
100
AcDbLine
 62
7
  6
CONTINUOUS
 10
172.8965410828
 20
126.822089053
 11
173.9060778002
 21
127.8753836488
  0
LINE
  5
336
100
AcDbEntity
  8
0
100
AcDbLine
 62
7
  6
CONTINUOUS
 10
135.5777521711
 20
95.9350957981
 11
135.7191735274
 21
96.0167507167
  0
LINE
  5
337
100
AcDbEntity
  8
0
100
AcDbLine
 62
7
  6
CONTINUOUS
 10
135.9313055617
 20
96.1392330947
 11
136.072726918
 21
96.2208880134
  0
LINE
  5
338
100
AcDbEntity
  8
0
100
AcDbLine
 62
7
  6
CONTINUOUS
 10
136.2848589523
 20
96.3433703914
 11
136.4262803086
 21
96.4250253101
  0
LINE
  5
339
100
AcDbEntity
  8
0
100
AcDbLine
 62
7
  6
CONTINUOUS
 10
136.6384123429
 20
96.5475076881
 11
136.7798336992
 21
96.6291626067
  0
LINE
  5
33A
100
AcDbEntity
  8
0
100
AcDbLine
 62
7
  6
CONTINUOUS
 10
136.9919657335
 20
96.7516449847
 11
137.1333870898
 21
96.8332999034
  0
LINE
  5
33B
100
AcDbEntity
  8
0
100
AcDbLine
 62
7
  6
CONTINUOUS
 10
137.3455191241
 20
96.9557822814
 11
137.4869404803
 21
97.0374372001
  0
LINE
  5
33C
100
AcDbEntity
  8
0
100
AcDbLine
 62
7
  6
CONTINUOUS
 10
137.6990725147
 20
97.1599195781
 11
137.8404938709
 21
97.2415744967
  0
LINE
  5
33D
100
AcDbEntity
  8
0
100
AcDbLine
 62
7
  6
CONTINUOUS
 10
135.3220384481
 20
96.0180078332
 11
137.8740888736
 21
97.3447729392
  0
LINE
  5
33E
100
AcDbEntity
  8
SMUSSO
100
AcDbLine
 62
7
  6
CONTINUOUS
 10
173.1755170169
 20
126.3388885615
 11
174.5924761478
 21
126.6865068377
  0
LINE
  5
33F
100
AcDbEntity
  8
ASSI
100
AcDbLine
 62
7
  6
CONTINUOUS
 10
173.1755170169
 20
126.3388885615
 11
174.5924761478
 21
126.6865068377
  0
LWPOLYLINE
  5
340
100
AcDbEntity
  8
0
100
AcDbPolyline
 62
250
  6
CONTINUOUS
 90
9
 70
0
 10
128.4418309814
 20
126.7602372308
 10
128.4364309052
 20
126.7630871852
 10
128.422325161
 20
126.7684008629
 10
128.4070901378
 20
126.7713067682
 10
128.3908890682
 20
126.7717737652
 10
128.3738955353
 20
126.7697968489
 10
128.3562916131
 20
126.7653971997
 10
128.3382659153
 20
126.7586219557
 10
128.3200115749
 20
126.7495437081
  0
LINE
  5
341
100
AcDbEntity
  8
0
100
AcDbLine
 62
250
  6
CONTINUOUS
 10
127.7083059503
 20
127.1027348693
 11
128.3200115749
 21
126.7495437081
  0
LINE
  5
342
100
AcDbEntity
  8
0
100
AcDbLine
 62
7
  6
CONTINUOUS
 10
127.7083059503
 20
127.1837654856
 11
128.441932474
 21
126.7601787253
  0
LWPOLYLINE
  5
343
100
AcDbEntity
  8
0
100
AcDbPolyline
 62
250
  6
CONTINUOUS
 90
19
 70
0
 10
128.3200115749
 20
126.7495437081
 10
128.3389432809
 20
126.7379557589
 10
128.357486989
 20
126.7247090321
 10
128.3755102508
 20
126.709965199
 10
128.3928183328
 20
126.6939628902
 10
128.4093825877
 20
126.6768091639
 10
128.4253143889
 20
126.658421133
 10
128.4405649165
 20
126.6388362346
 10
128.4549520476
 20
126.618268801
 10
128.4683709463
 20
126.5968632327
 10
128.4806528755
 20
126.5749036991
 10
128.4917920059
 20
126.5524172168
 10
128.501873611
 20
126.529147472
 10
128.5107940174
 20
126.5051206887
 10
128.5183470451
 20
126.4806416955
 10
128.5243954421
 20
126.4558799129
 10
128.5287962277
 20
126.4310462575
 10
128.5314099699
 20
126.4063917621
 10
128.5321113006
 20
126.3821762075
  0
LWPOLYLINE
  5
344
100
AcDbEntity
  8
0
100
AcDbPolyline
 62
250
  6
CONTINUOUS
 90
8
 70
0
 10
157.9223908607
 20
118.4258871251
 10
157.9234958167
 20
118.4061523301
 10
157.9267933792
 20
118.3880020462
 10
157.9322319632
 20
118.3717198472
 10
157.9397265265
 20
118.3575601117
 10
157.9491599119
 20
118.3457440261
 10
157.96038469
 20
118.336456144
 10
157.9638073856
 20
118.3343397524
  0
LWPOLYLINE
  5
345
100
AcDbEntity
  8
ASSI
100
AcDbPolyline
 62
250
  6
CONTINUOUS
 90
8
 70
0
 10
157.9223908607
 20
118.4258871251
 10
157.9234958167
 20
118.4061523301
 10
157.9267933792
 20
118.3880020462
 10
157.9322319632
 20
118.3717198472
 10
157.9397265265
 20
118.3575601117
 10
157.9491599119
 20
118.3457440261
 10
157.96038469
 20
118.336456144
 10
157.9638073856
 20
118.3343397524
  0
LINE
  5
346
100
AcDbEntity
  8
0
100
AcDbLine
 62
7
  6
CONTINUOUS
 10
158.3575812302
 20
117.6523090265
 11
158.3575812302
 21
81.400880006
  0
LINE
  5
347
100
AcDbEntity
  8
ASSI
100
AcDbLine
 62
7
  6
CONTINUOUS
 10
158.3575812302
 20
117.6523090265
 11
158.3575812302
 21
81.400880006
  0
LINE
  5
348
100
AcDbEntity
  8
0
100
AcDbLine
 62
250
  6
CONTINUOUS
 10
158.416159874
 20
117.5706541079
 11
158.416159874
 21
81.3192250881
  0
LINE
  5
349
100
AcDbEntity
  8
ASSI
100
AcDbLine
 62
250
  6
CONTINUOUS
 10
158.416159874
 20
117.5706541079
 11
158.416159874
 21
81.3192250881
  0
LINE
  5
34A
100
AcDbEntity
  8
CURVE
100
AcDbLine
 62
7
  6
CONTINUOUS
 10
139.2088755038
 20
90.1226732197
 11
139.2797767462
 21
90.1935744621
  0
LINE
  5
34B
100
AcDbEntity
  8
CURVE
100
AcDbLine
 62
7
  6
CONTINUOUS
 10
139.2893450268
 20
89.7831213146
 11
139.5350506978
 21
90.0288269856
  0
LINE
  5
34C
100
AcDbEntity
  8
CURVE
100
AcDbLine
 62
7
  6
CONTINUOUS
 10
139.3698145497
 20
89.4435694096
 11
139.608137011
 21
89.6818918709
  0
LINE
  5
34D
100
AcDbEntity
  8
CURVE
100
AcDbLine
 62
7
  6
CONTINUOUS
 10
139.4502840727
 20
89.1040175045
 11
139.6812233243
 21
89.3349567561
  0
LINE
  5
34E
100
AcDbEntity
  8
CURVE
100
AcDbLine
 62
7
  6
CONTINUOUS
 10
139.5307535956
 20
88.7644655994
 11
139.7543096375
 21
88.9880216413
  0
LINE
  5
34F
100
AcDbEntity
  8
CURVE
100
AcDbLine
 62
7
  6
CONTINUOUS
 10
139.9975439238
 20
89.2312559276
 11
140.3448832893
 21
89.5785952931
  0
LINE
  5
350
100
AcDbEntity
  8
CURVE
100
AcDbLine
 62
7
  6
CONTINUOUS
 10
139.6112231186
 20
88.4249136943
 11
140.3370798829
 21
89.1507704587
  0
LINE
  5
351
100
AcDbEntity
  8
CURVE
100
AcDbLine
 62
7
  6
CONTINUOUS
 10
140.5779282803
 20
89.391618856
 11
140.6112282495
 21
89.4249188252
  0
LINE
  5
352
100
AcDbEntity
  8
CURVE
100
AcDbLine
 62
7
  6
CONTINUOUS
 10
139.7387923355
 20
88.1324614833
 11
140.1286083136
 21
88.5222774614
  0
LINE
  5
353
100
AcDbEntity
  8
CURVE
100
AcDbLine
 62
7
  6
CONTINUOUS
 10
140.5779282803
 20
88.971597428
 11
140.8775048852
 21
89.271174033
  0
LINE
  5
354
100
AcDbEntity
  8
CURVE
100
AcDbLine
 62
7
  6
CONTINUOUS
 10
140.5779282803
 20
88.551576
 11
140.9026233488
 21
88.8762710685
  0
LINE
  5
355
100
AcDbEntity
  8
CURVE
100
AcDbLine
 62
7
  6
CONTINUOUS
 10
140.5779282803
 20
88.1315545719
 11
140.9026233488
 21
88.4562496405
  0
LINE
  5
356
100
AcDbEntity
  8
CURVE
100
AcDbLine
 62
7
  6
CONTINUOUS
 10
141.1908370362
 20
88.7444633279
 11
141.4099898324
 21
88.963616124
  0
LINE
  5
357
100
AcDbEntity
  8
CURVE
100
AcDbLine
 62
7
  6
CONTINUOUS
 10
140.5779282803
 20
87.7115331439
 11
140.9026233488
 21
88.0362282125
  0
LINE
  5
358
100
AcDbEntity
  8
CURVE
100
AcDbLine
 62
7
  6
CONTINUOUS
 10
141.1533698885
 20
88.2869747521
 11
141.5874376457
 21
88.7210425094
  0
LINE
  5
359
100
AcDbEntity
  8
CURVE
100
AcDbLine
 62
7
  6
CONTINUOUS
 10
140.8038988786
 20
87.5174823142
 11
140.9026233488
 21
87.6162067845
  0
LINE
  5
35A
100
AcDbEntity
  8
CURVE
100
AcDbLine
 62
7
  6
CONTINUOUS
 10
141.1159027407
 20
87.8294861763
 11
141.4488218883
 21
88.1624053239
  0
LINE
  5
35B
100
AcDbEntity
  8
CURVE
100
AcDbLine
 62
7
  6
CONTINUOUS
 10
141.4883639094
 20
88.201947345
 11
141.6771602086
 21
88.3907436443
  0
LINE
  5
35C
100
AcDbEntity
  8
CURVE
100
AcDbLine
 62
7
  6
CONTINUOUS
 10
141.0784355929
 20
87.3719976005
 11
141.4211167259
 21
87.7146787335
  0
LINE
  5
35D
100
AcDbEntity
  8
CURVE
100
AcDbLine
 62
7
  6
CONTINUOUS
 10
141.5785672546
 20
87.8721292622
 11
141.7668827716
 21
88.0604447792
  0
LINE
  5
35E
100
AcDbEntity
  8
CURVE
100
AcDbLine
 62
7
  6
CONTINUOUS
 10
142.1665417891
 20
88.4601037967
 11
142.2088197396
 21
88.5023817473
  0
LINE
  5
35F
100
AcDbEntity
  8
0
100
AcDbLine
 62
250
  6
CONTINUOUS
 10
141.4224673461
 20
93.8655004918
 11
141.7584123111
 21
94.1922540816
  0
LINE
  5
360
100
AcDbEntity
  8
0
100
AcDbLine
 62
7
  6
CONTINUOUS
 10
141.4263922036
 20
93.8319652911
 11
141.8553765844
 21
94.2492127601
  0
LWPOLYLINE
  5
361
100
AcDbEntity
  8
0
100
AcDbPolyline
 62
250
  6
CONTINUOUS
 90
5
 70
0
 10
141.3732838803
 20
93.7909392439
 10
141.3865105
 20
93.8015006719
 10
141.3981439329
 20
93.8143690134
 10
141.4080730705
 20
93.8294221125
 10
141.4162063848
 20
93.8465195327
  0
LINE
  5
362
100
AcDbEntity
  8
0
100
AcDbLine
 62
7
  6
CONTINUOUS
 10
142.1204261319
 20
94.8929910254
 11
139.8225496075
 21
93.4194690944
  0
LINE
  5
363
100
AcDbEntity
  8
0
100
AcDbLine
 62
250
  6
CONTINUOUS
 10
141.3677786839
 20
93.7875017622
 11
141.3732838803
 21
93.7909392439
  0
LINE
  5
364
100
AcDbEntity
  8
0
100
AcDbLine
 62
7
  6
CONTINUOUS
 10
140.1353723182
 20
93.2388491818
 11
143.3669467591
 21
95.1371381454
  0
LINE
  5
365
100
AcDbEntity
  8
0
100
AcDbLine
 62
7
  6
CONTINUOUS
 10
141.367777858
 20
93.7875012829
 11
140.2791492644
 21
93.1558341751
  0
LINE
  5
366
100
AcDbEntity
  8
0
100
AcDbLine
 62
250
  6
CONTINUOUS
 10
141.4224673461
 20
93.8655004918
 11
140.2387932666
 21
93.1791352224
  0
LINE
  5
367
100
AcDbEntity
  8
0
100
AcDbLine
 62
7
  6
CONTINUOUS
 10
139.4668394677
 20
93.6895855348
 11
139.6082608239
 21
93.7712404534
  0
LINE
  5
368
100
AcDbEntity
  8
0
100
AcDbLine
 62
7
  6
CONTINUOUS
 10
139.8203928583
 20
93.8937228314
 11
139.9618142145
 21
93.9753777501
  0
LINE
  5
369
100
AcDbEntity
  8
0
100
AcDbLine
 62
7
  6
CONTINUOUS
 10
140.1739462489
 20
94.0978601281
 11
140.3153676051
 21
94.1795150468
  0
LINE
  5
36A
100
AcDbEntity
  8
0
100
AcDbLine
 62
7
  6
CONTINUOUS
 10
140.5274996394
 20
94.3019974248
 11
140.6689209957
 21
94.3836523434
  0
LINE
  5
36B
100
AcDbEntity
  8
0
100
AcDbLine
 62
7
  6
CONTINUOUS
 10
140.88105303
 20
94.5061347214
 11
141.0224743863
 21
94.5877896401
  0
LINE
  5
36C
100
AcDbEntity
  8
0
100
AcDbLine
 62
7
  6
CONTINUOUS
 10
141.2346064206
 20
94.7102720181
 11
141.3760277769
 21
94.7919269368
  0
LINE
  5
36D
100
AcDbEntity
  8
0
100
AcDbLine
 62
7
  6
CONTINUOUS
 10
141.5881598112
 20
94.9144093148
 11
141.7295811675
 21
94.9960642334
  0
LINE
  5
36E
100
AcDbEntity
  8
0
100
AcDbLine
 62
7
  6
CONTINUOUS
 10
141.8356471846
 20
94.9348348809
 11
139.5168376761
 21
93.5959833322
  0
LINE
  5
36F
100
AcDbEntity
  8
0
100
AcDbLine
 62
7
  6
CONTINUOUS
 10
143.3669467591
 20
95.5445077832
 11
142.1870984878
 21
94.9316929368
  0
LINE
  5
370
100
AcDbEntity
  8
0
100
AcDbLine
 62
7
  6
CONTINUOUS
 10
137.9481360265
 20
97.3792167353
 11
139.2584902822
 21
97.916679062
  0
LINE
  5
371
100
AcDbEntity
  8
0
100
AcDbLine
 62
7
  6
CONTINUOUS
 10
126.5681374921
 20
136.4618060688
 11
157.9638073856
 21
118.3343397524
  0
LINE
  5
372
100
AcDbEntity
  8
ASSI
100
AcDbLine
 62
7
  6
CONTINUOUS
 10
126.5681374921
 20
136.4618060688
 11
157.9638073856
 21
118.3343397524
  0
LINE
  5
373
100
AcDbEntity
  8
0
100
AcDbLine
 62
250
  6
CONTINUOUS
 10
126.5267209679
 20
136.5533534411
 11
157.9223908607
 21
118.4258871251
  0
LINE
  5
374
100
AcDbEntity
  8
ASSI
100
AcDbLine
 62
250
  6
CONTINUOUS
 10
126.5267209679
 20
136.5533534411
 11
157.9223908607
 21
118.4258871251
  0
LWPOLYLINE
  5
375
100
AcDbEntity
  8
0
100
AcDbPolyline
 62
7
  6
CONTINUOUS
 90
24
 70
0
 10
157.9638516683
 20
118.3343142068
 10
157.9819721186
 20
118.3233045088
 10
158.0059501775
 20
118.3070980285
 10
158.0308265636
 20
118.288339253
 10
158.0562021154
 20
118.2671489771
 10
158.0818460192
 20
118.243572246
 10
158.1075445244
 20
118.2176693158
 10
158.1329603776
 20
118.1896620128
 10
158.1578794787
 20
118.1596913896
 10
158.1820958418
 20
118.1279206638
 10
158.2053252986
 20
118.0946575286
 10
158.2273862261
 20
118.060120176
 10
158.2481147712
 20
118.0245381502
 10
158.2673003159
 20
117.9882713794
 10
158.2848210778
 20
117.951576803
 10
158.3005751875
 20
117.9147180933
 10
158.3144350423
 20
117.8780887155
 10
158.3263565606
 20
117.8419496567
 10
158.3363176019
 20
117.8065604386
 10
158.344288987
 20
117.7723207518
 10
158.3503188387
 20
117.7394505722
 10
158.3544756266
 20
117.7081746446
 10
158.3568461673
 20
117.6788942592
 10
158.3575812569
 20
117.6523687073
  0
LWPOLYLINE
  5
376
100
AcDbEntity
  8
ASSI
100
AcDbPolyline
 62
7
  6
CONTINUOUS
 90
24
 70
0
 10
157.9638516683
 20
118.3343142068
 10
157.9819721186
 20
118.3233045088
 10
158.0059501775
 20
118.3070980285
 10
158.0308265636
 20
118.288339253
 10
158.0562021154
 20
118.2671489771
 10
158.0818460192
 20
118.243572246
 10
158.1075445244
 20
118.2176693158
 10
158.1329603776
 20
118.1896620128
 10
158.1578794787
 20
118.1596913896
 10
158.1820958418
 20
118.1279206638
 10
158.2053252986
 20
118.0946575286
 10
158.2273862261
 20
118.060120176
 10
158.2481147712
 20
118.0245381502
 10
158.2673003159
 20
117.9882713794
 10
158.2848210778
 20
117.951576803
 10
158.3005751875
 20
117.9147180933
 10
158.3144350423
 20
117.8780887155
 10
158.3263565606
 20
117.8419496567
 10
158.3363176019
 20
117.8065604386
 10
158.344288987
 20
117.7723207518
 10
158.3503188387
 20
117.7394505722
 10
158.3544756266
 20
117.7081746446
 10
158.3568461673
 20
117.6788942592
 10
158.3575812569
 20
117.6523687073
  0
LWPOLYLINE
  5
377
100
AcDbEntity
  8
0
100
AcDbPolyline
 62
250
  6
CONTINUOUS
 90
8
 70
0
 10
158.416159874
 20
117.5706541079
 10
158.3996215694
 20
117.581478984
 10
158.3855514006
 20
117.5934105867
 10
158.3741692153
 20
117.6062624835
 10
158.3656528613
 20
117.6198338623
 10
158.3601354076
 20
117.6339126687
 10
158.3577030648
 20
117.6482789201
 10
158.3575812302
 20
117.6523090265
  0
LWPOLYLINE
  5
378
100
AcDbEntity
  8
ASSI
100
AcDbPolyline
 62
250
  6
CONTINUOUS
 90
8
 70
0
 10
158.416159874
 20
117.5706541079
 10
158.3996215694
 20
117.581478984
 10
158.3855514006
 20
117.5934105867
 10
158.3741692153
 20
117.6062624835
 10
158.3656528613
 20
117.6198338623
 10
158.3601354076
 20
117.6339126687
 10
158.3577030648
 20
117.6482789201
 10
158.3575812302
 20
117.6523090265
  0
LWPOLYLINE
  5
379
100
AcDbEntity
  8
0
100
AcDbPolyline
 62
7
  6
CONTINUOUS
 90
12
 70
0
 10
158.3575813293
 20
81.400765023
 10
158.3574827646
 20
81.3914598609
 10
158.3563912375
 20
81.3688281813
 10
158.3541368744
 20
81.3476639721
 10
158.3507835794
 20
81.3281119389
 10
158.3464606035
 20
81.3105177185
 10
158.3414557695
 20
81.2953923021
 10
158.3361047571
 20
81.2829323339
 10
158.3306795747
 20
81.2730179977
 10
158.3254755824
 20
81.2655104989
 10
158.3207473337
 20
81.2601456175
 10
158.3166755886
 20
81.256569158
  0
LWPOLYLINE
  5
37A
100
AcDbEntity
  8
ASSI
100
AcDbPolyline
 62
7
  6
CONTINUOUS
 90
12
 70
0
 10
158.3575813293
 20
81.400765023
 10
158.3574827646
 20
81.3914598609
 10
158.3563912375
 20
81.3688281813
 10
158.3541368744
 20
81.3476639721
 10
158.3507835794
 20
81.3281119389
 10
158.3464606035
 20
81.3105177185
 10
158.3414557695
 20
81.2953923021
 10
158.3361047571
 20
81.2829323339
 10
158.3306795747
 20
81.2730179977
 10
158.3254755824
 20
81.2655104989
 10
158.3207473337
 20
81.2601456175
 10
158.3166755886
 20
81.256569158
  0
LWPOLYLINE
  5
37B
100
AcDbEntity
  8
0
100
AcDbPolyline
 62
250
  6
CONTINUOUS
 90
3
 70
0
 10
158.416159874
 20
81.3192250881
 10
158.4147231235
 20
81.277023439
 10
158.4106057801
 20
81.237077673
  0
LWPOLYLINE
  5
37C
100
AcDbEntity
  8
ASSI
100
AcDbPolyline
 62
250
  6
CONTINUOUS
 90
3
 70
0
 10
158.416159874
 20
81.3192250881
 10
158.4147231235
 20
81.277023439
 10
158.4106057801
 20
81.237077673
  0
LWPOLYLINE
  5
37D
100
AcDbEntity
  8
0
100
AcDbPolyline
 62
250
  6
CONTINUOUS
 90
13
 70
0
 10
157.9223908607
 20
81.0341841506
 10
157.9234957223
 20
81.0551940008
 10
157.9267930432
 20
81.0771514363
 10
157.9322313026
 20
81.0997133701
 10
157.9397255272
 20
81.1225272695
 10
157.9491586189
 20
81.1452366651
 10
157.9603831846
 20
81.1674867202
 10
157.9732238395
 20
81.1889297756
 10
157.9874799469
 20
81.2092307813
 10
158.0029287538
 20
81.2280725321
 10
158.019328871
 20
81.2451606236
 10
158.0364240449
 20
81.2602280527
 10
158.0539471619
 20
81.2730393894
  0
LWPOLYLINE
  5
37E
100
AcDbEntity
  8
ASSI
100
AcDbPolyline
 62
250
  6
CONTINUOUS
 90
13
 70
0
 10
157.9223908607
 20
81.0341841506
 10
157.9234957223
 20
81.0551940008
 10
157.9267930432
 20
81.0771514363
 10
157.9322313026
 20
81.0997133701
 10
157.9397255272
 20
81.1225272695
 10
157.9491586189
 20
81.1452366651
 10
157.9603831846
 20
81.1674867202
 10
157.9732238395
 20
81.1889297756
 10
157.9874799469
 20
81.2092307813
 10
158.0029287538
 20
81.2280725321
 10
158.019328871
 20
81.2451606236
 10
158.0364240449
 20
81.2602280527
 10
158.0539471619
 20
81.2730393894
  0
LINE
  5
37F
100
AcDbEntity
  8
0
100
AcDbLine
 62
7
  6
CONTINUOUS
 10
151.4596246141
 20
86.7003678324
 11
151.4876547478
 21
86.7489174482
  0
LINE
  5
380
100
AcDbEntity
  8
0
100
AcDbLine
 62
7
  6
CONTINUOUS
 10
151.7351421213
 20
86.7693430144
 11
151.8412081384
 21
86.9530547449
  0
LINE
  5
381
100
AcDbEntity
  8
0
100
AcDbLine
 62
7
  6
CONTINUOUS
 10
152.0886955118
 20
86.973480311
 11
152.194761529
 21
87.1571920415
  0
LINE
  5
382
100
AcDbEntity
  8
CURVE
100
AcDbLine
 62
7
  6
CONTINUOUS
 10
141.3364521501
 20
87.2099927297
 11
141.3934115634
 21
87.266952143
  0
LINE
  5
383
100
AcDbEntity
  8
CURVE
100
AcDbLine
 62
7
  6
CONTINUOUS
 10
141.6687705998
 20
87.5423111794
 11
141.8566053345
 21
87.730145914
  0
LINE
  5
384
100
AcDbEntity
  8
CURVE
100
AcDbLine
 62
7
  6
CONTINUOUS
 10
141.8853602595
 20
87.7589008391
 11
142.4750963754
 21
88.348636955
  0
LINE
  5
385
100
AcDbEntity
  8
CURVE
100
AcDbLine
 62
7
  6
CONTINUOUS
 10
141.758973945
 20
87.2124930966
 11
142.1916067436
 21
87.6451258952
  0
LINE
  5
386
100
AcDbEntity
  8
CURVE
100
AcDbLine
 62
7
  6
CONTINUOUS
 10
142.2766138076
 20
87.7301329592
 11
142.5357741001
 21
87.9892932516
  0
LINE
  5
387
100
AcDbEntity
  8
CURVE
100
AcDbLine
 62
7
  6
CONTINUOUS
 10
141.8690054217
 20
86.9025031452
 11
141.9015005317
 21
86.9349982553
  0
LINE
  5
388
100
AcDbEntity
  8
CURVE
100
AcDbLine
 62
7
  6
CONTINUOUS
 10
142.2986217705
 20
87.332119494
 11
142.565936684
 21
87.5994344075
  0
LINE
  5
389
100
AcDbEntity
  8
CURVE
100
AcDbLine
 62
7
  6
CONTINUOUS
 10
142.3206297333
 20
86.9341060289
 11
142.5960992679
 21
87.2095755634
  0
LINE
  5
38A
100
AcDbEntity
  8
CURVE
100
AcDbLine
 62
7
  6
CONTINUOUS
 10
143.1338248897
 20
87.7473011852
 11
143.2739262827
 21
87.8874025782
  0
LINE
  5
38B
100
AcDbEntity
  8
CURVE
100
AcDbLine
 62
7
  6
CONTINUOUS
 10
142.4015586932
 20
86.5950135607
 11
142.6262618517
 21
86.8197167192
  0
LINE
  5
38C
100
AcDbEntity
  8
CURVE
100
AcDbLine
 62
7
  6
CONTINUOUS
 10
142.9341781171
 20
87.1276329846
 11
143.5174835179
 21
87.7109383853
  0
LINE
  5
38D
100
AcDbEntity
  8
CURVE
100
AcDbLine
 62
7
  6
CONTINUOUS
 10
142.7345313446
 20
86.507964784
 11
143.2526003849
 21
87.0260338243
  0
LINE
  5
38E
100
AcDbEntity
  8
CURVE
100
AcDbLine
 62
7
  6
CONTINUOUS
 10
143.3836378163
 20
87.1570712558
 11
143.5961296115
 21
87.3695630509
  0
LINE
  5
38F
100
AcDbEntity
  8
CURVE
100
AcDbLine
 62
7
  6
CONTINUOUS
 10
142.9341119647
 20
86.2875239762
 11
143.0876355352
 21
86.4410475466
  0
LINE
  5
390
100
AcDbEntity
  8
CURVE
100
AcDbLine
 62
7
  6
CONTINUOUS
 10
143.1614256576
 20
86.5148376691
 11
143.33732035
 21
86.6907323614
  0
LINE
  5
391
100
AcDbEntity
  8
CURVE
100
AcDbLine
 62
7
  6
CONTINUOUS
 10
143.4531222736
 20
86.8065342851
 11
143.6747757051
 21
87.0281877165
  0
LINE
  5
392
100
AcDbEntity
  8
CURVE
100
AcDbLine
 62
7
  6
CONTINUOUS
 10
143.4277022934
 20
86.3610928768
 11
143.7534217987
 21
86.6868123821
  0
LINE
  5
393
100
AcDbEntity
  8
CURVE
100
AcDbLine
 62
7
  6
CONTINUOUS
 10
144.0805741294
 20
87.0139647128
 11
144.3469754916
 21
87.280366075
  0
LINE
  5
394
100
AcDbEntity
  8
CURVE
100
AcDbLine
 62
7
  6
CONTINUOUS
 10
143.5953835848
 20
86.1087527402
 11
143.8320678923
 21
86.3454370477
  0
LINE
  5
395
100
AcDbEntity
  8
CURVE
100
AcDbLine
 62
7
  6
CONTINUOUS
 10
144.0805741294
 20
86.5939432848
 11
144.3931959899
 21
86.9065651453
  0
LINE
  5
396
100
AcDbEntity
  8
CURVE
100
AcDbLine
 62
7
  6
CONTINUOUS
 10
144.413715381
 20
86.9270845364
 11
144.6156449929
 21
87.1290141483
  0
LINE
  5
397
100
AcDbEntity
  8
CURVE
100
AcDbLine
 62
7
  6
CONTINUOUS
 10
143.732941872
 20
85.8262895994
 11
143.9107139859
 21
86.0040617133
  0
LINE
  5
398
100
AcDbEntity
  8
CURVE
100
AcDbLine
 62
7
  6
CONTINUOUS
 10
144.0805741294
 20
86.1739218567
 11
144.3931959899
 21
86.4865437173
  0
LINE
  5
399
100
AcDbEntity
  8
CURVE
100
AcDbLine
 62
7
  6
CONTINUOUS
 10
144.6797554343
 20
86.7731031617
 11
144.8529212551
 21
86.9462689825
  0
LINE
  5
39A
100
AcDbEntity
  8
CURVE
100
AcDbLine
 62
7
  6
CONTINUOUS
 10
144.0805741294
 20
85.7539004287
 11
144.4039623784
 21
86.0772886777
  0
LINE
  5
39B
100
AcDbEntity
  8
CURVE
100
AcDbLine
 62
7
  6
CONTINUOUS
 10
144.4448208423
 20
86.1181471416
 11
144.6349351203
 21
86.3082614196
  0
LINE
  5
39C
100
AcDbEntity
  8
CURVE
100
AcDbLine
 62
7
  6
CONTINUOUS
 10
144.8283285618
 20
86.5016548611
 11
145.0326415149
 21
86.7059678142
  0
LINE
  5
39D
100
AcDbEntity
  8
CURVE
100
AcDbLine
 62
7
  6
CONTINUOUS
 10
144.2654949279
 20
85.5187997992
 11
144.4039623784
 21
85.6572672497
  0
LINE
  5
39E
100
AcDbEntity
  8
CURVE
100
AcDbLine
 62
7
  6
CONTINUOUS
 10
144.6857500189
 20
85.9390548902
 11
145.131254619
 21
86.3845594903
  0
LINE
  5
39F
100
AcDbEntity
  8
CURVE
100
AcDbLine
 62
7
  6
CONTINUOUS
 10
144.7951478636
 20
85.6284313069
 11
145.0089709689
 21
85.8422544122
  0
LINE
  5
3A0
100
AcDbEntity
  8
CURVE
100
AcDbLine
 62
7
  6
CONTINUOUS
 10
144.8719019704
 20
85.2851639856
 11
145.1034990811
 21
85.5167610963
  0
LWPOLYLINE
  5
3A1
100
AcDbEntity
  8
0
100
AcDbPolyline
 62
250
  6
CONTINUOUS
 90
13
 70
0
 10
126.0329519546
 20
136.2683125036
 10
126.051700826
 20
136.2587631157
 10
126.0723664421
 20
136.2506389904
 10
126.0946258329
 20
136.2440670377
 10
126.1181311256
 20
136.2391499101
 10
126.1425150194
 20
136.2359643924
 10
126.1673965299
 20
136.2345602125
 10
126.1923868662
 20
136.234959272
 10
126.2170955676
 20
136.2371552961
 10
126.2411366408
 20
136.241113947
 10
126.2641344871
 20
136.2467733543
 10
126.2857297752
 20
136.254045068
 10
126.3055851167
 20
136.2628154516
  0
LWPOLYLINE
  5
3A2
100
AcDbEntity
  8
ASSI
100
AcDbPolyline
 62
250
  6
CONTINUOUS
 90
13
 70
0
 10
126.0329519546
 20
136.2683125036
 10
126.051700826
 20
136.2587631157
 10
126.0723664421
 20
136.2506389904
 10
126.0946258329
 20
136.2440670377
 10
126.1181311256
 20
136.2391499101
 10
126.1425150194
 20
136.2359643924
 10
126.1673965299
 20
136.2345602125
 10
126.1923868662
 20
136.234959272
 10
126.2170955676
 20
136.2371552961
 10
126.2411366408
 20
136.241113947
 10
126.2641344871
 20
136.2467733543
 10
126.2857297752
 20
136.254045068
 10
126.3055851167
 20
136.2628154516
  0
LWPOLYLINE
  5
3A3
100
AcDbEntity
  8
0
100
AcDbPolyline
 62
250
  6
CONTINUOUS
 90
4
 70
0
 10
157.9223908607
 20
118.4258871251
 10
157.9596581831
 20
118.4027104772
 10
157.9963122164
 20
118.3767927522
 10
158.0323529607
 20
118.3481339502
  0
LWPOLYLINE
  5
3A4
100
AcDbEntity
  8
ASSI
100
AcDbPolyline
 62
250
  6
CONTINUOUS
 90
4
 70
0
 10
157.9223908607
 20
118.4258871251
 10
157.9596581831
 20
118.4027104772
 10
157.9963122164
 20
118.3767927522
 10
158.0323529607
 20
118.3481339502
  0
LWPOLYLINE
  5
3A5
100
AcDbEntity
  8
0
100
AcDbPolyline
 62
250
  6
CONTINUOUS
 90
15
 70
0
 10
158.0323529607
 20
118.3481339502
 10
158.0679806837
 20
118.3165367165
 10
158.1029951177
 20
118.2821984058
 10
158.1367954597
 20
118.245711082
 10
158.1693486863
 20
118.2070516218
 10
158.200687821
 20
118.1662431485
 10
158.2303111308
 20
118.1239470959
 10
158.2581888224
 20
118.0801529413
 10
158.284350689
 20
118.0348712074
 10
158.3083843776
 20
117.9887948963
 10
158.3302677512
 20
117.9419003534
 10
158.3500229468
 20
117.8942112332
 10
158.3673040219
 20
117.8464915008
 10
158.3820764838
 20
117.7986404068
 10
158.3943748251
 20
117.7507587006
  0
LWPOLYLINE
  5
3A6
100
AcDbEntity
  8
ASSI
100
AcDbPolyline
 62
250
  6
CONTINUOUS
 90
15
 70
0
 10
158.0323529607
 20
118.3481339502
 10
158.0679806837
 20
118.3165367165
 10
158.1029951177
 20
118.2821984058
 10
158.1367954597
 20
118.245711082
 10
158.1693486863
 20
118.2070516218
 10
158.200687821
 20
118.1662431485
 10
158.2303111308
 20
118.1239470959
 10
158.2581888224
 20
118.0801529413
 10
158.284350689
 20
118.0348712074
 10
158.3083843776
 20
117.9887948963
 10
158.3302677512
 20
117.9419003534
 10
158.3500229468
 20
117.8942112332
 10
158.3673040219
 20
117.8464915008
 10
158.3820764838
 20
117.7986404068
 10
158.3943748251
 20
117.7507587006
  0
LWPOLYLINE
  5
3A7
100
AcDbEntity
  8
0
100
AcDbPolyline
 62
250
  6
CONTINUOUS
 90
5
 70
0
 10
158.3943748251
 20
117.7507587006
 10
158.4039565813
 20
117.7039125963
 10
158.4107409307
 20
117.6584574983
 10
158.4148086949
 20
117.6140380022
 10
158.416159874
 20
117.5706541079
  0
LWPOLYLINE
  5
3A8
100
AcDbEntity
  8
ASSI
100
AcDbPolyline
 62
250
  6
CONTINUOUS
 90
5
 70
0
 10
158.3943748251
 20
117.7507587006
 10
158.4039565813
 20
117.7039125963
 10
158.4107409307
 20
117.6584574983
 10
158.4148086949
 20
117.6140380022
 10
158.416159874
 20
117.5706541079
  0
LWPOLYLINE
  5
3A9
100
AcDbEntity
  8
0
100
AcDbPolyline
 62
250
  6
CONTINUOUS
 90
20
 70
0
 10
158.4106057801
 20
81.237077673
 10
158.4038078437
 20
81.1993877901
 10
158.3942585382
 20
81.1637634139
 10
158.3820286398
 20
81.1303949207
 10
158.3673304768
 20
81.0998534401
 10
158.3501275099
 20
81.0721982001
 10
158.3304562786
 20
81.0473699727
 10
158.3086387289
 20
81.0257622027
 10
158.2846508495
 20
81.0074231552
 10
158.2585166518
 20
80.9923045651
 10
158.2306301159
 20
80.9806550823
 10
158.2009596864
 20
80.9725184872
 10
158.1695369187
 20
80.9678509993
 10
158.1368504595
 20
80.9667699275
 10
158.1027958062
 20
80.9693754373
 10
158.0674774613
 20
80.9755673631
 10
158.0316975789
 20
80.9851625162
 10
157.9957235437
 20
80.9980998337
 10
157.959287971
 20
81.0144403785
 10
157.9223908607
 20
81.0341841506
  0
LWPOLYLINE
  5
3AA
100
AcDbEntity
  8
ASSI
100
AcDbPolyline
 62
250
  6
CONTINUOUS
 90
20
 70
0
 10
158.4106057801
 20
81.237077673
 10
158.4038078437
 20
81.1993877901
 10
158.3942585382
 20
81.1637634139
 10
158.3820286398
 20
81.1303949207
 10
158.3673304768
 20
81.0998534401
 10
158.3501275099
 20
81.0721982001
 10
158.3304562786
 20
81.0473699727
 10
158.3086387289
 20
81.0257622027
 10
158.2846508495
 20
81.0074231552
 10
158.2585166518
 20
80.9923045651
 10
158.2306301159
 20
80.9806550823
 10
158.2009596864
 20
80.9725184872
 10
158.1695369187
 20
80.9678509993
 10
158.1368504595
 20
80.9667699275
 10
158.1027958062
 20
80.9693754373
 10
158.0674774613
 20
80.9755673631
 10
158.0316975789
 20
80.9851625162
 10
157.9957235437
 20
80.9980998337
 10
157.959287971
 20
81.0144403785
 10
157.9223908607
 20
81.0341841506
  0
LINE
  5
3AB
100
AcDbEntity
  8
0
100
AcDbLine
 62
7
  6
CONTINUOUS
 10
152.4422489024
 20
87.1776176077
 11
152.5483149196
 21
87.3613293382
  0
LINE
  5
3AC
100
AcDbEntity
  8
0
100
AcDbLine
 62
7
  6
CONTINUOUS
 10
152.795802293
 20
87.3817549043
 11
152.9018683102
 21
87.5654666349
  0
LINE
  5
3AD
100
AcDbEntity
  8
0
100
AcDbLine
 62
7
  6
CONTINUOUS
 10
153.1493556836
 20
87.585892201
 11
153.2554217008
 21
87.7696039315
  0
LINE
  5
3AE
100
AcDbEntity
  8
0
100
AcDbLine
 62
7
  6
CONTINUOUS
 10
153.5029090742
 20
87.7900294977
 11
153.6089750914
 21
87.9737412282
  0
LINE
  5
3AF
100
AcDbEntity
  8
0
100
AcDbLine
 62
7
  6
CONTINUOUS
 10
155.3487119106
 20
84.4548575691
 11
155.3767420444
 21
84.5034071849
  0
LINE
  5
3B0
100
AcDbEntity
  8
0
100
AcDbLine
 62
7
  6
CONTINUOUS
 10
155.6242294178
 20
84.5238327511
 11
155.730295435
 21
84.7075444816
  0
LINE
  5
3B1
100
AcDbEntity
  8
CURVE
100
AcDbLine
 62
7
  6
CONTINUOUS
 10
145.0643248352
 20
85.0575654224
 11
145.1740629396
 21
85.1673035268
  0
LINE
  5
3B2
100
AcDbEntity
  8
0
100
AcDbLine
 62
7
  6
CONTINUOUS
 10
155.9777828084
 20
84.7279700477
 11
156.0838488256
 21
84.9116817782
  0
LINE
  5
3B3
100
AcDbEntity
  8
0
100
AcDbLine
 62
7
  6
CONTINUOUS
 10
156.331336199
 20
84.9321073444
 11
156.4374022161
 21
85.1158190749
  0
LINE
  5
3B4
100
AcDbEntity
  8
0
100
AcDbLine
 62
7
  6
CONTINUOUS
 10
156.6848895896
 20
85.136244641
 11
156.7909556067
 21
85.3199563716
  0
LINE
  5
3B5
100
AcDbEntity
  8
0
100
AcDbLine
 62
7
  6
CONTINUOUS
 10
157.0384429802
 20
85.3403819377
 11
157.1445089973
 21
85.5240936682
  0
LINE
  5
3B6
100
AcDbEntity
  8
0
100
AcDbLine
 62
7
  6
CONTINUOUS
 10
157.3919963707
 20
85.5445192344
 11
157.4980623879
 21
85.7282309649
  0
LINE
  5
3B7
100
AcDbEntity
  8
0
100
AcDbLine
 62
7
  6
CONTINUOUS
 10
151.4876547478
 20
86.7489174482
 11
151.6290761041
 21
86.8305723669
  0
LINE
  5
3B8
100
AcDbEntity
  8
0
100
AcDbLine
 62
7
  6
CONTINUOUS
 10
151.8412081384
 20
86.9530547449
 11
151.9826294947
 21
87.0347096635
  0
LINE
  5
3B9
100
AcDbEntity
  8
0
100
AcDbLine
 62
7
  6
CONTINUOUS
 10
152.194761529
 20
87.1571920415
 11
152.3361828853
 21
87.2388469602
  0
LINE
  5
3BA
100
AcDbEntity
  8
0
100
AcDbLine
 62
7
  6
CONTINUOUS
 10
152.5483149196
 20
87.3613293382
 11
152.6897362759
 21
87.4429842569
  0
LINE
  5
3BB
100
AcDbEntity
  8
0
100
AcDbLine
 62
7
  6
CONTINUOUS
 10
152.9018683102
 20
87.5654666349
 11
153.0432896665
 21
87.6471215535
  0
LINE
  5
3BC
100
AcDbEntity
  8
0
100
AcDbLine
 62
7
  6
CONTINUOUS
 10
153.2554217008
 20
87.7696039315
 11
153.396843057
 21
87.8512588502
  0
LINE
  5
3BD
100
AcDbEntity
  8
0
100
AcDbLine
 62
7
  6
CONTINUOUS
 10
153.6089750914
 20
87.9737412282
 11
153.7503964476
 21
88.0553961469
  0
LINE
  5
3BE
100
AcDbEntity
  8
0
100
AcDbLine
 62
7
  6
CONTINUOUS
 10
151.2319410248
 20
86.8318294833
 11
153.7839914503
 21
88.1585945893
  0
LINE
  5
3BF
100
AcDbEntity
  8
0
100
AcDbLine
 62
7
  6
CONTINUOUS
 10
153.8580386032
 20
88.1930383854
 11
155.1683928589
 21
88.7305007121
  0
LINE
  5
3C0
100
AcDbEntity
  8
SMUSSO
100
AcDbLine
 62
7
  6
CONTINUOUS
 10
173.1755170169
 20
55.5072549622
 11
173.1755170169
 21
126.3388885615
  0
LINE
  5
3C1
100
AcDbEntity
  8
ASSI
100
AcDbLine
 62
7
  6
CONTINUOUS
 10
173.1755170169
 20
55.5072549622
 11
173.1755170169
 21
126.3388885615
  0
LINE
  5
3C2
100
AcDbEntity
  8
SMUSSO
100
AcDbLine
 62
7
  6
CONTINUOUS
 10
174.6139774997
 20
55.1426370581
 11
174.6139774997
 21
126.6745118903
  0
LINE
  5
3C3
100
AcDbEntity
  8
ASSI
100
AcDbLine
 62
7
  6
CONTINUOUS
 10
174.6139774997
 20
55.1426370581
 11
174.6139774997
 21
126.6745118903
  0
LINE
  5
3C4
100
AcDbEntity
  8
SMUSSO
100
AcDbLine
 62
7
  6
CONTINUOUS
 10
173.9064402304
 20
127.9000023877
 11
173.9060778002
 21
127.8753836488
  0
LINE
  5
3C5
100
AcDbEntity
  8
ASSI
100
AcDbLine
 62
7
  6
CONTINUOUS
 10
173.9064402304
 20
127.9000023877
 11
173.9060778002
 21
127.8753836488
  0
LINE
  5
3C6
100
AcDbEntity
  8
0
100
AcDbLine
 62
7
  6
CONTINUOUS
 10
158.0303287086
 20
85.7068126755
 11
155.7324521842
 21
84.2332907445
  0
LINE
  5
3C7
100
AcDbEntity
  8
0
100
AcDbLine
 62
7
  6
CONTINUOUS
 10
156.0452748949
 20
84.052670832
 11
158.065007451
 21
85.239100571
  0
LINE
  5
3C8
100
AcDbEntity
  8
0
100
AcDbLine
 62
7
  6
CONTINUOUS
 10
155.3767420444
 20
84.5034071849
 11
155.5181634006
 21
84.5850621036
  0
LINE
  5
3C9
100
AcDbEntity
  8
0
100
AcDbLine
 62
7
  6
CONTINUOUS
 10
155.730295435
 20
84.7075444816
 11
155.8717167912
 21
84.7891994002
  0
LINE
  5
3CA
100
AcDbEntity
  8
0
100
AcDbLine
 62
7
  6
CONTINUOUS
 10
156.0838488256
 20
84.9116817782
 11
156.2252701818
 21
84.9933366969
  0
LINE
  5
3CB
100
AcDbEntity
  8
0
100
AcDbLine
 62
7
  6
CONTINUOUS
 10
156.4374022161
 20
85.1158190749
 11
156.5788235724
 21
85.1974739936
  0
LINE
  5
3CC
100
AcDbEntity
  8
0
100
AcDbLine
 62
7
  6
CONTINUOUS
 10
156.7909556067
 20
85.3199563716
 11
156.932376963
 21
85.4016112902
  0
LINE
  5
3CD
100
AcDbEntity
  8
0
100
AcDbLine
 62
7
  6
CONTINUOUS
 10
157.1445089973
 20
85.5240936682
 11
157.2859303536
 21
85.6057485869
  0
LINE
  5
3CE
100
AcDbEntity
  8
0
100
AcDbLine
 62
7
  6
CONTINUOUS
 10
157.4980623879
 20
85.7282309649
 11
157.6394837442
 21
85.8098858836
  0
LINE
  5
3CF
100
AcDbEntity
  8
0
100
AcDbLine
 62
7
  6
CONTINUOUS
 10
157.7455497613
 20
85.748656531
 11
155.4267402528
 21
84.4098049823
  0
LINE
  5
3D0
100
AcDbEntity
  8
0
100
AcDbLine
 62
7
  6
CONTINUOUS
 10
158.3575812302
 20
85.8808602903
 11
158.0970010645
 21
85.7455145869
  0
LINE
  5
3D1
100
AcDbEntity
  8
SMUSSO
100
AcDbLine
 62
7
  6
CONTINUOUS
 10
174.5924761478
 20
126.6865068377
 11
174.6139774997
 21
126.6745118903
  0
LINE
  5
3D2
100
AcDbEntity
  8
ASSI
100
AcDbLine
 62
7
  6
CONTINUOUS
 10
174.5924761478
 20
126.6865068377
 11
174.6139774997
 21
126.6745118903
  0
LINE
  5
3D3
100
AcDbEntity
  8
SMUSSO
100
AcDbLine
 62
7
  6
CONTINUOUS
 10
172.8965410828
 20
126.822089053
 11
111.5525707458
 21
162.2413287051
  0
LINE
  5
3D4
100
AcDbEntity
  8
ASSI
100
AcDbLine
 62
7
  6
CONTINUOUS
 10
172.8965410828
 20
126.822089053
 11
111.5525707458
 21
162.2413287051
  0
LINE
  5
3D5
100
AcDbEntity
  8
SMUSSO
100
AcDbLine
 62
7
  6
CONTINUOUS
 10
173.9064402304
 20
127.9000023877
 11
111.9560236598
 21
163.6693964945
  0
LINE
  5
3D6
100
AcDbEntity
  8
ASSI
100
AcDbLine
 62
7
  6
CONTINUOUS
 10
173.9064402304
 20
127.9000023877
 11
111.9560236598
 21
163.6693964945
  0
LINE
  5
3D7
100
AcDbEntity
  8
SMUSSO
100
AcDbLine
 62
7
  6
CONTINUOUS
 10
178.6759104845
 20
57.1714155723
 11
178.6759104845
 21
129.0198057924
  0
LINE
  5
3D8
100
AcDbEntity
  8
ASSI
100
AcDbLine
 62
7
  6
CONTINUOUS
 10
178.6759104845
 20
57.1714155723
 11
178.6759104845
 21
129.0198057924
  0
LINE
  5
3D9
100
AcDbEntity
  8
0
100
AcDbLine
 62
250
  6
CONTINUOUS
 10
158.0539471619
 20
81.2730393894
 11
158.3575812302
 21
81.5010748734
  0
LINE
  5
3DA
100
AcDbEntity
  8
ASSI
100
AcDbLine
 62
250
  6
CONTINUOUS
 10
158.0539471619
 20
81.2730393894
 11
158.3575812302
 21
81.5010748734
  0
LINE
  5
3DB
100
AcDbEntity
  8
0
100
AcDbLine
 62
7
  6
CONTINUOUS
 10
158.3164647283
 20
81.2564121236
 11
158.3160724067
 21
81.2561183682
  0
LINE
  5
3DC
100
AcDbEntity
  8
ASSI
100
AcDbLine
 62
7
  6
CONTINUOUS
 10
158.3164647283
 20
81.2564121236
 11
158.3160724067
 21
81.2561183682
  0
LWPOLYLINE
  5
3DD
100
AcDbEntity
  8
0
100
AcDbPolyline
 62
250
  6
CONTINUOUS
 90
13
 70
0
 10
158.3160724067
 20
81.2561183682
 10
158.3089226639
 20
81.2510648764
 10
158.2903218638
 20
81.2403074855
 10
158.2704291004
 20
81.2320338562
 10
158.2493503127
 20
81.2263001795
 10
158.227201743
 20
81.2231476042
 10
158.2040852262
 20
81.2225977381
 10
158.1800831573
 20
81.2246813542
 10
158.1553759318
 20
81.229402499
 10
158.1302362048
 20
81.2366817493
 10
158.1048673108
 20
81.2464250821
 10
158.0793855893
 20
81.2585737968
 10
158.0539471619
 20
81.2730393894
  0
LWPOLYLINE
  5
3DE
100
AcDbEntity
  8
ASSI
100
AcDbPolyline
 62
250
  6
CONTINUOUS
 90
13
 70
0
 10
158.3160724067
 20
81.2561183682
 10
158.3089226639
 20
81.2510648764
 10
158.2903218638
 20
81.2403074855
 10
158.2704291004
 20
81.2320338562
 10
158.2493503127
 20
81.2263001795
 10
158.227201743
 20
81.2231476042
 10
158.2040852262
 20
81.2225977381
 10
158.1800831573
 20
81.2246813542
 10
158.1553759318
 20
81.229402499
 10
158.1302362048
 20
81.2366817493
 10
158.1048673108
 20
81.2464250821
 10
158.0793855893
 20
81.2585737968
 10
158.0539471619
 20
81.2730393894
  0
LINE
  5
3DF
100
AcDbEntity
  8
SMUSSO
100
AcDbLine
 62
7
  6
CONTINUOUS
 10
177.9683732152
 20
130.2452962898
 11
115.743837447
 21
166.1729633858
  0
LINE
  5
3E0
100
AcDbEntity
  8
ASSI
100
AcDbLine
 62
7
  6
CONTINUOUS
 10
177.9683732152
 20
130.2452962898
 11
115.743837447
 21
166.1729633858
  0
LINE
  5
3E1
100
AcDbEntity
  8
SMUSSO
100
AcDbLine
 62
7
  6
CONTINUOUS
 10
173.1755170169
 20
126.3388885615
 11
172.8965410828
 21
126.822089053
  0
LINE
  5
3E2
100
AcDbEntity
  8
ASSI
100
AcDbLine
 62
7
  6
CONTINUOUS
 10
173.1755170169
 20
126.3388885615
 11
172.8965410828
 21
126.822089053
  0
LINE
  5
3E3
100
AcDbEntity
  8
SMUSSO
100
AcDbLine
 62
7
  6
CONTINUOUS
 10
174.5924761478
 20
126.6865068377
 11
173.9060778002
 21
127.8753836488
  0
LINE
  5
3E4
100
AcDbEntity
  8
ASSI
100
AcDbLine
 62
7
  6
CONTINUOUS
 10
174.5924761478
 20
126.6865068377
 11
173.9060778002
 21
127.8753836488
  0
LINE
  5
3E5
100
AcDbEntity
  8
SMUSSO
100
AcDbLine
 62
7
  6
CONTINUOUS
 10
177.9683732152
 20
130.2452962898
 11
178.6759104845
 21
129.0198057924
  0
LINE
  5
3E6
100
AcDbEntity
  8
ASSI
100
AcDbLine
 62
7
  6
CONTINUOUS
 10
177.9683732152
 20
130.2452962898
 11
178.6759104845
 21
129.0198057924
  0
LINE
  5
3E7
100
AcDbEntity
  8
SMUSSO
100
AcDbLine
 62
7
  6
CONTINUOUS
 10
172.8965410828
 20
55.3462088866
 11
173.1755170169
 21
55.5072549622
  0
LINE
  5
3E8
100
AcDbEntity
  8
ASSI
100
AcDbLine
 62
7
  6
CONTINUOUS
 10
172.8965410828
 20
55.3462088866
 11
173.1755170169
 21
55.5072549622
  0
LINE
  5
3E9
100
AcDbEntity
  8
SMUSSO
100
AcDbLine
 62
7
  6
CONTINUOUS
 10
173.9060778002
 20
54.7348343019
 11
174.5924761478
 21
55.1310755063
  0
LINE
  5
3EA
100
AcDbEntity
  8
ASSI
100
AcDbLine
 62
7
  6
CONTINUOUS
 10
173.9060778002
 20
54.7348343019
 11
174.5924761478
 21
55.1310755063
  0
LINE
  5
3EB
100
AcDbEntity
  8
SMUSSO
100
AcDbLine
 62
7
  6
CONTINUOUS
 10
178.6759104845
 20
57.1714155723
 11
177.9683732152
 21
56.7629713785
  0
LINE
  5
3EC
100
AcDbEntity
  8
ASSI
100
AcDbLine
 62
7
  6
CONTINUOUS
 10
178.6759104845
 20
57.1714155723
 11
177.9683732152
 21
56.7629713785
  0
LINE
  5
3ED
100
AcDbEntity
  8
SMUSSO
100
AcDbLine
 62
7
  6
CONTINUOUS
 10
174.6139774997
 20
55.1426370581
 11
174.5924761478
 21
55.1310755063
  0
LINE
  5
3EE
100
AcDbEntity
  8
ASSI
100
AcDbLine
 62
7
  6
CONTINUOUS
 10
174.6139774997
 20
55.1426370581
 11
174.5924761478
 21
55.1310755063
  0
LINE
  5
3EF
100
AcDbEntity
  8
SMUSSO
100
AcDbLine
 62
7
  6
CONTINUOUS
 10
174.6139774997
 20
55.1426370581
 11
178.6759104845
 21
57.1714155723
  0
LINE
  5
3F0
100
AcDbEntity
  8
ASSI
100
AcDbLine
 62
7
  6
CONTINUOUS
 10
174.6139774997
 20
55.1426370581
 11
178.6759104845
 21
57.1714155723
  0
LINE
  5
3F1
100
AcDbEntity
  8
SMUSSO
100
AcDbLine
 62
7
  6
CONTINUOUS
 10
173.9064402304
 20
54.7341928642
 11
177.9683732152
 21
56.7629713785
  0
LINE
  5
3F2
100
AcDbEntity
  8
ASSI
100
AcDbLine
 62
7
  6
CONTINUOUS
 10
173.9064402304
 20
54.7341928642
 11
177.9683732152
 21
56.7629713785
  0
ARC
  5
3F3
100
AcDbEntity
  8
0
100
AcDbCircle
 62
7
  6
CONTINUOUS
 10
141.2170584556
 20
94.0471492087
 40
0.3
100
AcDbArc
 50
300.1089856529
 51
314.2001404966
  0
ELLIPSE
  5
3F4
100
AcDbEntity
  8
0
100
AcDbEllipse
 62
7
  6
CONTINUOUS
 10
143.218317794
 20
95.0512670892
 30
0.0
 11
0.1999995634
 21
0.1164181051
 31
0.0
 40
0.0035896273
 41
-0.7351277754
 42
-0.6748017824
  0
ELLIPSE
  5
3F5
100
AcDbEntity
  8
0
100
AcDbEllipse
 62
7
  6
CONTINUOUS
 10
155.3022189802
 20
88.6455388254
 30
0.0
 11
0.1998333781
 21
-0.0157785196
 31
0.0
 40
0.5172961965
 41
0.8262203412
 42
2.3446567905
  0
ELLIPSE
  5
3F6
100
AcDbEntity
  8
0
100
AcDbEllipse
 62
7
  6
CONTINUOUS
 10
139.3923164035
 20
97.8317171753
 30
0.0
 11
0.1998333781
 21
-0.0157785196
 31
0.0
 40
0.5172961965
 41
0.8262203412
 42
2.3446567905
  0
ELLIPSE
  5
3F7
100
AcDbEntity
  8
0
100
AcDbEllipse
 62
7
  6
CONTINUOUS
 10
153.7839914503
 20
87.3421243125
 30
0.0
 11
0.5413005334
 21
0.8416911418
 31
0.0
 40
0.6067084637
 41
0.7148472392
 42
0.8145158917
  0
ELLIPSE
  5
3F8
100
AcDbEntity
  8
0
100
AcDbEllipse
 62
7
  6
CONTINUOUS
 10
137.8740888736
 20
96.5283026624
 30
0.0
 11
0.5413005334
 21
0.8416911418
 31
0.0
 40
0.6067084637
 41
0.7148472392
 42
0.8145158917
  0
ELLIPSE
  5
3F9
100
AcDbEntity
  8
0
100
AcDbEllipse
 62
7
  6
CONTINUOUS
 10
221.8180898516
 20
147.1860044848
 30
0.0
 11
355.4637344776
 21
228.5291574713
 31
0.0
 40
0.0426364804
 41
-1.7784597787
 42
-1.7776235247
  0
ELLIPSE
  5
3FA
100
AcDbEntity
  8
0
100
AcDbEllipse
 62
7
  6
CONTINUOUS
 10
127.5874132301
 20
126.081645383
 30
0.0
 11
-0.1500072547
 21
0.2598034325
 31
0.0
 40
0.5775075436
 41
-2.3560905478
 42
-1.3917475379
  0
ELLIPSE
  5
3FB
100
AcDbEntity
  8
0
100
AcDbEllipse
 62
7
  6
CONTINUOUS
 10
127.5874132301
 20
131.8416049627
 30
0.0
 11
-0.1500529386
 21
0.2598825848
 31
0.0
 40
0.5771558487
 41
2.9624472218
 42
3.9267902317
  0
ELLIPSE
  5
3FC
100
AcDbEntity
  8
0
100
AcDbEllipse
 62
7
  6
CONTINUOUS
 10
127.5874132301
 20
112.654553458
 30
0.0
 11
-0.1500529386
 21
0.2598825848
 31
0.0
 40
0.5771558487
 41
2.9624472218
 42
3.9267902317
  0
ELLIPSE
  5
3FD
100
AcDbEntity
  8
0
100
AcDbEllipse
 62
7
  6
CONTINUOUS
 10
127.5874132301
 20
106.8945938784
 30
0.0
 11
-0.1500072547
 21
0.2598034325
 31
0.0
 40
0.5775075436
 41
-2.3560905478
 42
-1.3917475379
  0
ELLIPSE
  5
3FE
100
AcDbEntity
  8
0
100
AcDbEllipse
 62
7
  6
CONTINUOUS
 10
143.218317794
 20
95.6226319235
 30
0.0
 11
0.1998333781
 21
-0.0157785196
 31
0.0
 40
0.5172961965
 41
-0.692216108
 42
0.8262203412
  0
ELLIPSE
  5
3FF
100
AcDbEntity
  8
0
100
AcDbEllipse
 62
7
  6
CONTINUOUS
 10
158.0303287086
 20
84.8903423987
 30
0.0
 11
0.4625183445
 21
0.8873459255
 31
0.0
 40
0.5463614449
 41
0.662201126
 42
0.7618697785
  0
ELLIPSE
  5
400
100
AcDbEntity
  8
0
100
AcDbEllipse
 62
7
  6
CONTINUOUS
 10
142.1204261319
 20
94.0765207486
 30
0.0
 11
0.4625183445
 21
0.8873459255
 31
0.0
 40
0.5463614449
 41
0.662201126
 42
0.7618697785
  0
ELLIPSE
  5
401
100
AcDbEntity
  8
RACCORDO
100
AcDbEllipse
 62
7
  6
CONTINUOUS
 10
127.7297302413
 20
100.4263819267
 30
0.0
 11
-0.2500122581
 21
0.4330056244
 31
0.0
 40
0.5801478137
 41
0.7877823601
 42
2.353712702
  0
ELLIPSE
  5
402
100
AcDbEntity
  8
ASSI
100
AcDbEllipse
 62
7
  6
CONTINUOUS
 10
127.7297302413
 20
100.4263819267
 30
0.0
 11
-0.2500122581
 21
0.4330056244
 31
0.0
 40
0.5801478137
 41
0.7877823601
 42
2.353712702
  0
ENDSEC
  0
SECTION
  2
OBJECTS
  0
DICTIONARY
  5
C
100
AcDbDictionary
280
0
281
1
  3
ACAD_GROUP
350
D
  3
ACAD_MLINESTYLE
350
17
  3
ACAD_LAYOUT
350
1A
  3
ACAD_PLOTSETTINGS
350
19
  3
ACAD_PLOTSTYLENAME
350
E
  0
DICTIONARY
  5
D
102
{ACAD_REACTORS
330
C
102
}
100
AcDbDictionary
280
0
281
1
  0
ACDBDICTIONARYWDFLT
  5
E
102
{ACAD_REACTORS
330
C
102
}
100
AcDbDictionary
281
1
  3
Normal
350
F
100
AcDbDictionaryWithDefault
340
F
  0
DICTIONARY
  5
17
102
{ACAD_REACTORS
330
C
102
}
100
AcDbDictionary
280
0
281
1
  3
Standard
350
18
  0
DICTIONARY
  5
19
102
{ACAD_REACTORS
330
C
102
}
100
AcDbDictionary
281
1
  0
DICTIONARY
  5
1A
102
{ACAD_REACTORS
330
C
102
}
100
AcDbDictionary
281
1
  3
Model
350
403
  3
Layout1
350
404
  0
ACDBPLACEHOLDER
  5
F
102
{ACAD_REACTORS
330
E
102
}
  0
MLINESTYLE
  5
18
102
{ACAD_REACTORS
330
17
102
}
100
AcDbMlineStyle
  2
STANDARD
 70
0
  3

 62
256
 51
90.0
 52
90.0
 71
2
 49
0.5
 62
256
  6
BYLAYER
 49
-0.5
 62
256
  6
BYLAYER
  0
LAYOUT
  5
403
102
{ACAD_REACTORS
330
1A
102
}
100
AcDbPlotSettings
  1

  2
none_device
  4
ISO_A4_(297.00_x_210.00_MM)
  6

 40
0.0
 41
0.0
 42
0.0
 43
0.0
 44
297.0
 45
210.0
 46
0.0
 47
0.0
 48
0.0
 49
0.0
140
0.0
141
0.0
142
1.0
143
1.0
 70
1024
 72
1
 73
0
 74
0
  7

 75
0
147
1.0
148
0.0
149
0.0
100
AcDbLayout
  1
Model
 70
0
 71
0
 10
0.0
 20
0.0
 11
297.0
 21
210.0
 12
0.0
 22
0.0
 32
0.0
 14
0.0
 24
0.0
 34
0.0
 15
0.0
 25
0.0
 35
0.0
146
0.0
 13
0.0
 23
0.0
 33
0.0
 16
1.0
 26
0.0
 36
0.0
 17
0.0
 27
1.0
 37
0.0
 76
0
330
21C
345
0
346
0
  0
LAYOUT
  5
404
102
{ACAD_REACTORS
330
1A
102
}
100
AcDbPlotSettings
  1

  2
none_device
  4
ISO_A4_(297.00_x_210.00_MM)
  6

 40
0.0
 41
0.0
 42
0.0
 43
0.0
 44
297.0
 45
210.0
 46
0.0
 47
0.0
 48
0.0
 49
0.0
140
0.0
141
0.0
142
1.0
143
1.0
 70
0
 72
1
 73
0
 74
0
  7

 75
0
147
1.0
148
0.0
149
0.0
100
AcDbLayout
  1
Layout1
 70
0
 71
1
 10
0.0
 20
0.0
 11
297.0
 21
210.0
 12
0.0
 22
0.0
 32
0.0
 14
0.0
 24
0.0
 34
0.0
 15
0.0
 25
0.0
 35
0.0
146
0.0
 13
0.0
 23
0.0
 33
0.0
 16
1.0
 26
0.0
 36
0.0
 17
0.0
 27
1.0
 37
0.0
 76
0
330
21D
345
0
346
0
  0
ENDSEC
  0
EOF
