  0
SECTION
  2
HEADER
  9
$ACADVER
  1
AC1021
  9
$DWGCODEPAGE
  3
ANSI_1252
  9
$EXTMAX
 10
297.0
 20
210.0
 30
0.0
  9
$EXTMIN
 10
0.0
 20
0.0
 30
0.0
  9
$LIMMIN
 10
0.0
 20
0.0
  9
$LIMMAX
 10
297.0
 20
210.0
  9
$VIEWCTR
 10
148.5
 20
105.0
  9
$VIEWSIZE
 40
210.0
  9
$CLAYER
  8
0
  9
$LTSCALE
 40
16.335
  9
$CELTYPE
  6
BYLAYER
  9
$DIMSCALE
 40
1.0
  9
$DIMASZ
 40
3.0
  9
$DIMEXO
 40
0.5
  9
$DIMDLI
 40
11.286
  9
$DIMEXE
 40
1.5
  9
$DIMCEN
 40
2.673
  9
$DIMLFAC
 40
1.0
  9
$DIMBLK
  1
_FILLED
  9
$DIMALT
 70
0
  9
$DIMALTF
 40
25.4
  9
$DIMTXT
 40
3.0
  9
$DIMTOL
 70
1
  9
$DIMLIM
 70
0
  9
$DIMTFAC
 40
1.0
  9
$DIMTP
 40
0.01
  9
$DIMTM
 40
0.01
  9
$DIMGAP
 40
0.625
  9
$DIMDSEP
 70
44
  9
$AUNITS
 70
0
  9
$PDMODE
 70
3
  9
$PDSIZE
 40
3.0
  9
$HANDSEED
  5
425
  9
$TILEMODE
 70
1
  9
$MEASUREMENT
 70
1
  9
$INSUNITS
 70
4
  0
ENDSEC
  0
SECTION
  2
CLASSES
  0
CLASS
  1
ACDBDICTIONARYWDFLT
  2
AcDbDictionaryWithDefault
  3
AutoCAD 2000
 90
0
 91
1
280
0
281
0
  0
CLASS
  1
ACDBPLACEHOLDER
  2
AcDbPlaceHolder
  3
AutoCAD 2000
 90
0
 91
1
280
0
281
0
  0
CLASS
  1
LAYOUT
  2
AcDbLayout
  3
AutoCAD 2000
 90
0
 91
0
280
0
281
0
  0
ENDSEC
  0
SECTION
  2
TABLES
  0
TABLE
  2
VPORT
  5
8
100
AcDbSymbolTable
 70
2
  0
VPORT
  5
1F4
100
AcDbSymbolTableRecord
100
AcDbViewportTableRecord
  2
*ACTIVE
 70
0
 10
0.0
 20
0.0
 11
1.0
 21
1.0
 12
148.5
 22
105.0
 13
0.0
 23
0.0
 14
1.0
 24
1.0
 15
0.0
 25
0.0
 16
0.0
 26
0.0
 36
1.0
 17
0.0
 27
0.0
 37
0.0
 40
210.0
 41
1.4142857143
 42
50.0
 43
0.0
 44
0.0
 50
0.0
 51
0.0
 71
0
 72
100
 73
1
 74
1
 75
0
 76
0
 77
0
 78
0
  0
ENDTAB
  0
TABLE
  2
LTYPE
  5
5
100
AcDbSymbolTable
 70
6
  0
LTYPE
  5
14
100
AcDbSymbolTableRecord
100
AcDbLinetypeTableRecord
  2
BYBLOCK
 70
0
  3

 72
65
 73
0
 40
0.0
  0
LTYPE
  5
15
100
AcDbSymbolTableRecord
100
AcDbLinetypeTableRecord
  2
BYLAYER
 70
0
  3

 72
65
 73
0
 40
0.0
  0
LTYPE
  5
16
100
AcDbSymbolTableRecord
100
AcDbLinetypeTableRecord
  2
CONTINUOUS
 70
64
  3
Solid line
 72
65
 73
0
 40
0.0
  0
LTYPE
  5
1F5
100
AcDbSymbolTableRecord
100
AcDbLinetypeTableRecord
  2
CENTER
 70
64
  3
____ _ ____ _ ____ _ ____ _ ____ _ ____ _ ____
 72
65
 73
4
 40
0.6
 49
0.375
 74
0
 49
-0.075
 74
0
 49
0.075
 74
0
 49
-0.075
 74
0
  0
LTYPE
  5
1F6
100
AcDbSymbolTableRecord
100
AcDbLinetypeTableRecord
  2
HIDDEN
 70
64
  3
- - - - - - - - - - - - - - - - - - - -
 72
65
 73
2
 40
0.2
 49
0.1
 74
0
 49
-0.1
 74
0
  0
LTYPE
  5
1F7
100
AcDbSymbolTableRecord
100
AcDbLinetypeTableRecord
  2
PHANTOM
 70
64
  3
_____ _ _ _____ _ _ _____ _ _ _____
 72
65
 73
6
 40
0.8
 49
0.45
 74
0
 49
-0.05
 74
0
 49
0.1
 74
0
 49
-0.05
 74
0
 49
0.1
 74
0
 49
-0.05
 74
0
  0
LTYPE
  5
1F8
100
AcDbSymbolTableRecord
100
AcDbLinetypeTableRecord
  2
DOT
 70
64
  3
. . . . . . . . . . . . . . . . . . . .
 72
65
 73
2
 40
0.2
 49
0.1
 74
0
 49
-0.1
 74
0
  0
LTYPE
  5
1F9
100
AcDbSymbolTableRecord
100
AcDbLinetypeTableRecord
  2
DASHED
 70
64
  3
- - - - - - - - - - - - - - - - - - - -
 72
65
 73
2
 40
0.2
 49
0.1
 74
0
 49
-0.1
 74
0
  0
ENDTAB
  0
TABLE
  2
LAYER
  5
2
100
AcDbSymbolTable
 70
36
  0
LAYER
  5
10
100
AcDbSymbolTableRecord
100
AcDbLayerTableRecord
  2
0
 70
0
 62
7
  6
CONTINUOUS
370
-3
390
F
  0
LAYER
  5
1FA
100
AcDbSymbolTableRecord
100
AcDbLayerTableRecord
  2
DEFAULT_1
 70
0
 62
7
  6
CENTER
370
-3
390
F
  0
LAYER
  5
1FB
100
AcDbSymbolTableRecord
100
AcDbLayerTableRecord
  2
DEFAULT_2
 70
0
 62
7
  6
HIDDEN
370
-3
390
F
  0
LAYER
  5
1FC
100
AcDbSymbolTableRecord
100
AcDbLayerTableRecord
  2
DEFAULT_3
 70
0
 62
7
  6
PHANTOM
370
-3
390
F
  0
LAYER
  5
1FD
100
AcDbSymbolTableRecord
100
AcDbLayerTableRecord
  2
ASSI
 70
0
 62
7
  6
CONTINUOUS
370
-3
390
F
  0
LAYER
  5
1FE
100
AcDbSymbolTableRecord
100
AcDbLayerTableRecord
  2
COORDINATE
 70
0
 62
7
  6
CONTINUOUS
370
-3
390
F
  0
LAYER
  5
1FF
100
AcDbSymbolTableRecord
100
AcDbLayerTableRecord
  2
COORD_ORIGINE
 70
0
 62
7
  6
CONTINUOUS
370
-3
390
F
  0
LAYER
  5
200
100
AcDbSymbolTableRecord
100
AcDbLayerTableRecord
  2
COPY_PUBLISH
 70
0
 62
7
  6
CONTINUOUS
370
-3
390
F
  0
LAYER
  5
201
100
AcDbSymbolTableRecord
100
AcDbLayerTableRecord
  2
COSMETIC
 70
0
 62
7
  6
CONTINUOUS
370
-3
390
F
  0
LAYER
  5
202
100
AcDbSymbolTableRecord
100
AcDbLayerTableRecord
  2
COSMETICI
 70
0
 62
7
  6
CONTINUOUS
370
-3
390
F
  0
LAYER
  5
203
100
AcDbSymbolTableRecord
100
AcDbLayerTableRecord
  2
CURVE
 70
0
 62
7
  6
CONTINUOUS
370
-3
390
F
  0
LAYER
  5
204
100
AcDbSymbolTableRecord
100
AcDbLayerTableRecord
  2
CURVE_TASSELLI
 70
0
 62
7
  6
CONTINUOUS
370
-3
390
F
  0
LAYER
  5
205
100
AcDbSymbolTableRecord
100
AcDbLayerTableRecord
  2
DRAFT
 70
0
 62
7
  6
CONTINUOUS
370
-3
390
F
  0
LAYER
  5
206
100
AcDbSymbolTableRecord
100
AcDbLayerTableRecord
  2
IMPORT_IGES
 70
0
 62
7
  6
CONTINUOUS
370
-3
390
F
  0
LAYER
  5
207
100
AcDbSymbolTableRecord
100
AcDbLayerTableRecord
  2
INTFCLR_2
 70
0
 62
7
  6
CONTINUOUS
370
-3
390
F
  0
LAYER
  5
208
100
AcDbSymbolTableRecord
100
AcDbLayerTableRecord
  2
INTFCLR_3
 70
0
 62
7
  6
CONTINUOUS
370
-3
390
F
  0
LAYER
  5
209
100
AcDbSymbolTableRecord
100
AcDbLayerTableRecord
  2
INTF_1
 70
0
 62
7
  6
CONTINUOUS
370
-3
390
F
  0
LAYER
  5
20A
100
AcDbSymbolTableRecord
100
AcDbLayerTableRecord
  2
INTF_14
 70
0
 62
7
  6
CONTINUOUS
370
-3
390
F
  0
LAYER
  5
20B
100
AcDbSymbolTableRecord
100
AcDbLayerTableRecord
  2
INTF_15
 70
0
 62
7
  6
CONTINUOUS
370
-3
390
F
  0
LAYER
  5
20C
100
AcDbSymbolTableRecord
100
AcDbLayerTableRecord
  2
INTF_18
 70
0
 62
7
  6
CONTINUOUS
370
-3
390
F
  0
LAYER
  5
20D
100
AcDbSymbolTableRecord
100
AcDbLayerTableRecord
  2
INTF_19
 70
0
 62
7
  6
CONTINUOUS
370
-3
390
F
  0
LAYER
  5
20E
100
AcDbSymbolTableRecord
100
AcDbLayerTableRecord
  2
INTF_2
 70
0
 62
7
  6
CONTINUOUS
370
-3
390
F
  0
LAYER
  5
20F
100
AcDbSymbolTableRecord
100
AcDbLayerTableRecord
  2
INTF_7
 70
0
 62
7
  6
CONTINUOUS
370
-3
390
F
  0
LAYER
  5
210
100
AcDbSymbolTableRecord
100
AcDbLayerTableRecord
  2
INTF_CYAN
 70
0
 62
7
  6
CONTINUOUS
370
-3
390
F
  0
LAYER
  5
211
100
AcDbSymbolTableRecord
100
AcDbLayerTableRecord
  2
INTF_YELLOW
 70
0
 62
7
  6
CONTINUOUS
370
-3
390
F
  0
LAYER
  5
212
100
AcDbSymbolTableRecord
100
AcDbLayerTableRecord
  2
LIVELLO_1
 70
0
 62
7
  6
CONTINUOUS
370
-3
390
F
  0
LAYER
  5
213
100
AcDbSymbolTableRecord
100
AcDbLayerTableRecord
  2
NOTE
 70
0
 62
7
  6
CONTINUOUS
370
-3
390
F
  0
LAYER
  5
214
100
AcDbSymbolTableRecord
100
AcDbLayerTableRecord
  2
PIANI
 70
0
 62
7
  6
CONTINUOUS
370
-3
390
F
  0
LAYER
  5
215
100
AcDbSymbolTableRecord
100
AcDbLayerTableRecord
  2
PIANI_ORIGINE
 70
0
 62
7
  6
CONTINUOUS
370
-3
390
F
  0
LAYER
  5
216
100
AcDbSymbolTableRecord
100
AcDbLayerTableRecord
  2
PIANI_RIFERIMENTO
 70
0
 62
7
  6
CONTINUOUS
370
-3
390
F
  0
LAYER
  5
217
100
AcDbSymbolTableRecord
100
AcDbLayerTableRecord
  2
PUNTI
 70
0
 62
7
  6
CONTINUOUS
370
-3
390
F
  0
LAYER
  5
218
100
AcDbSymbolTableRecord
100
AcDbLayerTableRecord
  2
RACCORDO
 70
0
 62
7
  6
CONTINUOUS
370
-3
390
F
  0
LAYER
  5
219
100
AcDbSymbolTableRecord
100
AcDbLayerTableRecord
  2
RGB__255__255__255__
 70
0
 62
7
  6
CONTINUOUS
370
-3
390
F
  0
LAYER
  5
21A
100
AcDbSymbolTableRecord
100
AcDbLayerTableRecord
  2
RGB____0____0____0__
 70
0
 62
7
  6
CONTINUOUS
370
-3
390
F
  0
LAYER
  5
21B
100
AcDbSymbolTableRecord
100
AcDbLayerTableRecord
  2
SIMBOLI
 70
0
 62
7
  6
CONTINUOUS
370
-3
390
F
  0
LAYER
  5
21C
100
AcDbSymbolTableRecord
100
AcDbLayerTableRecord
  2
SMUSSO
 70
0
 62
7
  6
CONTINUOUS
370
-3
390
F
  0
LAYER
  5
21D
100
AcDbSymbolTableRecord
100
AcDbLayerTableRecord
  2
SNAPLINE
 70
0
 62
7
  6
CONTINUOUS
370
-3
390
F
  0
LAYER
  5
21E
100
AcDbSymbolTableRecord
100
AcDbLayerTableRecord
  2
SUPERFICI
 70
0
 62
7
  6
CONTINUOUS
370
-3
390
F
  0
LAYER
  5
21F
100
AcDbSymbolTableRecord
100
AcDbLayerTableRecord
  2
TRASH
 70
0
 62
7
  6
CONTINUOUS
370
-3
390
F
  0
LAYER
  5
220
100
AcDbSymbolTableRecord
100
AcDbLayerTableRecord
  2
WHITE
 70
0
 62
7
  6
CONTINUOUS
370
-3
390
F
  0
LAYER
  5
221
100
AcDbSymbolTableRecord
100
AcDbLayerTableRecord
  2
XSEC_DATUMS
 70
0
 62
7
  6
CONTINUOUS
370
-3
390
F
  0
ENDTAB
  0
TABLE
  2
STYLE
  5
3
100
AcDbSymbolTable
 70
1
  0
STYLE
  5
11
100
AcDbSymbolTableRecord
100
AcDbTextStyleTableRecord
  2
STANDARD
 70
0
 40
0.0
 41
0.8
 50
0.0
 71
0
 42
0.2
  3
txt
  4

  0
STYLE
  5
222
100
AcDbSymbolTableRecord
100
AcDbTextStyleTableRecord
  2
TEXTSTYLE_1
 70
0
 40
0.0
 41
0.8
 50
0.0
 71
0
 42
0.2
  3
gdt
  4

  0
ENDTAB
  0
TABLE
  2
VIEW
  5
6
100
AcDbSymbolTable
 70
0
  0
ENDTAB
  0
TABLE
  2
UCS
  5
7
100
AcDbSymbolTable
 70
0
  0
ENDTAB
  0
TABLE
  2
APPID
  5
9
100
AcDbSymbolTable
 70
1
  0
APPID
  5
223
100
AcDbSymbolTableRecord
100
AcDbRegAppTableRecord
  2
ACAD
 70
0
  0
ENDTAB
  0
TABLE
  2
BLOCK_RECORD
  5
1
100
AcDbSymbolTable
 70
0
  0
BLOCK_RECORD
  5
224
100
AcDbSymbolTableRecord
100
AcDbBlockTableRecord
  2
*Model_Space
  0
BLOCK_RECORD
  5
225
100
AcDbSymbolTableRecord
100
AcDbBlockTableRecord
  2
*Paper_Space
  0
BLOCK_RECORD
  5
226
100
AcDbSymbolTableRecord
100
AcDbBlockTableRecord
  2
_FILLED
  0
ENDTAB
  0
TABLE
  2
DIMSTYLE
  5
A
100
AcDbSymbolTable
 70
1
100
AcDbDimStyleTable
 71
0
  0
DIMSTYLE
105
227
100
AcDbSymbolTableRecord
100
AcDbDimStyleTableRecord
  2
STANDARD
 70
0
  3

  4

 40
1.0
 41
3.0
 42
0.5
 43
0.38
 44
1.5
 45
0.0
 46
0.0
 47
0.01
 48
0.01
140
3.0
141
0.09
142
0.0
143
25.4
144
1.0
145
0.0
146
1.0
147
0.625
 71
1.0
 72
0.0
 73
0
 74
0
 75
0
 76
0
 77
1
 78
8
 79
2
170
0
171
1
172
0
173
0
174
0
175
0
176
0
177
0
178
0
270
2
179
2
271
2
272
2
273
2
274
2
275
0
280
0
281
0
282
0
283
1
284
8
285
0
286
0
287
3
288
0
340
11
278
44
341
226
342
226
343
226
344
226
  0
ENDTAB
  0
ENDSEC
  0
SECTION
  2
BLOCKS
  0
BLOCK
  5
20
100
AcDbEntity
  8
0
100
AcDbBlockBegin
  2
*Model_Space
 70
0
 10
0.0
 20
0.0
 30
0.0
  3
*Model_Space
  1

  0
ENDBLK
  5
21
100
AcDbEntity
  8
0
100
AcDbBlockEnd
  0
BLOCK
  5
1C
100
AcDbEntity
  8
0
100
AcDbBlockBegin
  2
*Paper_Space
 70
0
 10
0.0
 20
0.0
 30
0.0
  3
*Paper_Space
  1

  0
ENDBLK
  5
1D
100
AcDbEntity
  8
0
100
AcDbBlockEnd
  0
BLOCK
  5
228
100
AcDbEntity
  8
0
100
AcDbBlockBegin
  2
_FILLED
 70
64
 10
0.0
 20
0.0
  3
_FILLED
  1

  0
SOLID
  5
229
100
AcDbEntity
  8
0
  6
BYBLOCK
 62
0
100
AcDbTrace
 10
0.0
 20
0.0
 11
-1.0
 21
0.1333333333
 12
-1.0
 22
-0.1333333333
 13
-1.0
 23
-0.1333333333
  0
ENDBLK
  5
22A
100
AcDbEntity
  8
0
  6
BYBLOCK
 62
0
100
AcDbBlockEnd
  0
ENDSEC
  0
SECTION
  2
ENTITIES
  0
LWPOLYLINE
  5
22B
100
AcDbEntity
  8
SMUSSO
100
AcDbPolyline
 62
7
  6
CONTINUOUS
 90
13
 70
0
 10
120.4574190546
 20
164.2104300495
 10
120.4258120739
 20
164.1897118807
 10
120.3964576377
 20
164.1653601909
 10
120.369505284
 20
164.13749302
 10
120.3450696425
 20
164.1062292468
 10
120.3232561302
 20
164.0717031977
 10
120.3041601792
 20
164.0340638867
 10
120.2878659756
 20
163.9934738844
 10
120.2744409044
 20
163.9501056242
 10
120.2639372794
 20
163.9041418289
 10
120.2563983595
 20
163.8557783303
 10
120.2518581555
 20
163.8052232262
 10
120.2503360889
 20
163.7526929894
  0
LINE
  5
22C
100
AcDbEntity
  8
RACCORDO
100
AcDbLine
 62
7
  6
CONTINUOUS
 10
120.45741871
 20
164.2104298505
 11
121.5180788818
 21
164.8228417405
  0
LINE
  5
22D
100
AcDbEntity
  8
SMUSSO
100
AcDbLine
 62
250
  6
CONTINUOUS
 10
120.9574428701
 20
164.1608886729
 11
122.0181030419
 21
164.7733005629
  0
LINE
  5
22E
100
AcDbEntity
  8
0
100
AcDbLine
 62
250
  6
CONTINUOUS
 10
125.023306862
 20
165.3653539601
 11
122.9726971965
 21
164.2226871103
  0
LINE
  5
22F
100
AcDbEntity
  8
ASSI
100
AcDbLine
 62
250
  6
CONTINUOUS
 10
125.023306862
 20
165.3653539601
 11
122.9726971965
 21
164.2226871103
  0
LINE
  5
230
100
AcDbEntity
  8
0
100
AcDbLine
 62
7
  6
CONTINUOUS
 10
124.5450347085
 20
165.4269288421
 11
122.6698197821
 21
164.397007485
  0
LINE
  5
231
100
AcDbEntity
  8
ASSI
100
AcDbLine
 62
7
  6
CONTINUOUS
 10
124.5450347085
 20
165.4269288421
 11
122.6698197821
 21
164.397007485
  0
LWPOLYLINE
  5
232
100
AcDbEntity
  8
SMUSSO
100
AcDbPolyline
 62
7
  6
CONTINUOUS
 90
13
 70
0
 10
121.5180788818
 20
164.8228417405
 10
121.5518754792
 20
164.8398794318
 10
121.5876440847
 20
164.8531216487
 10
121.6252559926
 20
164.862525805
 10
121.664550181
 20
164.8680516311
 10
121.7053583524
 20
164.8696754516
 10
121.7475056506
 20
164.8673903211
 10
121.7908114844
 20
164.8612060712
 10
121.8350905017
 20
164.8511492099
 10
121.8801532878
 20
164.8372627597
 10
121.9258069498
 20
164.8196061325
 10
121.9718559302
 20
164.7982549312
 10
122.0181030419
 20
164.7733005629
  0
LINE
  5
233
100
AcDbEntity
  8
SMUSSO
100
AcDbLine
 62
250
  6
CONTINUOUS
 10
120.2503360889
 20
162.9361438027
 11
120.9574428701
 21
164.1608886729
  0
LINE
  5
234
100
AcDbEntity
  8
0
100
AcDbLine
 62
250
  6
CONTINUOUS
 10
185.3113828091
 20
62.4734262919
 11
186.2199419152
 21
62.7119425639
  0
LINE
  5
235
100
AcDbEntity
  8
0
100
AcDbLine
 62
250
  6
CONTINUOUS
 10
186.6313277696
 20
63.0875853403
 11
185.3113828091
 21
62.796994279
  0
LINE
  5
236
100
AcDbEntity
  8
SMUSSO
100
AcDbLine
 62
250
  6
CONTINUOUS
 10
182.4757328334
 20
55.1585952321
 11
183.8899463957
 21
55.1585952321
  0
LINE
  5
237
100
AcDbEntity
  8
0
100
AcDbLine
 62
250
  6
CONTINUOUS
 10
186.1639182155
 20
66.0248325786
 11
185.6740698625
 21
65.8931713793
  0
LINE
  5
238
100
AcDbEntity
  8
0
100
AcDbLine
 62
250
  6
CONTINUOUS
 10
186.6313277696
 20
66.1487193797
 11
186.3678196932
 21
66.0805128404
  0
LINE
  5
239
100
AcDbEntity
  8
0
100
AcDbLine
 62
250
  6
CONTINUOUS
 10
185.3113828091
 20
65.5257898076
 11
186.6313277696
 21
65.8284425842
  0
LINE
  5
23A
100
AcDbEntity
  8
0
100
AcDbLine
 62
250
  6
CONTINUOUS
 10
185.3113828091
 20
64.522991216
 11
186.0442200729
 21
64.6373669959
  0
LINE
  5
23B
100
AcDbEntity
  8
0
100
AcDbLine
 62
250
  6
CONTINUOUS
 10
186.6313277696
 20
65.0093375578
 11
185.7730216518
 21
64.8811405676
  0
LWPOLYLINE
  5
23C
100
AcDbEntity
  8
SMUSSO
100
AcDbPolyline
 62
7
  6
CONTINUOUS
 90
13
 70
0
 10
183.1828396145
 20
54.7503995487
 10
183.2290962798
 20
54.7254508213
 10
183.2751510152
 20
54.7041029553
 10
183.3208066322
 20
54.6864473797
 10
183.3658655894
 20
54.6725585224
 10
183.4101369652
 20
54.6624970283
 10
183.4534372835
 20
54.6563095051
 10
183.4955840498
 20
54.654024137
 10
183.5363938346
 20
54.6556490066
 10
183.5756891815
 20
54.6611755955
 10
183.6133007081
 20
54.6705795949
 10
183.6490684738
 20
54.6838213808
 10
183.6828641193
 20
54.7008585699
  0
LINE
  5
23D
100
AcDbEntity
  8
SMUSSO
100
AcDbLine
 62
7
  6
CONTINUOUS
 10
120.2503360889
 20
91.086759445
 11
120.2503360889
 21
163.7526929894
  0
LINE
  5
23E
100
AcDbEntity
  8
RACCORDO
100
AcDbLine
 62
250
  6
CONTINUOUS
 10
135.3824212063
 20
135.74683925
 11
136.2309083397
 21
136.2367450868
  0
LWPOLYLINE
  5
23F
100
AcDbEntity
  8
RACCORDO
100
AcDbPolyline
 62
7
  6
CONTINUOUS
 90
13
 70
0
 10
135.6309203516
 20
136.2961234834
 10
135.6714314033
 20
136.3165134393
 10
135.7144754255
 20
136.3324492078
 10
135.7595323687
 20
136.3437442606
 10
135.8066280182
 20
136.3503391509
 10
135.8557365889
 20
136.3522933256
 10
135.9062316837
 20
136.3495818584
 10
135.9581310638
 20
136.3421449834
 10
136.011416968
 20
136.3300424665
 10
136.0654097162
 20
136.3134286795
 10
136.1198827481
 20
136.2923550798
 10
136.175062624
 20
136.26677021
 10
136.2309493438
 20
136.2366740702
  0
LINE
  5
240
100
AcDbEntity
  8
SMUSSO
100
AcDbLine
 62
7
  6
CONTINUOUS
 10
120.2503360889
 20
91.086759445
 11
183.1828396145
 21
54.7503995487
  0
LWPOLYLINE
  5
241
100
AcDbEntity
  8
0
100
AcDbPolyline
 62
7
  6
CONTINUOUS
 90
13
 70
0
 10
138.071881046
 20
132.5559973643
 10
138.086725482
 20
132.5658723291
 10
138.1051040391
 20
132.5802585582
 10
138.1222877137
 20
132.5963261336
 10
138.1380728018
 20
132.6139331776
 10
138.1523174713
 20
132.632955885
 10
138.164928656
 20
132.6533208347
 10
138.1757756423
 20
132.6748803251
 10
138.1847260728
 20
132.6974180583
 10
138.1917105314
 20
132.7207900804
 10
138.1966707513
 20
132.7448467028
 10
138.1995583985
 20
132.769376931
 10
138.2003742923
 20
132.7912438686
  0
LWPOLYLINE
  5
242
100
AcDbEntity
  8
ASSI
100
AcDbPolyline
 62
7
  6
CONTINUOUS
 90
13
 70
0
 10
138.071881046
 20
132.5559973643
 10
138.086725482
 20
132.5658723291
 10
138.1051040391
 20
132.5802585582
 10
138.1222877137
 20
132.5963261336
 10
138.1380728018
 20
132.6139331776
 10
138.1523174713
 20
132.632955885
 10
138.164928656
 20
132.6533208347
 10
138.1757756423
 20
132.6748803251
 10
138.1847260728
 20
132.6974180583
 10
138.1917105314
 20
132.7207900804
 10
138.1966707513
 20
132.7448467028
 10
138.1995583985
 20
132.769376931
 10
138.2003742923
 20
132.7912438686
  0
LINE
  5
243
100
AcDbEntity
  8
0
100
AcDbLine
 62
250
  6
CONTINUOUS
 10
137.5037415499
 20
132.3036013334
 11
138.1302092552
 21
132.6910183595
  0
LINE
  5
244
100
AcDbEntity
  8
ASSI
100
AcDbLine
 62
250
  6
CONTINUOUS
 10
137.5037415499
 20
132.3036013334
 11
138.1302092552
 21
132.6910183595
  0
LINE
  5
245
100
AcDbEntity
  8
0
100
AcDbLine
 62
7
  6
CONTINUOUS
 10
137.5037415499
 20
132.2046513436
 11
138.0719461273
 21
132.5560375775
  0
LINE
  5
246
100
AcDbEntity
  8
ASSI
100
AcDbLine
 62
7
  6
CONTINUOUS
 10
137.5037415499
 20
132.2046513436
 11
138.0719461273
 21
132.5560375775
  0
LWPOLYLINE
  5
247
100
AcDbEntity
  8
0
100
AcDbPolyline
 62
250
  6
CONTINUOUS
 90
4
 70
0
 10
137.7766283703
 20
125.8996941051
 10
137.7957185491
 20
125.9239195737
 10
137.815860746
 20
125.9469617774
 10
137.8370207258
 20
125.9686748859
  0
LWPOLYLINE
  5
248
100
AcDbEntity
  8
ASSI
100
AcDbPolyline
 62
250
  6
CONTINUOUS
 90
4
 70
0
 10
137.7766283703
 20
125.8996941051
 10
137.7957185491
 20
125.9239195737
 10
137.815860746
 20
125.9469617774
 10
137.8370207258
 20
125.9686748859
  0
LINE
  5
249
100
AcDbEntity
  8
0
100
AcDbLine
 62
250
  6
CONTINUOUS
 10
137.8370207258
 20
125.9686748859
 11
137.8592327236
 21
125.9892047295
  0
LINE
  5
24A
100
AcDbEntity
  8
ASSI
100
AcDbLine
 62
250
  6
CONTINUOUS
 10
137.8370207258
 20
125.9686748859
 11
137.8592327236
 21
125.9892047295
  0
LINE
  5
24B
100
AcDbEntity
  8
0
100
AcDbLine
 62
250
  6
CONTINUOUS
 10
137.8592327236
 20
125.9892047295
 11
137.8824967394
 21
126.0085513083
  0
LINE
  5
24C
100
AcDbEntity
  8
ASSI
100
AcDbLine
 62
250
  6
CONTINUOUS
 10
137.8592327236
 20
125.9892047295
 11
137.8824967394
 21
126.0085513083
  0
LWPOLYLINE
  5
24D
100
AcDbEntity
  8
0
100
AcDbPolyline
 62
7
  6
CONTINUOUS
 90
11
 70
0
 10
138.1082814472
 20
126.120789603
 10
138.110395452
 20
126.1224343861
 10
138.1284532756
 20
126.1381548506
 10
138.1448989664
 20
126.1556334256
 10
138.1594836296
 20
126.1746469348
 10
138.1720640751
 20
126.1950701639
 10
138.1824843874
 20
126.2167076046
 10
138.1906009663
 20
126.2392926682
 10
138.1963181025
 20
126.2625855732
 10
138.19957018
 20
126.2863752299
 10
138.2003678027
 20
126.3055296249
  0
LWPOLYLINE
  5
24E
100
AcDbEntity
  8
ASSI
100
AcDbPolyline
 62
7
  6
CONTINUOUS
 90
11
 70
0
 10
138.1082814472
 20
126.120789603
 10
138.110395452
 20
126.1224343861
 10
138.1284532756
 20
126.1381548506
 10
138.1448989664
 20
126.1556334256
 10
138.1594836296
 20
126.1746469348
 10
138.1720640751
 20
126.1950701639
 10
138.1824843874
 20
126.2167076046
 10
138.1906009663
 20
126.2392926682
 10
138.1963181025
 20
126.2625855732
 10
138.19957018
 20
126.2863752299
 10
138.2003678027
 20
126.3055296249
  0
LINE
  5
24F
100
AcDbEntity
  8
0
100
AcDbLine
 62
250
  6
CONTINUOUS
 10
137.8824967394
 20
126.0085513083
 11
138.1302092552
 21
126.1990985319
  0
LINE
  5
250
100
AcDbEntity
  8
ASSI
100
AcDbLine
 62
250
  6
CONTINUOUS
 10
137.8824967394
 20
126.0085513083
 11
138.1302092552
 21
126.1990985319
  0
LINE
  5
251
100
AcDbEntity
  8
0
100
AcDbLine
 62
7
  6
CONTINUOUS
 10
137.8605705836
 20
125.9302436502
 11
138.1082830726
 21
126.1207908532
  0
LINE
  5
252
100
AcDbEntity
  8
ASSI
100
AcDbLine
 62
7
  6
CONTINUOUS
 10
137.8605705836
 20
125.9302436502
 11
138.1082830726
 21
126.1207908532
  0
LWPOLYLINE
  5
253
100
AcDbEntity
  8
0
100
AcDbPolyline
 62
250
  6
CONTINUOUS
 90
8
 70
0
 10
138.1302092552
 20
126.1990985319
 10
138.1471801521
 20
126.2110270758
 10
138.1620481076
 20
126.2239586236
 10
138.1746536504
 20
126.2377628215
 10
138.1848757396
 20
126.252332204
 10
138.1925821944
 20
126.2674899501
 10
138.1976716233
 20
126.2829841117
 10
138.2000633809
 20
126.298219132
  0
LWPOLYLINE
  5
254
100
AcDbEntity
  8
ASSI
100
AcDbPolyline
 62
250
  6
CONTINUOUS
 90
8
 70
0
 10
138.1302092552
 20
126.1990985319
 10
138.1471801521
 20
126.2110270758
 10
138.1620481076
 20
126.2239586236
 10
138.1746536504
 20
126.2377628215
 10
138.1848757396
 20
126.252332204
 10
138.1925821944
 20
126.2674899501
 10
138.1976716233
 20
126.2829841117
 10
138.2000633809
 20
126.298219132
  0
LWPOLYLINE
  5
255
100
AcDbEntity
  8
0
100
AcDbPolyline
 62
250
  6
CONTINUOUS
 90
9
 70
0
 10
137.6432680594
 20
125.5362517739
 10
137.6568588642
 20
125.545268299
 10
137.6687626105
 20
125.5550476921
 10
137.6788517576
 20
125.5654851739
 10
137.687018207
 20
125.5764689142
 10
137.6931744604
 20
125.5878812302
 10
137.6972545576
 20
125.5995998472
 10
137.6992147826
 20
125.6114992086
 10
137.6994000993
 20
125.6164691815
  0
LWPOLYLINE
  5
256
100
AcDbEntity
  8
ASSI
100
AcDbPolyline
 62
250
  6
CONTINUOUS
 90
9
 70
0
 10
137.6432680594
 20
125.5362517739
 10
137.6568588642
 20
125.545268299
 10
137.6687626105
 20
125.5550476921
 10
137.6788517576
 20
125.5654851739
 10
137.687018207
 20
125.5764689142
 10
137.6931744604
 20
125.5878812302
 10
137.6972545576
 20
125.5995998472
 10
137.6992147826
 20
125.6114992086
 10
137.6994000993
 20
125.6164691815
  0
LINE
  5
257
100
AcDbEntity
  8
0
100
AcDbLine
 62
250
  6
CONTINUOUS
 10
137.9181095296
 20
127.2685229154
 11
137.5037415499
 21
127.0292712157
  0
LINE
  5
258
100
AcDbEntity
  8
ASSI
100
AcDbLine
 62
250
  6
CONTINUOUS
 10
137.9181095296
 20
127.2685229154
 11
137.5037415499
 21
127.0292712157
  0
LINE
  5
259
100
AcDbEntity
  8
0
100
AcDbLine
 62
250
  6
CONTINUOUS
 10
138.1302092552
 20
126.9011554147
 11
137.5037415499
 21
126.5394395712
  0
LINE
  5
25A
100
AcDbEntity
  8
ASSI
100
AcDbLine
 62
250
  6
CONTINUOUS
 10
138.1302092552
 20
126.9011554147
 11
137.5037415499
 21
126.5394395712
  0
LINE
  5
25B
100
AcDbEntity
  8
RACCORDO
100
AcDbLine
 62
7
  6
CONTINUOUS
 10
135.3824212063
 20
135.74683925
 11
135.3824212063
 21
100.8019114033
  0
LWPOLYLINE
  5
25C
100
AcDbEntity
  8
RACCORDO
100
AcDbPolyline
 62
7
  6
CONTINUOUS
 90
13
 70
0
 10
135.3824212063
 20
135.74683925
 10
135.3843024055
 20
135.8102834156
 10
135.3897371489
 20
135.8708596426
 10
135.3987254366
 20
135.9285679309
 10
135.4113359947
 20
135.9836301995
 10
135.427500097
 20
136.0358245295
 10
135.4470115648
 20
136.0844851641
 10
135.4699132772
 20
136.1295668371
 10
135.4961623551
 20
136.1711148146
 10
135.5254239823
 20
136.2085991377
 10
135.557736749
 20
136.2419677517
 10
135.5930620651
 20
136.2712727113
 10
135.6309203516
 20
136.2961234834
  0
LWPOLYLINE
  5
25D
100
AcDbEntity
  8
0
100
AcDbPolyline
 62
250
  6
CONTINUOUS
 90
8
 70
0
 10
138.2001426722
 20
132.7850778357
 10
138.1976924201
 20
132.7702036243
 10
138.1925923218
 20
132.7555553352
 10
138.1848970188
 20
132.7412899154
 10
138.1746889594
 20
132.7275602104
 10
138.1620775142
 20
132.7145133256
 10
138.1471978046
 20
132.7022890499
 10
138.1302092552
 20
132.6910183593
  0
LWPOLYLINE
  5
25E
100
AcDbEntity
  8
ASSI
100
AcDbPolyline
 62
250
  6
CONTINUOUS
 90
8
 70
0
 10
138.2001426722
 20
132.7850778357
 10
138.1976924201
 20
132.7702036243
 10
138.1925923218
 20
132.7555553352
 10
138.1848970188
 20
132.7412899154
 10
138.1746889594
 20
132.7275602104
 10
138.1620775142
 20
132.7145133256
 10
138.1471978046
 20
132.7022890499
 10
138.1302092552
 20
132.6910183593
  0
LWPOLYLINE
  5
25F
100
AcDbEntity
  8
0
100
AcDbPolyline
 62
250
  6
CONTINUOUS
 90
8
 70
0
 10
137.6749392898
 20
125.7090499922
 10
137.6859023395
 20
125.738334301
 10
137.6983656849
 20
125.7674848729
 10
137.7119175888
 20
125.795771987
 10
137.7263987507
 20
125.8229131753
 10
137.741968471
 20
125.8491909059
 10
137.7586929143
 20
125.874722863
 10
137.7766283703
 20
125.8996941051
  0
LWPOLYLINE
  5
260
100
AcDbEntity
  8
ASSI
100
AcDbPolyline
 62
250
  6
CONTINUOUS
 90
8
 70
0
 10
137.6749392898
 20
125.7090499922
 10
137.6859023395
 20
125.738334301
 10
137.6983656849
 20
125.7674848729
 10
137.7119175888
 20
125.795771987
 10
137.7263987507
 20
125.8229131753
 10
137.741968471
 20
125.8491909059
 10
137.7586929143
 20
125.874722863
 10
137.7766283703
 20
125.8996941051
  0
LINE
  5
261
100
AcDbEntity
  8
RACCORDO
100
AcDbLine
 62
7
  6
CONTINUOUS
 10
136.2309493438
 20
99.3322175591
 11
166.4951195785
 21
81.8580649647
  0
LWPOLYLINE
  5
262
100
AcDbEntity
  8
RACCORDO
100
AcDbPolyline
 62
7
  6
CONTINUOUS
 90
25
 70
0
 10
136.2309493438
 20
99.3322175591
 10
136.175062624
 20
99.3666580024
 10
136.1198827481
 20
99.4047934701
 10
136.0654097162
 20
99.4466239623
 10
136.011416968
 20
99.4923596475
 10
135.9581310638
 20
99.5417903572
 10
135.9062316837
 20
99.5942855854
 10
135.8557365889
 20
99.649884588
 10
135.8066280182
 20
99.7085481091
 10
135.7595323687
 20
99.769527875
 10
135.7144754255
 20
99.8328535565
 10
135.6714314033
 20
99.8984954828
 10
135.6309493438
 20
99.9656163683
 10
135.5930620651
 20
100.0342351582
 10
135.557736749
 20
100.1043329073
 10
135.5254239823
 20
100.1750154944
 10
135.4961623551
 20
100.2462904111
 10
135.4699132772
 20
100.3181501658
 10
135.4470115648
 20
100.3896781623
 10
135.427500097
 20
100.4608701507
 10
135.4113359947
 20
100.531730381
 10
135.3987254366
 20
100.601355006
 10
135.3897371489
 20
100.6694427436
 10
135.3843024055
 20
100.736294876
 10
135.3824212063
 20
100.8019114033
  0
LWPOLYLINE
  5
263
100
AcDbEntity
  8
0
100
AcDbPolyline
 62
250
  6
CONTINUOUS
 90
8
 70
0
 10
137.8824967394
 20
126.0085513083
 10
137.8838494995
 20
125.9917647284
 10
137.883247845
 20
125.976283651
 10
137.880699873
 20
125.9623164241
 10
137.8762398747
 20
125.950051022
 10
137.8699278738
 20
125.9396525153
 10
137.8618488188
 20
125.9312608495
 10
137.8605741916
 20
125.9302464259
  0
LWPOLYLINE
  5
264
100
AcDbEntity
  8
ASSI
100
AcDbPolyline
 62
250
  6
CONTINUOUS
 90
8
 70
0
 10
137.8824967394
 20
126.0085513083
 10
137.8838494995
 20
125.9917647284
 10
137.883247845
 20
125.976283651
 10
137.880699873
 20
125.9623164241
 10
137.8762398747
 20
125.950051022
 10
137.8699278738
 20
125.9396525153
 10
137.8618488188
 20
125.9312608495
 10
137.8605741916
 20
125.9302464259
  0
LWPOLYLINE
  5
265
100
AcDbEntity
  8
0
100
AcDbPolyline
 62
250
  6
CONTINUOUS
 90
8
 70
0
 10
138.1302092552
 20
126.1990985319
 10
138.1315620098
 20
126.1823119018
 10
138.1309603401
 20
126.166830787
 10
138.1284123452
 20
126.1528635359
 10
138.1239523181
 20
126.1405981216
 10
138.1176402847
 20
126.130199615
 10
138.1095611973
 20
126.1218079616
 10
138.1082830726
 20
126.1207908532
  0
LWPOLYLINE
  5
266
100
AcDbEntity
  8
ASSI
100
AcDbPolyline
 62
250
  6
CONTINUOUS
 90
8
 70
0
 10
138.1302092552
 20
126.1990985319
 10
138.1315620098
 20
126.1823119018
 10
138.1309603401
 20
126.166830787
 10
138.1284123452
 20
126.1528635359
 10
138.1239523181
 20
126.1405981216
 10
138.1176402847
 20
126.130199615
 10
138.1095611973
 20
126.1218079616
 10
138.1082830726
 20
126.1207908532
  0
LWPOLYLINE
  5
267
100
AcDbEntity
  8
0
100
AcDbPolyline
 62
7
  6
CONTINUOUS
 90
14
 70
0
 10
138.2003742468
 20
107.8142771086
 10
138.1991193221
 20
107.8417283463
 10
138.1956262493
 20
107.8677291987
 10
138.1899382159
 20
107.8934692669
 10
138.182071017
 20
107.918896685
 10
138.1722937049
 20
107.9433289965
 10
138.1605070367
 20
107.9671259322
 10
138.146613874
 20
107.9903219169
 10
138.13116377
 20
108.0119831167
 10
138.1141609685
 20
108.0321908137
 10
138.0953348054
 20
108.0511796182
 10
138.0751771107
 20
108.0683609138
 10
138.0537710035
 20
108.0836679511
 10
138.039928938
 20
108.0921649322
  0
LWPOLYLINE
  5
268
100
AcDbEntity
  8
ASSI
100
AcDbPolyline
 62
7
  6
CONTINUOUS
 90
14
 70
0
 10
138.2003742468
 20
107.8142771086
 10
138.1991193221
 20
107.8417283463
 10
138.1956262493
 20
107.8677291987
 10
138.1899382159
 20
107.8934692669
 10
138.182071017
 20
107.918896685
 10
138.1722937049
 20
107.9433289965
 10
138.1605070367
 20
107.9671259322
 10
138.146613874
 20
107.9903219169
 10
138.13116377
 20
108.0119831167
 10
138.1141609685
 20
108.0321908137
 10
138.0953348054
 20
108.0511796182
 10
138.0751771107
 20
108.0683609138
 10
138.0537710035
 20
108.0836679511
 10
138.039928938
 20
108.0921649322
  0
LWPOLYLINE
  5
269
100
AcDbEntity
  8
0
100
AcDbPolyline
 62
7
  6
CONTINUOUS
 90
14
 70
0
 10
138.2003742468
 20
127.0013286132
 10
138.1991193221
 20
127.028779851
 10
138.1956262493
 20
127.0547807034
 10
138.1899382159
 20
127.0805207715
 10
138.182071017
 20
127.1059481897
 10
138.1722937049
 20
127.1303805012
 10
138.1605070367
 20
127.1541774369
 10
138.146613874
 20
127.1773734216
 10
138.13116377
 20
127.1990346213
 10
138.1141609685
 20
127.2192423184
 10
138.0953348054
 20
127.2382311228
 10
138.0751771107
 20
127.2554124185
 10
138.0537710035
 20
127.2707194557
 10
138.039928938
 20
127.2792164369
  0
LWPOLYLINE
  5
26A
100
AcDbEntity
  8
ASSI
100
AcDbPolyline
 62
7
  6
CONTINUOUS
 90
14
 70
0
 10
138.2003742468
 20
127.0013286132
 10
138.1991193221
 20
127.028779851
 10
138.1956262493
 20
127.0547807034
 10
138.1899382159
 20
127.0805207715
 10
138.182071017
 20
127.1059481897
 10
138.1722937049
 20
127.1303805012
 10
138.1605070367
 20
127.1541774369
 10
138.146613874
 20
127.1773734216
 10
138.13116377
 20
127.1990346213
 10
138.1141609685
 20
127.2192423184
 10
138.0953348054
 20
127.2382311228
 10
138.0751771107
 20
127.2554124185
 10
138.0537710035
 20
127.2707194557
 10
138.039928938
 20
127.2792164369
  0
LWPOLYLINE
  5
26B
100
AcDbEntity
  8
RACCORDO
100
AcDbPolyline
 62
7
  6
CONTINUOUS
 90
25
 70
0
 10
137.5037415499
 20
102.0267351833
 10
137.5056227491
 20
101.961118656
 10
137.5110574925
 20
101.8942665236
 10
137.5200457801
 20
101.826178786
 10
137.5326563382
 20
101.7565541609
 10
137.5488204406
 20
101.6856939307
 10
137.5683319084
 20
101.6145019422
 10
137.5912336208
 20
101.5429739458
 10
137.6174826987
 20
101.4711141911
 10
137.6467443259
 20
101.3998392743
 10
137.6790570926
 20
101.3291566873
 10
137.7143824086
 20
101.2590589382
 10
137.7522696873
 20
101.1904401483
 10
137.7927517469
 20
101.1233192628
 10
137.835795769
 20
101.0576773365
 10
137.8808527123
 20
100.994351655
 10
137.9279483618
 20
100.9333718891
 10
137.9770569324
 20
100.874708368
 10
138.0275520272
 20
100.8191093654
 10
138.0794514073
 20
100.7666141372
 10
138.1327373116
 20
100.7171834275
 10
138.1867300597
 20
100.6714477423
 10
138.2412030917
 20
100.6296172501
 10
138.2963829676
 20
100.5914817824
 10
138.3522696873
 20
100.5570413391
  0
LWPOLYLINE
  5
26C
100
AcDbEntity
  8
0
100
AcDbPolyline
 62
7
  6
CONTINUOUS
 90
15
 70
0
 10
138.200367579
 20
114.3001374182
 10
138.2003538423
 20
114.3025551427
 10
138.1990100297
 20
114.3238835811
 10
138.1954900716
 20
114.3449354418
 10
138.1898236332
 20
114.3655452929
 10
138.1820855106
 20
114.3854506578
 10
138.1723670352
 20
114.4044516784
 10
138.1606988256
 20
114.4224791269
 10
138.1471265999
 20
114.4393988948
 10
138.1318648882
 20
114.4549138103
 10
138.1151785249
 20
114.4687994647
 10
138.097169269
 20
114.481030088
 10
138.0781132559
 20
114.4914984167
 10
138.0584480544
 20
114.5001040941
 10
138.0557642974
 20
114.5011248211
  0
LWPOLYLINE
  5
26D
100
AcDbEntity
  8
ASSI
100
AcDbPolyline
 62
7
  6
CONTINUOUS
 90
15
 70
0
 10
138.200367579
 20
114.3001374182
 10
138.2003538423
 20
114.3025551427
 10
138.1990100297
 20
114.3238835811
 10
138.1954900716
 20
114.3449354418
 10
138.1898236332
 20
114.3655452929
 10
138.1820855106
 20
114.3854506578
 10
138.1723670352
 20
114.4044516784
 10
138.1606988256
 20
114.4224791269
 10
138.1471265999
 20
114.4393988948
 10
138.1318648882
 20
114.4549138103
 10
138.1151785249
 20
114.4687994647
 10
138.097169269
 20
114.481030088
 10
138.0781132559
 20
114.4914984167
 10
138.0584480544
 20
114.5001040941
 10
138.0557642974
 20
114.5011248211
  0
LINE
  5
26E
100
AcDbEntity
  8
RACCORDO
100
AcDbLine
 62
7
  6
CONTINUOUS
 10
137.5037415499
 20
135.5017798022
 11
137.5037415499
 21
102.0267351833
  0
LINE
  5
26F
100
AcDbEntity
  8
0
100
AcDbLine
 62
250
  6
CONTINUOUS
 10
137.6432680594
 20
114.2865840469
 11
137.6432680594
 21
125.5362517739
  0
LINE
  5
270
100
AcDbEntity
  8
ASSI
100
AcDbLine
 62
250
  6
CONTINUOUS
 10
137.6432680594
 20
114.2865840469
 11
137.6432680594
 21
125.5362517739
  0
LINE
  5
271
100
AcDbEntity
  8
0
100
AcDbLine
 62
7
  6
CONTINUOUS
 10
137.6994000993
 20
114.3668014543
 11
137.6994000993
 21
125.6164691815
  0
LINE
  5
272
100
AcDbEntity
  8
ASSI
100
AcDbLine
 62
7
  6
CONTINUOUS
 10
137.6994000993
 20
114.3668014543
 11
137.6994000993
 21
125.6164691815
  0
LINE
  5
273
100
AcDbEntity
  8
0
100
AcDbLine
 62
250
  6
CONTINUOUS
 10
138.1302092552
 20
135.1400652006
 11
138.1302092552
 21
132.6910183595
  0
LINE
  5
274
100
AcDbEntity
  8
ASSI
100
AcDbLine
 62
250
  6
CONTINUOUS
 10
138.1302092552
 20
135.1400652006
 11
138.1302092552
 21
132.6910183595
  0
LINE
  5
275
100
AcDbEntity
  8
0
100
AcDbLine
 62
250
  6
CONTINUOUS
 10
138.1302092552
 20
126.9011554147
 11
138.1302092552
 21
126.1990985319
  0
LINE
  5
276
100
AcDbEntity
  8
ASSI
100
AcDbLine
 62
250
  6
CONTINUOUS
 10
138.1302092552
 20
126.9011554147
 11
138.1302092552
 21
126.1990985319
  0
LINE
  5
277
100
AcDbEntity
  8
0
100
AcDbLine
 62
250
  6
CONTINUOUS
 10
138.1302092552
 20
114.2060237377
 11
138.1302092552
 21
113.5039668549
  0
LINE
  5
278
100
AcDbEntity
  8
ASSI
100
AcDbLine
 62
250
  6
CONTINUOUS
 10
138.1302092552
 20
114.2060237377
 11
138.1302092552
 21
113.5039668549
  0
LINE
  5
279
100
AcDbEntity
  8
0
100
AcDbLine
 62
250
  6
CONTINUOUS
 10
138.1302092552
 20
107.7141039101
 11
138.1302092552
 21
100.719528581
  0
LINE
  5
27A
100
AcDbEntity
  8
ASSI
100
AcDbLine
 62
250
  6
CONTINUOUS
 10
138.1302092552
 20
107.7141039101
 11
138.1302092552
 21
100.719528581
  0
LINE
  5
27B
100
AcDbEntity
  8
0
100
AcDbLine
 62
7
  6
CONTINUOUS
 10
138.2003743051
 20
135.0995527802
 11
138.2003743051
 21
132.7912901279
  0
LINE
  5
27C
100
AcDbEntity
  8
ASSI
100
AcDbLine
 62
7
  6
CONTINUOUS
 10
138.2003743051
 20
135.0995527802
 11
138.2003743051
 21
132.7912901279
  0
LINE
  5
27D
100
AcDbEntity
  8
0
100
AcDbLine
 62
7
  6
CONTINUOUS
 10
138.2003743051
 20
127.0014271741
 11
138.2003743051
 21
126.3054944402
  0
LINE
  5
27E
100
AcDbEntity
  8
ASSI
100
AcDbLine
 62
7
  6
CONTINUOUS
 10
138.2003743051
 20
127.0014271741
 11
138.2003743051
 21
126.3054944402
  0
LINE
  5
27F
100
AcDbEntity
  8
0
100
AcDbLine
 62
7
  6
CONTINUOUS
 10
138.2003743051
 20
114.3001720772
 11
138.2003743051
 21
113.6042386232
  0
LINE
  5
280
100
AcDbEntity
  8
ASSI
100
AcDbLine
 62
7
  6
CONTINUOUS
 10
138.2003743051
 20
114.3001720772
 11
138.2003743051
 21
113.6042386232
  0
LINE
  5
281
100
AcDbEntity
  8
0
100
AcDbLine
 62
7
  6
CONTINUOUS
 10
138.2003743051
 20
107.8143756694
 11
138.2003743051
 21
100.6609701632
  0
LINE
  5
282
100
AcDbEntity
  8
ASSI
100
AcDbLine
 62
7
  6
CONTINUOUS
 10
138.2003743051
 20
107.8143756694
 11
138.2003743051
 21
100.6609701632
  0
LWPOLYLINE
  5
283
100
AcDbEntity
  8
0
100
AcDbPolyline
 62
7
  6
CONTINUOUS
 90
20
 70
0
 10
137.6994000986
 20
125.6164790293
 10
137.699459557
 20
125.6213558614
 10
137.7002308638
 20
125.6354310577
 10
137.7020452616
 20
125.651431825
 10
137.7050751466
 20
125.6692228929
 10
137.7093807805
 20
125.6882941601
 10
137.7150045256
 20
125.7083686473
 10
137.7219746057
 20
125.7292259624
 10
137.7301986552
 20
125.7503997223
 10
137.7395963796
 20
125.7715967761
 10
137.7500813016
 20
125.7925831464
 10
137.7614674246
 20
125.8129915889
 10
137.7735954439
 20
125.8325797573
 10
137.7863088914
 20
125.8511625306
 10
137.7993797216
 20
125.8684931248
 10
137.8126248138
 20
125.8844342845
 10
137.8258368205
 20
125.8988591608
 10
137.8387177692
 20
125.9115855223
 10
137.8510760695
 20
125.9225889281
 10
137.8605741916
 20
125.9302464259
  0
LWPOLYLINE
  5
284
100
AcDbEntity
  8
ASSI
100
AcDbPolyline
 62
7
  6
CONTINUOUS
 90
20
 70
0
 10
137.6994000986
 20
125.6164790293
 10
137.699459557
 20
125.6213558614
 10
137.7002308638
 20
125.6354310577
 10
137.7020452616
 20
125.651431825
 10
137.7050751466
 20
125.6692228929
 10
137.7093807805
 20
125.6882941601
 10
137.7150045256
 20
125.7083686473
 10
137.7219746057
 20
125.7292259624
 10
137.7301986552
 20
125.7503997223
 10
137.7395963796
 20
125.7715967761
 10
137.7500813016
 20
125.7925831464
 10
137.7614674246
 20
125.8129915889
 10
137.7735954439
 20
125.8325797573
 10
137.7863088914
 20
125.8511625306
 10
137.7993797216
 20
125.8684931248
 10
137.8126248138
 20
125.8844342845
 10
137.8258368205
 20
125.8988591608
 10
137.8387177692
 20
125.9115855223
 10
137.8510760695
 20
125.9225889281
 10
137.8605741916
 20
125.9302464259
  0
LWPOLYLINE
  5
285
100
AcDbEntity
  8
0
100
AcDbPolyline
 62
250
  6
CONTINUOUS
 90
16
 70
0
 10
138.1302092552
 20
132.6910183595
 10
138.1299535857
 20
132.6755198084
 10
138.1288502188
 20
132.6611075443
 10
138.1269952122
 20
132.6477769052
 10
138.1244891907
 20
132.6355363632
 10
138.1214209941
 20
132.6243330589
 10
138.1178531393
 20
132.6140663251
 10
138.1138579651
 20
132.6047032747
 10
138.1095074523
 20
132.596212186
 10
138.1048378759
 20
132.5885063958
 10
138.0998998151
 20
132.5815454474
 10
138.0947512413
 20
132.5753014421
 10
138.0894226467
 20
132.5697167978
 10
138.0839531661
 20
132.5647521923
 10
138.0783889488
 20
132.5603763286
 10
138.075119886
 20
132.5581519381
  0
LWPOLYLINE
  5
286
100
AcDbEntity
  8
ASSI
100
AcDbPolyline
 62
250
  6
CONTINUOUS
 90
16
 70
0
 10
138.1302092552
 20
132.6910183595
 10
138.1299535857
 20
132.6755198084
 10
138.1288502188
 20
132.6611075443
 10
138.1269952122
 20
132.6477769052
 10
138.1244891907
 20
132.6355363632
 10
138.1214209941
 20
132.6243330589
 10
138.1178531393
 20
132.6140663251
 10
138.1138579651
 20
132.6047032747
 10
138.1095074523
 20
132.596212186
 10
138.1048378759
 20
132.5885063958
 10
138.0998998151
 20
132.5815454474
 10
138.0947512413
 20
132.5753014421
 10
138.0894226467
 20
132.5697167978
 10
138.0839531661
 20
132.5647521923
 10
138.0783889488
 20
132.5603763286
 10
138.075119886
 20
132.5581519381
  0
LWPOLYLINE
  5
287
100
AcDbEntity
  8
0
100
AcDbPolyline
 62
250
  6
CONTINUOUS
 90
16
 70
0
 10
138.1302092552
 20
113.5039668549
 10
138.1299535857
 20
113.4884683037
 10
138.1288502188
 20
113.4740560397
 10
138.1269952122
 20
113.4607254006
 10
138.1244891907
 20
113.4484848585
 10
138.1214209941
 20
113.4372815543
 10
138.1178531393
 20
113.4270148205
 10
138.1138579651
 20
113.4176517701
 10
138.1095074523
 20
113.4091606814
 10
138.1048378759
 20
113.4014548912
 10
138.0998998151
 20
113.3944939428
 10
138.0947512413
 20
113.3882499375
 10
138.0894226467
 20
113.3826652931
 10
138.0839531661
 20
113.3777006877
 10
138.0783889488
 20
113.373324824
 10
138.075119886
 20
113.3711004334
  0
LWPOLYLINE
  5
288
100
AcDbEntity
  8
ASSI
100
AcDbPolyline
 62
250
  6
CONTINUOUS
 90
16
 70
0
 10
138.1302092552
 20
113.5039668549
 10
138.1299535857
 20
113.4884683037
 10
138.1288502188
 20
113.4740560397
 10
138.1269952122
 20
113.4607254006
 10
138.1244891907
 20
113.4484848585
 10
138.1214209941
 20
113.4372815543
 10
138.1178531393
 20
113.4270148205
 10
138.1138579651
 20
113.4176517701
 10
138.1095074523
 20
113.4091606814
 10
138.1048378759
 20
113.4014548912
 10
138.0998998151
 20
113.3944939428
 10
138.0947512413
 20
113.3882499375
 10
138.0894226467
 20
113.3826652931
 10
138.0839531661
 20
113.3777006877
 10
138.0783889488
 20
113.373324824
 10
138.075119886
 20
113.3711004334
  0
LWPOLYLINE
  5
289
100
AcDbEntity
  8
0
100
AcDbPolyline
 62
250
  6
CONTINUOUS
 90
9
 70
0
 10
138.2003743
 20
114.3001442983
 10
138.2001881004
 20
114.2949602346
 10
138.1978781913
 20
114.2811160377
 10
138.1929199271
 20
114.267384591
 10
138.185336321
 20
114.2539480582
 10
138.1751782372
 20
114.2409408964
 10
138.1625261381
 20
114.2285122239
 10
138.1474901073
 20
114.216823941
 10
138.1302092552
 20
114.2060237377
  0
LWPOLYLINE
  5
28A
100
AcDbEntity
  8
ASSI
100
AcDbPolyline
 62
250
  6
CONTINUOUS
 90
9
 70
0
 10
138.2003743
 20
114.3001442983
 10
138.2001881004
 20
114.2949602346
 10
138.1978781913
 20
114.2811160377
 10
138.1929199271
 20
114.267384591
 10
138.185336321
 20
114.2539480582
 10
138.1751782372
 20
114.2409408964
 10
138.1625261381
 20
114.2285122239
 10
138.1474901073
 20
114.216823941
 10
138.1302092552
 20
114.2060237377
  0
LINE
  5
28B
100
AcDbEntity
  8
0
100
AcDbLine
 62
250
  6
CONTINUOUS
 10
138.2001217367
 20
126.2985908467
 11
138.2003743051
 21
126.3054953433
  0
LINE
  5
28C
100
AcDbEntity
  8
ASSI
100
AcDbLine
 62
250
  6
CONTINUOUS
 10
138.2001217367
 20
126.2985908467
 11
138.2003743051
 21
126.3054953433
  0
LWPOLYLINE
  5
28D
100
AcDbEntity
  8
0
100
AcDbPolyline
 62
250
  6
CONTINUOUS
 90
7
 70
0
 10
137.6432680594
 20
125.5362517739
 10
137.6443021411
 20
125.5642034109
 10
137.6470340055
 20
125.5924942743
 10
137.6514636526
 20
125.6211243641
 10
137.6576569113
 20
125.6502513349
 10
137.6655479527
 20
125.679717532
 10
137.6749392898
 20
125.7090499922
  0
LWPOLYLINE
  5
28E
100
AcDbEntity
  8
ASSI
100
AcDbPolyline
 62
250
  6
CONTINUOUS
 90
7
 70
0
 10
137.6432680594
 20
125.5362517739
 10
137.6443021411
 20
125.5642034109
 10
137.6470340055
 20
125.5924942743
 10
137.6514636526
 20
125.6211243641
 10
137.6576569113
 20
125.6502513349
 10
137.6655479527
 20
125.679717532
 10
137.6749392898
 20
125.7090499922
  0
LINE
  5
28F
100
AcDbEntity
  8
0
100
AcDbLine
 62
250
  6
CONTINUOUS
 10
137.6992147851
 20
114.3618315158
 11
137.6994000976
 21
114.3667865995
  0
LINE
  5
290
100
AcDbEntity
  8
ASSI
100
AcDbLine
 62
250
  6
CONTINUOUS
 10
137.6992147851
 20
114.3618315158
 11
137.6994000976
 21
114.3667865995
  0
LWPOLYLINE
  5
291
100
AcDbEntity
  8
0
100
AcDbPolyline
 62
250
  6
CONTINUOUS
 90
9
 70
0
 10
138.2003742468
 20
127.0013286132
 10
138.2001426624
 20
126.9952147509
 10
138.1976923883
 20
126.9803405466
 10
138.1925922724
 20
126.965692271
 10
138.1848969588
 20
126.95142687
 10
138.1746888975
 20
126.9376971877
 10
138.1620774608
 20
126.9246503279
 10
138.1471977715
 20
126.9124260788
 10
138.1302092552
 20
126.9011554147
  0
LWPOLYLINE
  5
292
100
AcDbEntity
  8
ASSI
100
AcDbPolyline
 62
250
  6
CONTINUOUS
 90
9
 70
0
 10
138.2003742468
 20
127.0013286132
 10
138.2001426624
 20
126.9952147509
 10
138.1976923883
 20
126.9803405466
 10
138.1925922724
 20
126.965692271
 10
138.1848969588
 20
126.95142687
 10
138.1746888975
 20
126.9376971877
 10
138.1620774608
 20
126.9246503279
 10
138.1471977715
 20
126.9124260788
 10
138.1302092552
 20
126.9011554147
  0
LWPOLYLINE
  5
293
100
AcDbEntity
  8
0
100
AcDbPolyline
 62
250
  6
CONTINUOUS
 90
9
 70
0
 10
138.2003742468
 20
107.8142771086
 10
138.2001426624
 20
107.8081632463
 10
138.1976923883
 20
107.793289042
 10
138.1925922724
 20
107.7786407663
 10
138.1848969588
 20
107.7643753654
 10
138.1746888975
 20
107.750645683
 10
138.1620774608
 20
107.7375988233
 10
138.1471977715
 20
107.7253745742
 10
138.1302092552
 20
107.7141039101
  0
LWPOLYLINE
  5
294
100
AcDbEntity
  8
ASSI
100
AcDbPolyline
 62
250
  6
CONTINUOUS
 90
9
 70
0
 10
138.2003742468
 20
107.8142771086
 10
138.2001426624
 20
107.8081632463
 10
138.1976923883
 20
107.793289042
 10
138.1925922724
 20
107.7786407663
 10
138.1848969588
 20
107.7643753654
 10
138.1746888975
 20
107.750645683
 10
138.1620774608
 20
107.7375988233
 10
138.1471977715
 20
107.7253745742
 10
138.1302092552
 20
107.7141039101
  0
LWPOLYLINE
  5
295
100
AcDbEntity
  8
0
100
AcDbPolyline
 62
250
  6
CONTINUOUS
 90
16
 70
0
 10
137.8824967394
 20
114.1003552327
 10
137.883849499
 20
114.120996813
 10
137.8832478241
 20
114.1424401684
 10
137.8806998174
 20
114.1643967047
 10
137.876239776
 20
114.186570922
 10
137.8699277296
 20
114.2086643931
 10
137.8618486318
 20
114.2303797798
 10
137.8521112177
 20
114.2514248314
 10
137.8408465395
 20
114.2715163211
 10
137.828206201
 20
114.290383859
 10
137.8143603213
 20
114.3077735241
 10
137.7994952427
 20
114.3234512868
 10
137.7838110197
 20
114.3372061597
 10
137.7675187324
 20
114.3488530308
 10
137.7508376469
 20
114.3582351563
 10
137.7339922597
 20
114.3652262731
  0
LWPOLYLINE
  5
296
100
AcDbEntity
  8
ASSI
100
AcDbPolyline
 62
250
  6
CONTINUOUS
 90
16
 70
0
 10
137.8824967394
 20
114.1003552327
 10
137.883849499
 20
114.120996813
 10
137.8832478241
 20
114.1424401684
 10
137.8806998174
 20
114.1643967047
 10
137.876239776
 20
114.186570922
 10
137.8699277296
 20
114.2086643931
 10
137.8618486318
 20
114.2303797798
 10
137.8521112177
 20
114.2514248314
 10
137.8408465395
 20
114.2715163211
 10
137.828206201
 20
114.290383859
 10
137.8143603213
 20
114.3077735241
 10
137.7994952427
 20
114.3234512868
 10
137.7838110197
 20
114.3372061597
 10
137.7675187324
 20
114.3488530308
 10
137.7508376469
 20
114.3582351563
 10
137.7339922597
 20
114.3652262731
  0
LWPOLYLINE
  5
297
100
AcDbEntity
  8
0
100
AcDbPolyline
 62
250
  6
CONTINUOUS
 90
16
 70
0
 10
138.1302092552
 20
114.2060237377
 10
138.1315620153
 20
114.2266652026
 10
138.1309603608
 20
114.2481084546
 10
138.1284123887
 20
114.2700649053
 10
138.1239523904
 20
114.2922390597
 10
138.1176403896
 20
114.3143324927
 10
138.1095613345
 20
114.3360478657
 10
138.0998239552
 20
114.3570929282
 10
138.0885592994
 20
114.3771844506
 10
138.0759189697
 20
114.3960520367
 10
138.0620730825
 20
114.4134417618
 10
138.047207979
 20
114.4291195911
 10
138.0315237174
 20
114.4428745285
 10
138.0152313801
 20
114.454521457
 10
137.9985502332
 20
114.4639036293
 10
137.9817047755
 20
114.4708947781
  0
LWPOLYLINE
  5
298
100
AcDbEntity
  8
ASSI
100
AcDbPolyline
 62
250
  6
CONTINUOUS
 90
16
 70
0
 10
138.1302092552
 20
114.2060237377
 10
138.1315620153
 20
114.2266652026
 10
138.1309603608
 20
114.2481084546
 10
138.1284123887
 20
114.2700649053
 10
138.1239523904
 20
114.2922390597
 10
138.1176403896
 20
114.3143324927
 10
138.1095613345
 20
114.3360478657
 10
138.0998239552
 20
114.3570929282
 10
138.0885592994
 20
114.3771844506
 10
138.0759189697
 20
114.3960520367
 10
138.0620730825
 20
114.4134417618
 10
138.047207979
 20
114.4291195911
 10
138.0315237174
 20
114.4428745285
 10
138.0152313801
 20
114.454521457
 10
137.9985502332
 20
114.4639036293
 10
137.9817047755
 20
114.4708947781
  0
LWPOLYLINE
  5
299
100
AcDbEntity
  8
0
100
AcDbPolyline
 62
250
  6
CONTINUOUS
 90
8
 70
0
 10
138.2001426722
 20
113.5980263311
 10
138.1976924201
 20
113.5831521196
 10
138.1925923218
 20
113.5685038306
 10
138.1848970188
 20
113.5542384108
 10
138.1746889594
 20
113.5405087058
 10
138.1620775142
 20
113.5274618209
 10
138.1471978046
 20
113.5152375453
 10
138.1302092552
 20
113.5039668547
  0
LWPOLYLINE
  5
29A
100
AcDbEntity
  8
ASSI
100
AcDbPolyline
 62
250
  6
CONTINUOUS
 90
8
 70
0
 10
138.2001426722
 20
113.5980263311
 10
138.1976924201
 20
113.5831521196
 10
138.1925923218
 20
113.5685038306
 10
138.1848970188
 20
113.5542384108
 10
138.1746889594
 20
113.5405087058
 10
138.1620775142
 20
113.5274618209
 10
138.1471978046
 20
113.5152375453
 10
138.1302092552
 20
113.5039668547
  0
LWPOLYLINE
  5
29B
100
AcDbEntity
  8
0
100
AcDbPolyline
 62
250
  6
CONTINUOUS
 90
8
 70
0
 10
137.6432680594
 20
114.2865840469
 10
137.6568588724
 20
114.2956005781
 10
137.6687626239
 20
114.3053799773
 10
137.6788517732
 20
114.3158174651
 10
137.6870182223
 20
114.326801211
 10
137.6931744731
 20
114.3382135318
 10
137.6972545659
 20
114.3499321523
 10
137.6992147851
 20
114.3618315158
  0
LWPOLYLINE
  5
29C
100
AcDbEntity
  8
ASSI
100
AcDbPolyline
 62
250
  6
CONTINUOUS
 90
8
 70
0
 10
137.6432680594
 20
114.2865840469
 10
137.6568588724
 20
114.2956005781
 10
137.6687626239
 20
114.3053799773
 10
137.6788517732
 20
114.3158174651
 10
137.6870182223
 20
114.326801211
 10
137.6931744731
 20
114.3382135318
 10
137.6972545659
 20
114.3499321523
 10
137.6992147851
 20
114.3618315158
  0
LINE
  5
29D
100
AcDbEntity
  8
RACCORDO
100
AcDbLine
 62
7
  6
CONTINUOUS
 10
138.3522696873
 20
100.5570413391
 11
167.343647716
 21
83.8177830127
  0
LINE
  5
29E
100
AcDbEntity
  8
0
100
AcDbLine
 62
7
  6
CONTINUOUS
 10
165.1516166943
 20
85.1244550405
 11
161.2625293978
 21
87.3699653038
  0
LINE
  5
29F
100
AcDbEntity
  8
ASSI
100
AcDbLine
 62
7
  6
CONTINUOUS
 10
165.1516166943
 20
85.1244550405
 11
161.2625293978
 21
87.3699653038
  0
LINE
  5
2A0
100
AcDbEntity
  8
0
100
AcDbLine
 62
7
  6
CONTINUOUS
 10
149.2417141176
 20
94.3106333904
 11
145.3526268211
 21
96.5561436537
  0
LINE
  5
2A1
100
AcDbEntity
  8
ASSI
100
AcDbLine
 62
7
  6
CONTINUOUS
 10
149.2417141176
 20
94.3106333904
 11
145.3526268211
 21
96.5561436537
  0
LINE
  5
2A2
100
AcDbEntity
  8
0
100
AcDbLine
 62
7
  6
CONTINUOUS
 10
165.3991040677
 20
85.1448806066
 11
161.403950754
 21
87.4516202225
  0
LINE
  5
2A3
100
AcDbEntity
  8
ASSI
100
AcDbLine
 62
7
  6
CONTINUOUS
 10
165.3991040677
 20
85.1448806066
 11
161.403950754
 21
87.4516202225
  0
LINE
  5
2A4
100
AcDbEntity
  8
0
100
AcDbLine
 62
7
  6
CONTINUOUS
 10
149.489201491
 20
94.3310589565
 11
145.4940481773
 21
96.6377985723
  0
LINE
  5
2A5
100
AcDbEntity
  8
ASSI
100
AcDbLine
 62
7
  6
CONTINUOUS
 10
149.489201491
 20
94.3310589565
 11
145.4940481773
 21
96.6377985723
  0
LINE
  5
2A6
100
AcDbEntity
  8
0
100
AcDbLine
 62
7
  6
CONTINUOUS
 10
165.5051700849
 20
85.3285923372
 11
161.6160827884
 21
87.5741026005
  0
LINE
  5
2A7
100
AcDbEntity
  8
ASSI
100
AcDbLine
 62
7
  6
CONTINUOUS
 10
165.5051700849
 20
85.3285923372
 11
161.6160827884
 21
87.5741026005
  0
LINE
  5
2A8
100
AcDbEntity
  8
0
100
AcDbLine
 62
7
  6
CONTINUOUS
 10
149.5952675082
 20
94.514770687
 11
145.7061802117
 21
96.7602809503
  0
LINE
  5
2A9
100
AcDbEntity
  8
ASSI
100
AcDbLine
 62
7
  6
CONTINUOUS
 10
149.5952675082
 20
94.514770687
 11
145.7061802117
 21
96.7602809503
  0
LINE
  5
2AA
100
AcDbEntity
  8
0
100
AcDbLine
 62
7
  6
CONTINUOUS
 10
165.7526574583
 20
85.3490179033
 11
161.7575041446
 21
87.6557575191
  0
LINE
  5
2AB
100
AcDbEntity
  8
ASSI
100
AcDbLine
 62
7
  6
CONTINUOUS
 10
165.7526574583
 20
85.3490179033
 11
161.7575041446
 21
87.6557575191
  0
LINE
  5
2AC
100
AcDbEntity
  8
0
100
AcDbLine
 62
7
  6
CONTINUOUS
 10
149.8427548816
 20
94.5351962532
 11
145.8476015679
 21
96.841935869
  0
LINE
  5
2AD
100
AcDbEntity
  8
ASSI
100
AcDbLine
 62
7
  6
CONTINUOUS
 10
149.8427548816
 20
94.5351962532
 11
145.8476015679
 21
96.841935869
  0
LINE
  5
2AE
100
AcDbEntity
  8
0
100
AcDbLine
 62
7
  6
CONTINUOUS
 10
165.8587234755
 20
85.5327296338
 11
161.9696361789
 21
87.7782398971
  0
LINE
  5
2AF
100
AcDbEntity
  8
ASSI
100
AcDbLine
 62
7
  6
CONTINUOUS
 10
165.8587234755
 20
85.5327296338
 11
161.9696361789
 21
87.7782398971
  0
LINE
  5
2B0
100
AcDbEntity
  8
0
100
AcDbLine
 62
7
  6
CONTINUOUS
 10
149.9488208988
 20
94.7189079837
 11
146.0597336022
 21
96.964418247
  0
LINE
  5
2B1
100
AcDbEntity
  8
ASSI
100
AcDbLine
 62
7
  6
CONTINUOUS
 10
149.9488208988
 20
94.7189079837
 11
146.0597336022
 21
96.964418247
  0
LINE
  5
2B2
100
AcDbEntity
  8
0
100
AcDbLine
 62
7
  6
CONTINUOUS
 10
166.1062108489
 20
85.5531552
 11
162.1110575352
 21
87.8598948158
  0
LINE
  5
2B3
100
AcDbEntity
  8
ASSI
100
AcDbLine
 62
7
  6
CONTINUOUS
 10
166.1062108489
 20
85.5531552
 11
162.1110575352
 21
87.8598948158
  0
LINE
  5
2B4
100
AcDbEntity
  8
0
100
AcDbLine
 62
7
  6
CONTINUOUS
 10
150.1963082722
 20
94.7393335498
 11
146.2011549585
 21
97.0460731657
  0
LINE
  5
2B5
100
AcDbEntity
  8
ASSI
100
AcDbLine
 62
7
  6
CONTINUOUS
 10
150.1963082722
 20
94.7393335498
 11
146.2011549585
 21
97.0460731657
  0
LINE
  5
2B6
100
AcDbEntity
  8
0
100
AcDbLine
 62
7
  6
CONTINUOUS
 10
166.2122768661
 20
85.7368669305
 11
162.3231895695
 21
87.9823771938
  0
LINE
  5
2B7
100
AcDbEntity
  8
ASSI
100
AcDbLine
 62
7
  6
CONTINUOUS
 10
166.2122768661
 20
85.7368669305
 11
162.3231895695
 21
87.9823771938
  0
LINE
  5
2B8
100
AcDbEntity
  8
0
100
AcDbLine
 62
7
  6
CONTINUOUS
 10
150.3023742894
 20
94.9230452804
 11
146.4132869928
 21
97.1685555437
  0
LINE
  5
2B9
100
AcDbEntity
  8
ASSI
100
AcDbLine
 62
7
  6
CONTINUOUS
 10
150.3023742894
 20
94.9230452804
 11
146.4132869928
 21
97.1685555437
  0
LINE
  5
2BA
100
AcDbEntity
  8
0
100
AcDbLine
 62
7
  6
CONTINUOUS
 10
166.4597642395
 20
85.7572924966
 11
162.4646109258
 21
88.0640321125
  0
LINE
  5
2BB
100
AcDbEntity
  8
ASSI
100
AcDbLine
 62
7
  6
CONTINUOUS
 10
166.4597642395
 20
85.7572924966
 11
162.4646109258
 21
88.0640321125
  0
LINE
  5
2BC
100
AcDbEntity
  8
0
100
AcDbLine
 62
7
  6
CONTINUOUS
 10
150.5498616628
 20
94.9434708465
 11
146.5547083491
 21
97.2502104623
  0
LINE
  5
2BD
100
AcDbEntity
  8
ASSI
100
AcDbLine
 62
7
  6
CONTINUOUS
 10
150.5498616628
 20
94.9434708465
 11
146.5547083491
 21
97.2502104623
  0
LINE
  5
2BE
100
AcDbEntity
  8
0
100
AcDbLine
 62
7
  6
CONTINUOUS
 10
166.5658302567
 20
85.9410042271
 11
162.6767429601
 21
88.1865144905
  0
LINE
  5
2BF
100
AcDbEntity
  8
ASSI
100
AcDbLine
 62
7
  6
CONTINUOUS
 10
166.5658302567
 20
85.9410042271
 11
162.6767429601
 21
88.1865144905
  0
LINE
  5
2C0
100
AcDbEntity
  8
0
100
AcDbLine
 62
7
  6
CONTINUOUS
 10
150.65592768
 20
95.127182577
 11
146.7668403834
 21
97.3726928403
  0
LINE
  5
2C1
100
AcDbEntity
  8
ASSI
100
AcDbLine
 62
7
  6
CONTINUOUS
 10
150.65592768
 20
95.127182577
 11
146.7668403834
 21
97.3726928403
  0
LINE
  5
2C2
100
AcDbEntity
  8
0
100
AcDbLine
 62
7
  6
CONTINUOUS
 10
166.8133176301
 20
85.9614297933
 11
162.8181643164
 21
88.2681694091
  0
LINE
  5
2C3
100
AcDbEntity
  8
ASSI
100
AcDbLine
 62
7
  6
CONTINUOUS
 10
166.8133176301
 20
85.9614297933
 11
162.8181643164
 21
88.2681694091
  0
LINE
  5
2C4
100
AcDbEntity
  8
0
100
AcDbLine
 62
7
  6
CONTINUOUS
 10
150.9034150534
 20
95.1476081432
 11
146.9082617397
 21
97.454347759
  0
LINE
  5
2C5
100
AcDbEntity
  8
ASSI
100
AcDbLine
 62
7
  6
CONTINUOUS
 10
150.9034150534
 20
95.1476081432
 11
146.9082617397
 21
97.454347759
  0
LINE
  5
2C6
100
AcDbEntity
  8
0
100
AcDbLine
 62
7
  6
CONTINUOUS
 10
166.9193836473
 20
86.1451415238
 11
163.0302963507
 21
88.3906517871
  0
LINE
  5
2C7
100
AcDbEntity
  8
ASSI
100
AcDbLine
 62
7
  6
CONTINUOUS
 10
166.9193836473
 20
86.1451415238
 11
163.0302963507
 21
88.3906517871
  0
LINE
  5
2C8
100
AcDbEntity
  8
0
100
AcDbLine
 62
7
  6
CONTINUOUS
 10
151.0094810706
 20
95.3313198737
 11
147.120393774
 21
97.576830137
  0
LINE
  5
2C9
100
AcDbEntity
  8
ASSI
100
AcDbLine
 62
7
  6
CONTINUOUS
 10
151.0094810706
 20
95.3313198737
 11
147.120393774
 21
97.576830137
  0
LINE
  5
2CA
100
AcDbEntity
  8
0
100
AcDbLine
 62
7
  6
CONTINUOUS
 10
167.1668710207
 20
86.16556709
 11
163.171717707
 21
88.4723067058
  0
LINE
  5
2CB
100
AcDbEntity
  8
ASSI
100
AcDbLine
 62
7
  6
CONTINUOUS
 10
167.1668710207
 20
86.16556709
 11
163.171717707
 21
88.4723067058
  0
LINE
  5
2CC
100
AcDbEntity
  8
0
100
AcDbLine
 62
7
  6
CONTINUOUS
 10
151.256968444
 20
95.3517454398
 11
147.2618151303
 21
97.6584850557
  0
LINE
  5
2CD
100
AcDbEntity
  8
ASSI
100
AcDbLine
 62
7
  6
CONTINUOUS
 10
151.256968444
 20
95.3517454398
 11
147.2618151303
 21
97.6584850557
  0
LINE
  5
2CE
100
AcDbEntity
  8
0
100
AcDbLine
 62
250
  6
CONTINUOUS
 10
167.343647716
 20
86.1860823811
 11
163.2053127096
 21
88.5755051483
  0
LINE
  5
2CF
100
AcDbEntity
  8
ASSI
100
AcDbLine
 62
250
  6
CONTINUOUS
 10
167.343647716
 20
86.1860823811
 11
163.2053127096
 21
88.5755051483
  0
LINE
  5
2D0
100
AcDbEntity
  8
0
100
AcDbLine
 62
250
  6
CONTINUOUS
 10
151.5417473912
 20
95.3099015843
 11
147.2954101329
 21
97.7616834981
  0
LINE
  5
2D1
100
AcDbEntity
  8
ASSI
100
AcDbLine
 62
250
  6
CONTINUOUS
 10
151.5417473912
 20
95.3099015843
 11
147.2954101329
 21
97.7616834981
  0
LINE
  5
2D2
100
AcDbEntity
  8
0
100
AcDbLine
 62
250
  6
CONTINUOUS
 10
167.343647716
 20
86.2632800753
 11
163.2793598625
 21
88.6099489443
  0
LINE
  5
2D3
100
AcDbEntity
  8
ASSI
100
AcDbLine
 62
250
  6
CONTINUOUS
 10
167.343647716
 20
86.2632800753
 11
163.2793598625
 21
88.6099489443
  0
LINE
  5
2D4
100
AcDbEntity
  8
0
100
AcDbLine
 62
250
  6
CONTINUOUS
 10
151.6084197472
 20
95.3486034957
 11
147.3694572858
 21
97.7961272942
  0
LINE
  5
2D5
100
AcDbEntity
  8
ASSI
100
AcDbLine
 62
250
  6
CONTINUOUS
 10
151.6084197472
 20
95.3486034957
 11
147.3694572858
 21
97.7961272942
  0
LINE
  5
2D6
100
AcDbEntity
  8
0
100
AcDbLine
 62
7
  6
CONTINUOUS
 10
148.955059019
 20
98.3139532474
 11
152.7810604096
 21
96.1048679955
  0
LINE
  5
2D7
100
AcDbEntity
  8
ASSI
100
AcDbLine
 62
7
  6
CONTINUOUS
 10
148.955059019
 20
98.3139532474
 11
152.7810604096
 21
96.1048679955
  0
LINE
  5
2D8
100
AcDbEntity
  8
0
100
AcDbLine
 62
7
  6
CONTINUOUS
 10
164.8649615957
 20
89.1277748975
 11
167.343647716
 21
87.6966125969
  0
LINE
  5
2D9
100
AcDbEntity
  8
ASSI
100
AcDbLine
 62
7
  6
CONTINUOUS
 10
164.8649615957
 20
89.1277748975
 11
167.343647716
 21
87.6966125969
  0
LWPOLYLINE
  5
2DA
100
AcDbEntity
  8
0
100
AcDbPolyline
 62
7
  6
CONTINUOUS
 90
13
 70
0
 10
138.071881046
 20
113.3689458597
 10
138.086725482
 20
113.3788208245
 10
138.1051040391
 20
113.3932070535
 10
138.1222877137
 20
113.4092746289
 10
138.1380728018
 20
113.426881673
 10
138.1523174713
 20
113.4459043804
 10
138.164928656
 20
113.4662693301
 10
138.1757756423
 20
113.4878288205
 10
138.1847260728
 20
113.5103665537
 10
138.1917105314
 20
113.5337385758
 10
138.1966707513
 20
113.5577951982
 10
138.1995583985
 20
113.5823254264
 10
138.2003742923
 20
113.6041923639
  0
LWPOLYLINE
  5
2DB
100
AcDbEntity
  8
ASSI
100
AcDbPolyline
 62
7
  6
CONTINUOUS
 90
13
 70
0
 10
138.071881046
 20
113.3689458597
 10
138.086725482
 20
113.3788208245
 10
138.1051040391
 20
113.3932070535
 10
138.1222877137
 20
113.4092746289
 10
138.1380728018
 20
113.426881673
 10
138.1523174713
 20
113.4459043804
 10
138.164928656
 20
113.4662693301
 10
138.1757756423
 20
113.4878288205
 10
138.1847260728
 20
113.5103665537
 10
138.1917105314
 20
113.5337385758
 10
138.1966707513
 20
113.5577951982
 10
138.1995583985
 20
113.5823254264
 10
138.2003742923
 20
113.6041923639
  0
LINE
  5
2DC
100
AcDbEntity
  8
0
100
AcDbLine
 62
250
  6
CONTINUOUS
 10
137.5037415499
 20
113.1165498287
 11
138.1302092552
 21
113.5039668549
  0
LINE
  5
2DD
100
AcDbEntity
  8
ASSI
100
AcDbLine
 62
250
  6
CONTINUOUS
 10
137.5037415499
 20
113.1165498287
 11
138.1302092552
 21
113.5039668549
  0
LINE
  5
2DE
100
AcDbEntity
  8
0
100
AcDbLine
 62
7
  6
CONTINUOUS
 10
137.5037415499
 20
113.017599839
 11
138.0719461273
 21
113.3689860729
  0
LINE
  5
2DF
100
AcDbEntity
  8
ASSI
100
AcDbLine
 62
7
  6
CONTINUOUS
 10
137.5037415499
 20
113.017599839
 11
138.0719461273
 21
113.3689860729
  0
LINE
  5
2E0
100
AcDbEntity
  8
0
100
AcDbLine
 62
250
  6
CONTINUOUS
 10
137.9817047755
 20
114.4708947781
 11
137.7339922597
 21
114.3652262731
  0
LINE
  5
2E1
100
AcDbEntity
  8
ASSI
100
AcDbLine
 62
250
  6
CONTINUOUS
 10
137.9817047755
 20
114.4708947781
 11
137.7339922597
 21
114.3652262731
  0
LINE
  5
2E2
100
AcDbEntity
  8
0
100
AcDbLine
 62
250
  6
CONTINUOUS
 10
138.1302092552
 20
114.2060237377
 11
137.8824967394
 21
114.1003552327
  0
LINE
  5
2E3
100
AcDbEntity
  8
ASSI
100
AcDbLine
 62
250
  6
CONTINUOUS
 10
138.1302092552
 20
114.2060237377
 11
137.8824967394
 21
114.1003552327
  0
LWPOLYLINE
  5
2E4
100
AcDbEntity
  8
0
100
AcDbPolyline
 62
250
  6
CONTINUOUS
 90
5
 70
0
 10
137.7339922597
 20
114.3652262731
 10
137.7226585566
 20
114.3605239747
 10
137.711754958
 20
114.3571638322
 10
137.701374852
 20
114.3551476419
 10
137.6998062968
 20
114.3550366341
  0
LWPOLYLINE
  5
2E5
100
AcDbEntity
  8
ASSI
100
AcDbPolyline
 62
250
  6
CONTINUOUS
 90
5
 70
0
 10
137.7339922597
 20
114.3652262731
 10
137.7226585566
 20
114.3605239747
 10
137.711754958
 20
114.3571638322
 10
137.701374852
 20
114.3551476419
 10
137.6998062968
 20
114.3550366341
  0
LWPOLYLINE
  5
2E6
100
AcDbEntity
  8
0
100
AcDbPolyline
 62
250
  6
CONTINUOUS
 90
19
 70
0
 10
137.8824967394
 20
114.1003552327
 10
137.8582863277
 20
114.0914469676
 10
137.8349835936
 20
114.0853100794
 10
137.8125885371
 20
114.0819445679
 10
137.7909088647
 20
114.0814539409
 10
137.7701368698
 20
114.0837346908
 10
137.7508494331
 20
114.088476294
 10
137.7331246363
 20
114.0958884012
 10
137.7168843975
 20
114.1057613618
 10
137.702471352
 20
114.1171557009
 10
137.6901507695
 20
114.129831088
 10
137.6796573803
 20
114.1440278535
 10
137.67053801
 20
114.1595275146
 10
137.6626601851
 20
114.1759929943
 10
137.6561563792
 20
114.1937613695
 10
137.650970839
 20
114.2136253877
 10
137.64708498
 20
114.2358492978
 10
137.6445173868
 20
114.2601688509
 10
137.6432680594
 20
114.2865840469
  0
LWPOLYLINE
  5
2E7
100
AcDbEntity
  8
ASSI
100
AcDbPolyline
 62
250
  6
CONTINUOUS
 90
19
 70
0
 10
137.8824967394
 20
114.1003552327
 10
137.8582863277
 20
114.0914469676
 10
137.8349835936
 20
114.0853100794
 10
137.8125885371
 20
114.0819445679
 10
137.7909088647
 20
114.0814539409
 10
137.7701368698
 20
114.0837346908
 10
137.7508494331
 20
114.088476294
 10
137.7331246363
 20
114.0958884012
 10
137.7168843975
 20
114.1057613618
 10
137.702471352
 20
114.1171557009
 10
137.6901507695
 20
114.129831088
 10
137.6796573803
 20
114.1440278535
 10
137.67053801
 20
114.1595275146
 10
137.6626601851
 20
114.1759929943
 10
137.6561563792
 20
114.1937613695
 10
137.650970839
 20
114.2136253877
 10
137.64708498
 20
114.2358492978
 10
137.6445173868
 20
114.2601688509
 10
137.6432680594
 20
114.2865840469
  0
LWPOLYLINE
  5
2E8
100
AcDbEntity
  8
0
100
AcDbPolyline
 62
250
  6
CONTINUOUS
 90
9
 70
0
 10
138.0399289378
 20
108.0921649323
 10
138.0345288598
 20
108.0950148878
 10
138.0204231156
 20
108.1003285655
 10
138.0051880925
 20
108.1032344708
 10
137.9889870228
 20
108.1037014678
 10
137.9719934899
 20
108.1017245515
 10
137.9543895678
 20
108.0973249023
 10
137.93636387
 20
108.0905496583
 10
137.9181095296
 20
108.0814714107
  0
LWPOLYLINE
  5
2E9
100
AcDbEntity
  8
ASSI
100
AcDbPolyline
 62
250
  6
CONTINUOUS
 90
9
 70
0
 10
138.0399289378
 20
108.0921649323
 10
138.0345288598
 20
108.0950148878
 10
138.0204231156
 20
108.1003285655
 10
138.0051880925
 20
108.1032344708
 10
137.9889870228
 20
108.1037014678
 10
137.9719934899
 20
108.1017245515
 10
137.9543895678
 20
108.0973249023
 10
137.93636387
 20
108.0905496583
 10
137.9181095296
 20
108.0814714107
  0
LINE
  5
2EA
100
AcDbEntity
  8
0
100
AcDbLine
 62
250
  6
CONTINUOUS
 10
137.5037415499
 20
108.320722289
 11
137.9181095296
 21
108.0814714107
  0
LINE
  5
2EB
100
AcDbEntity
  8
ASSI
100
AcDbLine
 62
250
  6
CONTINUOUS
 10
137.5037415499
 20
108.320722289
 11
137.9181095296
 21
108.0814714107
  0
LINE
  5
2EC
100
AcDbEntity
  8
0
100
AcDbLine
 62
7
  6
CONTINUOUS
 10
137.5037415499
 20
108.4017529052
 11
138.0400304286
 21
108.0921064279
  0
LINE
  5
2ED
100
AcDbEntity
  8
ASSI
100
AcDbLine
 62
7
  6
CONTINUOUS
 10
137.5037415499
 20
108.4017529052
 11
138.0400304286
 21
108.0921064279
  0
LWPOLYLINE
  5
2EE
100
AcDbEntity
  8
0
100
AcDbPolyline
 62
250
  6
CONTINUOUS
 90
19
 70
0
 10
137.9181095296
 20
108.0814714107
 10
137.9370855143
 20
108.0698540855
 10
137.9556710035
 20
108.0565707832
 10
137.9737326718
 20
108.0417844299
 10
137.9910743558
 20
108.0257356735
 10
138.007667547
 20
108.0085322113
 10
138.0236249643
 20
107.9900897938
 10
138.0388977948
 20
107.9704454174
 10
138.0533022406
 20
107.9498153979
 10
138.0667321339
 20
107.9283461366
 10
138.079023582
 20
107.9063131354
 10
138.0901639103
 20
107.8837540038
 10
138.1002245204
 20
107.8604454169
 10
138.1091042527
 20
107.8364228865
 10
138.1166064324
 20
107.8119847463
 10
138.1225983415
 20
107.7873094809
 10
138.126946065
 20
107.7626080035
 10
138.1295213331
 20
107.7381222476
 10
138.1302092552
 20
107.7141039101
  0
LWPOLYLINE
  5
2EF
100
AcDbEntity
  8
ASSI
100
AcDbPolyline
 62
250
  6
CONTINUOUS
 90
19
 70
0
 10
137.9181095296
 20
108.0814714107
 10
137.9370855143
 20
108.0698540855
 10
137.9556710035
 20
108.0565707832
 10
137.9737326718
 20
108.0417844299
 10
137.9910743558
 20
108.0257356735
 10
138.007667547
 20
108.0085322113
 10
138.0236249643
 20
107.9900897938
 10
138.0388977948
 20
107.9704454174
 10
138.0533022406
 20
107.9498153979
 10
138.0667321339
 20
107.9283461366
 10
138.079023582
 20
107.9063131354
 10
138.0901639103
 20
107.8837540038
 10
138.1002245204
 20
107.8604454169
 10
138.1091042527
 20
107.8364228865
 10
138.1166064324
 20
107.8119847463
 10
138.1225983415
 20
107.7873094809
 10
138.126946065
 20
107.7626080035
 10
138.1295213331
 20
107.7381222476
 10
138.1302092552
 20
107.7141039101
  0
LWPOLYLINE
  5
2F0
100
AcDbEntity
  8
0
100
AcDbPolyline
 62
7
  6
CONTINUOUS
 90
8
 70
0
 10
137.7035267105
 20
114.3331350743
 10
137.7037418652
 20
114.332720626
 10
137.7035150421
 20
114.3333266243
 10
137.7026698594
 20
114.3360348395
 10
137.7015631711
 20
114.3408196147
 10
137.7005101485
 20
114.3474656806
 10
137.6997316145
 20
114.3558399511
 10
137.6994000976
 20
114.3667865995
  0
LWPOLYLINE
  5
2F1
100
AcDbEntity
  8
ASSI
100
AcDbPolyline
 62
7
  6
CONTINUOUS
 90
8
 70
0
 10
137.7035267105
 20
114.3331350743
 10
137.7037418652
 20
114.332720626
 10
137.7035150421
 20
114.3333266243
 10
137.7026698594
 20
114.3360348395
 10
137.7015631711
 20
114.3408196147
 10
137.7005101485
 20
114.3474656806
 10
137.6997316145
 20
114.3558399511
 10
137.6994000976
 20
114.3667865995
  0
LWPOLYLINE
  5
2F2
100
AcDbEntity
  8
0
100
AcDbPolyline
 62
250
  6
CONTINUOUS
 90
10
 70
0
 10
150.8437886055
 20
94.2824110507
 10
150.8460906762
 20
94.2769903047
 10
150.8479663824
 20
94.2718845542
 10
150.8493853202
 20
94.2671291864
 10
150.8503127873
 20
94.2627809601
 10
150.8507290433
 20
94.2588504572
 10
150.8506019908
 20
94.2553282844
 10
150.8498766053
 20
94.252272672
 10
150.8484975269
 20
94.249754517
 10
150.8477131369
 20
94.2488755328
  0
LWPOLYLINE
  5
2F3
100
AcDbEntity
  8
ASSI
100
AcDbPolyline
 62
250
  6
CONTINUOUS
 90
10
 70
0
 10
150.8437886055
 20
94.2824110507
 10
150.8460906762
 20
94.2769903047
 10
150.8479663824
 20
94.2718845542
 10
150.8493853202
 20
94.2671291864
 10
150.8503127873
 20
94.2627809601
 10
150.8507290433
 20
94.2588504572
 10
150.8506019908
 20
94.2553282844
 10
150.8498766053
 20
94.252272672
 10
150.8484975269
 20
94.249754517
 10
150.8477131369
 20
94.2488755328
  0
LINE
  5
2F4
100
AcDbEntity
  8
0
100
AcDbLine
 62
250
  6
CONTINUOUS
 10
137.9181095296
 20
108.0814714107
 11
137.5037415499
 21
107.842219711
  0
LINE
  5
2F5
100
AcDbEntity
  8
ASSI
100
AcDbLine
 62
250
  6
CONTINUOUS
 10
137.9181095296
 20
108.0814714107
 11
137.5037415499
 21
107.842219711
  0
LINE
  5
2F6
100
AcDbEntity
  8
0
100
AcDbLine
 62
250
  6
CONTINUOUS
 10
138.1302092552
 20
107.7141039101
 11
137.5037415499
 21
107.3523880666
  0
LINE
  5
2F7
100
AcDbEntity
  8
ASSI
100
AcDbLine
 62
250
  6
CONTINUOUS
 10
138.1302092552
 20
107.7141039101
 11
137.5037415499
 21
107.3523880666
  0
LINE
  5
2F8
100
AcDbEntity
  8
0
100
AcDbLine
 62
250
  6
CONTINUOUS
 10
152.7882680185
 20
95.9614183422
 11
152.7882680185
 21
95.5540487043
  0
LINE
  5
2F9
100
AcDbEntity
  8
ASSI
100
AcDbLine
 62
250
  6
CONTINUOUS
 10
152.7882680185
 20
95.9614183422
 11
152.7882680185
 21
95.5540487043
  0
LINE
  5
2FA
100
AcDbEntity
  8
0
100
AcDbLine
 62
7
  6
CONTINUOUS
 10
152.8396390534
 20
96.027995849
 11
152.8396390534
 21
95.5845939991
  0
LINE
  5
2FB
100
AcDbEntity
  8
ASSI
100
AcDbLine
 62
7
  6
CONTINUOUS
 10
152.8396390534
 20
96.027995849
 11
152.8396390534
 21
95.5845939991
  0
LINE
  5
2FC
100
AcDbEntity
  8
0
100
AcDbLine
 62
7
  6
CONTINUOUS
 10
145.3348645847
 20
96.5253785578
 11
145.3526268211
 21
96.5561436537
  0
LINE
  5
2FD
100
AcDbEntity
  8
ASSI
100
AcDbLine
 62
7
  6
CONTINUOUS
 10
145.3348645847
 20
96.5253785578
 11
145.3526268211
 21
96.5561436537
  0
LINE
  5
2FE
100
AcDbEntity
  8
0
100
AcDbLine
 62
7
  6
CONTINUOUS
 10
145.6001141945
 20
96.5765692198
 11
145.7061802117
 21
96.7602809503
  0
LINE
  5
2FF
100
AcDbEntity
  8
ASSI
100
AcDbLine
 62
7
  6
CONTINUOUS
 10
145.6001141945
 20
96.5765692198
 11
145.7061802117
 21
96.7602809503
  0
LINE
  5
300
100
AcDbEntity
  8
0
100
AcDbLine
 62
7
  6
CONTINUOUS
 10
145.9536675851
 20
96.7807065165
 11
146.0597336022
 21
96.964418247
  0
LINE
  5
301
100
AcDbEntity
  8
ASSI
100
AcDbLine
 62
7
  6
CONTINUOUS
 10
145.9536675851
 20
96.7807065165
 11
146.0597336022
 21
96.964418247
  0
LINE
  5
302
100
AcDbEntity
  8
0
100
AcDbLine
 62
7
  6
CONTINUOUS
 10
146.3072209757
 20
96.9848438131
 11
146.4132869928
 21
97.1685555437
  0
LINE
  5
303
100
AcDbEntity
  8
ASSI
100
AcDbLine
 62
7
  6
CONTINUOUS
 10
146.3072209757
 20
96.9848438131
 11
146.4132869928
 21
97.1685555437
  0
LINE
  5
304
100
AcDbEntity
  8
0
100
AcDbLine
 62
7
  6
CONTINUOUS
 10
146.6607743663
 20
97.1889811098
 11
146.7668403834
 21
97.3726928403
  0
LINE
  5
305
100
AcDbEntity
  8
ASSI
100
AcDbLine
 62
7
  6
CONTINUOUS
 10
146.6607743663
 20
97.1889811098
 11
146.7668403834
 21
97.3726928403
  0
LINE
  5
306
100
AcDbEntity
  8
0
100
AcDbLine
 62
7
  6
CONTINUOUS
 10
147.0143277569
 20
97.3931184065
 11
147.120393774
 21
97.576830137
  0
LINE
  5
307
100
AcDbEntity
  8
ASSI
100
AcDbLine
 62
7
  6
CONTINUOUS
 10
147.0143277569
 20
97.3931184065
 11
147.120393774
 21
97.576830137
  0
LINE
  5
308
100
AcDbEntity
  8
RACCORDO
100
AcDbLine
 62
250
  6
CONTINUOUS
 10
135.3824212063
 20
100.8019114033
 11
137.5037415499
 21
102.0267351833
  0
LINE
  5
309
100
AcDbEntity
  8
SMUSSO
100
AcDbLine
 62
250
  6
CONTINUOUS
 10
183.1828396145
 20
128.23272446
 11
184.2434997863
 21
128.84513635
  0
LINE
  5
30A
100
AcDbEntity
  8
SMUSSO
100
AcDbLine
 62
250
  6
CONTINUOUS
 10
183.8899463957
 20
127.0079795899
 11
184.9506065675
 21
127.6203914799
  0
LINE
  5
30B
100
AcDbEntity
  8
RACCORDO
100
AcDbLine
 62
250
  6
CONTINUOUS
 10
136.2309493438
 20
99.3322175591
 11
138.3522696873
 21
100.5570413391
  0
LINE
  5
30C
100
AcDbEntity
  8
0
100
AcDbLine
 62
250
  6
CONTINUOUS
 10
184.2081444473
 20
128.8661073282
 11
186.2587541127
 21
130.0087741779
  0
LINE
  5
30D
100
AcDbEntity
  8
ASSI
100
AcDbLine
 62
250
  6
CONTINUOUS
 10
184.2081444473
 20
128.8661073282
 11
186.2587541127
 21
130.0087741779
  0
LWPOLYLINE
  5
30E
100
AcDbEntity
  8
0
100
AcDbPolyline
 62
250
  6
CONTINUOUS
 90
6
 70
0
 10
138.0557554303
 20
114.5011281361
 10
138.0474841917
 20
114.5037705735
 10
138.0316285603
 20
114.506536569
 10
138.015120832
 20
114.5065641609
 10
137.9981955336
 20
114.5038529545
 10
137.9810931245
 20
114.4984414657
  0
LWPOLYLINE
  5
30F
100
AcDbEntity
  8
ASSI
100
AcDbPolyline
 62
250
  6
CONTINUOUS
 90
6
 70
0
 10
138.0557554303
 20
114.5011281361
 10
138.0474841917
 20
114.5037705735
 10
138.0316285603
 20
114.506536569
 10
138.015120832
 20
114.5065641609
 10
137.9981955336
 20
114.5038529545
 10
137.9810931245
 20
114.4984414657
  0
LINE
  5
310
100
AcDbEntity
  8
0
100
AcDbLine
 62
250
  6
CONTINUOUS
 10
137.7031241541
 20
114.3767644365
 11
137.7339922597
 21
114.3652262731
  0
LINE
  5
311
100
AcDbEntity
  8
ASSI
100
AcDbLine
 62
250
  6
CONTINUOUS
 10
137.7031241541
 20
114.3767644365
 11
137.7339922597
 21
114.3652262731
  0
LINE
  5
312
100
AcDbEntity
  8
0
100
AcDbLine
 62
250
  6
CONTINUOUS
 10
137.6994000993
 20
114.6037352669
 11
137.9810931245
 21
114.4984414657
  0
LINE
  5
313
100
AcDbEntity
  8
ASSI
100
AcDbLine
 62
250
  6
CONTINUOUS
 10
137.6994000993
 20
114.6037352669
 11
137.9810931245
 21
114.4984414657
  0
LINE
  5
314
100
AcDbEntity
  8
0
100
AcDbLine
 62
7
  6
CONTINUOUS
 10
137.6994000993
 20
114.6343298984
 11
138.0557554303
 21
114.5011281361
  0
LINE
  5
315
100
AcDbEntity
  8
ASSI
100
AcDbLine
 62
7
  6
CONTINUOUS
 10
137.6994000993
 20
114.6343298984
 11
138.0557554303
 21
114.5011281361
  0
LWPOLYLINE
  5
316
100
AcDbEntity
  8
0
100
AcDbPolyline
 62
250
  6
CONTINUOUS
 90
16
 70
0
 10
137.9810931245
 20
114.4984414657
 10
137.9846157074
 20
114.4969554311
 10
137.9876596089
 20
114.4953719853
 10
137.9902248291
 20
114.4936911284
 10
137.9923234155
 20
114.4918949798
 10
137.9939433206
 20
114.4900014201
 10
137.9950484015
 20
114.4880640905
 10
137.9956301916
 20
114.4860824736
 10
137.9956971576
 20
114.4840570867
 10
137.9952385565
 20
114.4820431231
 10
137.9942405768
 20
114.4800373077
 10
137.9927170299
 20
114.4780429156
 10
137.9906986073
 20
114.4761249648
 10
137.9881955392
 20
114.4743051279
 10
137.9851975953
 20
114.4725617324
 10
137.9817047755
 20
114.4708947781
  0
LWPOLYLINE
  5
317
100
AcDbEntity
  8
ASSI
100
AcDbPolyline
 62
250
  6
CONTINUOUS
 90
16
 70
0
 10
137.9810931245
 20
114.4984414657
 10
137.9846157074
 20
114.4969554311
 10
137.9876596089
 20
114.4953719853
 10
137.9902248291
 20
114.4936911284
 10
137.9923234155
 20
114.4918949798
 10
137.9939433206
 20
114.4900014201
 10
137.9950484015
 20
114.4880640905
 10
137.9956301916
 20
114.4860824736
 10
137.9956971576
 20
114.4840570867
 10
137.9952385565
 20
114.4820431231
 10
137.9942405768
 20
114.4800373077
 10
137.9927170299
 20
114.4780429156
 10
137.9906986073
 20
114.4761249648
 10
137.9881955392
 20
114.4743051279
 10
137.9851975953
 20
114.4725617324
 10
137.9817047755
 20
114.4708947781
  0
LINE
  5
318
100
AcDbEntity
  8
0
100
AcDbLine
 62
250
  6
CONTINUOUS
 10
150.8375277478
 20
94.2634303258
 11
150.8437886055
 21
94.2824110507
  0
LINE
  5
319
100
AcDbEntity
  8
ASSI
100
AcDbLine
 62
250
  6
CONTINUOUS
 10
150.8375277478
 20
94.2634303258
 11
150.8437886055
 21
94.2824110507
  0
LINE
  5
31A
100
AcDbEntity
  8
0
100
AcDbLine
 62
7
  6
CONTINUOUS
 10
149.2239518812
 20
94.2798682945
 11
149.2417141176
 21
94.3106333904
  0
LINE
  5
31B
100
AcDbEntity
  8
ASSI
100
AcDbLine
 62
7
  6
CONTINUOUS
 10
149.2239518812
 20
94.2798682945
 11
149.2417141176
 21
94.3106333904
  0
LINE
  5
31C
100
AcDbEntity
  8
0
100
AcDbLine
 62
7
  6
CONTINUOUS
 10
149.489201491
 20
94.3310589565
 11
149.5952675082
 21
94.514770687
  0
LINE
  5
31D
100
AcDbEntity
  8
ASSI
100
AcDbLine
 62
7
  6
CONTINUOUS
 10
149.489201491
 20
94.3310589565
 11
149.5952675082
 21
94.514770687
  0
LINE
  5
31E
100
AcDbEntity
  8
0
100
AcDbLine
 62
7
  6
CONTINUOUS
 10
149.8427548816
 20
94.5351962532
 11
149.9488208988
 21
94.7189079837
  0
LINE
  5
31F
100
AcDbEntity
  8
ASSI
100
AcDbLine
 62
7
  6
CONTINUOUS
 10
149.8427548816
 20
94.5351962532
 11
149.9488208988
 21
94.7189079837
  0
LINE
  5
320
100
AcDbEntity
  8
0
100
AcDbLine
 62
7
  6
CONTINUOUS
 10
150.1963082722
 20
94.7393335498
 11
150.3023742894
 21
94.9230452804
  0
LINE
  5
321
100
AcDbEntity
  8
ASSI
100
AcDbLine
 62
7
  6
CONTINUOUS
 10
150.1963082722
 20
94.7393335498
 11
150.3023742894
 21
94.9230452804
  0
LINE
  5
322
100
AcDbEntity
  8
0
100
AcDbLine
 62
7
  6
CONTINUOUS
 10
150.5498616628
 20
94.9434708465
 11
150.65592768
 21
95.127182577
  0
LINE
  5
323
100
AcDbEntity
  8
ASSI
100
AcDbLine
 62
7
  6
CONTINUOUS
 10
150.5498616628
 20
94.9434708465
 11
150.65592768
 21
95.127182577
  0
LINE
  5
324
100
AcDbEntity
  8
0
100
AcDbLine
 62
250
  6
CONTINUOUS
 10
184.9510447533
 20
127.5793662545
 11
186.9658608939
 21
128.7840293078
  0
LINE
  5
325
100
AcDbEntity
  8
ASSI
100
AcDbLine
 62
250
  6
CONTINUOUS
 10
184.9510447533
 20
127.5793662545
 11
186.9658608939
 21
128.7840293078
  0
LINE
  5
326
100
AcDbEntity
  8
0
100
AcDbLine
 62
7
  6
CONTINUOUS
 10
150.9034150534
 20
95.1476081432
 11
151.0094810706
 21
95.3313198737
  0
LINE
  5
327
100
AcDbEntity
  8
ASSI
100
AcDbLine
 62
7
  6
CONTINUOUS
 10
150.9034150534
 20
95.1476081432
 11
151.0094810706
 21
95.3313198737
  0
LINE
  5
328
100
AcDbEntity
  8
0
100
AcDbLine
 62
7
  6
CONTINUOUS
 10
145.3526268211
 20
96.5561436537
 11
145.4940481773
 21
96.6377985723
  0
LINE
  5
329
100
AcDbEntity
  8
ASSI
100
AcDbLine
 62
7
  6
CONTINUOUS
 10
145.3526268211
 20
96.5561436537
 11
145.4940481773
 21
96.6377985723
  0
LINE
  5
32A
100
AcDbEntity
  8
0
100
AcDbLine
 62
7
  6
CONTINUOUS
 10
145.7061802117
 20
96.7602809503
 11
145.8476015679
 21
96.841935869
  0
LINE
  5
32B
100
AcDbEntity
  8
ASSI
100
AcDbLine
 62
7
  6
CONTINUOUS
 10
145.7061802117
 20
96.7602809503
 11
145.8476015679
 21
96.841935869
  0
LINE
  5
32C
100
AcDbEntity
  8
0
100
AcDbLine
 62
7
  6
CONTINUOUS
 10
146.0597336022
 20
96.964418247
 11
146.2011549585
 21
97.0460731657
  0
LINE
  5
32D
100
AcDbEntity
  8
ASSI
100
AcDbLine
 62
7
  6
CONTINUOUS
 10
146.0597336022
 20
96.964418247
 11
146.2011549585
 21
97.0460731657
  0
LINE
  5
32E
100
AcDbEntity
  8
0
100
AcDbLine
 62
7
  6
CONTINUOUS
 10
146.4132869928
 20
97.1685555437
 11
146.5547083491
 21
97.2502104623
  0
LINE
  5
32F
100
AcDbEntity
  8
ASSI
100
AcDbLine
 62
7
  6
CONTINUOUS
 10
146.4132869928
 20
97.1685555437
 11
146.5547083491
 21
97.2502104623
  0
LINE
  5
330
100
AcDbEntity
  8
0
100
AcDbLine
 62
7
  6
CONTINUOUS
 10
146.7668403834
 20
97.3726928403
 11
146.9082617397
 21
97.454347759
  0
LINE
  5
331
100
AcDbEntity
  8
ASSI
100
AcDbLine
 62
7
  6
CONTINUOUS
 10
146.7668403834
 20
97.3726928403
 11
146.9082617397
 21
97.454347759
  0
LINE
  5
332
100
AcDbEntity
  8
0
100
AcDbLine
 62
7
  6
CONTINUOUS
 10
147.120393774
 20
97.576830137
 11
147.2618151303
 21
97.6584850557
  0
LINE
  5
333
100
AcDbEntity
  8
ASSI
100
AcDbLine
 62
7
  6
CONTINUOUS
 10
147.120393774
 20
97.576830137
 11
147.2618151303
 21
97.6584850557
  0
LINE
  5
334
100
AcDbEntity
  8
0
100
AcDbLine
 62
7
  6
CONTINUOUS
 10
145.137053032
 20
96.6395924692
 11
147.2954101329
 21
97.7616834981
  0
LINE
  5
335
100
AcDbEntity
  8
ASSI
100
AcDbLine
 62
7
  6
CONTINUOUS
 10
145.137053032
 20
96.6395924692
 11
147.2954101329
 21
97.7616834981
  0
LINE
  5
336
100
AcDbEntity
  8
0
100
AcDbLine
 62
7
  6
CONTINUOUS
 10
147.3694572858
 20
97.7961272942
 11
148.6798115415
 21
98.3335896209
  0
LINE
  5
337
100
AcDbEntity
  8
ASSI
100
AcDbLine
 62
7
  6
CONTINUOUS
 10
147.3694572858
 20
97.7961272942
 11
148.6798115415
 21
98.3335896209
  0
LWPOLYLINE
  5
338
100
AcDbEntity
  8
0
100
AcDbPolyline
 62
250
  6
CONTINUOUS
 90
9
 70
0
 10
138.0399289378
 20
127.279216437
 10
138.0345288598
 20
127.2820663925
 10
138.0204231156
 20
127.2873800701
 10
138.0051880925
 20
127.2902859755
 10
137.9889870228
 20
127.2907529724
 10
137.9719934899
 20
127.2887760562
 10
137.9543895678
 20
127.284376407
 10
137.93636387
 20
127.277601163
 10
137.9181095296
 20
127.2685229154
  0
LWPOLYLINE
  5
339
100
AcDbEntity
  8
ASSI
100
AcDbPolyline
 62
250
  6
CONTINUOUS
 90
9
 70
0
 10
138.0399289378
 20
127.279216437
 10
138.0345288598
 20
127.2820663925
 10
138.0204231156
 20
127.2873800701
 10
138.0051880925
 20
127.2902859755
 10
137.9889870228
 20
127.2907529724
 10
137.9719934899
 20
127.2887760562
 10
137.9543895678
 20
127.284376407
 10
137.93636387
 20
127.277601163
 10
137.9181095296
 20
127.2685229154
  0
LINE
  5
33A
100
AcDbEntity
  8
0
100
AcDbLine
 62
250
  6
CONTINUOUS
 10
137.5037415499
 20
127.5077737936
 11
137.9181095296
 21
127.2685229154
  0
LINE
  5
33B
100
AcDbEntity
  8
ASSI
100
AcDbLine
 62
250
  6
CONTINUOUS
 10
137.5037415499
 20
127.5077737936
 11
137.9181095296
 21
127.2685229154
  0
LINE
  5
33C
100
AcDbEntity
  8
0
100
AcDbLine
 62
7
  6
CONTINUOUS
 10
137.5037415499
 20
127.5888044099
 11
138.0400304286
 21
127.2791579326
  0
LINE
  5
33D
100
AcDbEntity
  8
ASSI
100
AcDbLine
 62
7
  6
CONTINUOUS
 10
137.5037415499
 20
127.5888044099
 11
138.0400304286
 21
127.2791579326
  0
LWPOLYLINE
  5
33E
100
AcDbEntity
  8
0
100
AcDbPolyline
 62
250
  6
CONTINUOUS
 90
19
 70
0
 10
137.9181095296
 20
127.2685229154
 10
137.9370855143
 20
127.2569055902
 10
137.9556710035
 20
127.2436222878
 10
137.9737326718
 20
127.2288359345
 10
137.9910743558
 20
127.2127871781
 10
138.007667547
 20
127.195583716
 10
138.0236249643
 20
127.1771412984
 10
138.0388977948
 20
127.157496922
 10
138.0533022406
 20
127.1368669025
 10
138.0667321339
 20
127.1153976412
 10
138.079023582
 20
127.09336464
 10
138.0901639103
 20
127.0708055085
 10
138.1002245204
 20
127.0474969216
 10
138.1091042527
 20
127.0234743911
 10
138.1166064324
 20
126.9990362509
 10
138.1225983415
 20
126.9743609856
 10
138.126946065
 20
126.9496595081
 10
138.1295213331
 20
126.9251737522
 10
138.1302092552
 20
126.9011554147
  0
LWPOLYLINE
  5
33F
100
AcDbEntity
  8
ASSI
100
AcDbPolyline
 62
250
  6
CONTINUOUS
 90
19
 70
0
 10
137.9181095296
 20
127.2685229154
 10
137.9370855143
 20
127.2569055902
 10
137.9556710035
 20
127.2436222878
 10
137.9737326718
 20
127.2288359345
 10
137.9910743558
 20
127.2127871781
 10
138.007667547
 20
127.195583716
 10
138.0236249643
 20
127.1771412984
 10
138.0388977948
 20
127.157496922
 10
138.0533022406
 20
127.1368669025
 10
138.0667321339
 20
127.1153976412
 10
138.079023582
 20
127.09336464
 10
138.0901639103
 20
127.0708055085
 10
138.1002245204
 20
127.0474969216
 10
138.1091042527
 20
127.0234743911
 10
138.1166064324
 20
126.9990362509
 10
138.1225983415
 20
126.9743609856
 10
138.126946065
 20
126.9496595081
 10
138.1295213331
 20
126.9251737522
 10
138.1302092552
 20
126.9011554147
  0
LINE
  5
340
100
AcDbEntity
  8
0
100
AcDbLine
 62
250
  6
CONTINUOUS
 10
150.8437886055
 20
94.2824110507
 11
151.1797335704
 21
94.6091646405
  0
LINE
  5
341
100
AcDbEntity
  8
ASSI
100
AcDbLine
 62
250
  6
CONTINUOUS
 10
150.8437886055
 20
94.2824110507
 11
151.1797335704
 21
94.6091646405
  0
LINE
  5
342
100
AcDbEntity
  8
0
100
AcDbLine
 62
7
  6
CONTINUOUS
 10
150.8477135001
 20
94.2488758862
 11
151.2766978437
 21
94.6661233191
  0
LINE
  5
343
100
AcDbEntity
  8
ASSI
100
AcDbLine
 62
7
  6
CONTINUOUS
 10
150.8477135001
 20
94.2488758862
 11
151.2766978437
 21
94.6661233191
  0
LWPOLYLINE
  5
344
100
AcDbEntity
  8
0
100
AcDbPolyline
 62
250
  6
CONTINUOUS
 90
5
 70
0
 10
150.7946064752
 20
94.2078506951
 10
150.8078326316
 20
94.2184120404
 10
150.8194656937
 20
94.231280199
 10
150.8293945983
 20
94.2463331205
 10
150.8375277478
 20
94.2634303258
  0
LWPOLYLINE
  5
345
100
AcDbEntity
  8
ASSI
100
AcDbPolyline
 62
250
  6
CONTINUOUS
 90
5
 70
0
 10
150.7946064752
 20
94.2078506951
 10
150.8078326316
 20
94.2184120404
 10
150.8194656937
 20
94.231280199
 10
150.8293945983
 20
94.2463331205
 10
150.8375277478
 20
94.2634303258
  0
LINE
  5
346
100
AcDbEntity
  8
0
100
AcDbLine
 62
7
  6
CONTINUOUS
 10
151.5417473912
 20
95.3099015843
 11
149.5983539285
 21
94.0636932448
  0
LINE
  5
347
100
AcDbEntity
  8
ASSI
100
AcDbLine
 62
7
  6
CONTINUOUS
 10
151.5417473912
 20
95.3099015843
 11
149.5983539285
 21
94.0636932448
  0
LINE
  5
348
100
AcDbEntity
  8
0
100
AcDbLine
 62
250
  6
CONTINUOUS
 10
150.7890999787
 20
94.2044123417
 11
150.7946064752
 21
94.2078506951
  0
LINE
  5
349
100
AcDbEntity
  8
ASSI
100
AcDbLine
 62
250
  6
CONTINUOUS
 10
150.7890999787
 20
94.2044123417
 11
150.7946064752
 21
94.2078506951
  0
LINE
  5
34A
100
AcDbEntity
  8
0
100
AcDbLine
 62
7
  6
CONTINUOUS
 10
149.92755998
 20
93.8736137966
 11
152.7882680185
 21
95.5540487043
  0
LINE
  5
34B
100
AcDbEntity
  8
ASSI
100
AcDbLine
 62
7
  6
CONTINUOUS
 10
149.92755998
 20
93.8736137966
 11
152.7882680185
 21
95.5540487043
  0
LINE
  5
34C
100
AcDbEntity
  8
0
100
AcDbLine
 62
7
  6
CONTINUOUS
 10
150.7890991504
 20
94.204411861
 11
150.0736365477
 21
93.7892710172
  0
LINE
  5
34D
100
AcDbEntity
  8
ASSI
100
AcDbLine
 62
7
  6
CONTINUOUS
 10
150.7890991504
 20
94.204411861
 11
150.0736365477
 21
93.7892710172
  0
LINE
  5
34E
100
AcDbEntity
  8
0
100
AcDbLine
 62
250
  6
CONTINUOUS
 10
150.8437886055
 20
94.2824110507
 11
150.033403451
 21
93.812501103
  0
LINE
  5
34F
100
AcDbEntity
  8
ASSI
100
AcDbLine
 62
250
  6
CONTINUOUS
 10
150.8437886055
 20
94.2824110507
 11
150.033403451
 21
93.812501103
  0
LINE
  5
350
100
AcDbEntity
  8
0
100
AcDbLine
 62
7
  6
CONTINUOUS
 10
149.2417141176
 20
94.3106333904
 11
149.3831354738
 21
94.392288309
  0
LINE
  5
351
100
AcDbEntity
  8
ASSI
100
AcDbLine
 62
7
  6
CONTINUOUS
 10
149.2417141176
 20
94.3106333904
 11
149.3831354738
 21
94.392288309
  0
LINE
  5
352
100
AcDbEntity
  8
0
100
AcDbLine
 62
7
  6
CONTINUOUS
 10
149.5952675082
 20
94.514770687
 11
149.7366888644
 21
94.5964256057
  0
LINE
  5
353
100
AcDbEntity
  8
ASSI
100
AcDbLine
 62
7
  6
CONTINUOUS
 10
149.5952675082
 20
94.514770687
 11
149.7366888644
 21
94.5964256057
  0
LINE
  5
354
100
AcDbEntity
  8
0
100
AcDbLine
 62
7
  6
CONTINUOUS
 10
149.9488208988
 20
94.7189079837
 11
150.090242255
 21
94.8005629024
  0
LINE
  5
355
100
AcDbEntity
  8
ASSI
100
AcDbLine
 62
7
  6
CONTINUOUS
 10
149.9488208988
 20
94.7189079837
 11
150.090242255
 21
94.8005629024
  0
LINE
  5
356
100
AcDbEntity
  8
0
100
AcDbLine
 62
7
  6
CONTINUOUS
 10
150.3023742894
 20
94.9230452804
 11
150.4437956456
 21
95.004700199
  0
LINE
  5
357
100
AcDbEntity
  8
ASSI
100
AcDbLine
 62
7
  6
CONTINUOUS
 10
150.3023742894
 20
94.9230452804
 11
150.4437956456
 21
95.004700199
  0
LINE
  5
358
100
AcDbEntity
  8
0
100
AcDbLine
 62
7
  6
CONTINUOUS
 10
150.65592768
 20
95.127182577
 11
150.7973490362
 21
95.2088374957
  0
LINE
  5
359
100
AcDbEntity
  8
ASSI
100
AcDbLine
 62
7
  6
CONTINUOUS
 10
150.65592768
 20
95.127182577
 11
150.7973490362
 21
95.2088374957
  0
LINE
  5
35A
100
AcDbEntity
  8
0
100
AcDbLine
 62
7
  6
CONTINUOUS
 10
151.0094810706
 20
95.3313198737
 11
151.1509024268
 21
95.4129747924
  0
LINE
  5
35B
100
AcDbEntity
  8
ASSI
100
AcDbLine
 62
7
  6
CONTINUOUS
 10
151.0094810706
 20
95.3313198737
 11
151.1509024268
 21
95.4129747924
  0
LINE
  5
35C
100
AcDbEntity
  8
0
100
AcDbLine
 62
7
  6
CONTINUOUS
 10
151.256968444
 20
95.3517454398
 11
149.3122471285
 21
94.2288877254
  0
LINE
  5
35D
100
AcDbEntity
  8
ASSI
100
AcDbLine
 62
7
  6
CONTINUOUS
 10
151.256968444
 20
95.3517454398
 11
149.3122471285
 21
94.2288877254
  0
LINE
  5
35E
100
AcDbEntity
  8
0
100
AcDbLine
 62
7
  6
CONTINUOUS
 10
152.7882680185
 20
95.9614183422
 11
151.6084197472
 21
95.3486034957
  0
LINE
  5
35F
100
AcDbEntity
  8
ASSI
100
AcDbLine
 62
7
  6
CONTINUOUS
 10
152.7882680185
 20
95.9614183422
 11
151.6084197472
 21
95.3486034957
  0
LINE
  5
360
100
AcDbEntity
  8
RACCORDO
100
AcDbLine
 62
7
  6
CONTINUOUS
 10
167.343647716
 20
82.3478997849
 11
167.343647716
 21
117.2928276316
  0
LWPOLYLINE
  5
361
100
AcDbEntity
  8
RACCORDO
100
AcDbPolyline
 62
7
  6
CONTINUOUS
 90
13
 70
0
 10
167.343647716
 20
82.3478997849
 10
167.3417665168
 20
82.2844556193
 10
167.3363317734
 20
82.2238793923
 10
167.3273434857
 20
82.166171104
 10
167.3147329276
 20
82.1111088354
 10
167.2985688253
 20
82.0589145053
 10
167.2790573575
 20
82.0102538708
 10
167.2561556451
 20
81.9651721978
 10
167.2299065672
 20
81.9236242202
 10
167.20064494
 20
81.8861398971
 10
167.1683321733
 20
81.8527712831
 10
167.1330068572
 20
81.8234663236
 10
167.0951485707
 20
81.7986155515
  0
LINE
  5
362
100
AcDbEntity
  8
SMUSSO
100
AcDbLine
 62
250
  6
CONTINUOUS
 10
182.4757328334
 20
127.0079795899
 11
183.1828396145
 21
128.23272446
  0
LINE
  5
363
100
AcDbEntity
  8
SMUSSO
100
AcDbLine
 62
250
  6
CONTINUOUS
 10
182.4757328334
 20
127.0079795899
 11
183.8899463957
 21
127.0079795899
  0
LINE
  5
364
100
AcDbEntity
  8
RACCORDO
100
AcDbLine
 62
7
  6
CONTINUOUS
 10
166.4951195785
 20
118.7625214757
 11
136.2309493438
 21
136.2366740702
  0
LWPOLYLINE
  5
365
100
AcDbEntity
  8
RACCORDO
100
AcDbPolyline
 62
7
  6
CONTINUOUS
 90
25
 70
0
 10
166.4951195785
 20
118.7625214757
 10
166.5510062983
 20
118.7280810325
 10
166.6061861741
 20
118.6899455647
 10
166.6606592061
 20
118.6481150726
 10
166.7146519543
 20
118.6023793873
 10
166.7679378585
 20
118.5529486777
 10
166.8198372386
 20
118.5004534495
 10
166.8703323334
 20
118.4448544469
 10
166.9194409041
 20
118.3861909258
 10
166.9665365536
 20
118.3252111599
 10
167.0115934968
 20
118.2618854784
 10
167.054637519
 20
118.1962435521
 10
167.0951195785
 20
118.1291226666
 10
167.1330068572
 20
118.0605038767
 10
167.1683321733
 20
117.9904061276
 10
167.20064494
 20
117.9197235405
 10
167.2299065672
 20
117.8484486238
 10
167.2561556451
 20
117.7765888691
 10
167.2790573575
 20
117.7050608726
 10
167.2985688253
 20
117.6338688842
 10
167.3147329276
 20
117.5630086539
 10
167.3273434857
 20
117.4933840289
 10
167.3363317734
 20
117.4252962913
 10
167.3417665168
 20
117.3584441588
 10
167.343647716
 20
117.2928276316
  0
LINE
  5
366
100
AcDbEntity
  8
0
100
AcDbLine
 62
7
  6
CONTINUOUS
 10
161.2447671614
 20
87.339200208
 11
161.2625293978
 21
87.3699653038
  0
LINE
  5
367
100
AcDbEntity
  8
ASSI
100
AcDbLine
 62
7
  6
CONTINUOUS
 10
161.2447671614
 20
87.339200208
 11
161.2625293978
 21
87.3699653038
  0
LINE
  5
368
100
AcDbEntity
  8
0
100
AcDbLine
 62
7
  6
CONTINUOUS
 10
161.5100167712
 20
87.3903908699
 11
161.6160827884
 21
87.5741026005
  0
LINE
  5
369
100
AcDbEntity
  8
ASSI
100
AcDbLine
 62
7
  6
CONTINUOUS
 10
161.5100167712
 20
87.3903908699
 11
161.6160827884
 21
87.5741026005
  0
LINE
  5
36A
100
AcDbEntity
  8
0
100
AcDbLine
 62
7
  6
CONTINUOUS
 10
161.8635701618
 20
87.5945281666
 11
161.9696361789
 21
87.7782398971
  0
LINE
  5
36B
100
AcDbEntity
  8
ASSI
100
AcDbLine
 62
7
  6
CONTINUOUS
 10
161.8635701618
 20
87.5945281666
 11
161.9696361789
 21
87.7782398971
  0
LINE
  5
36C
100
AcDbEntity
  8
0
100
AcDbLine
 62
7
  6
CONTINUOUS
 10
162.2171235524
 20
87.7986654633
 11
162.3231895695
 21
87.9823771938
  0
LINE
  5
36D
100
AcDbEntity
  8
ASSI
100
AcDbLine
 62
7
  6
CONTINUOUS
 10
162.2171235524
 20
87.7986654633
 11
162.3231895695
 21
87.9823771938
  0
LINE
  5
36E
100
AcDbEntity
  8
0
100
AcDbLine
 62
7
  6
CONTINUOUS
 10
162.570676943
 20
88.0028027599
 11
162.6767429601
 21
88.1865144905
  0
LINE
  5
36F
100
AcDbEntity
  8
ASSI
100
AcDbLine
 62
7
  6
CONTINUOUS
 10
162.570676943
 20
88.0028027599
 11
162.6767429601
 21
88.1865144905
  0
LINE
  5
370
100
AcDbEntity
  8
0
100
AcDbLine
 62
7
  6
CONTINUOUS
 10
162.9242303335
 20
88.2069400566
 11
163.0302963507
 21
88.3906517871
  0
LINE
  5
371
100
AcDbEntity
  8
ASSI
100
AcDbLine
 62
7
  6
CONTINUOUS
 10
162.9242303335
 20
88.2069400566
 11
163.0302963507
 21
88.3906517871
  0
LINE
  5
372
100
AcDbEntity
  8
0
100
AcDbLine
 62
7
  6
CONTINUOUS
 10
165.1338544579
 20
85.0936899447
 11
165.1516166943
 21
85.1244550405
  0
LINE
  5
373
100
AcDbEntity
  8
ASSI
100
AcDbLine
 62
7
  6
CONTINUOUS
 10
165.1338544579
 20
85.0936899447
 11
165.1516166943
 21
85.1244550405
  0
LINE
  5
374
100
AcDbEntity
  8
0
100
AcDbLine
 62
7
  6
CONTINUOUS
 10
165.3991040677
 20
85.1448806066
 11
165.5051700849
 21
85.3285923372
  0
LINE
  5
375
100
AcDbEntity
  8
ASSI
100
AcDbLine
 62
7
  6
CONTINUOUS
 10
165.3991040677
 20
85.1448806066
 11
165.5051700849
 21
85.3285923372
  0
LINE
  5
376
100
AcDbEntity
  8
0
100
AcDbLine
 62
7
  6
CONTINUOUS
 10
165.7526574583
 20
85.3490179033
 11
165.8587234755
 21
85.5327296338
  0
LINE
  5
377
100
AcDbEntity
  8
ASSI
100
AcDbLine
 62
7
  6
CONTINUOUS
 10
165.7526574583
 20
85.3490179033
 11
165.8587234755
 21
85.5327296338
  0
LINE
  5
378
100
AcDbEntity
  8
0
100
AcDbLine
 62
7
  6
CONTINUOUS
 10
166.1062108489
 20
85.5531552
 11
166.2122768661
 21
85.7368669305
  0
LINE
  5
379
100
AcDbEntity
  8
ASSI
100
AcDbLine
 62
7
  6
CONTINUOUS
 10
166.1062108489
 20
85.5531552
 11
166.2122768661
 21
85.7368669305
  0
LINE
  5
37A
100
AcDbEntity
  8
0
100
AcDbLine
 62
7
  6
CONTINUOUS
 10
166.4597642395
 20
85.7572924966
 11
166.5658302567
 21
85.9410042271
  0
LINE
  5
37B
100
AcDbEntity
  8
ASSI
100
AcDbLine
 62
7
  6
CONTINUOUS
 10
166.4597642395
 20
85.7572924966
 11
166.5658302567
 21
85.9410042271
  0
LINE
  5
37C
100
AcDbEntity
  8
0
100
AcDbLine
 62
7
  6
CONTINUOUS
 10
166.8133176301
 20
85.9614297933
 11
166.9193836473
 21
86.1451415238
  0
LINE
  5
37D
100
AcDbEntity
  8
ASSI
100
AcDbLine
 62
7
  6
CONTINUOUS
 10
166.8133176301
 20
85.9614297933
 11
166.9193836473
 21
86.1451415238
  0
LINE
  5
37E
100
AcDbEntity
  8
0
100
AcDbLine
 62
7
  6
CONTINUOUS
 10
161.2625293978
 20
87.3699653038
 11
161.403950754
 21
87.4516202225
  0
LINE
  5
37F
100
AcDbEntity
  8
ASSI
100
AcDbLine
 62
7
  6
CONTINUOUS
 10
161.2625293978
 20
87.3699653038
 11
161.403950754
 21
87.4516202225
  0
LINE
  5
380
100
AcDbEntity
  8
0
100
AcDbLine
 62
7
  6
CONTINUOUS
 10
161.6160827884
 20
87.5741026005
 11
161.7575041446
 21
87.6557575191
  0
LINE
  5
381
100
AcDbEntity
  8
ASSI
100
AcDbLine
 62
7
  6
CONTINUOUS
 10
161.6160827884
 20
87.5741026005
 11
161.7575041446
 21
87.6557575191
  0
LINE
  5
382
100
AcDbEntity
  8
0
100
AcDbLine
 62
7
  6
CONTINUOUS
 10
161.9696361789
 20
87.7782398971
 11
162.1110575352
 21
87.8598948158
  0
LINE
  5
383
100
AcDbEntity
  8
ASSI
100
AcDbLine
 62
7
  6
CONTINUOUS
 10
161.9696361789
 20
87.7782398971
 11
162.1110575352
 21
87.8598948158
  0
LINE
  5
384
100
AcDbEntity
  8
0
100
AcDbLine
 62
7
  6
CONTINUOUS
 10
162.3231895695
 20
87.9823771938
 11
162.4646109258
 21
88.0640321125
  0
LINE
  5
385
100
AcDbEntity
  8
ASSI
100
AcDbLine
 62
7
  6
CONTINUOUS
 10
162.3231895695
 20
87.9823771938
 11
162.4646109258
 21
88.0640321125
  0
LINE
  5
386
100
AcDbEntity
  8
0
100
AcDbLine
 62
7
  6
CONTINUOUS
 10
162.6767429601
 20
88.1865144905
 11
162.8181643164
 21
88.2681694091
  0
LINE
  5
387
100
AcDbEntity
  8
ASSI
100
AcDbLine
 62
7
  6
CONTINUOUS
 10
162.6767429601
 20
88.1865144905
 11
162.8181643164
 21
88.2681694091
  0
LINE
  5
388
100
AcDbEntity
  8
0
100
AcDbLine
 62
7
  6
CONTINUOUS
 10
163.0302963507
 20
88.3906517871
 11
163.171717707
 21
88.4723067058
  0
LINE
  5
389
100
AcDbEntity
  8
ASSI
100
AcDbLine
 62
7
  6
CONTINUOUS
 10
163.0302963507
 20
88.3906517871
 11
163.171717707
 21
88.4723067058
  0
LINE
  5
38A
100
AcDbEntity
  8
0
100
AcDbLine
 62
7
  6
CONTINUOUS
 10
161.0469556087
 20
87.4534141193
 11
163.2053127096
 21
88.5755051483
  0
LINE
  5
38B
100
AcDbEntity
  8
ASSI
100
AcDbLine
 62
7
  6
CONTINUOUS
 10
161.0469556087
 20
87.4534141193
 11
163.2053127096
 21
88.5755051483
  0
LINE
  5
38C
100
AcDbEntity
  8
0
100
AcDbLine
 62
7
  6
CONTINUOUS
 10
163.2793598625
 20
88.6099489443
 11
164.5897141182
 21
89.147411271
  0
LINE
  5
38D
100
AcDbEntity
  8
ASSI
100
AcDbLine
 62
7
  6
CONTINUOUS
 10
163.2793598625
 20
88.6099489443
 11
164.5897141182
 21
89.147411271
  0
LWPOLYLINE
  5
38E
100
AcDbEntity
  8
0
100
AcDbPolyline
 62
250
  6
CONTINUOUS
 90
33
 70
0
 10
185.326804171
 20
66.4192546078
 10
185.3196057467
 20
66.4738189308
 10
185.3162606097
 20
66.5004546862
 10
185.3131101618
 20
66.5266555932
 10
185.3101709424
 20
66.5524285663
 10
185.3074497311
 20
66.5778199108
 10
185.3049508676
 20
66.6028857799
 10
185.3026786914
 20
66.6276823265
 10
185.3006379266
 20
66.6522617456
 10
185.2988348345
 20
66.6766603991
 10
185.2972760608
 20
66.7009106909
 10
185.2959682511
 20
66.7250450251
 10
185.2949185377
 20
66.7490977852
 10
185.2941359992
 20
66.7731112743
 10
185.2936302006
 20
66.7971297754
 10
185.293410707
 20
66.8211975712
 10
185.2934878668
 20
66.8453542532
 10
185.2938751615
 20
66.8696206465
 10
185.294586856
 20
66.8940128847
 10
185.2956372149
 20
66.9185471014
 10
185.2970408516
 20
66.9432377444
 10
185.2988137728
 20
66.9680925176
 10
185.3009723334
 20
66.9931174391
 10
185.3035328887
 20
67.0183185269
 10
185.3065110055
 20
67.0437007925
 10
185.3099190984
 20
67.0692652213
 10
185.3137687938
 20
67.0950117919
 10
185.3180717183
 20
67.120940483
 10
185.321853419
 20
67.1418157534
 10
185.3259699193
 20
67.1628147865
 10
185.3304585113
 20
67.1839448011
 10
185.3353564871
 20
67.2052130166
 10
185.3407011389
 20
67.2266266519
  0
LWPOLYLINE
  5
38F
100
AcDbEntity
  8
SMUSSO
100
AcDbPolyline
 62
7
  6
CONTINUOUS
 90
25
 70
0
 10
183.8899463957
 20
127.0079795899
 10
183.8884420952
 20
127.0622590307
 10
183.8839124448
 20
127.1180521094
 10
183.8763768659
 20
127.1751199255
 10
183.86586559
 20
127.2332169301
 10
183.8524256556
 20
127.2920955134
 10
183.8361207159
 20
127.3515070707
 10
183.8170235151
 20
127.4111988809
 10
183.7952128798
 20
127.4709136309
 10
183.7707795038
 20
127.5303940526
 10
183.7438269006
 20
127.5893847988
 10
183.7144716032
 20
127.6476339073
 10
183.6828399594
 20
127.7048923181
 10
183.6490677415
 20
127.7609150272
 10
183.6132992435
 20
127.8154619497
 10
183.5756873088
 20
127.868299321
 10
183.5363922133
 20
127.9192004303
 10
183.4955830042
 20
127.9679477617
 10
183.4534364562
 20
128.0143337404
 10
183.4101354609
 20
128.0581611288
 10
183.3658630508
 20
128.0992408711
 10
183.3208036336
 20
128.1373940688
 10
183.2751484417
 20
128.1724563512
 10
183.2290947057
 20
128.2042785747
 10
183.1828396145
 20
128.23272446
  0
LINE
  5
390
100
AcDbEntity
  8
SMUSSO
100
AcDbLine
 62
7
  6
CONTINUOUS
 10
182.4757328334
 20
55.1585952321
 11
182.4757328334
 21
127.0079795899
  0
LINE
  5
391
100
AcDbEntity
  8
SMUSSO
100
AcDbLine
 62
7
  6
CONTINUOUS
 10
183.8899463957
 20
55.1585952321
 11
183.8899463957
 21
127.0079795899
  0
LINE
  5
392
100
AcDbEntity
  8
0
100
AcDbLine
 62
250
  6
CONTINUOUS
 10
186.9660084876
 20
128.8177871517
 11
187.1779929282
 21
129.672708871
  0
LINE
  5
393
100
AcDbEntity
  8
ASSI
100
AcDbLine
 62
250
  6
CONTINUOUS
 10
186.9660084876
 20
128.8177871517
 11
187.1779929282
 21
129.672708871
  0
LINE
  5
394
100
AcDbEntity
  8
0
100
AcDbLine
 62
7
  6
CONTINUOUS
 10
167.343647716
 20
86.0544663857
 11
165.5082565052
 21
84.8775148949
  0
LINE
  5
395
100
AcDbEntity
  8
ASSI
100
AcDbLine
 62
7
  6
CONTINUOUS
 10
167.343647716
 20
86.0544663857
 11
165.5082565052
 21
84.8775148949
  0
LINE
  5
396
100
AcDbEntity
  8
0
100
AcDbLine
 62
7
  6
CONTINUOUS
 10
165.8374625567
 20
84.6874354467
 11
167.343647716
 21
85.5721975703
  0
LINE
  5
397
100
AcDbEntity
  8
ASSI
100
AcDbLine
 62
7
  6
CONTINUOUS
 10
165.8374625567
 20
84.6874354467
 11
167.343647716
 21
85.5721975703
  0
LINE
  5
398
100
AcDbEntity
  8
0
100
AcDbLine
 62
7
  6
CONTINUOUS
 10
165.1516166943
 20
85.1244550405
 11
165.2930380505
 21
85.2061099592
  0
LINE
  5
399
100
AcDbEntity
  8
ASSI
100
AcDbLine
 62
7
  6
CONTINUOUS
 10
165.1516166943
 20
85.1244550405
 11
165.2930380505
 21
85.2061099592
  0
LINE
  5
39A
100
AcDbEntity
  8
0
100
AcDbLine
 62
7
  6
CONTINUOUS
 10
165.5051700849
 20
85.3285923372
 11
165.6465914411
 21
85.4102472558
  0
LINE
  5
39B
100
AcDbEntity
  8
ASSI
100
AcDbLine
 62
7
  6
CONTINUOUS
 10
165.5051700849
 20
85.3285923372
 11
165.6465914411
 21
85.4102472558
  0
LINE
  5
39C
100
AcDbEntity
  8
0
100
AcDbLine
 62
7
  6
CONTINUOUS
 10
165.8587234755
 20
85.5327296338
 11
166.0001448317
 21
85.6143845525
  0
LINE
  5
39D
100
AcDbEntity
  8
ASSI
100
AcDbLine
 62
7
  6
CONTINUOUS
 10
165.8587234755
 20
85.5327296338
 11
166.0001448317
 21
85.6143845525
  0
LINE
  5
39E
100
AcDbEntity
  8
0
100
AcDbLine
 62
7
  6
CONTINUOUS
 10
166.2122768661
 20
85.7368669305
 11
166.3536982223
 21
85.8185218492
  0
LINE
  5
39F
100
AcDbEntity
  8
ASSI
100
AcDbLine
 62
7
  6
CONTINUOUS
 10
166.2122768661
 20
85.7368669305
 11
166.3536982223
 21
85.8185218492
  0
LINE
  5
3A0
100
AcDbEntity
  8
0
100
AcDbLine
 62
7
  6
CONTINUOUS
 10
166.5658302567
 20
85.9410042271
 11
166.7072516129
 21
86.0226591458
  0
LINE
  5
3A1
100
AcDbEntity
  8
ASSI
100
AcDbLine
 62
7
  6
CONTINUOUS
 10
166.5658302567
 20
85.9410042271
 11
166.7072516129
 21
86.0226591458
  0
LINE
  5
3A2
100
AcDbEntity
  8
0
100
AcDbLine
 62
7
  6
CONTINUOUS
 10
166.9193836473
 20
86.1451415238
 11
167.0608050035
 21
86.2267964425
  0
LINE
  5
3A3
100
AcDbEntity
  8
ASSI
100
AcDbLine
 62
7
  6
CONTINUOUS
 10
166.9193836473
 20
86.1451415238
 11
167.0608050035
 21
86.2267964425
  0
LINE
  5
3A4
100
AcDbEntity
  8
0
100
AcDbLine
 62
7
  6
CONTINUOUS
 10
167.1668710207
 20
86.16556709
 11
165.2221497052
 21
85.0427093755
  0
LINE
  5
3A5
100
AcDbEntity
  8
ASSI
100
AcDbLine
 62
7
  6
CONTINUOUS
 10
167.1668710207
 20
86.16556709
 11
165.2221497052
 21
85.0427093755
  0
LINE
  5
3A6
100
AcDbEntity
  8
0
100
AcDbLine
 62
250
  6
CONTINUOUS
 10
186.2880639377
 20
129.9920215557
 11
187.134371743
 21
129.7482629801
  0
LINE
  5
3A7
100
AcDbEntity
  8
ASSI
100
AcDbLine
 62
250
  6
CONTINUOUS
 10
186.2880639377
 20
129.9920215557
 11
187.134371743
 21
129.7482629801
  0
LINE
  5
3A8
100
AcDbEntity
  8
SMUSSO
100
AcDbLine
 62
7
  6
CONTINUOUS
 10
182.4757328334
 20
127.0079795899
 11
120.2503360889
 21
162.9361438027
  0
LINE
  5
3A9
100
AcDbEntity
  8
SMUSSO
100
AcDbLine
 62
7
  6
CONTINUOUS
 10
183.1828396145
 20
128.23272446
 11
120.9574428701
 21
164.1608886729
  0
LWPOLYLINE
  5
3AA
100
AcDbEntity
  8
0
100
AcDbPolyline
 62
250
  6
CONTINUOUS
 90
56
 70
0
 10
185.8985990725
 20
67.2579248655
 10
185.8983438562
 20
67.2672442713
 10
185.8979425967
 20
67.2763023253
 10
185.8973968831
 20
67.285097416
 10
185.8967083042
 20
67.2936279324
 10
185.895878449
 20
67.3018922629
 10
185.8949089065
 20
67.3098887963
 10
185.8938012654
 20
67.3176159212
 10
185.8925571148
 20
67.3250720265
 10
185.8911769713
 20
67.3322565667
 10
185.889657062
 20
67.3391732609
 10
185.8879925419
 20
67.3458268941
 10
185.8861785658
 20
67.3522222515
 10
185.8842102885
 20
67.358364118
 10
185.8820828649
 20
67.3642572787
 10
185.8797914498
 20
67.3699065188
 10
185.8773311982
 20
67.3753166231
 10
185.8749980587
 20
67.3799266847
 10
185.8725207288
 20
67.3843427457
 10
185.8698922477
 20
67.3885559714
 10
185.8671056552
 20
67.3925575273
 10
185.8641539905
 20
67.3963385787
 10
185.8610302933
 20
67.3998902908
 10
185.857727603
 20
67.4032038291
 10
185.854238959
 20
67.4062703589
 10
185.8505574009
 20
67.4090810455
 10
185.8470749518
 20
67.411385748
 10
185.8434354158
 20
67.4134764146
 10
185.8396436045
 20
67.4153533987
 10
185.8357043295
 20
67.4170170534
 10
185.8316224023
 20
67.4184677319
 10
185.8274032747
 20
67.4197061159
 10
185.8230549591
 20
67.4207342008
 10
185.8185861079
 20
67.4215543101
 10
185.8140053736
 20
67.4221687676
 10
185.8093214088
 20
67.4225798971
 10
185.8045407462
 20
67.4227896924
 10
185.7996614395
 20
67.4227988289
 10
185.7946794227
 20
67.422607652
 10
185.78959063
 20
67.4222165072
 10
185.7843909952
 20
67.4216257401
 10
185.7790775478
 20
67.4208354384
 10
185.7736516982
 20
67.4198446587
 10
185.7681159525
 20
67.4186522
 10
185.7624728166
 20
67.4172568611
 10
185.7567247963
 20
67.4156574409
 10
185.7508738868
 20
67.4138513897
 10
185.7449200399
 20
67.4118307625
 10
185.7388626969
 20
67.4095862657
 10
185.7327012987
 20
67.4071086056
 10
185.7264352865
 20
67.4043884888
 10
185.7200641014
 20
67.4014166215
 10
185.7135871846
 20
67.39818371
 10
185.707003977
 20
67.3946804609
 10
185.7003139199
 20
67.3908975805
 10
185.6935164542
 20
67.3868257751
  0
LWPOLYLINE
  5
3AB
100
AcDbEntity
  8
0
100
AcDbPolyline
 62
7
  6
CONTINUOUS
 90
22
 70
0
 10
186.9660084876
 20
128.8177871517
 10
186.9646936217
 20
128.8791310856
 10
186.9596232677
 20
128.9419831771
 10
186.9508237439
 20
129.0060393301
 10
186.9383336153
 20
129.0710703628
 10
186.922212349
 20
129.1366750287
 10
186.9025793352
 20
129.2022762177
 10
186.8796310561
 20
129.267353216
 10
186.8534623475
 20
129.331780681
 10
186.8240496257
 20
129.3955693013
 10
186.7913910815
 20
129.4586168976
 10
186.7557380866
 20
129.5203696944
 10
186.7174663828
 20
129.5801768878
 10
186.6769298702
 20
129.6375438906
 10
186.6342179471
 20
129.6924211739
 10
186.5893331517
 20
129.7448345028
 10
186.5423366193
 20
129.7946390737
 10
186.4935810619
 20
129.8414043678
 10
186.4435065773
 20
129.8847384293
 10
186.3924309268
 20
129.924389124
 10
186.3405333126
 20
129.9602084506
 10
186.2880639377
 20
129.9920215557
  0
LWPOLYLINE
  5
3AC
100
AcDbEntity
  8
ASSI
100
AcDbPolyline
 62
7
  6
CONTINUOUS
 90
22
 70
0
 10
186.9660084876
 20
128.8177871517
 10
186.9646936217
 20
128.8791310856
 10
186.9596232677
 20
128.9419831771
 10
186.9508237439
 20
129.0060393301
 10
186.9383336153
 20
129.0710703628
 10
186.922212349
 20
129.1366750287
 10
186.9025793352
 20
129.2022762177
 10
186.8796310561
 20
129.267353216
 10
186.8534623475
 20
129.331780681
 10
186.8240496257
 20
129.3955693013
 10
186.7913910815
 20
129.4586168976
 10
186.7557380866
 20
129.5203696944
 10
186.7174663828
 20
129.5801768878
 10
186.6769298702
 20
129.6375438906
 10
186.6342179471
 20
129.6924211739
 10
186.5893331517
 20
129.7448345028
 10
186.5423366193
 20
129.7946390737
 10
186.4935810619
 20
129.8414043678
 10
186.4435065773
 20
129.8847384293
 10
186.3924309268
 20
129.924389124
 10
186.3405333126
 20
129.9602084506
 10
186.2880639377
 20
129.9920215557
  0
LINE
  5
3AD
100
AcDbEntity
  8
SMUSSO
100
AcDbLine
 62
7
  6
CONTINUOUS
 10
184.9506065675
 20
128.0286660732
 11
184.9506065675
 21
55.7710071221
  0
LINE
  5
3AE
100
AcDbEntity
  8
0
100
AcDbLine
 62
250
  6
CONTINUOUS
 10
185.3113036059
 20
62.9171060375
 11
185.3113036059
 21
63.2408952881
  0
LINE
  5
3AF
100
AcDbEntity
  8
0
100
AcDbLine
 62
250
  6
CONTINUOUS
 10
185.3113828091
 20
65.8390171987
 11
185.3113828091
 21
65.5257898076
  0
LINE
  5
3B0
100
AcDbEntity
  8
0
100
AcDbLine
 62
250
  6
CONTINUOUS
 10
185.3113828091
 20
64.8433496585
 11
185.3113828091
 21
64.522991216
  0
LINE
  5
3B1
100
AcDbEntity
  8
0
100
AcDbLine
 62
250
  6
CONTINUOUS
 10
185.3113828091
 20
63.8788320923
 11
185.3113828091
 21
63.5553106439
  0
LINE
  5
3B2
100
AcDbEntity
  8
0
100
AcDbLine
 62
250
  6
CONTINUOUS
 10
185.3113828091
 20
62.796994279
 11
185.3113828091
 21
62.4734262919
  0
LINE
  5
3B3
100
AcDbEntity
  8
0
100
AcDbLine
 62
250
  6
CONTINUOUS
 10
185.3113828091
 20
61.8730324244
 11
185.3113828091
 21
61.5212970292
  0
LINE
  5
3B4
100
AcDbEntity
  8
0
100
AcDbLine
 62
250
  6
CONTINUOUS
 10
185.8985990725
 20
67.0728823667
 11
185.8985990725
 21
67.2579248655
  0
LINE
  5
3B5
100
AcDbEntity
  8
0
100
AcDbLine
 62
250
  6
CONTINUOUS
 10
186.1147741288
 20
67.3864784902
 11
186.1147741288
 21
67.2128702871
  0
LINE
  5
3B6
100
AcDbEntity
  8
0
100
AcDbLine
 62
250
  6
CONTINUOUS
 10
186.1639182155
 20
66.334838178
 11
186.1639182155
 21
66.0248325786
  0
LINE
  5
3B7
100
AcDbEntity
  8
0
100
AcDbLine
 62
250
  6
CONTINUOUS
 10
186.3678196932
 20
66.0805128404
 11
186.3678196932
 21
66.5214606769
  0
LINE
  5
3B8
100
AcDbEntity
  8
0
100
AcDbLine
 62
250
  6
CONTINUOUS
 10
186.6313275931
 20
68.3290056213
 11
186.6313275931
 21
68.0175577393
  0
LINE
  5
3B9
100
AcDbEntity
  8
0
100
AcDbLine
 62
250
  6
CONTINUOUS
 10
186.6313275931
 20
67.5217187527
 11
186.6313275931
 21
67.1992320644
  0
LINE
  5
3BA
100
AcDbEntity
  8
0
100
AcDbLine
 62
250
  6
CONTINUOUS
 10
186.6313277696
 20
64.0301406725
 11
186.6313277696
 21
63.7063514219
  0
LINE
  5
3BB
100
AcDbEntity
  8
0
100
AcDbLine
 62
250
  6
CONTINUOUS
 10
186.6313277696
 20
62.8022453079
 11
186.6313277696
 21
63.0875853403
  0
LINE
  5
3BC
100
AcDbEntity
  8
0
100
AcDbLine
 62
250
  6
CONTINUOUS
 10
186.6313277696
 20
64.2044472789
 11
186.6313277696
 21
64.5142079373
  0
LINE
  5
3BD
100
AcDbEntity
  8
0
100
AcDbLine
 62
250
  6
CONTINUOUS
 10
186.6313277696
 20
64.9639262975
 11
186.6313277696
 21
65.0093375578
  0
LINE
  5
3BE
100
AcDbEntity
  8
0
100
AcDbLine
 62
250
  6
CONTINUOUS
 10
186.6313277696
 20
65.4608472538
 11
186.6313277696
 21
65.7775993471
  0
LINE
  5
3BF
100
AcDbEntity
  8
0
100
AcDbLine
 62
250
  6
CONTINUOUS
 10
186.6313277696
 20
65.8284425842
 11
186.6313277696
 21
66.1487193797
  0
LINE
  5
3C0
100
AcDbEntity
  8
0
100
AcDbLine
 62
250
  6
CONTINUOUS
 10
186.6313277696
 20
66.762891183
 11
186.6313277696
 21
67.1041520811
  0
LINE
  5
3C1
100
AcDbEntity
  8
0
100
AcDbLine
 62
7
  6
CONTINUOUS
 10
186.9658608939
 20
128.7840293078
 11
186.9658608939
 21
58.0777033375
  0
LINE
  5
3C2
100
AcDbEntity
  8
ASSI
100
AcDbLine
 62
7
  6
CONTINUOUS
 10
186.9658608939
 20
128.7840293078
 11
186.9658608939
 21
58.0777033375
  0
LINE
  5
3C3
100
AcDbEntity
  8
0
100
AcDbLine
 62
7
  6
CONTINUOUS
 10
187.1779929282
 20
129.672708871
 11
187.1779929282
 21
59.3937065783
  0
LINE
  5
3C4
100
AcDbEntity
  8
ASSI
100
AcDbLine
 62
7
  6
CONTINUOUS
 10
187.1779929282
 20
129.672708871
 11
187.1779929282
 21
59.3937065783
  0
LWPOLYLINE
  5
3C5
100
AcDbEntity
  8
SMUSSO
100
AcDbPolyline
 62
7
  6
CONTINUOUS
 90
13
 70
0
 10
184.9506065675
 20
55.7710071221
 10
184.9490925947
 20
55.7184815079
 10
184.9445571598
 20
55.6679291204
 10
184.9370196856
 20
55.6195664323
 10
184.9265124503
 20
55.5736005428
 10
184.9130804484
 20
55.5302282808
 10
184.8967811949
 20
55.4896353638
 10
184.8776844824
 20
55.4519956136
 10
184.8558720871
 20
55.4174702156
 10
184.8314374157
 20
55.3862070179
 10
184.8044851031
 20
55.3583398959
 10
184.7751305625
 20
55.3339881788
 10
184.7435239465
 20
55.313270261
  0
LINE
  5
3C6
100
AcDbEntity
  8
RACCORDO
100
AcDbLine
 62
250
  6
CONTINUOUS
 10
166.4951195785
 20
81.8580649647
 11
167.3436067119
 21
82.3479708015
  0
LWPOLYLINE
  5
3C7
100
AcDbEntity
  8
RACCORDO
100
AcDbPolyline
 62
7
  6
CONTINUOUS
 90
13
 70
0
 10
167.0951485707
 20
81.7986155515
 10
167.054637519
 20
81.7782255955
 10
167.0115934968
 20
81.7622898271
 10
166.9665365536
 20
81.7509947743
 10
166.9194409041
 20
81.7443998839
 10
166.8703323334
 20
81.7424457093
 10
166.8198372386
 20
81.7451571764
 10
166.7679378585
 20
81.7525940515
 10
166.7146519543
 20
81.7646965684
 10
166.6606592061
 20
81.7813103554
 10
166.6061861741
 20
81.8023839551
 10
166.5510062983
 20
81.8279688249
 10
166.4951195785
 20
81.8580649647
  0
LWPOLYLINE
  5
3C8
100
AcDbEntity
  8
SMUSSO
100
AcDbPolyline
 62
7
  6
CONTINUOUS
 90
13
 70
0
 10
120.9574428701
 20
164.1608886729
 10
120.9112055436
 20
164.1858485661
 10
120.8651623606
 20
164.2072031024
 10
120.8195105097
 20
164.2248608524
 10
120.7744434421
 20
164.238745027
 10
120.7301561698
 20
164.2487973426
 10
120.6868444389
 20
164.2549782764
 10
120.6446966412
 20
164.2572630489
 10
120.6038903092
 20
164.2556401729
 10
120.564597479
 20
164.2501150371
 10
120.5269852948
 20
164.240710658
 10
120.4912159355
 20
164.227467952
 10
120.4574190546
 20
164.2104300495
  0
LWPOLYLINE
  5
3C9
100
AcDbEntity
  8
0
100
AcDbPolyline
 62
7
  6
CONTINUOUS
 90
4
 70
0
 10
124.9954729743
 20
165.3815954014
 10
124.9480531748
 20
165.4074570543
 10
124.9007574664
 20
165.4289107158
 10
124.893027325
 20
165.4320012947
  0
LWPOLYLINE
  5
3CA
100
AcDbEntity
  8
ASSI
100
AcDbPolyline
 62
7
  6
CONTINUOUS
 90
4
 70
0
 10
124.9954729743
 20
165.3815954014
 10
124.9480531748
 20
165.4074570543
 10
124.9007574664
 20
165.4289107158
 10
124.893027325
 20
165.4320012947
  0
LINE
  5
3CB
100
AcDbEntity
  8
SMUSSO
100
AcDbLine
 62
7
  6
CONTINUOUS
 10
122.0181030419
 20
164.7733005629
 11
184.5970531769
 21
128.6410385083
  0
LINE
  5
3CC
100
AcDbEntity
  8
0
100
AcDbLine
 62
7
  6
CONTINUOUS
 10
125.023306862
 20
165.3653539601
 11
186.2587541127
 21
130.0087741779
  0
LINE
  5
3CD
100
AcDbEntity
  8
ASSI
100
AcDbLine
 62
7
  6
CONTINUOUS
 10
125.023306862
 20
165.3653539601
 11
186.2587541127
 21
130.0087741779
  0
LINE
  5
3CE
100
AcDbEntity
  8
0
100
AcDbLine
 62
7
  6
CONTINUOUS
 10
126.2690095753
 20
164.8911602736
 11
187.134371743
 21
129.7482629801
  0
LINE
  5
3CF
100
AcDbEntity
  8
ASSI
100
AcDbLine
 62
7
  6
CONTINUOUS
 10
126.2690095753
 20
164.8911602736
 11
187.134371743
 21
129.7482629801
  0
LWPOLYLINE
  5
3D0
100
AcDbEntity
  8
SMUSSO
100
AcDbPolyline
 62
7
  6
CONTINUOUS
 90
25
 70
0
 10
184.2434997863
 20
128.84513635
 10
184.2897468277
 20
128.816685759
 10
184.3357958265
 20
128.7848607439
 10
184.3814495937
 20
128.7497975857
 10
184.4265126295
 20
128.7116464343
 10
184.4707919704
 20
128.6705706576
 10
184.5140980148
 20
128.6267461398
 10
184.5562453239
 20
128.580360538
 10
184.5970534106
 20
128.5316124869
 10
184.6363475227
 20
128.4807107398
 10
184.6739593946
 20
128.4278732692
 10
184.7097279685
 20
128.373326331
 10
184.7435000787
 20
128.3173035026
 10
184.7751311057
 20
128.2600446865
 10
184.8044856027
 20
128.2017950704
 10
184.8314378748
 20
128.1428040751
 10
184.8558725278
 20
128.083324254
 10
184.8776849006
 20
128.0236103638
 10
184.8967815416
 20
127.9639182626
 10
184.9130806611
 20
127.9045036966
 10
184.9265125315
 20
127.845620945
 10
184.9370196962
 20
127.7875218928
 10
184.944557153
 20
127.7304552499
 10
184.94909259
 20
127.6746654759
 10
184.9506065675
 20
127.6203914799
  0
LWPOLYLINE
  5
3D1
100
AcDbEntity
  8
SMUSSO
100
AcDbPolyline
 62
7
  6
CONTINUOUS
 90
19
 70
0
 10
184.5970531769
 20
128.6410385083
 10
184.6282428877
 20
128.6213809717
 10
184.6587423115
 20
128.5991350616
 10
184.6885514483
 20
128.5743007778
 10
184.7178872146
 20
128.5466491369
 10
184.7465326938
 20
128.5164091225
 10
184.7738371369
 20
128.4842676845
 10
184.7997675207
 20
128.4501841747
 10
184.8243568683
 20
128.4141992413
 10
184.8470534993
 20
128.3771217795
 10
184.8678150407
 20
128.3389274211
 10
184.8866838655
 20
128.2996405343
 10
184.9032354123
 20
128.2601431183
 10
184.9174180185
 20
128.2204267815
 10
184.9292833468
 20
128.1804999155
 10
184.9385618233
 20
128.1412696943
 10
184.9451635899
 20
128.1030385092
 10
184.9491785046
 20
128.0655039688
 10
184.9506065675
 20
128.0286660732
  0
LWPOLYLINE
  5
3D2
100
AcDbEntity
  8
0
100
AcDbPolyline
 62
250
  6
CONTINUOUS
 90
24
 70
0
 10
185.5284776617
 20
67.1052376354
 10
185.5273742039
 20
67.0926448872
 10
185.5264193247
 20
67.0801283445
 10
185.5256126853
 20
67.0676889697
 10
185.5249539467
 20
67.055327725
 10
185.5244427703
 20
67.0430455728
 10
185.5240788171
 20
67.0308434756
 10
185.5238617483
 20
67.0187223956
 10
185.5237920798
 20
67.0081832296
 10
185.5238346352
 20
66.9977048522
 10
185.5239894393
 20
66.987285286
 10
185.5242565169
 20
66.976922554
 10
185.5246363181
 20
66.9666145287
 10
185.5251309928
 20
66.9563584819
 10
185.5257431157
 20
66.9461515353
 10
185.526475262
 20
66.9359908102
 10
185.5273287165
 20
66.9258741444
 10
185.5282996041
 20
66.9158022401
 10
185.5293827595
 20
66.9057765155
 10
185.5305730176
 20
66.895798389
 10
185.5318643809
 20
66.8858668087
 10
185.5332475223
 20
66.8759708437
 10
185.5347122825
 20
66.8660970926
 10
185.536248502
 20
66.8562321544
  0
LWPOLYLINE
  5
3D3
100
AcDbEntity
  8
0
100
AcDbPolyline
 62
7
  6
CONTINUOUS
 90
4
 70
0
 10
186.9584430071
 20
57.9316199513
 10
186.9596232752
 20
57.939802192
 10
186.9646936223
 20
57.9914849973
 10
186.9660084876
 20
58.0454794315
  0
LWPOLYLINE
  5
3D4
100
AcDbEntity
  8
ASSI
100
AcDbPolyline
 62
7
  6
CONTINUOUS
 90
4
 70
0
 10
186.9584430071
 20
57.9316199513
 10
186.9596232752
 20
57.939802192
 10
186.9646936223
 20
57.9914849973
 10
186.9660084876
 20
58.0454794315
  0
LINE
  5
3D5
100
AcDbEntity
  8
0
100
AcDbLine
 62
7
  6
CONTINUOUS
 10
187.1774360052
 20
59.3859218751
 11
186.9584245812
 21
57.9316081462
  0
LINE
  5
3D6
100
AcDbEntity
  8
ASSI
100
AcDbLine
 62
7
  6
CONTINUOUS
 10
187.1774360052
 20
59.3859218751
 11
186.9584245812
 21
57.9316081462
  0
LINE
  5
3D7
100
AcDbEntity
  8
0
100
AcDbLine
 62
250
  6
CONTINUOUS
 10
186.9660084876
 20
58.0454794315
 11
187.1779929282
 21
59.3937065783
  0
LINE
  5
3D8
100
AcDbEntity
  8
ASSI
100
AcDbLine
 62
250
  6
CONTINUOUS
 10
186.9660084876
 20
58.0454794315
 11
187.1779929282
 21
59.3937065783
  0
LWPOLYLINE
  5
3D9
100
AcDbEntity
  8
0
100
AcDbPolyline
 62
250
  6
CONTINUOUS
 90
81
 70
0
 10
185.3407011389
 20
67.2266266519
 10
185.3444721703
 20
67.2402828711
 10
185.3487462102
 20
67.2541501735
 10
185.3535177504
 20
67.2682634956
 10
185.3587830377
 20
67.2826575985
 10
185.3645453403
 20
67.2973665428
 10
185.3708096817
 20
67.3124242139
 10
185.3775752219
 20
67.3278397012
 10
185.3848176669
 20
67.3435229109
 10
185.3925068589
 20
67.3593589534
 10
185.400614839
 20
67.3752433214
 10
185.409122442
 20
67.3911130373
 10
185.4180127011
 20
67.4069155055
 10
185.4272683247
 20
67.4226007366
 10
185.4368707205
 20
67.4381291641
 10
185.446800971
 20
67.4534638272
 10
185.4570391823
 20
67.4685685655
 10
185.4675615533
 20
67.48341042
 10
185.4783433064
 20
67.4979572314
 10
185.4893572321
 20
67.512174322
 10
185.5005663941
 20
67.5260169374
 10
185.5119314241
 20
67.5394378043
 10
185.5234059466
 20
67.5523882788
 10
185.5349155565
 20
67.5648142338
 10
185.5463788413
 20
67.5766601716
 10
185.5577308636
 20
67.587888129
 10
185.5689725848
 20
67.5985302808
 10
185.5801214413
 20
67.6086363362
 10
185.591185531
 20
67.6182480459
 10
185.6021355971
 20
67.6273753272
 10
185.6129330441
 20
67.6360201385
 10
185.6256458355
 20
67.6457658541
 10
185.638086512
 20
67.654859286
 10
185.6502583072
 20
67.6633400865
 10
185.6621644552
 20
67.6712479081
 10
185.6738081898
 20
67.6786224033
 10
185.6851932371
 20
67.685499222
 10
185.6963252931
 20
67.6918980044
 10
185.707210546
 20
67.697834388
 10
185.7178551841
 20
67.7033240104
 10
185.7282653957
 20
67.7083825092
 10
185.7409548982
 20
67.7141222884
 10
185.7532817014
 20
67.7192380154
 10
185.7652397282
 20
67.723754835
 10
185.7768229016
 20
67.7276978921
 10
185.7880275651
 20
67.7310931452
 10
185.7988597446
 20
67.7339698082
 10
185.8093278864
 20
67.7363579088
 10
185.8194404371
 20
67.7382874747
 10
185.8292054855
 20
67.7397874577
 10
185.8386296909
 20
67.7408825052
 10
185.8477193549
 20
67.7415961888
 10
185.8564807792
 20
67.7419520801
 10
185.8649201978
 20
67.7419727705
 10
185.8730435747
 20
67.7416769315
 10
185.8808568066
 20
67.7410822543
 10
185.8883657897
 20
67.7402064303
 10
185.8979150685
 20
67.7386295249
 10
185.9069502336
 20
67.7366119203
 10
185.9154875751
 20
67.7341812828
 10
185.9235452944
 20
67.7313705136
 10
185.9311492369
 20
67.7282334546
 10
185.9383271592
 20
67.7248291828
 10
185.9451081324
 20
67.7212147208
 10
185.9515264867
 20
67.7174388734
 10
185.9576178668
 20
67.7135483909
 10
185.9619930297
 20
67.7105818994
 10
185.9662179302
 20
67.7075878043
 10
185.9703038845
 20
67.7045774185
 10
185.9742530316
 20
67.7015649816
 10
185.9780693877
 20
67.6985645125
 10
185.9817736549
 20
67.6955862231
 10
185.9889138438
 20
67.6896326682
 10
185.9923388957
 20
67.6865411971
 10
185.9955770819
 20
67.6833039256
 10
185.9985348497
 20
67.6798778366
 10
186.0011525913
 20
67.6762275522
 10
186.0033821398
 20
67.6723171479
 10
186.0051871485
 20
67.6681008712
 10
186.0065341489
 20
67.6635389028
 10
186.0073893675
 20
67.6586249831
  0
LWPOLYLINE
  5
3DA
100
AcDbEntity
  8
0
100
AcDbPolyline
 62
250
  6
CONTINUOUS
 90
39
 70
0
 10
186.0151890903
 20
67.6632884547
 10
186.0173689842
 20
67.6706810492
 10
186.0197306421
 20
67.6780547471
 10
186.0222721032
 20
67.6854134387
 10
186.0249914068
 20
67.6927610143
 10
186.0278865922
 20
67.700101364
 10
186.0309556985
 20
67.7074383783
 10
186.0341950706
 20
67.7147729872
 10
186.0375942758
 20
67.7220942812
 10
186.0411411872
 20
67.7293883904
 10
186.0448236775
 20
67.736641445
 10
186.0486296199
 20
67.7438395752
 10
186.0525468872
 20
67.7509689113
 10
186.0573795737
 20
67.7594184663
 10
186.0623466995
 20
67.7677531498
 10
186.067439859
 20
67.7759771265
 10
186.0726506465
 20
67.784094561
 10
186.0779706565
 20
67.7921096179
 10
186.0833907882
 20
67.8000248281
 10
186.0888991616
 20
67.8078361878
 10
186.0944832013
 20
67.8155380593
 10
186.100130332
 20
67.8231248051
 10
186.1058279786
 20
67.8305907875
 10
186.1130076889
 20
67.8397512474
 10
186.1202567508
 20
67.8487415581
 10
186.1275852335
 20
67.8575890719
 10
186.1350032064
 20
67.8663211411
 10
186.1425204197
 20
67.8749629868
 10
186.1501453466
 20
67.8835313054
 10
186.1578861414
 20
67.8920406623
 10
186.1657509582
 20
67.9005056225
 10
186.1737487047
 20
67.9089404985
 10
186.1818913026
 20
67.9173585907
 10
186.1901914271
 20
67.9257729465
 10
186.1986617535
 20
67.9341966135
 10
186.2055694352
 20
67.9409523427
 10
186.2126027929
 20
67.9477370037
 10
186.2197704614
 20
67.9545652188
 10
186.2270810753
 20
67.9614516102
  0
LWPOLYLINE
  5
3DB
100
AcDbEntity
  8
0
100
AcDbPolyline
 62
7
  6
CONTINUOUS
 90
10
 70
0
 10
124.893027325
 20
165.4320012947
 10
124.8538360509
 20
165.4458423161
 10
124.8074951075
 20
165.4581773535
 10
124.7620254156
 20
165.4658165987
 10
124.7177861385
 20
165.4686904949
 10
124.6751127277
 20
165.4668321985
 10
124.6340835889
 20
165.4603059442
 10
124.5946721282
 20
165.4490998543
 10
124.5569580201
 20
165.4331658174
 10
124.5450268385
 20
165.4269245197
  0
LWPOLYLINE
  5
3DC
100
AcDbEntity
  8
ASSI
100
AcDbPolyline
 62
7
  6
CONTINUOUS
 90
10
 70
0
 10
124.893027325
 20
165.4320012947
 10
124.8538360509
 20
165.4458423161
 10
124.8074951075
 20
165.4581773535
 10
124.7620254156
 20
165.4658165987
 10
124.7177861385
 20
165.4686904949
 10
124.6751127277
 20
165.4668321985
 10
124.6340835889
 20
165.4603059442
 10
124.5946721282
 20
165.4490998543
 10
124.5569580201
 20
165.4331658174
 10
124.5450268385
 20
165.4269245197
  0
LINE
  5
3DD
100
AcDbEntity
  8
0
100
AcDbLine
 62
250
  6
CONTINUOUS
 10
124.9954729743
 20
165.3815954014
 11
126.2690095753
 21
164.8911602736
  0
LINE
  5
3DE
100
AcDbEntity
  8
ASSI
100
AcDbLine
 62
250
  6
CONTINUOUS
 10
124.9954729743
 20
165.3815954014
 11
126.2690095753
 21
164.8911602736
  0
LINE
  5
3DF
100
AcDbEntity
  8
0
100
AcDbLine
 62
7
  6
CONTINUOUS
 10
126.261985444
 20
164.8945721813
 11
124.8930079117
 21
165.4319912506
  0
LINE
  5
3E0
100
AcDbEntity
  8
ASSI
100
AcDbLine
 62
7
  6
CONTINUOUS
 10
126.261985444
 20
164.8945721813
 11
124.8930079117
 21
165.4319912506
  0
LWPOLYLINE
  5
3E1
100
AcDbEntity
  8
0
100
AcDbPolyline
 62
250
  6
CONTINUOUS
 90
48
 70
0
 10
186.2309386518
 20
67.6365179789
 10
186.2265622871
 20
67.6319033847
 10
186.2222791147
 20
67.6272596126
 10
186.2180798565
 20
67.622578992
 10
186.2139552344
 20
67.6178538525
 10
186.2098959704
 20
67.6130765235
 10
186.2058927863
 20
67.6082393347
 10
186.2011538233
 20
67.6023484788
 10
186.1964895976
 20
67.5963686395
 10
186.1919074517
 20
67.5903080774
 10
186.1874147281
 20
67.5841750528
 10
186.1830187695
 20
67.5779778261
 10
186.1794338895
 20
67.5727692931
 10
186.1759207789
 20
67.5675201295
 10
186.1724789104
 20
67.562228553
 10
186.1691089157
 20
67.5568946239
 10
186.1658160641
 20
67.5515257726
 10
186.1626067841
 20
67.5461312724
 10
186.1594865744
 20
67.5407186472
 10
186.1564572152
 20
67.5352884241
 10
186.1535195567
 20
67.5298393811
 10
186.1506744493
 20
67.5243702964
 10
186.1479227432
 20
67.518879948
 10
186.1452652889
 20
67.5133671138
 10
186.1427035949
 20
67.507831763
 10
186.1402418037
 20
67.5022786292
 10
186.1378847156
 20
67.496713637
 10
186.1356371315
 20
67.491142711
 10
186.1335038517
 20
67.4855717759
 10
186.131489677
 20
67.4800067562
 10
186.1295983903
 20
67.4744537532
 10
186.1278297031
 20
67.4689195737
 10
186.1261823094
 20
67.4634112013
 10
186.1246549033
 20
67.4579356195
 10
186.1232461787
 20
67.4524998118
 10
186.1219548295
 20
67.4471107616
 10
186.12077928
 20
67.4417744597
 10
186.1197168758
 20
67.4364929262
 10
186.118764693
 20
67.4312671887
 10
186.1179198074
 20
67.4260982745
 10
186.1171792949
 20
67.4209872112
 10
186.1165402317
 20
67.4159350261
 10
186.1160001638
 20
67.4109407217
 10
186.115558519
 20
67.4059952002
 10
186.1152151952
 20
67.4010873391
 10
186.1149700902
 20
67.3962060155
 10
186.1148231021
 20
67.3913401068
 10
186.1147741288
 20
67.3864784902
  0
LINE
  5
3E2
100
AcDbEntity
  8
0
100
AcDbLine
 62
250
  6
CONTINUOUS
 10
185.7694283314
 20
64.0687506883
 11
186.6313277696
 21
64.9639262975
  0
LINE
  5
3E3
100
AcDbEntity
  8
0
100
AcDbLine
 62
250
  6
CONTINUOUS
 10
186.0442200729
 20
64.6373669959
 11
185.3113828091
 21
63.8788320923
  0
LINE
  5
3E4
100
AcDbEntity
  8
0
100
AcDbLine
 62
250
  6
CONTINUOUS
 10
186.6313277696
 20
67.1041520811
 11
185.3113828091
 21
65.8390171987
  0
LWPOLYLINE
  5
3E5
100
AcDbEntity
  8
0
100
AcDbPolyline
 62
250
  6
CONTINUOUS
 90
7
 70
0
 10
186.3377692783
 20
67.7421159386
 10
186.3194498221
 20
67.7246165762
 10
186.301326328
 20
67.7071062257
 10
186.2834075146
 20
67.6895644779
 10
186.2657021006
 20
67.6719709234
 10
186.2482188047
 20
67.654305153
 10
186.2309663457
 20
67.6365467573
  0
LINE
  5
3E6
100
AcDbEntity
  8
0
100
AcDbLine
 62
250
  6
CONTINUOUS
 10
186.3780918187
 20
67.7800947529
 11
186.3377692783
 21
67.7421159386
  0
LINE
  5
3E7
100
AcDbEntity
  8
0
100
AcDbLine
 62
250
  6
CONTINUOUS
 10
186.6313275931
 20
68.0175577393
 11
186.4674818064
 21
67.8634514303
  0
LINE
  5
3E8
100
AcDbEntity
  8
0
100
AcDbLine
 62
250
  6
CONTINUOUS
 10
186.4674818064
 20
67.8634514303
 11
186.3780918187
 21
67.7800947529
  0
LINE
  5
3E9
100
AcDbEntity
  8
0
100
AcDbLine
 62
250
  6
CONTINUOUS
 10
186.2270810753
 20
67.9614516102
 11
186.2421630594
 21
67.9754568363
  0
LINE
  5
3EA
100
AcDbEntity
  8
0
100
AcDbLine
 62
250
  6
CONTINUOUS
 10
186.3678196932
 20
66.5214606769
 11
186.6313277696
 21
66.762891183
  0
LINE
  5
3EB
100
AcDbEntity
  8
0
100
AcDbLine
 62
250
  6
CONTINUOUS
 10
186.2421630594
 20
67.9754568363
 11
186.3655834056
 21
68.0882366598
  0
LINE
  5
3EC
100
AcDbEntity
  8
0
100
AcDbLine
 62
250
  6
CONTINUOUS
 10
186.5734846356
 20
68.2763106415
 11
186.6313275931
 21
68.3290056213
  0
LINE
  5
3ED
100
AcDbEntity
  8
0
100
AcDbLine
 62
250
  6
CONTINUOUS
 10
186.3655834056
 20
68.0882366598
 11
186.5734846356
 21
68.2763106415
  0
LINE
  5
3EE
100
AcDbEntity
  8
0
100
AcDbLine
 62
250
  6
CONTINUOUS
 10
185.6740698625
 20
65.8931713793
 11
186.1639182155
 21
66.334838178
  0
LINE
  5
3EF
100
AcDbEntity
  8
0
100
AcDbLine
 62
250
  6
CONTINUOUS
 10
186.6313277696
 20
65.7775993471
 11
185.3113828091
 21
64.8433496585
  0
LINE
  5
3F0
100
AcDbEntity
  8
0
100
AcDbLine
 62
250
  6
CONTINUOUS
 10
185.7730216518
 20
64.8811405676
 11
186.6313277696
 21
65.4608472538
  0
LWPOLYLINE
  5
3F1
100
AcDbEntity
  8
0
100
AcDbPolyline
 62
250
  6
CONTINUOUS
 90
53
 70
0
 10
185.6935526853
 20
67.3868480963
 10
185.6887918041
 20
67.3838335212
 10
185.6840791055
 20
67.380684161
 10
185.6794032622
 20
67.3773957684
 10
185.6747529466
 20
67.373964096
 10
185.6701168314
 20
67.3703848964
 10
185.6654863548
 20
67.3666552652
 10
185.6608640183
 20
67.3627776686
 10
185.6562550889
 20
67.358755916
 10
185.6516648337
 20
67.3545938165
 10
185.6470985199
 20
67.3502951794
 10
185.6433147587
 20
67.3466108535
 10
185.6395508005
 20
67.3428330983
 10
185.6358061645
 20
67.338960657
 10
185.6320815144
 20
67.3349935223
 10
185.6283820906
 20
67.3309366848
 10
185.6247142777
 20
67.3267963844
 10
185.6203617961
 20
67.3217242633
 10
185.6160641262
 20
67.3165374716
 10
185.6118213663
 20
67.3112325395
 10
185.6076336143
 20
67.3058059971
 10
185.6035009684
 20
67.300254375
 10
185.5994251988
 20
67.2945760512
 10
185.5954147658
 20
67.2887767964
 10
185.5914798017
 20
67.282864229
 10
185.587630439
 20
67.2768459676
 10
185.58387681
 20
67.2707296308
 10
185.580227927
 20
67.2645232688
 10
185.5766883206
 20
67.2582366584
 10
185.573261401
 20
67.2518800084
 10
185.5699505787
 20
67.2454635273
 10
185.5667592639
 20
67.2389974238
 10
185.5636899558
 20
67.2324901021
 10
185.5607415091
 20
67.2259427499
 10
185.5579118673
 20
67.2193547504
 10
185.5551989739
 20
67.2127254868
 10
185.5526007726
 20
67.2060543423
 10
185.550522453
 20
67.2004642596
 10
185.5485254823
 20
67.1948541571
 10
185.5466129902
 20
67.1892335273
 10
185.5447874524
 20
67.1836100401
 10
185.5430487288
 20
67.1779840749
 10
185.5413960252
 20
67.1723541886
 10
185.5395257062
 20
67.1655928463
 10
185.5377797221
 20
67.1588316605
 10
185.5361596826
 20
67.1520785124
 10
185.5346671973
 20
67.1453412833
 10
185.533303876
 20
67.1386278543
 10
185.5320713009
 20
67.1319424592
 10
185.5309709457
 20
67.1252747426
 10
185.5300042566
 20
67.1186107016
 10
185.5291726798
 20
67.1119363335
 10
185.5284776616
 20
67.1052376353
  0
LINE
  5
3F2
100
AcDbEntity
  8
0
100
AcDbLine
 62
250
  6
CONTINUOUS
 10
186.0073893675
 20
67.6586249831
 11
186.0151890903
 21
67.6632884547
  0
LINE
  5
3F3
100
AcDbEntity
  8
0
100
AcDbLine
 62
250
  6
CONTINUOUS
 10
186.1147741288
 20
67.2128702871
 11
186.6313275931
 21
67.5217187527
  0
LINE
  5
3F4
100
AcDbEntity
  8
0
100
AcDbLine
 62
250
  6
CONTINUOUS
 10
185.536248502
 20
66.8562321544
 11
185.8985990725
 21
67.0728823667
  0
LINE
  5
3F5
100
AcDbEntity
  8
0
100
AcDbLine
 62
250
  6
CONTINUOUS
 10
186.6313275931
 20
67.1992320644
 11
185.326804171
 21
66.4192546078
  0
LINE
  5
3F6
100
AcDbEntity
  8
0
100
AcDbLine
 62
250
  6
CONTINUOUS
 10
185.3113036059
 20
63.2408952881
 11
186.6313277696
 21
64.0301406725
  0
LINE
  5
3F7
100
AcDbEntity
  8
0
100
AcDbLine
 62
250
  6
CONTINUOUS
 10
186.6313277696
 20
63.7063514219
 11
185.3113036059
 21
62.9171060375
  0
LINE
  5
3F8
100
AcDbEntity
  8
0
100
AcDbLine
 62
250
  6
CONTINUOUS
 10
186.6313277696
 20
64.5142079373
 11
185.7694283314
 21
64.0687506883
  0
LINE
  5
3F9
100
AcDbEntity
  8
0
100
AcDbLine
 62
250
  6
CONTINUOUS
 10
185.3113828091
 20
63.5553106439
 11
186.6313277696
 21
64.2044472789
  0
LINE
  5
3FA
100
AcDbEntity
  8
0
100
AcDbLine
 62
250
  6
CONTINUOUS
 10
185.3113828091
 20
61.5212970292
 11
186.6313277696
 21
62.8022453079
  0
LINE
  5
3FB
100
AcDbEntity
  8
0
100
AcDbLine
 62
250
  6
CONTINUOUS
 10
186.2199419152
 20
62.7119425639
 11
185.3113828091
 21
61.8730324244
  0
LWPOLYLINE
  5
3FC
100
AcDbEntity
  8
SMUSSO
100
AcDbPolyline
 62
7
  6
CONTINUOUS
 90
13
 70
0
 10
183.6828641193
 20
54.7008585699
 10
183.7144708707
 20
54.7215766064
 10
183.7438254357
 20
54.7459283706
 10
183.7707776308
 20
54.7737954499
 10
183.7952112582
 20
54.8050580602
 10
183.8170224692
 20
54.8395827805
 10
183.8361198885
 20
54.8772229393
 10
183.8524241525
 20
54.9178187503
 10
183.8658630539
 20
54.9611949959
 10
183.8763738704
 20
55.0071629436
 10
183.8839098739
 20
55.0555247582
 10
183.8884405228
 20
55.1060743454
 10
183.8899463957
 20
55.1585952321
  0
LWPOLYLINE
  5
3FD
100
AcDbEntity
  8
0
100
AcDbPolyline
 62
7
  6
CONTINUOUS
 90
10
 70
0
 10
186.7800673118
 20
57.6327839089
 10
186.7913911556
 20
57.6399657959
 10
186.8240497861
 20
57.6646561842
 10
186.8534625474
 20
57.6931805362
 10
186.879631265
 20
57.7254458006
 10
186.9025795209
 20
57.7614690666
 10
186.9222124781
 20
57.8012145545
 10
186.9383336811
 20
57.8444083656
 10
186.9508237692
 20
57.8907047156
 10
186.9584430071
 20
57.9316199513
  0
LWPOLYLINE
  5
3FE
100
AcDbEntity
  8
ASSI
100
AcDbPolyline
 62
7
  6
CONTINUOUS
 90
10
 70
0
 10
186.7800673118
 20
57.6327839089
 10
186.7913911556
 20
57.6399657959
 10
186.8240497861
 20
57.6646561842
 10
186.8534625474
 20
57.6931805362
 10
186.879631265
 20
57.7254458006
 10
186.9025795209
 20
57.7614690666
 10
186.9222124781
 20
57.8012145545
 10
186.9383336811
 20
57.8444083656
 10
186.9508237692
 20
57.8907047156
 10
186.9584430071
 20
57.9316199513
  0
LINE
  5
3FF
100
AcDbEntity
  8
0
100
AcDbLine
 62
7
  6
CONTINUOUS
 10
184.9506065675
 20
56.5236726251
 11
186.780074988
 21
57.6327885626
  0
LINE
  5
400
100
AcDbEntity
  8
ASSI
100
AcDbLine
 62
7
  6
CONTINUOUS
 10
184.9506065675
 20
56.5236726251
 11
186.780074988
 21
57.6327885626
  0
LINE
  5
401
100
AcDbEntity
  8
0
100
AcDbLine
 62
250
  6
CONTINUOUS
 10
184.9510447533
 20
56.8730402842
 11
186.9658608939
 21
58.0777033375
  0
LINE
  5
402
100
AcDbEntity
  8
ASSI
100
AcDbLine
 62
250
  6
CONTINUOUS
 10
184.9510447533
 20
56.8730402842
 11
186.9658608939
 21
58.0777033375
  0
LINE
  5
403
100
AcDbEntity
  8
SMUSSO
100
AcDbLine
 62
250
  6
CONTINUOUS
 10
183.8899463957
 20
55.1585952321
 11
184.9506065675
 21
55.7710071221
  0
LINE
  5
404
100
AcDbEntity
  8
RACCORDO
100
AcDbLine
 62
7
  6
CONTINUOUS
 10
183.6828637747
 20
54.700858371
 11
184.7435239465
 21
55.313270261
  0
ARC
  5
405
100
AcDbEntity
  8
0
100
AcDbCircle
 62
7
  6
CONTINUOUS
 10
150.6383797481
 20
94.4640598069
 40
0.3
100
AcDbArc
 50
300.108989426
 51
314.2001404117
  0
ARC
  5
406
100
AcDbEntity
  8
ASSI
100
AcDbCircle
 62
7
  6
CONTINUOUS
 10
150.6383797481
 20
94.4640598069
 40
0.3
100
AcDbArc
 50
300.1089895293
 51
314.2001404167
  0
ELLIPSE
  5
407
100
AcDbEntity
  8
0
100
AcDbEllipse
 62
7
  6
CONTINUOUS
 10
187.1332639511
 20
59.4208116559
 30
0.0
 11
-0.0320188688
 21
0.0554549875
 31
0.0
 40
0.5632057935
 41
-2.5265952341
 42
-2.3686251639
  0
ELLIPSE
  5
408
100
AcDbEntity
  8
0
100
AcDbEllipse
 62
7
  6
CONTINUOUS
 10
187.1332639511
 20
129.6972556951
 30
0.0
 11
-0.0312356712
 21
0.0540980115
 31
0.0
 40
0.5918118391
 41
-2.3438606673
 42
-0.7978336343
  0
ELLIPSE
  5
409
100
AcDbEntity
  8
0
100
AcDbEllipse
 62
7
  6
CONTINUOUS
 10
126.2701173672
 20
164.8388737383
 30
0.0
 11
-0.0320188688
 21
0.0554549875
 31
0.0
 40
0.5632057935
 41
-0.7730595434
 42
-0.6150059205
  0
ELLIPSE
  5
40A
100
AcDbEntity
  8
0
100
AcDbEllipse
 62
7
  6
CONTINUOUS
 10
152.6396390534
 20
95.4681776482
 30
0.0
 11
0.1999995634
 21
0.1164181051
 31
0.0
 40
0.0035896273
 41
-0.7351277754
 42
-0.6748017824
  0
ELLIPSE
  5
40B
100
AcDbEntity
  8
0
100
AcDbEllipse
 62
7
  6
CONTINUOUS
 10
164.7235402395
 20
89.0624493844
 30
0.0
 11
0.1998333781
 21
-0.0157785196
 31
0.0
 40
0.5172961965
 41
0.8262203412
 42
2.3446567905
  0
ELLIPSE
  5
40C
100
AcDbEntity
  8
0
100
AcDbEllipse
 62
7
  6
CONTINUOUS
 10
148.8136376628
 20
98.2486277342
 30
0.0
 11
0.1998333781
 21
-0.0157785196
 31
0.0
 40
0.5172961965
 41
0.8262203412
 42
2.3446567905
  0
ELLIPSE
  5
40D
100
AcDbEntity
  8
0
100
AcDbEllipse
 62
7
  6
CONTINUOUS
 10
163.2053127096
 20
87.7590348715
 30
0.0
 11
0.5413005334
 21
0.8416911418
 31
0.0
 40
0.6067084637
 41
0.7148472392
 42
0.8145158917
  0
ELLIPSE
  5
40E
100
AcDbEntity
  8
0
100
AcDbEllipse
 62
7
  6
CONTINUOUS
 10
147.2954101329
 20
96.9452132213
 30
0.0
 11
0.5413005334
 21
0.8416911418
 31
0.0
 40
0.6067084637
 41
0.7148472392
 42
0.8145158917
  0
ELLIPSE
  5
40F
100
AcDbEntity
  8
0
100
AcDbEllipse
 62
7
  6
CONTINUOUS
 10
152.6396390534
 20
96.0395424824
 30
0.0
 11
0.1998333781
 21
-0.0157785196
 31
0.0
 40
0.5172961965
 41
-0.692216108
 42
0.8262203412
  0
ELLIPSE
  5
410
100
AcDbEntity
  8
0
100
AcDbEllipse
 62
7
  6
CONTINUOUS
 10
151.5417473912
 20
94.4934313075
 30
0.0
 11
0.4625183445
 21
0.8873459255
 31
0.0
 40
0.5463614449
 41
0.662201126
 42
0.7618697785
  0
ELLIPSE
  5
411
100
AcDbEntity
  8
0
100
AcDbEllipse
 62
7
  6
CONTINUOUS
 10
187.1237640827
 20
129.7091838535
 30
0.0
 11
1.1066889452
 21
-0.4882482052
 31
0.0
 40
0.0945009384
 41
-2.4253001261
 42
-2.3839902126
  0
ELLIPSE
  5
412
100
AcDbEntity
  8
0
100
AcDbEllipse
 62
7
  6
CONTINUOUS
 10
125.8883168319
 20
165.0657636357
 30
0.0
 11
1.1066889452
 21
-0.4882482052
 31
0.0
 40
0.0945009384
 41
-2.4666100396
 42
-2.4253001261
  0
ELLIPSE
  5
413
100
AcDbEntity
  8
0
100
AcDbEllipse
 62
7
  6
CONTINUOUS
 10
187.1388628879
 20
58.9767059855
 30
0.0
 11
0.1304932868
 21
1.2025842266
 31
0.0
 40
0.0944494463
 41
-3.8578203675
 42
-3.816510454
  0
ELLIPSE
  5
414
100
AcDbEntity
  8
0
100
AcDbEllipse
 62
7
  6
CONTINUOUS
 10
187.1388628879
 20
129.6830319558
 30
0.0
 11
0.1304932868
 21
1.2025842266
 31
0.0
 40
0.0944494463
 41
-3.899130281
 42
-3.8578203675
  0
ELLIPSE
  5
415
100
AcDbEntity
  8
ASSI
100
AcDbEllipse
 62
7
  6
CONTINUOUS
 10
187.1332639511
 20
59.4208116559
 30
0.0
 11
-0.0320188688
 21
0.0554549875
 31
0.0
 40
0.5632057935
 41
-2.5265952341
 42
-2.3686251639
  0
ELLIPSE
  5
416
100
AcDbEntity
  8
ASSI
100
AcDbEllipse
 62
7
  6
CONTINUOUS
 10
187.1332639511
 20
129.6972556951
 30
0.0
 11
-0.0312356712
 21
0.0540980115
 31
0.0
 40
0.5918118391
 41
-2.3438606673
 42
-0.7978336343
  0
ELLIPSE
  5
417
100
AcDbEntity
  8
ASSI
100
AcDbEllipse
 62
7
  6
CONTINUOUS
 10
126.2701173672
 20
164.8388737383
 30
0.0
 11
-0.0320188688
 21
0.0554549875
 31
0.0
 40
0.5632057935
 41
-0.7730595434
 42
-0.6150059205
  0
ELLIPSE
  5
418
100
AcDbEntity
  8
ASSI
100
AcDbEllipse
 62
7
  6
CONTINUOUS
 10
152.6396390534
 20
95.4681776482
 30
0.0
 11
0.1999995634
 21
0.1164181051
 31
0.0
 40
0.0035896273
 41
-0.7351277754
 42
-0.6748017824
  0
ELLIPSE
  5
419
100
AcDbEntity
  8
ASSI
100
AcDbEllipse
 62
7
  6
CONTINUOUS
 10
164.7235402395
 20
89.0624493844
 30
0.0
 11
0.1998333781
 21
-0.0157785196
 31
0.0
 40
0.5172961965
 41
0.8262203412
 42
2.3446567905
  0
ELLIPSE
  5
41A
100
AcDbEntity
  8
ASSI
100
AcDbEllipse
 62
7
  6
CONTINUOUS
 10
148.8136376628
 20
98.2486277342
 30
0.0
 11
0.1998333781
 21
-0.0157785196
 31
0.0
 40
0.5172961965
 41
0.8262203412
 42
2.3446567905
  0
ELLIPSE
  5
41B
100
AcDbEntity
  8
ASSI
100
AcDbEllipse
 62
7
  6
CONTINUOUS
 10
163.2053127096
 20
87.7590348715
 30
0.0
 11
0.5413005334
 21
0.8416911418
 31
0.0
 40
0.6067084637
 41
0.7148472392
 42
0.8145158917
  0
ELLIPSE
  5
41C
100
AcDbEntity
  8
ASSI
100
AcDbEllipse
 62
7
  6
CONTINUOUS
 10
147.2954101329
 20
96.9452132213
 30
0.0
 11
0.5413005334
 21
0.8416911418
 31
0.0
 40
0.6067084637
 41
0.7148472392
 42
0.8145158917
  0
ELLIPSE
  5
41D
100
AcDbEntity
  8
ASSI
100
AcDbEllipse
 62
7
  6
CONTINUOUS
 10
152.6396390534
 20
96.0395424824
 30
0.0
 11
0.1998333781
 21
-0.0157785196
 31
0.0
 40
0.5172961965
 41
-0.692216108
 42
0.8262203412
  0
ELLIPSE
  5
41E
100
AcDbEntity
  8
ASSI
100
AcDbEllipse
 62
7
  6
CONTINUOUS
 10
151.5417473912
 20
94.4934313075
 30
0.0
 11
0.4625183445
 21
0.8873459255
 31
0.0
 40
0.5463614449
 41
0.662201126
 42
0.7618697785
  0
ELLIPSE
  5
41F
100
AcDbEntity
  8
ASSI
100
AcDbEllipse
 62
7
  6
CONTINUOUS
 10
187.1237640827
 20
129.7091838535
 30
0.0
 11
1.1066889452
 21
-0.4882482052
 31
0.0
 40
0.0945009384
 41
-2.4253001261
 42
-2.3839902126
  0
ELLIPSE
  5
420
100
AcDbEntity
  8
ASSI
100
AcDbEllipse
 62
7
  6
CONTINUOUS
 10
125.8883168319
 20
165.0657636357
 30
0.0
 11
1.1066889452
 21
-0.4882482052
 31
0.0
 40
0.0945009384
 41
-2.4666100396
 42
-2.4253001261
  0
ELLIPSE
  5
421
100
AcDbEntity
  8
ASSI
100
AcDbEllipse
 62
7
  6
CONTINUOUS
 10
187.1388628879
 20
58.9767059855
 30
0.0
 11
0.1304932868
 21
1.2025842266
 31
0.0
 40
0.0944494463
 41
-3.8578203675
 42
-3.816510454
  0
ELLIPSE
  5
422
100
AcDbEntity
  8
ASSI
100
AcDbEllipse
 62
7
  6
CONTINUOUS
 10
187.1388628879
 20
129.6830319558
 30
0.0
 11
0.1304932868
 21
1.2025842266
 31
0.0
 40
0.0944494463
 41
-3.899130281
 42
-3.8578203675
  0
ENDSEC
  0
SECTION
  2
OBJECTS
  0
DICTIONARY
  5
C
100
AcDbDictionary
280
0
281
1
  3
ACAD_GROUP
350
D
  3
ACAD_MLINESTYLE
350
17
  3
ACAD_LAYOUT
350
1A
  3
ACAD_PLOTSETTINGS
350
19
  3
ACAD_PLOTSTYLENAME
350
E
  0
DICTIONARY
  5
D
102
{ACAD_REACTORS
330
C
102
}
100
AcDbDictionary
280
0
281
1
  0
ACDBDICTIONARYWDFLT
  5
E
102
{ACAD_REACTORS
330
C
102
}
100
AcDbDictionary
281
1
  3
Normal
350
F
100
AcDbDictionaryWithDefault
340
F
  0
DICTIONARY
  5
17
102
{ACAD_REACTORS
330
C
102
}
100
AcDbDictionary
280
0
281
1
  3
Standard
350
18
  0
DICTIONARY
  5
19
102
{ACAD_REACTORS
330
C
102
}
100
AcDbDictionary
281
1
  0
DICTIONARY
  5
1A
102
{ACAD_REACTORS
330
C
102
}
100
AcDbDictionary
281
1
  3
Model
350
423
  3
Layout1
350
424
  0
ACDBPLACEHOLDER
  5
F
102
{ACAD_REACTORS
330
E
102
}
  0
MLINESTYLE
  5
18
102
{ACAD_REACTORS
330
17
102
}
100
AcDbMlineStyle
  2
STANDARD
 70
0
  3

 62
256
 51
90.0
 52
90.0
 71
2
 49
0.5
 62
256
  6
BYLAYER
 49
-0.5
 62
256
  6
BYLAYER
  0
LAYOUT
  5
423
102
{ACAD_REACTORS
330
1A
102
}
100
AcDbPlotSettings
  1

  2
none_device
  4
ISO_A4_(297.00_x_210.00_MM)
  6

 40
0.0
 41
0.0
 42
0.0
 43
0.0
 44
297.0
 45
210.0
 46
0.0
 47
0.0
 48
0.0
 49
0.0
140
0.0
141
0.0
142
1.0
143
1.0
 70
1024
 72
1
 73
0
 74
0
  7

 75
0
147
1.0
148
0.0
149
0.0
100
AcDbLayout
  1
Model
 70
0
 71
0
 10
0.0
 20
0.0
 11
297.0
 21
210.0
 12
0.0
 22
0.0
 32
0.0
 14
0.0
 24
0.0
 34
0.0
 15
0.0
 25
0.0
 35
0.0
146
0.0
 13
0.0
 23
0.0
 33
0.0
 16
1.0
 26
0.0
 36
0.0
 17
0.0
 27
1.0
 37
0.0
 76
0
330
224
345
0
346
0
  0
LAYOUT
  5
424
102
{ACAD_REACTORS
330
1A
102
}
100
AcDbPlotSettings
  1

  2
none_device
  4
ISO_A4_(297.00_x_210.00_MM)
  6

 40
0.0
 41
0.0
 42
0.0
 43
0.0
 44
297.0
 45
210.0
 46
0.0
 47
0.0
 48
0.0
 49
0.0
140
0.0
141
0.0
142
1.0
143
1.0
 70
0
 72
1
 73
0
 74
0
  7

 75
0
147
1.0
148
0.0
149
0.0
100
AcDbLayout
  1
Layout1
 70
0
 71
1
 10
0.0
 20
0.0
 11
297.0
 21
210.0
 12
0.0
 22
0.0
 32
0.0
 14
0.0
 24
0.0
 34
0.0
 15
0.0
 25
0.0
 35
0.0
146
0.0
 13
0.0
 23
0.0
 33
0.0
 16
1.0
 26
0.0
 36
0.0
 17
0.0
 27
1.0
 37
0.0
 76
0
330
225
345
0
346
0
  0
ENDSEC
  0
EOF
