  0
SECTION
  2
HEADER
  9
$ACADVER
  1
AC1021
  9
$DWGCODEPAGE
  3
ANSI_1252
  9
$EXTMAX
 10
297.0
 20
210.0
 30
0.0
  9
$EXTMIN
 10
0.0
 20
0.0
 30
0.0
  9
$LIMMIN
 10
0.0
 20
0.0
  9
$LIMMAX
 10
297.0
 20
210.0
  9
$VIEWCTR
 10
148.5
 20
105.0
  9
$VIEWSIZE
 40
210.0
  9
$CLAYER
  8
0
  9
$LTSCALE
 40
16.335
  9
$CELTYPE
  6
BYLAYER
  9
$DIMSCALE
 40
1.0
  9
$DIMASZ
 40
3.0
  9
$DIMEXO
 40
0.5
  9
$DIMDLI
 40
11.286
  9
$DIMEXE
 40
1.5
  9
$DIMCEN
 40
2.673
  9
$DIMLFAC
 40
1.0
  9
$DIMBLK
  1
_FILLED
  9
$DIMALT
 70
0
  9
$DIMALTF
 40
25.4
  9
$DIMTXT
 40
3.0
  9
$DIMTOL
 70
1
  9
$DIMLIM
 70
0
  9
$DIMTFAC
 40
1.0
  9
$DIMTP
 40
0.01
  9
$DIMTM
 40
0.01
  9
$DIMGAP
 40
0.625
  9
$DIMDSEP
 70
44
  9
$AUNITS
 70
0
  9
$PDMODE
 70
3
  9
$PDSIZE
 40
3.0
  9
$HANDSEED
  5
368
  9
$TILEMODE
 70
1
  9
$MEASUREMENT
 70
1
  9
$INSUNITS
 70
4
  0
ENDSEC
  0
SECTION
  2
CLASSES
  0
CLASS
  1
ACDBDICTIONARYWDFLT
  2
AcDbDictionaryWithDefault
  3
AutoCAD 2000
 90
0
 91
1
280
0
281
0
  0
CLASS
  1
ACDBPLACEHOLDER
  2
AcDbPlaceHolder
  3
AutoCAD 2000
 90
0
 91
1
280
0
281
0
  0
CLASS
  1
LAYOUT
  2
AcDbLayout
  3
AutoCAD 2000
 90
0
 91
0
280
0
281
0
  0
ENDSEC
  0
SECTION
  2
TABLES
  0
TABLE
  2
VPORT
  5
8
100
AcDbSymbolTable
 70
2
  0
VPORT
  5
1F4
100
AcDbSymbolTableRecord
100
AcDbViewportTableRecord
  2
*ACTIVE
 70
0
 10
0.0
 20
0.0
 11
1.0
 21
1.0
 12
148.5
 22
105.0
 13
0.0
 23
0.0
 14
1.0
 24
1.0
 15
0.0
 25
0.0
 16
0.0
 26
0.0
 36
1.0
 17
0.0
 27
0.0
 37
0.0
 40
210.0
 41
1.4142857143
 42
50.0
 43
0.0
 44
0.0
 50
0.0
 51
0.0
 71
0
 72
100
 73
1
 74
1
 75
0
 76
0
 77
0
 78
0
  0
ENDTAB
  0
TABLE
  2
LTYPE
  5
5
100
AcDbSymbolTable
 70
6
  0
LTYPE
  5
14
100
AcDbSymbolTableRecord
100
AcDbLinetypeTableRecord
  2
BYBLOCK
 70
0
  3

 72
65
 73
0
 40
0.0
  0
LTYPE
  5
15
100
AcDbSymbolTableRecord
100
AcDbLinetypeTableRecord
  2
BYLAYER
 70
0
  3

 72
65
 73
0
 40
0.0
  0
LTYPE
  5
16
100
AcDbSymbolTableRecord
100
AcDbLinetypeTableRecord
  2
CONTINUOUS
 70
64
  3
Solid line
 72
65
 73
0
 40
0.0
  0
LTYPE
  5
1F5
100
AcDbSymbolTableRecord
100
AcDbLinetypeTableRecord
  2
CENTER
 70
64
  3
____ _ ____ _ ____ _ ____ _ ____ _ ____ _ ____
 72
65
 73
4
 40
0.6
 49
0.375
 74
0
 49
-0.075
 74
0
 49
0.075
 74
0
 49
-0.075
 74
0
  0
LTYPE
  5
1F6
100
AcDbSymbolTableRecord
100
AcDbLinetypeTableRecord
  2
HIDDEN
 70
64
  3
- - - - - - - - - - - - - - - - - - - -
 72
65
 73
2
 40
0.2
 49
0.1
 74
0
 49
-0.1
 74
0
  0
LTYPE
  5
1F7
100
AcDbSymbolTableRecord
100
AcDbLinetypeTableRecord
  2
PHANTOM
 70
64
  3
_____ _ _ _____ _ _ _____ _ _ _____
 72
65
 73
6
 40
0.8
 49
0.45
 74
0
 49
-0.05
 74
0
 49
0.1
 74
0
 49
-0.05
 74
0
 49
0.1
 74
0
 49
-0.05
 74
0
  0
LTYPE
  5
1F8
100
AcDbSymbolTableRecord
100
AcDbLinetypeTableRecord
  2
DOT
 70
64
  3
. . . . . . . . . . . . . . . . . . . .
 72
65
 73
2
 40
0.2
 49
0.1
 74
0
 49
-0.1
 74
0
  0
LTYPE
  5
1F9
100
AcDbSymbolTableRecord
100
AcDbLinetypeTableRecord
  2
DASHED
 70
64
  3
- - - - - - - - - - - - - - - - - - - -
 72
65
 73
2
 40
0.2
 49
0.1
 74
0
 49
-0.1
 74
0
  0
ENDTAB
  0
TABLE
  2
LAYER
  5
2
100
AcDbSymbolTable
 70
36
  0
LAYER
  5
10
100
AcDbSymbolTableRecord
100
AcDbLayerTableRecord
  2
0
 70
0
 62
7
  6
CONTINUOUS
370
-3
390
F
  0
LAYER
  5
1FA
100
AcDbSymbolTableRecord
100
AcDbLayerTableRecord
  2
DEFAULT_1
 70
0
 62
7
  6
CENTER
370
-3
390
F
  0
LAYER
  5
1FB
100
AcDbSymbolTableRecord
100
AcDbLayerTableRecord
  2
DEFAULT_2
 70
0
 62
7
  6
HIDDEN
370
-3
390
F
  0
LAYER
  5
1FC
100
AcDbSymbolTableRecord
100
AcDbLayerTableRecord
  2
DEFAULT_3
 70
0
 62
7
  6
PHANTOM
370
-3
390
F
  0
LAYER
  5
1FD
100
AcDbSymbolTableRecord
100
AcDbLayerTableRecord
  2
ASSI
 70
0
 62
7
  6
CONTINUOUS
370
-3
390
F
  0
LAYER
  5
1FE
100
AcDbSymbolTableRecord
100
AcDbLayerTableRecord
  2
COORDINATE
 70
0
 62
7
  6
CONTINUOUS
370
-3
390
F
  0
LAYER
  5
1FF
100
AcDbSymbolTableRecord
100
AcDbLayerTableRecord
  2
COORD_ORIGINE
 70
0
 62
7
  6
CONTINUOUS
370
-3
390
F
  0
LAYER
  5
200
100
AcDbSymbolTableRecord
100
AcDbLayerTableRecord
  2
COPY_PUBLISH
 70
0
 62
7
  6
CONTINUOUS
370
-3
390
F
  0
LAYER
  5
201
100
AcDbSymbolTableRecord
100
AcDbLayerTableRecord
  2
COSMETIC
 70
0
 62
7
  6
CONTINUOUS
370
-3
390
F
  0
LAYER
  5
202
100
AcDbSymbolTableRecord
100
AcDbLayerTableRecord
  2
COSMETICI
 70
0
 62
7
  6
CONTINUOUS
370
-3
390
F
  0
LAYER
  5
203
100
AcDbSymbolTableRecord
100
AcDbLayerTableRecord
  2
CURVE
 70
0
 62
7
  6
CONTINUOUS
370
-3
390
F
  0
LAYER
  5
204
100
AcDbSymbolTableRecord
100
AcDbLayerTableRecord
  2
CURVE_TASSELLI
 70
0
 62
7
  6
CONTINUOUS
370
-3
390
F
  0
LAYER
  5
205
100
AcDbSymbolTableRecord
100
AcDbLayerTableRecord
  2
DRAFT
 70
0
 62
7
  6
CONTINUOUS
370
-3
390
F
  0
LAYER
  5
206
100
AcDbSymbolTableRecord
100
AcDbLayerTableRecord
  2
IMPORT_IGES
 70
0
 62
7
  6
CONTINUOUS
370
-3
390
F
  0
LAYER
  5
207
100
AcDbSymbolTableRecord
100
AcDbLayerTableRecord
  2
INTFCLR_2
 70
0
 62
7
  6
CONTINUOUS
370
-3
390
F
  0
LAYER
  5
208
100
AcDbSymbolTableRecord
100
AcDbLayerTableRecord
  2
INTFCLR_3
 70
0
 62
7
  6
CONTINUOUS
370
-3
390
F
  0
LAYER
  5
209
100
AcDbSymbolTableRecord
100
AcDbLayerTableRecord
  2
INTF_1
 70
0
 62
7
  6
CONTINUOUS
370
-3
390
F
  0
LAYER
  5
20A
100
AcDbSymbolTableRecord
100
AcDbLayerTableRecord
  2
INTF_14
 70
0
 62
7
  6
CONTINUOUS
370
-3
390
F
  0
LAYER
  5
20B
100
AcDbSymbolTableRecord
100
AcDbLayerTableRecord
  2
INTF_15
 70
0
 62
7
  6
CONTINUOUS
370
-3
390
F
  0
LAYER
  5
20C
100
AcDbSymbolTableRecord
100
AcDbLayerTableRecord
  2
INTF_18
 70
0
 62
7
  6
CONTINUOUS
370
-3
390
F
  0
LAYER
  5
20D
100
AcDbSymbolTableRecord
100
AcDbLayerTableRecord
  2
INTF_19
 70
0
 62
7
  6
CONTINUOUS
370
-3
390
F
  0
LAYER
  5
20E
100
AcDbSymbolTableRecord
100
AcDbLayerTableRecord
  2
INTF_2
 70
0
 62
7
  6
CONTINUOUS
370
-3
390
F
  0
LAYER
  5
20F
100
AcDbSymbolTableRecord
100
AcDbLayerTableRecord
  2
INTF_7
 70
0
 62
7
  6
CONTINUOUS
370
-3
390
F
  0
LAYER
  5
210
100
AcDbSymbolTableRecord
100
AcDbLayerTableRecord
  2
INTF_CYAN
 70
0
 62
7
  6
CONTINUOUS
370
-3
390
F
  0
LAYER
  5
211
100
AcDbSymbolTableRecord
100
AcDbLayerTableRecord
  2
INTF_YELLOW
 70
0
 62
7
  6
CONTINUOUS
370
-3
390
F
  0
LAYER
  5
212
100
AcDbSymbolTableRecord
100
AcDbLayerTableRecord
  2
LIVELLO_1
 70
0
 62
7
  6
CONTINUOUS
370
-3
390
F
  0
LAYER
  5
213
100
AcDbSymbolTableRecord
100
AcDbLayerTableRecord
  2
NOTE
 70
0
 62
7
  6
CONTINUOUS
370
-3
390
F
  0
LAYER
  5
214
100
AcDbSymbolTableRecord
100
AcDbLayerTableRecord
  2
PIANI
 70
0
 62
7
  6
CONTINUOUS
370
-3
390
F
  0
LAYER
  5
215
100
AcDbSymbolTableRecord
100
AcDbLayerTableRecord
  2
PIANI_ORIGINE
 70
0
 62
7
  6
CONTINUOUS
370
-3
390
F
  0
LAYER
  5
216
100
AcDbSymbolTableRecord
100
AcDbLayerTableRecord
  2
PIANI_RIFERIMENTO
 70
0
 62
7
  6
CONTINUOUS
370
-3
390
F
  0
LAYER
  5
217
100
AcDbSymbolTableRecord
100
AcDbLayerTableRecord
  2
PUNTI
 70
0
 62
7
  6
CONTINUOUS
370
-3
390
F
  0
LAYER
  5
218
100
AcDbSymbolTableRecord
100
AcDbLayerTableRecord
  2
RACCORDO
 70
0
 62
7
  6
CONTINUOUS
370
-3
390
F
  0
LAYER
  5
219
100
AcDbSymbolTableRecord
100
AcDbLayerTableRecord
  2
RGB__255__255__255__
 70
0
 62
7
  6
CONTINUOUS
370
-3
390
F
  0
LAYER
  5
21A
100
AcDbSymbolTableRecord
100
AcDbLayerTableRecord
  2
RGB____0____0____0__
 70
0
 62
7
  6
CONTINUOUS
370
-3
390
F
  0
LAYER
  5
21B
100
AcDbSymbolTableRecord
100
AcDbLayerTableRecord
  2
SIMBOLI
 70
0
 62
7
  6
CONTINUOUS
370
-3
390
F
  0
LAYER
  5
21C
100
AcDbSymbolTableRecord
100
AcDbLayerTableRecord
  2
SMUSSO
 70
0
 62
7
  6
CONTINUOUS
370
-3
390
F
  0
LAYER
  5
21D
100
AcDbSymbolTableRecord
100
AcDbLayerTableRecord
  2
SNAPLINE
 70
0
 62
7
  6
CONTINUOUS
370
-3
390
F
  0
LAYER
  5
21E
100
AcDbSymbolTableRecord
100
AcDbLayerTableRecord
  2
SUPERFICI
 70
0
 62
7
  6
CONTINUOUS
370
-3
390
F
  0
LAYER
  5
21F
100
AcDbSymbolTableRecord
100
AcDbLayerTableRecord
  2
TRASH
 70
0
 62
7
  6
CONTINUOUS
370
-3
390
F
  0
LAYER
  5
220
100
AcDbSymbolTableRecord
100
AcDbLayerTableRecord
  2
WHITE
 70
0
 62
7
  6
CONTINUOUS
370
-3
390
F
  0
LAYER
  5
221
100
AcDbSymbolTableRecord
100
AcDbLayerTableRecord
  2
XSEC_DATUMS
 70
0
 62
7
  6
CONTINUOUS
370
-3
390
F
  0
ENDTAB
  0
TABLE
  2
STYLE
  5
3
100
AcDbSymbolTable
 70
1
  0
STYLE
  5
11
100
AcDbSymbolTableRecord
100
AcDbTextStyleTableRecord
  2
STANDARD
 70
0
 40
0.0
 41
0.8
 50
0.0
 71
0
 42
0.2
  3
txt
  4

  0
STYLE
  5
222
100
AcDbSymbolTableRecord
100
AcDbTextStyleTableRecord
  2
TEXTSTYLE_1
 70
0
 40
0.0
 41
0.8
 50
0.0
 71
0
 42
0.2
  3
gdt
  4

  0
ENDTAB
  0
TABLE
  2
VIEW
  5
6
100
AcDbSymbolTable
 70
0
  0
ENDTAB
  0
TABLE
  2
UCS
  5
7
100
AcDbSymbolTable
 70
0
  0
ENDTAB
  0
TABLE
  2
APPID
  5
9
100
AcDbSymbolTable
 70
1
  0
APPID
  5
223
100
AcDbSymbolTableRecord
100
AcDbRegAppTableRecord
  2
ACAD
 70
0
  0
ENDTAB
  0
TABLE
  2
BLOCK_RECORD
  5
1
100
AcDbSymbolTable
 70
0
  0
BLOCK_RECORD
  5
224
100
AcDbSymbolTableRecord
100
AcDbBlockTableRecord
  2
*Model_Space
  0
BLOCK_RECORD
  5
225
100
AcDbSymbolTableRecord
100
AcDbBlockTableRecord
  2
*Paper_Space
  0
BLOCK_RECORD
  5
226
100
AcDbSymbolTableRecord
100
AcDbBlockTableRecord
  2
_FILLED
  0
ENDTAB
  0
TABLE
  2
DIMSTYLE
  5
A
100
AcDbSymbolTable
 70
1
100
AcDbDimStyleTable
 71
0
  0
DIMSTYLE
105
227
100
AcDbSymbolTableRecord
100
AcDbDimStyleTableRecord
  2
STANDARD
 70
0
  3

  4

 40
1.0
 41
3.0
 42
0.5
 43
0.38
 44
1.5
 45
0.0
 46
0.0
 47
0.01
 48
0.01
140
3.0
141
0.09
142
0.0
143
25.4
144
1.0
145
0.0
146
1.0
147
0.625
 71
1.0
 72
0.0
 73
0
 74
0
 75
0
 76
0
 77
1
 78
8
 79
2
170
0
171
1
172
0
173
0
174
0
175
0
176
0
177
0
178
0
270
2
179
2
271
2
272
2
273
2
274
2
275
0
280
0
281
0
282
0
283
1
284
8
285
0
286
0
287
3
288
0
340
11
278
44
341
226
342
226
343
226
344
226
  0
ENDTAB
  0
ENDSEC
  0
SECTION
  2
BLOCKS
  0
BLOCK
  5
20
100
AcDbEntity
  8
0
100
AcDbBlockBegin
  2
*Model_Space
 70
0
 10
0.0
 20
0.0
 30
0.0
  3
*Model_Space
  1

  0
ENDBLK
  5
21
100
AcDbEntity
  8
0
100
AcDbBlockEnd
  0
BLOCK
  5
1C
100
AcDbEntity
  8
0
100
AcDbBlockBegin
  2
*Paper_Space
 70
0
 10
0.0
 20
0.0
 30
0.0
  3
*Paper_Space
  1

  0
ENDBLK
  5
1D
100
AcDbEntity
  8
0
100
AcDbBlockEnd
  0
BLOCK
  5
228
100
AcDbEntity
  8
0
100
AcDbBlockBegin
  2
_FILLED
 70
64
 10
0.0
 20
0.0
  3
_FILLED
  1

  0
SOLID
  5
229
100
AcDbEntity
  8
0
  6
BYBLOCK
 62
0
100
AcDbTrace
 10
0.0
 20
0.0
 11
-1.0
 21
0.3166666667
 12
-1.0
 22
-0.3166666667
 13
-1.0
 23
-0.3166666667
  0
ENDBLK
  5
22A
100
AcDbEntity
  8
0
  6
BYBLOCK
 62
0
100
AcDbBlockEnd
  0
ENDSEC
  0
SECTION
  2
ENTITIES
  0
LINE
  5
22B
100
AcDbEntity
  8
SMUSSO
100
AcDbLine
 62
7
  6
CONTINUOUS
 10
112.6631247053
 20
154.5298469901
 11
114.4308916583
 21
155.5504940185
  0
LINE
  5
22C
100
AcDbEntity
  8
0
100
AcDbLine
 62
250
  6
CONTINUOUS
 10
117.4360954784
 20
156.1425474157
 11
115.3854858129
 21
154.999880566
  0
LINE
  5
22D
100
AcDbEntity
  8
0
100
AcDbLine
 62
7
  6
CONTINUOUS
 10
116.9578233249
 20
156.2041222978
 11
115.0826083985
 21
155.1742009406
  0
LINE
  5
22E
100
AcDbEntity
  8
SMUSSO
100
AcDbLine
 62
7
  6
CONTINUOUS
 10
112.6631247053
 20
154.5298469901
 11
112.6631247053
 21
81.8639529006
  0
LINE
  5
22F
100
AcDbEntity
  8
RACCORDO
100
AcDbLine
 62
250
  6
CONTINUOUS
 10
127.7952098227
 20
126.5240327057
 11
128.6436969561
 21
127.0139385424
  0
LWPOLYLINE
  5
230
100
AcDbEntity
  8
RACCORDO
100
AcDbPolyline
 62
7
  6
CONTINUOUS
 90
13
 70
0
 10
128.043708968
 20
127.073316939
 10
128.0842200197
 20
127.093706895
 10
128.1272640419
 20
127.1096426635
 10
128.1723209851
 20
127.1209377162
 10
128.2194166346
 20
127.1275326066
 10
128.2685252053
 20
127.1294867813
 10
128.3190203001
 20
127.1267753141
 10
128.3709196802
 20
127.1193384391
 10
128.4242055844
 20
127.1072359221
 10
128.4781983326
 20
127.0906221352
 10
128.5326713646
 20
127.0695485354
 10
128.5878512404
 20
127.0439636657
 10
128.6437379602
 20
127.0138675258
  0
LINE
  5
231
100
AcDbEntity
  8
SMUSSO
100
AcDbLine
 62
7
  6
CONTINUOUS
 10
112.6631247053
 20
81.8639529006
 11
175.5956282309
 21
45.5275535494
  0
LWPOLYLINE
  5
232
100
AcDbEntity
  8
0
100
AcDbPolyline
 62
7
  6
CONTINUOUS
 90
13
 70
0
 10
130.4846696624
 20
123.33319082
 10
130.4995140984
 20
123.3430657848
 10
130.5178926555
 20
123.3574520138
 10
130.5350763301
 20
123.3735195892
 10
130.5508614182
 20
123.3911266332
 10
130.5651060877
 20
123.4101493407
 10
130.5777172724
 20
123.4305142904
 10
130.5885642587
 20
123.4520737808
 10
130.5975146892
 20
123.474611514
 10
130.6044991478
 20
123.4979835361
 10
130.6094593677
 20
123.5220401585
 10
130.6123470149
 20
123.5465703867
 10
130.6131629087
 20
123.5684373242
  0
LINE
  5
233
100
AcDbEntity
  8
0
100
AcDbLine
 62
250
  6
CONTINUOUS
 10
129.9165301663
 20
123.080794789
 11
130.5429978716
 21
123.4682118152
  0
LINE
  5
234
100
AcDbEntity
  8
0
100
AcDbLine
 62
7
  6
CONTINUOUS
 10
129.9165301663
 20
122.9818447993
 11
130.4847347437
 21
123.3332310332
  0
LWPOLYLINE
  5
235
100
AcDbEntity
  8
0
100
AcDbPolyline
 62
250
  6
CONTINUOUS
 90
4
 70
0
 10
130.1894169867
 20
116.6768875608
 10
130.2085071655
 20
116.7011130293
 10
130.2286493624
 20
116.7241552331
 10
130.2498093422
 20
116.7458683416
  0
LINE
  5
236
100
AcDbEntity
  8
0
100
AcDbLine
 62
250
  6
CONTINUOUS
 10
130.2498093422
 20
116.7458683416
 11
130.27202134
 21
116.7663981852
  0
LINE
  5
237
100
AcDbEntity
  8
0
100
AcDbLine
 62
250
  6
CONTINUOUS
 10
130.27202134
 20
116.7663981852
 11
130.2952853558
 21
116.785744764
  0
LWPOLYLINE
  5
238
100
AcDbEntity
  8
0
100
AcDbPolyline
 62
7
  6
CONTINUOUS
 90
11
 70
0
 10
130.5210700636
 20
116.8979830587
 10
130.5231840684
 20
116.8996278418
 10
130.541241892
 20
116.9153483062
 10
130.5576875828
 20
116.9328268812
 10
130.572272246
 20
116.9518403905
 10
130.5848526915
 20
116.9722636196
 10
130.5952730038
 20
116.9939010603
 10
130.6033895827
 20
117.0164861239
 10
130.6091067189
 20
117.0397790289
 10
130.6123587964
 20
117.0635686856
 10
130.6131564191
 20
117.0827230806
  0
LINE
  5
239
100
AcDbEntity
  8
0
100
AcDbLine
 62
250
  6
CONTINUOUS
 10
130.2952853558
 20
116.785744764
 11
130.5429978716
 21
116.9762919876
  0
LINE
  5
23A
100
AcDbEntity
  8
0
100
AcDbLine
 62
7
  6
CONTINUOUS
 10
130.2733592
 20
116.7074371059
 11
130.521071689
 21
116.8979843089
  0
LWPOLYLINE
  5
23B
100
AcDbEntity
  8
0
100
AcDbPolyline
 62
250
  6
CONTINUOUS
 90
8
 70
0
 10
130.5429978716
 20
116.9762919876
 10
130.5599687685
 20
116.9882205315
 10
130.574836724
 20
117.0011520792
 10
130.5874422668
 20
117.0149562772
 10
130.597664356
 20
117.0295256597
 10
130.6053708108
 20
117.0446834057
 10
130.6104602397
 20
117.0601775674
 10
130.6128519973
 20
117.0754125877
  0
LWPOLYLINE
  5
23C
100
AcDbEntity
  8
0
100
AcDbPolyline
 62
250
  6
CONTINUOUS
 90
9
 70
0
 10
130.0560566758
 20
116.3134452295
 10
130.0696474806
 20
116.3224617547
 10
130.0815512269
 20
116.3322411478
 10
130.091640374
 20
116.3426786296
 10
130.0998068234
 20
116.3536623699
 10
130.1059630768
 20
116.3650746859
 10
130.110043174
 20
116.3767933029
 10
130.112003399
 20
116.3886926643
 10
130.1121887157
 20
116.3936626372
  0
LINE
  5
23D
100
AcDbEntity
  8
0
100
AcDbLine
 62
250
  6
CONTINUOUS
 10
130.330898146
 20
118.045716371
 11
129.9165301663
 21
117.8064646713
  0
LINE
  5
23E
100
AcDbEntity
  8
0
100
AcDbLine
 62
250
  6
CONTINUOUS
 10
130.5429978716
 20
117.6783488704
 11
129.9165301663
 21
117.3166330268
  0
LWPOLYLINE
  5
23F
100
AcDbEntity
  8
0
100
AcDbPolyline
 62
7
  6
CONTINUOUS
 90
16
 70
0
 10
146.4863487191
 20
77.0215969477
 10
146.4946179487
 20
77.0225596176
 10
146.49887017
 20
77.0231382071
 10
146.5031981248
 20
77.0238444685
 10
146.5076036697
 20
77.0246739773
 10
146.5120849481
 20
77.025631158
 10
146.5166375663
 20
77.026760852
 10
146.5212635647
 20
77.0280720683
 10
146.5259609029
 20
77.0295557978
 10
146.5307190666
 20
77.0312298546
 10
146.5355358959
 20
77.0330961611
 10
146.5404135508
 20
77.0351527949
 10
146.5453479962
 20
77.0374118021
 10
146.5503427763
 20
77.0398698818
 10
146.555394347
 20
77.0425303349
 10
146.5596942197
 20
77.0449511579
  0
LWPOLYLINE
  5
240
100
AcDbEntity
  8
0
100
AcDbPolyline
 62
7
  6
CONTINUOUS
 90
6
 70
0
 10
146.4666154969
 20
77.0233859099
 10
146.4704893911
 20
77.0223029009
 10
146.4744020468
 20
77.0215658437
 10
146.478353464
 20
77.0211747383
 10
146.4823317108
 20
77.0212128671
 10
146.4863487191
 20
77.0215969477
  0
LWPOLYLINE
  5
241
100
AcDbEntity
  8
0
100
AcDbPolyline
 62
7
  6
CONTINUOUS
 90
10
 70
0
 10
145.9444631532
 20
77.96596389
 10
145.9740621276
 20
77.9544883265
 10
146.0031462741
 20
77.9422099286
 10
146.0317155927
 20
77.9291286964
 10
146.0595291858
 20
77.9153968122
 10
146.0868279511
 20
77.9008620937
 10
146.1143345807
 20
77.8850679937
 10
146.1422899723
 20
77.8678623299
 10
146.1704532284
 20
77.8493972847
 10
146.1988243489
 20
77.829672858
  0
LINE
  5
242
100
AcDbEntity
  8
0
100
AcDbLine
 62
7
  6
CONTINUOUS
 10
145.6318412926
 20
76.6563649279
 11
145.9552295416
 21
76.4696446059
  0
LINE
  5
243
100
AcDbEntity
  8
0
100
AcDbLine
 62
7
  6
CONTINUOUS
 10
146.4524547216
 20
76.1825530187
 11
146.7647733036
 21
76.0022241837
  0
LINE
  5
244
100
AcDbEntity
  8
0
100
AcDbLine
 62
7
  6
CONTINUOUS
 10
141.222561824
 20
79.202227972
 11
141.5086993717
 21
79.0370157381
  0
LINE
  5
245
100
AcDbEntity
  8
0
100
AcDbLine
 62
7
  6
CONTINUOUS
 10
142.1291954435
 20
78.6787490829
 11
142.4538905121
 21
78.4912742197
  0
LINE
  5
246
100
AcDbEntity
  8
0
100
AcDbLine
 62
7
  6
CONTINUOUS
 10
142.6286838659
 20
78.3903507279
 11
142.93931081
 21
78.2109986234
  0
LINE
  5
247
100
AcDbEntity
  8
0
100
AcDbLine
 62
7
  6
CONTINUOUS
 10
143.3902863893
 20
77.950610976
 11
143.435824266
 21
77.9243179767
  0
LINE
  5
248
100
AcDbEntity
  8
0
100
AcDbLine
 62
7
  6
CONTINUOUS
 10
143.8885962331
 20
77.6628931175
 11
144.2062339049
 21
77.4794931067
  0
LINE
  5
249
100
AcDbEntity
  8
0
100
AcDbLine
 62
7
  6
CONTINUOUS
 10
144.2572194667
 20
77.4500546823
 11
144.5783913927
 21
77.2646140375
  0
LINE
  5
24A
100
AcDbEntity
  8
0
100
AcDbLine
 62
7
  6
CONTINUOUS
 10
145.194280563
 20
76.9090073494
 11
145.5364950431
 21
76.7114169976
  0
LINE
  5
24B
100
AcDbEntity
  8
RACCORDO
100
AcDbLine
 62
7
  6
CONTINUOUS
 10
127.7952098227
 20
126.5240327057
 11
127.7952098227
 21
91.5791048589
  0
LWPOLYLINE
  5
24C
100
AcDbEntity
  8
RACCORDO
100
AcDbPolyline
 62
7
  6
CONTINUOUS
 90
13
 70
0
 10
127.7952098227
 20
126.5240327057
 10
127.7970910219
 20
126.5874768713
 10
127.8025257653
 20
126.6480530982
 10
127.811514053
 20
126.7057613865
 10
127.8241246111
 20
126.7608236552
 10
127.8402887134
 20
126.8130179852
 10
127.8598001812
 20
126.8616786197
 10
127.8827018936
 20
126.9067602928
 10
127.9089509715
 20
126.9483082703
 10
127.9382125987
 20
126.9857925934
 10
127.9705253654
 20
127.0191612074
 10
128.0058506815
 20
127.048466167
 10
128.043708968
 20
127.073316939
  0
LWPOLYLINE
  5
24D
100
AcDbEntity
  8
0
100
AcDbPolyline
 62
250
  6
CONTINUOUS
 90
8
 70
0
 10
130.6129312886
 20
123.5622712914
 10
130.6104810365
 20
123.5473970799
 10
130.6053809382
 20
123.5327487909
 10
130.5976856353
 20
123.5184833711
 10
130.5874775758
 20
123.5047536661
 10
130.5748661306
 20
123.4917067812
 10
130.559986421
 20
123.4794825056
 10
130.5429978716
 20
123.4682118149
  0
LWPOLYLINE
  5
24E
100
AcDbEntity
  8
0
100
AcDbPolyline
 62
250
  6
CONTINUOUS
 90
8
 70
0
 10
130.0877279062
 20
116.4862434478
 10
130.0986909559
 20
116.5155277567
 10
130.1111543013
 20
116.5446783285
 10
130.1247062052
 20
116.5729654427
 10
130.1391873671
 20
116.600106631
 10
130.1547570874
 20
116.6263843616
 10
130.1714815307
 20
116.6519163187
 10
130.1894169867
 20
116.6768875608
  0
LINE
  5
24F
100
AcDbEntity
  8
0
100
AcDbLine
 62
7
  6
CONTINUOUS
 10
144.6679870706
 20
77.5714443862
 11
145.1101673868
 21
77.3161350135
  0
LINE
  5
250
100
AcDbEntity
  8
0
100
AcDbLine
 62
7
  6
CONTINUOUS
 10
145.0452774126
 20
77.6310557546
 11
144.7344052708
 21
77.8105494331
  0
LINE
  5
251
100
AcDbEntity
  8
0
100
AcDbLine
 62
7
  6
CONTINUOUS
 10
145.9552295416
 20
77.1725324838
 11
146.1293230929
 21
77.0720130492
  0
LINE
  5
252
100
AcDbEntity
  8
0
100
AcDbLine
 62
7
  6
CONTINUOUS
 10
146.1300229665
 20
77.3657640328
 11
145.9444631532
 21
77.4729039434
  0
LINE
  5
253
100
AcDbEntity
  8
0
100
AcDbLine
 62
7
  6
CONTINUOUS
 10
145.0592277533
 20
78.7830682796
 11
144.7451250765
 21
78.9644272285
  0
LINE
  5
254
100
AcDbEntity
  8
0
100
AcDbLine
 62
7
  6
CONTINUOUS
 10
144.0607768612
 20
79.3595613111
 11
143.7395234495
 21
79.5450490048
  0
LINE
  5
255
100
AcDbEntity
  8
0
100
AcDbLine
 62
7
  6
CONTINUOUS
 10
143.0935631169
 20
79.9180184051
 11
142.7691369509
 21
80.1053380073
  0
LINE
  5
256
100
AcDbEntity
  8
0
100
AcDbLine
 62
7
  6
CONTINUOUS
 10
142.0087011536
 20
80.5444041061
 11
141.6842275778
 21
80.7317510822
  0
LINE
  5
257
100
AcDbEntity
  8
0
100
AcDbLine
 62
7
  6
CONTINUOUS
 10
141.0821554081
 20
81.0793800072
 11
140.7294366889
 21
81.2830353751
  0
LINE
  5
258
100
AcDbEntity
  8
0
100
AcDbLine
 62
7
  6
CONTINUOUS
 10
142.4538905121
 20
80.2874651242
 11
142.1291954435
 21
80.4749399874
  0
LINE
  5
259
100
AcDbEntity
  8
RACCORDO
100
AcDbLine
 62
7
  6
CONTINUOUS
 10
128.6437379602
 20
90.1094110148
 11
158.9079081949
 21
72.6352584204
  0
LWPOLYLINE
  5
25A
100
AcDbEntity
  8
RACCORDO
100
AcDbPolyline
 62
7
  6
CONTINUOUS
 90
25
 70
0
 10
128.6437379602
 20
90.1094110148
 10
128.5878512404
 20
90.1438514581
 10
128.5326713646
 20
90.1819869258
 10
128.4781983326
 20
90.223817418
 10
128.4242055844
 20
90.2695531032
 10
128.3709196802
 20
90.3189838129
 10
128.3190203001
 20
90.3714790411
 10
128.2685252053
 20
90.4270780436
 10
128.2194166346
 20
90.4857415647
 10
128.1723209851
 20
90.5467213307
 10
128.1272640419
 20
90.6100470121
 10
128.0842200197
 20
90.6756889384
 10
128.0437379602
 20
90.742809824
 10
128.0058506815
 20
90.8114286139
 10
127.9705253654
 20
90.8815263629
 10
127.9382125987
 20
90.95220895
 10
127.9089509715
 20
91.0234838667
 10
127.8827018936
 20
91.0953436214
 10
127.8598001812
 20
91.1668716179
 10
127.8402887134
 20
91.2380636064
 10
127.8241246111
 20
91.3089238366
 10
127.811514053
 20
91.3785484617
 10
127.8025257653
 20
91.4466361993
 10
127.7970910219
 20
91.5134883317
 10
127.7952098227
 20
91.5791048589
  0
LWPOLYLINE
  5
25B
100
AcDbEntity
  8
0
100
AcDbPolyline
 62
7
  6
CONTINUOUS
 90
16
 70
0
 10
146.1293230929
 20
77.0720130492
 10
146.1453849095
 20
77.061889601
 10
146.160966844
 20
77.0506463223
 10
146.1760688966
 20
77.038283213
 10
146.1907444678
 20
77.0247463395
 10
146.2049401571
 20
77.0100896355
 10
146.2184957625
 20
76.9944749023
 10
146.2313531584
 20
76.9779882934
 10
146.2435704704
 20
76.9605436553
 10
146.2551618738
 20
76.9420443291
 10
146.2661759482
 20
76.9224326652
 10
146.276564114
 20
76.9017663132
 10
146.286194807
 20
76.880121563
 10
146.2950241724
 20
76.8575238446
 10
146.3030960649
 20
76.8339477281
 10
146.3104104846
 20
76.8093932134
  0
LWPOLYLINE
  5
25C
100
AcDbEntity
  8
0
100
AcDbPolyline
 62
7
  6
CONTINUOUS
 90
16
 70
0
 10
146.1988243489
 20
77.829672858
 10
146.2202858678
 20
77.812990013
 10
146.2406152083
 20
77.7951673758
 10
146.2598123705
 20
77.7762049462
 10
146.2779834075
 20
77.7559330222
 10
146.2950222662
 20
77.7345213059
 10
146.3106107868
 20
77.7124789033
 10
146.324643351
 20
77.6899314423
 10
146.3372255772
 20
77.666753295
 10
146.3483561608
 20
77.643076684
 10
146.3581237701
 20
77.6186363549
 10
146.3664397368
 20
77.5936975621
 10
146.373036752
 20
77.5691882917
 10
146.3778257128
 20
77.5454178721
 10
146.3808957221
 20
77.5220769749
 10
146.3822467799
 20
77.4991656
  0
LWPOLYLINE
  5
25D
100
AcDbEntity
  8
0
100
AcDbPolyline
 62
250
  6
CONTINUOUS
 90
8
 70
0
 10
130.2952853558
 20
116.785744764
 10
130.2966381159
 20
116.768958184
 10
130.2960364614
 20
116.7534771066
 10
130.2934884894
 20
116.7395098798
 10
130.2890284911
 20
116.7272444776
 10
130.2827164902
 20
116.7168459709
 10
130.2746374352
 20
116.7084543052
 10
130.2733628081
 20
116.7074398816
  0
LWPOLYLINE
  5
25E
100
AcDbEntity
  8
0
100
AcDbPolyline
 62
250
  6
CONTINUOUS
 90
8
 70
0
 10
130.5429978716
 20
116.9762919876
 10
130.5443506262
 20
116.9595053574
 10
130.5437489565
 20
116.9440242427
 10
130.5412009616
 20
116.9300569915
 10
130.5367409345
 20
116.9177915773
 10
130.5304289011
 20
116.9073930707
 10
130.5223498137
 20
116.8990014173
 10
130.521071689
 20
116.8979843089
  0
LWPOLYLINE
  5
25F
100
AcDbEntity
  8
0
100
AcDbPolyline
 62
7
  6
CONTINUOUS
 90
14
 70
0
 10
130.6131628632
 20
98.5914705643
 10
130.6119079385
 20
98.618921802
 10
130.6084148657
 20
98.6449226544
 10
130.6027268323
 20
98.6706627225
 10
130.5948596334
 20
98.6960901407
 10
130.5850823213
 20
98.7205224522
 10
130.5732956531
 20
98.7443193879
 10
130.5594024904
 20
98.7675153726
 10
130.5439523864
 20
98.7891765723
 10
130.5269495849
 20
98.8093842694
 10
130.5081234218
 20
98.8283730739
 10
130.4879657271
 20
98.8455543695
 10
130.4665596199
 20
98.8608614067
 10
130.4527175544
 20
98.8693583879
  0
LWPOLYLINE
  5
260
100
AcDbEntity
  8
0
100
AcDbPolyline
 62
7
  6
CONTINUOUS
 90
14
 70
0
 10
130.6131628632
 20
117.7785220689
 10
130.6119079385
 20
117.8059733066
 10
130.6084148657
 20
117.831974159
 10
130.6027268323
 20
117.8577142272
 10
130.5948596334
 20
117.8831416453
 10
130.5850823213
 20
117.9075739568
 10
130.5732956531
 20
117.9313708925
 10
130.5594024904
 20
117.9545668772
 10
130.5439523864
 20
117.976228077
 10
130.5269495849
 20
117.996435774
 10
130.5081234218
 20
118.0154245785
 10
130.4879657271
 20
118.0326058741
 10
130.4665596199
 20
118.0479129114
 10
130.4527175544
 20
118.0564098925
  0
LWPOLYLINE
  5
261
100
AcDbEntity
  8
RACCORDO
100
AcDbPolyline
 62
7
  6
CONTINUOUS
 90
25
 70
0
 10
129.9165301663
 20
92.8039286389
 10
129.9184113655
 20
92.7383121117
 10
129.9238461089
 20
92.6714599793
 10
129.9328343965
 20
92.6033722417
 10
129.9454449546
 20
92.5337476166
 10
129.961609057
 20
92.4628873864
 10
129.9811205248
 20
92.3916953979
 10
130.0040222372
 20
92.3201674014
 10
130.0302713151
 20
92.2483076467
 10
130.0595329423
 20
92.17703273
 10
130.091845709
 20
92.1063501429
 10
130.1271710251
 20
92.0362523938
 10
130.1650583037
 20
91.9676336039
 10
130.2055403633
 20
91.9005127184
 10
130.2485843854
 20
91.8348707921
 10
130.2936413287
 20
91.7715451107
 10
130.3407369782
 20
91.7105653447
 10
130.3898455488
 20
91.6519018236
 10
130.4403406436
 20
91.596302821
 10
130.4922400237
 20
91.5438075929
 10
130.545525928
 20
91.4943768832
 10
130.5995186762
 20
91.448641198
 10
130.6539917081
 20
91.4068107058
 10
130.709171584
 20
91.3686752381
 10
130.7650583037
 20
91.3342347948
  0
LWPOLYLINE
  5
262
100
AcDbEntity
  8
0
100
AcDbPolyline
 62
7
  6
CONTINUOUS
 90
15
 70
0
 10
130.6131561954
 20
105.0773308738
 10
130.6131424587
 20
105.0797485984
 10
130.6117986461
 20
105.1010770367
 10
130.608278688
 20
105.1221288974
 10
130.6026122496
 20
105.1427387485
 10
130.594874127
 20
105.1626441135
 10
130.5851556516
 20
105.1816451341
 10
130.573487442
 20
105.1996725826
 10
130.5599152163
 20
105.2165923504
 10
130.5446535046
 20
105.2321072659
 10
130.5279671414
 20
105.2459929203
 10
130.5099578854
 20
105.2582235437
 10
130.4909018724
 20
105.2686918723
 10
130.4712366708
 20
105.2772975498
 10
130.4685529138
 20
105.2783182768
  0
LINE
  5
263
100
AcDbEntity
  8
RACCORDO
100
AcDbLine
 62
7
  6
CONTINUOUS
 10
129.9165301663
 20
126.2789732578
 11
129.9165301663
 21
92.8039286389
  0
LINE
  5
264
100
AcDbEntity
  8
0
100
AcDbLine
 62
250
  6
CONTINUOUS
 10
130.0560566758
 20
105.0637775026
 11
130.0560566758
 21
116.3134452295
  0
LINE
  5
265
100
AcDbEntity
  8
0
100
AcDbLine
 62
7
  6
CONTINUOUS
 10
130.1121887157
 20
105.14399491
 11
130.1121887157
 21
116.3936626372
  0
LINE
  5
266
100
AcDbEntity
  8
0
100
AcDbLine
 62
250
  6
CONTINUOUS
 10
130.5429978716
 20
125.9172586563
 11
130.5429978716
 21
123.4682118152
  0
LINE
  5
267
100
AcDbEntity
  8
0
100
AcDbLine
 62
250
  6
CONTINUOUS
 10
130.5429978716
 20
117.6783488704
 11
130.5429978716
 21
116.9762919876
  0
LINE
  5
268
100
AcDbEntity
  8
0
100
AcDbLine
 62
250
  6
CONTINUOUS
 10
130.5429978716
 20
104.9832171934
 11
130.5429978716
 21
104.2811603106
  0
LINE
  5
269
100
AcDbEntity
  8
0
100
AcDbLine
 62
250
  6
CONTINUOUS
 10
130.5429978716
 20
98.4912973657
 11
130.5429978716
 21
91.4967220366
  0
LINE
  5
26A
100
AcDbEntity
  8
0
100
AcDbLine
 62
7
  6
CONTINUOUS
 10
130.6131629215
 20
125.8767462358
 11
130.6131629215
 21
123.5684835835
  0
LINE
  5
26B
100
AcDbEntity
  8
0
100
AcDbLine
 62
7
  6
CONTINUOUS
 10
130.6131629215
 20
117.7786206297
 11
130.6131629215
 21
117.0826878959
  0
LINE
  5
26C
100
AcDbEntity
  8
0
100
AcDbLine
 62
7
  6
CONTINUOUS
 10
130.6131629215
 20
105.0773655329
 11
130.6131629215
 21
104.3814320789
  0
LINE
  5
26D
100
AcDbEntity
  8
0
100
AcDbLine
 62
7
  6
CONTINUOUS
 10
130.6131629215
 20
98.5915691251
 11
130.6131629215
 21
91.4381636189
  0
LWPOLYLINE
  5
26E
100
AcDbEntity
  8
0
100
AcDbPolyline
 62
7
  6
CONTINUOUS
 90
20
 70
0
 10
130.112188715
 20
116.393672485
 10
130.1122481734
 20
116.3985493171
 10
130.1130194802
 20
116.4126245133
 10
130.114833878
 20
116.4286252806
 10
130.117863763
 20
116.4464163486
 10
130.1221693969
 20
116.4654876157
 10
130.127793142
 20
116.4855621029
 10
130.1347632221
 20
116.506419418
 10
130.1429872716
 20
116.5275931779
 10
130.152384996
 20
116.5487902317
 10
130.162869918
 20
116.5697766021
 10
130.174256041
 20
116.5901850446
 10
130.1863840603
 20
116.6097732129
 10
130.1990975078
 20
116.6283559863
 10
130.2121683381
 20
116.6456865805
 10
130.2254134302
 20
116.6616277402
 10
130.238625437
 20
116.6760526164
 10
130.2515063856
 20
116.688778978
 10
130.2638646859
 20
116.6997823837
 10
130.2733628081
 20
116.7074398816
  0
LWPOLYLINE
  5
26F
100
AcDbEntity
  8
0
100
AcDbPolyline
 62
250
  6
CONTINUOUS
 90
16
 70
0
 10
130.5429978716
 20
123.4682118152
 10
130.5427422021
 20
123.452713264
 10
130.5416388352
 20
123.438301
 10
130.5397838286
 20
123.4249703609
 10
130.5372778071
 20
123.4127298188
 10
130.5342096105
 20
123.4015265146
 10
130.5306417557
 20
123.3912597808
 10
130.5266465815
 20
123.3818967304
 10
130.5222960688
 20
123.3734056417
 10
130.5176264923
 20
123.3656998514
 10
130.5126884316
 20
123.3587389031
 10
130.5075398577
 20
123.3524948978
 10
130.5022112631
 20
123.3469102534
 10
130.4967417825
 20
123.341945648
 10
130.4911775652
 20
123.3375697843
 10
130.4879085024
 20
123.3353453937
  0
LWPOLYLINE
  5
270
100
AcDbEntity
  8
0
100
AcDbPolyline
 62
250
  6
CONTINUOUS
 90
16
 70
0
 10
130.5429978716
 20
104.2811603106
 10
130.5427422021
 20
104.2656617594
 10
130.5416388352
 20
104.2512494954
 10
130.5397838286
 20
104.2379188563
 10
130.5372778071
 20
104.2256783142
 10
130.5342096105
 20
104.2144750099
 10
130.5306417557
 20
104.2042082762
 10
130.5266465815
 20
104.1948452258
 10
130.5222960688
 20
104.1863541371
 10
130.5176264923
 20
104.1786483468
 10
130.5126884316
 20
104.1716873985
 10
130.5075398577
 20
104.1654433932
 10
130.5022112631
 20
104.1598587488
 10
130.4967417825
 20
104.1548941433
 10
130.4911775652
 20
104.1505182796
 10
130.4879085024
 20
104.1482938891
  0
LWPOLYLINE
  5
271
100
AcDbEntity
  8
0
100
AcDbPolyline
 62
250
  6
CONTINUOUS
 90
9
 70
0
 10
130.6131629164
 20
105.077337754
 10
130.6129767168
 20
105.0721536902
 10
130.6106668077
 20
105.0583094934
 10
130.6057085435
 20
105.0445780467
 10
130.5981249374
 20
105.0311415138
 10
130.5879668536
 20
105.0181343521
 10
130.5753147545
 20
105.0057056796
 10
130.5602787237
 20
104.9940173967
 10
130.5429978716
 20
104.9832171934
  0
LINE
  5
272
100
AcDbEntity
  8
0
100
AcDbLine
 62
250
  6
CONTINUOUS
 10
130.6129103531
 20
117.0757843023
 11
130.6131629215
 21
117.082688799
  0
LWPOLYLINE
  5
273
100
AcDbEntity
  8
0
100
AcDbPolyline
 62
250
  6
CONTINUOUS
 90
7
 70
0
 10
130.0560566758
 20
116.3134452295
 10
130.0570907575
 20
116.3413968665
 10
130.0598226219
 20
116.3696877299
 10
130.064252269
 20
116.3983178198
 10
130.0704455277
 20
116.4274447905
 10
130.0783365691
 20
116.4569109877
 10
130.0877279062
 20
116.4862434478
  0
LWPOLYLINE
  5
274
100
AcDbEntity
  8
0
100
AcDbPolyline
 62
250
  6
CONTINUOUS
 90
9
 70
0
 10
130.6131628632
 20
117.7785220689
 10
130.6129312788
 20
117.7724082066
 10
130.6104810047
 20
117.7575340023
 10
130.6053808888
 20
117.7428857266
 10
130.5976855752
 20
117.7286203257
 10
130.5874775139
 20
117.7148906433
 10
130.5748660772
 20
117.7018437836
 10
130.5599863879
 20
117.6896195345
 10
130.5429978716
 20
117.6783488704
  0
LWPOLYLINE
  5
275
100
AcDbEntity
  8
0
100
AcDbPolyline
 62
250
  6
CONTINUOUS
 90
9
 70
0
 10
130.6131628632
 20
98.5914705643
 10
130.6129312788
 20
98.5853567019
 10
130.6104810047
 20
98.5704824977
 10
130.6053808888
 20
98.555834222
 10
130.5976855752
 20
98.5415688211
 10
130.5874775139
 20
98.5278391387
 10
130.5748660772
 20
98.5147922789
 10
130.5599863879
 20
98.5025680298
 10
130.5429978716
 20
98.4912973657
  0
LWPOLYLINE
  5
276
100
AcDbEntity
  8
0
100
AcDbPolyline
 62
250
  6
CONTINUOUS
 90
16
 70
0
 10
130.2952853558
 20
104.8775486883
 10
130.2966381154
 20
104.8981902686
 10
130.2960364405
 20
104.919633624
 10
130.2934884338
 20
104.9415901604
 10
130.2890283924
 20
104.9637643777
 10
130.282716346
 20
104.9858578487
 10
130.2746372482
 20
105.0075732355
 10
130.2648998341
 20
105.028618287
 10
130.2536351559
 20
105.0487097767
 10
130.2409948174
 20
105.0675773147
 10
130.2271489377
 20
105.0849669798
 10
130.2122838591
 20
105.1006447425
 10
130.1965996361
 20
105.1143996154
 10
130.1803073488
 20
105.1260464865
 10
130.1636262633
 20
105.135428612
 10
130.1467808761
 20
105.1424197287
  0
LWPOLYLINE
  5
277
100
AcDbEntity
  8
0
100
AcDbPolyline
 62
250
  6
CONTINUOUS
 90
16
 70
0
 10
130.5429978716
 20
104.9832171934
 10
130.5443506317
 20
105.0038586583
 10
130.5437489772
 20
105.0253019102
 10
130.5412010051
 20
105.047258361
 10
130.5367410068
 20
105.0694325153
 10
130.530429006
 20
105.0915259484
 10
130.5223499509
 20
105.1132413214
 10
130.5126125716
 20
105.1342863839
 10
130.5013479158
 20
105.1543779063
 10
130.4887075861
 20
105.1732454923
 10
130.4748616989
 20
105.1906352175
 10
130.4599965954
 20
105.2063130467
 10
130.4443123338
 20
105.2200679842
 10
130.4280199965
 20
105.2317149127
 10
130.4113388496
 20
105.241097085
 10
130.3944933919
 20
105.2480882338
  0
LWPOLYLINE
  5
278
100
AcDbEntity
  8
0
100
AcDbPolyline
 62
250
  6
CONTINUOUS
 90
8
 70
0
 10
130.6129312886
 20
104.3752197867
 10
130.6104810365
 20
104.3603455753
 10
130.6053809382
 20
104.3456972862
 10
130.5976856353
 20
104.3314318665
 10
130.5874775758
 20
104.3177021615
 10
130.5748661306
 20
104.3046552766
 10
130.559986421
 20
104.2924310009
 10
130.5429978716
 20
104.2811603103
  0
LWPOLYLINE
  5
279
100
AcDbEntity
  8
0
100
AcDbPolyline
 62
250
  6
CONTINUOUS
 90
9
 70
0
 10
130.0560566758
 20
105.0637775026
 10
130.0696474888
 20
105.0727940338
 10
130.0815512403
 20
105.082573433
 10
130.0916403896
 20
105.0930109208
 10
130.0998068387
 20
105.1039946667
 10
130.1059630895
 20
105.1154069874
 10
130.1100431823
 20
105.127125608
 10
130.1120034015
 20
105.1390249714
 10
130.112188714
 20
105.1439800552
  0
LINE
  5
27A
100
AcDbEntity
  8
RACCORDO
100
AcDbLine
 62
7
  6
CONTINUOUS
 10
130.7650583037
 20
91.3342347948
 11
159.7564363324
 21
74.5949764683
  0
LINE
  5
27B
100
AcDbEntity
  8
0
100
AcDbLine
 62
7
  6
CONTINUOUS
 10
157.5644053107
 20
75.9016484962
 11
153.6753180142
 21
78.1471587595
  0
LINE
  5
27C
100
AcDbEntity
  8
0
100
AcDbLine
 62
7
  6
CONTINUOUS
 10
141.654502734
 20
85.087826846
 11
137.7654154375
 21
87.3333371093
  0
LINE
  5
27D
100
AcDbEntity
  8
0
100
AcDbLine
 62
7
  6
CONTINUOUS
 10
157.8118926841
 20
75.9220740623
 11
153.8167393704
 21
78.2288136781
  0
LINE
  5
27E
100
AcDbEntity
  8
0
100
AcDbLine
 62
7
  6
CONTINUOUS
 10
141.9019901074
 20
85.1082524122
 11
137.9068367937
 21
87.414992028
  0
LINE
  5
27F
100
AcDbEntity
  8
0
100
AcDbLine
 62
7
  6
CONTINUOUS
 10
157.9179587013
 20
76.1057857928
 11
154.0288714048
 21
78.3512960561
  0
LINE
  5
280
100
AcDbEntity
  8
0
100
AcDbLine
 62
7
  6
CONTINUOUS
 10
142.0080561246
 20
85.2919641427
 11
138.1189688281
 21
87.537474406
  0
LINE
  5
281
100
AcDbEntity
  8
0
100
AcDbLine
 62
7
  6
CONTINUOUS
 10
158.1654460747
 20
76.126211359
 11
154.170292761
 21
78.4329509748
  0
LINE
  5
282
100
AcDbEntity
  8
0
100
AcDbLine
 62
7
  6
CONTINUOUS
 10
142.255543498
 20
85.3123897088
 11
138.2603901843
 21
87.6191293247
  0
LINE
  5
283
100
AcDbEntity
  8
0
100
AcDbLine
 62
7
  6
CONTINUOUS
 10
158.2715120919
 20
76.3099230895
 11
154.3824247954
 21
78.5554333528
  0
LINE
  5
284
100
AcDbEntity
  8
0
100
AcDbLine
 62
7
  6
CONTINUOUS
 10
142.3616095152
 20
85.4961014394
 11
138.4725222187
 21
87.7416117027
  0
LINE
  5
285
100
AcDbEntity
  8
0
100
AcDbLine
 62
7
  6
CONTINUOUS
 10
158.5189994653
 20
76.3303486556
 11
154.5238461516
 21
78.6370882715
  0
LINE
  5
286
100
AcDbEntity
  8
0
100
AcDbLine
 62
7
  6
CONTINUOUS
 10
142.6090968886
 20
85.5165270055
 11
138.6139435749
 21
87.8232666213
  0
LINE
  5
287
100
AcDbEntity
  8
0
100
AcDbLine
 62
7
  6
CONTINUOUS
 10
158.6250654825
 20
76.5140603861
 11
154.7359781859
 21
78.7595706495
  0
LINE
  5
288
100
AcDbEntity
  8
0
100
AcDbLine
 62
7
  6
CONTINUOUS
 10
142.7151629058
 20
85.700238736
 11
138.8260756092
 21
87.9457489993
  0
LINE
  5
289
100
AcDbEntity
  8
0
100
AcDbLine
 62
7
  6
CONTINUOUS
 10
158.8725528559
 20
76.5344859523
 11
154.8773995422
 21
78.8412255681
  0
LINE
  5
28A
100
AcDbEntity
  8
0
100
AcDbLine
 62
7
  6
CONTINUOUS
 10
142.9626502792
 20
85.7206643022
 11
138.9674969655
 21
88.027403918
  0
LINE
  5
28B
100
AcDbEntity
  8
0
100
AcDbLine
 62
7
  6
CONTINUOUS
 10
158.9786188731
 20
76.7181976828
 11
155.0895315765
 21
78.9637079461
  0
LINE
  5
28C
100
AcDbEntity
  8
0
100
AcDbLine
 62
7
  6
CONTINUOUS
 10
143.0687162964
 20
85.9043760327
 11
139.1796289998
 21
88.149886296
  0
LINE
  5
28D
100
AcDbEntity
  8
0
100
AcDbLine
 62
7
  6
CONTINUOUS
 10
159.2261062465
 20
76.738623249
 11
155.2309529328
 21
79.0453628648
  0
LINE
  5
28E
100
AcDbEntity
  8
0
100
AcDbLine
 62
7
  6
CONTINUOUS
 10
143.3162036698
 20
85.9248015988
 11
139.3210503561
 21
88.2315412147
  0
LINE
  5
28F
100
AcDbEntity
  8
0
100
AcDbLine
 62
7
  6
CONTINUOUS
 10
159.3321722637
 20
76.9223349795
 11
155.4430849671
 21
79.1678452428
  0
LINE
  5
290
100
AcDbEntity
  8
0
100
AcDbLine
 62
7
  6
CONTINUOUS
 10
143.422269687
 20
86.1085133294
 11
139.5331823904
 21
88.3540235927
  0
LINE
  5
291
100
AcDbEntity
  8
0
100
AcDbLine
 62
7
  6
CONTINUOUS
 10
159.5796596371
 20
76.9427605456
 11
155.5845063234
 21
79.2495001614
  0
LINE
  5
292
100
AcDbEntity
  8
0
100
AcDbLine
 62
7
  6
CONTINUOUS
 10
143.6697570604
 20
86.1289388955
 11
139.6746037467
 21
88.4356785113
  0
LINE
  5
293
100
AcDbEntity
  8
0
100
AcDbLine
 62
250
  6
CONTINUOUS
 10
159.7564363324
 20
76.9632758368
 11
155.618101326
 21
79.3526986039
  0
LINE
  5
294
100
AcDbEntity
  8
0
100
AcDbLine
 62
250
  6
CONTINUOUS
 10
143.9545360076
 20
86.08709504
 11
139.7081987493
 21
88.5388769538
  0
LINE
  5
295
100
AcDbEntity
  8
0
100
AcDbLine
 62
250
  6
CONTINUOUS
 10
159.7564363324
 20
77.0404735309
 11
155.6921484789
 21
79.3871424
  0
LINE
  5
296
100
AcDbEntity
  8
0
100
AcDbLine
 62
250
  6
CONTINUOUS
 10
144.0212083636
 20
86.1257969514
 11
139.7822459023
 21
88.5733207499
  0
LINE
  5
297
100
AcDbEntity
  8
0
100
AcDbLine
 62
7
  6
CONTINUOUS
 10
141.3678476354
 20
89.091146703
 11
145.193849026
 21
86.8820614512
  0
LINE
  5
298
100
AcDbEntity
  8
0
100
AcDbLine
 62
7
  6
CONTINUOUS
 10
157.2777502121
 20
79.9049683532
 11
159.7564363324
 21
78.4738060526
  0
LWPOLYLINE
  5
299
100
AcDbEntity
  8
0
100
AcDbPolyline
 62
7
  6
CONTINUOUS
 90
16
 70
0
 10
146.433138211
 20
77.9498954737
 10
146.3926844826
 20
77.9882965113
 10
146.3502109155
 20
78.0256604197
 10
146.3057175099
 20
78.0619871988
 10
146.2591023827
 20
78.0972287669
 10
146.2104674168
 20
78.1314332057
 10
146.1601182617
 20
78.1647447603
 10
146.1081427639
 20
78.1971407335
 10
146.0544530768
 20
78.2286438225
 10
145.9990913101
 20
78.2594663647
 10
145.9420733509
 20
78.2896447161
 10
145.883383312
 20
78.3191425208
 10
145.8230156419
 20
78.3480630486
 10
145.76096849
 20
78.376440723
 10
145.697243707
 20
78.4042411205
 10
145.6318412926
 20
78.4314642413
  0
LWPOLYLINE
  5
29A
100
AcDbEntity
  8
0
100
AcDbPolyline
 62
7
  6
CONTINUOUS
 90
13
 70
0
 10
130.4846696624
 20
104.1461393154
 10
130.4995140984
 20
104.1560142802
 10
130.5178926555
 20
104.1704005092
 10
130.5350763301
 20
104.1864680846
 10
130.5508614182
 20
104.2040751286
 10
130.5651060877
 20
104.223097836
 10
130.5777172724
 20
104.2434627857
 10
130.5885642587
 20
104.2650222762
 10
130.5975146892
 20
104.2875600093
 10
130.6044991478
 20
104.3109320315
 10
130.6094593677
 20
104.3349886539
 10
130.6123470149
 20
104.3595188821
 10
130.6131629087
 20
104.3813858196
  0
LINE
  5
29B
100
AcDbEntity
  8
0
100
AcDbLine
 62
250
  6
CONTINUOUS
 10
129.9165301663
 20
103.8937432844
 11
130.5429978716
 21
104.2811603106
  0
LINE
  5
29C
100
AcDbEntity
  8
0
100
AcDbLine
 62
7
  6
CONTINUOUS
 10
129.9165301663
 20
103.7947932947
 11
130.4847347437
 21
104.1461795286
  0
LINE
  5
29D
100
AcDbEntity
  8
0
100
AcDbLine
 62
250
  6
CONTINUOUS
 10
130.3944933919
 20
105.2480882338
 11
130.1467808761
 21
105.1424197287
  0
LINE
  5
29E
100
AcDbEntity
  8
0
100
AcDbLine
 62
250
  6
CONTINUOUS
 10
130.5429978716
 20
104.9832171934
 11
130.2952853558
 21
104.8775486883
  0
LWPOLYLINE
  5
29F
100
AcDbEntity
  8
0
100
AcDbPolyline
 62
250
  6
CONTINUOUS
 90
5
 70
0
 10
130.1467808761
 20
105.1424197287
 10
130.135447173
 20
105.1377174304
 10
130.1245435744
 20
105.1343572878
 10
130.1141634684
 20
105.1323410976
 10
130.1125949132
 20
105.1322300898
  0
LWPOLYLINE
  5
2A0
100
AcDbEntity
  8
0
100
AcDbPolyline
 62
250
  6
CONTINUOUS
 90
19
 70
0
 10
130.2952853558
 20
104.8775486883
 10
130.2710749441
 20
104.8686404233
 10
130.24777221
 20
104.862503535
 10
130.2253771535
 20
104.8591380235
 10
130.2036974811
 20
104.8586473966
 10
130.1829254863
 20
104.8609281464
 10
130.1636380495
 20
104.8656697497
 10
130.1459132527
 20
104.8730818569
 10
130.1296730139
 20
104.8829548175
 10
130.1152599684
 20
104.8943491566
 10
130.1029393859
 20
104.9070245436
 10
130.0924459967
 20
104.9212213092
 10
130.0833266264
 20
104.9367209702
 10
130.0754488015
 20
104.95318645
 10
130.0689449956
 20
104.9709548252
 10
130.0637594554
 20
104.9908188433
 10
130.0598735964
 20
105.0130427535
 10
130.0573060032
 20
105.0373623066
 10
130.0560566758
 20
105.0637775026
  0
LWPOLYLINE
  5
2A1
100
AcDbEntity
  8
0
100
AcDbPolyline
 62
250
  6
CONTINUOUS
 90
9
 70
0
 10
130.4527175542
 20
98.869358388
 10
130.4473174762
 20
98.8722083435
 10
130.433211732
 20
98.8775220212
 10
130.4179767089
 20
98.8804279265
 10
130.4017756392
 20
98.8808949234
 10
130.3847821063
 20
98.8789180072
 10
130.3671781842
 20
98.874518358
 10
130.3491524864
 20
98.867743114
 10
130.330898146
 20
98.8586648664
  0
LINE
  5
2A2
100
AcDbEntity
  8
0
100
AcDbLine
 62
250
  6
CONTINUOUS
 10
129.9165301663
 20
99.0979157446
 11
130.330898146
 21
98.8586648664
  0
LINE
  5
2A3
100
AcDbEntity
  8
0
100
AcDbLine
 62
7
  6
CONTINUOUS
 10
129.9165301663
 20
99.1789463609
 11
130.452819045
 21
98.8692998836
  0
LWPOLYLINE
  5
2A4
100
AcDbEntity
  8
0
100
AcDbPolyline
 62
250
  6
CONTINUOUS
 90
19
 70
0
 10
130.330898146
 20
98.8586648664
 10
130.3498741307
 20
98.8470475412
 10
130.3684596199
 20
98.8337642389
 10
130.3865212882
 20
98.8189778855
 10
130.4038629722
 20
98.8029291291
 10
130.4204561634
 20
98.785725667
 10
130.4364135807
 20
98.7672832495
 10
130.4516864112
 20
98.747638873
 10
130.466090857
 20
98.7270088536
 10
130.4795207503
 20
98.7055395922
 10
130.4918121984
 20
98.6835065911
 10
130.5029525267
 20
98.6609474595
 10
130.5130131368
 20
98.6376388726
 10
130.5218928691
 20
98.6136163422
 10
130.5293950488
 20
98.5891782019
 10
130.5353869579
 20
98.5645029366
 10
130.5397346814
 20
98.5398014591
 10
130.5423099495
 20
98.5153157032
 10
130.5429978716
 20
98.4912973657
  0
LWPOLYLINE
  5
2A5
100
AcDbEntity
  8
0
100
AcDbPolyline
 62
7
  6
CONTINUOUS
 90
8
 70
0
 10
130.1163153269
 20
105.1103285299
 10
130.1165304816
 20
105.1099140817
 10
130.1163036585
 20
105.1105200799
 10
130.1154584758
 20
105.1132282952
 10
130.1143517875
 20
105.1180130704
 10
130.1132987649
 20
105.1246591363
 10
130.1125202309
 20
105.1330334068
 10
130.112188714
 20
105.1439800552
  0
LWPOLYLINE
  5
2A6
100
AcDbEntity
  8
0
100
AcDbPolyline
 62
250
  6
CONTINUOUS
 90
10
 70
0
 10
143.2565772219
 20
85.0596045064
 10
143.2588792926
 20
85.0541837604
 10
143.2607549988
 20
85.0490780099
 10
143.2621739366
 20
85.044322642
 10
143.2631014037
 20
85.0399744158
 10
143.2635176597
 20
85.0360439129
 10
143.2633906072
 20
85.03252174
 10
143.2626652217
 20
85.0294661277
 10
143.2612861433
 20
85.0269479727
 10
143.2605017533
 20
85.0260689885
  0
LINE
  5
2A7
100
AcDbEntity
  8
0
100
AcDbLine
 62
7
  6
CONTINUOUS
 10
143.0093803075
 20
79.3433499409
 11
143.3902863893
 21
77.950610976
  0
LINE
  5
2A8
100
AcDbEntity
  8
0
100
AcDbLine
 62
7
  6
CONTINUOUS
 10
143.414828381
 20
78.7353331506
 11
143.0935631169
 21
79.9180184051
  0
LINE
  5
2A9
100
AcDbEntity
  8
0
100
AcDbLine
 62
7
  6
CONTINUOUS
 10
140.7294366889
 20
81.2830353751
 11
141.222561824
 21
79.202227972
  0
LINE
  5
2AA
100
AcDbEntity
  8
0
100
AcDbLine
 62
7
  6
CONTINUOUS
 10
141.378663114
 20
79.6718807038
 11
141.0821554081
 21
81.0793800072
  0
LINE
  5
2AB
100
AcDbEntity
  8
0
100
AcDbLine
 62
7
  6
CONTINUOUS
 10
142.1291954435
 20
80.4749399874
 11
142.1291954435
 21
78.6787490829
  0
LINE
  5
2AC
100
AcDbEntity
  8
0
100
AcDbLine
 62
250
  6
CONTINUOUS
 10
130.330898146
 20
98.8586648664
 11
129.9165301663
 21
98.6194131667
  0
LINE
  5
2AD
100
AcDbEntity
  8
0
100
AcDbLine
 62
250
  6
CONTINUOUS
 10
130.5429978716
 20
98.4912973657
 11
129.9165301663
 21
98.1295815222
  0
LINE
  5
2AE
100
AcDbEntity
  8
0
100
AcDbLine
 62
7
  6
CONTINUOUS
 10
146.3104104846
 20
76.8093932134
 11
146.3410465282
 21
76.6810149887
  0
LINE
  5
2AF
100
AcDbEntity
  8
0
100
AcDbLine
 62
7
  6
CONTINUOUS
 10
145.5364950431
 20
76.7114169976
 11
145.0592277533
 21
78.7830682796
  0
LINE
  5
2B0
100
AcDbEntity
  8
0
100
AcDbLine
 62
7
  6
CONTINUOUS
 10
146.3410465282
 20
76.6810149887
 11
146.3719681606
 21
76.5466598531
  0
LWPOLYLINE
  5
2B1
100
AcDbEntity
  8
0
100
AcDbPolyline
 62
7
  6
CONTINUOUS
 90
3
 70
0
 10
146.3719681606
 20
76.5466598531
 10
146.4358321663
 20
76.2587723914
 10
146.4524547216
 20
76.1825530187
  0
LINE
  5
2B2
100
AcDbEntity
  8
0
100
AcDbLine
 62
7
  6
CONTINUOUS
 10
145.1101673868
 20
77.3161350135
 11
145.194280563
 21
76.9090073494
  0
LINE
  5
2B3
100
AcDbEntity
  8
0
100
AcDbLine
 62
7
  6
CONTINUOUS
 10
146.6919371014
 20
76.365227624
 11
146.6537964266
 21
76.5523266555
  0
LWPOLYLINE
  5
2B4
100
AcDbEntity
  8
0
100
AcDbPolyline
 62
7
  6
CONTINUOUS
 90
16
 70
0
 10
146.6537964266
 20
76.5523266555
 10
146.6459605147
 20
76.5916902591
 10
146.6376262457
 20
76.6300677498
 10
146.6287936194
 20
76.6674591276
 10
146.6195818756
 20
76.7039315234
 10
146.6098717746
 20
76.7394178063
 10
146.5993055978
 20
76.773716583
 10
146.587791775
 20
76.8068987996
 10
146.5754218764
 20
76.83889351
 10
146.5621128936
 20
76.8692864825
 10
146.5476799983
 20
76.8981028522
 10
146.5323080187
 20
76.925317484
 10
146.5164684312
 20
76.9504407406
 10
146.5003183944
 20
76.9733094097
 10
146.4837007497
 20
76.9940867035
 10
146.4666154969
 20
77.0127726222
  0
LINE
  5
2B5
100
AcDbEntity
  8
0
100
AcDbLine
 62
7
  6
CONTINUOUS
 10
146.7647733036
 20
76.0022241837
 11
146.6919371014
 21
76.365227624
  0
LINE
  5
2B6
100
AcDbEntity
  8
0
100
AcDbLine
 62
7
  6
CONTINUOUS
 10
144.8960757336
 20
78.3837522085
 11
145.0452774126
 21
77.6310557546
  0
LINE
  5
2B7
100
AcDbEntity
  8
0
100
AcDbLine
 62
7
  6
CONTINUOUS
 10
144.2062339049
 20
77.4794931067
 11
144.0607768612
 21
79.3595613111
  0
LINE
  5
2B8
100
AcDbEntity
  8
0
100
AcDbLine
 62
7
  6
CONTINUOUS
 10
143.821886907
 20
78.8693296341
 11
143.8885962331
 21
77.6628931175
  0
LINE
  5
2B9
100
AcDbEntity
  8
0
100
AcDbLine
 62
7
  6
CONTINUOUS
 10
142.4538905121
 20
78.4912742197
 11
142.4538905121
 21
80.2874651242
  0
LINE
  5
2BA
100
AcDbEntity
  8
0
100
AcDbLine
 62
250
  6
CONTINUOUS
 10
145.2010566349
 20
86.7386117978
 11
145.2010566349
 21
86.3312421599
  0
LINE
  5
2BB
100
AcDbEntity
  8
0
100
AcDbLine
 62
7
  6
CONTINUOUS
 10
145.2524276698
 20
86.8051893047
 11
145.2524276698
 21
86.3617874547
  0
LINE
  5
2BC
100
AcDbEntity
  8
0
100
AcDbLine
 62
7
  6
CONTINUOUS
 10
145.6318412926
 20
78.4314642413
 11
145.6318412926
 21
76.6563649279
  0
LINE
  5
2BD
100
AcDbEntity
  8
0
100
AcDbLine
 62
7
  6
CONTINUOUS
 10
145.9444631532
 20
77.4729039434
 11
145.9444631532
 21
77.96596389
  0
LINE
  5
2BE
100
AcDbEntity
  8
0
100
AcDbLine
 62
7
  6
CONTINUOUS
 10
145.9552295416
 20
76.4696446059
 11
145.9552295416
 21
77.1725324838
  0
LINE
  5
2BF
100
AcDbEntity
  8
0
100
AcDbLine
 62
7
  6
CONTINUOUS
 10
146.4666154969
 20
77.0127726222
 11
146.4666154969
 21
77.0233859099
  0
LWPOLYLINE
  5
2C0
100
AcDbEntity
  8
0
100
AcDbPolyline
 62
7
  6
CONTINUOUS
 90
10
 70
0
 10
146.3822467799
 20
77.4991656
 10
146.3818664551
 20
77.4697482384
 10
146.3797104024
 20
77.4429795781
 10
146.3757786218
 20
77.4188596192
 10
146.3700122568
 20
77.3973955227
 10
146.3624701639
 20
77.3785801275
 10
146.3533289124
 20
77.3623919507
 10
146.3425889811
 20
77.3488439391
 10
146.3302498911
 20
77.3379231458
 10
146.3214130814
 20
77.3321810564
  0
LINE
  5
2C1
100
AcDbEntity
  8
0
100
AcDbLine
 62
7
  6
CONTINUOUS
 10
142.93931081
 20
78.2109986234
 11
143.0093803075
 21
79.3433499409
  0
LINE
  5
2C2
100
AcDbEntity
  8
0
100
AcDbLine
 62
7
  6
CONTINUOUS
 10
142.7691369509
 20
80.1053380073
 11
142.6286838659
 21
78.3903507279
  0
LINE
  5
2C3
100
AcDbEntity
  8
0
100
AcDbLine
 62
7
  6
CONTINUOUS
 10
137.7476532011
 20
87.3025720135
 11
137.7654154375
 21
87.3333371093
  0
LINE
  5
2C4
100
AcDbEntity
  8
0
100
AcDbLine
 62
7
  6
CONTINUOUS
 10
138.0129028109
 20
87.3537626755
 11
138.1189688281
 21
87.537474406
  0
LINE
  5
2C5
100
AcDbEntity
  8
0
100
AcDbLine
 62
7
  6
CONTINUOUS
 10
138.3664562015
 20
87.5578999721
 11
138.4725222187
 21
87.7416117027
  0
LINE
  5
2C6
100
AcDbEntity
  8
0
100
AcDbLine
 62
7
  6
CONTINUOUS
 10
138.7200095921
 20
87.7620372688
 11
138.8260756092
 21
87.9457489993
  0
LINE
  5
2C7
100
AcDbEntity
  8
0
100
AcDbLine
 62
7
  6
CONTINUOUS
 10
139.0735629827
 20
87.9661745655
 11
139.1796289998
 21
88.149886296
  0
LINE
  5
2C8
100
AcDbEntity
  8
0
100
AcDbLine
 62
7
  6
CONTINUOUS
 10
139.4271163733
 20
88.1703118621
 11
139.5331823904
 21
88.3540235927
  0
LINE
  5
2C9
100
AcDbEntity
  8
RACCORDO
100
AcDbLine
 62
250
  6
CONTINUOUS
 10
127.7952098227
 20
91.5791048589
 11
129.9165301663
 21
92.8039286389
  0
LINE
  5
2CA
100
AcDbEntity
  8
SMUSSO
100
AcDbLine
 62
7
  6
CONTINUOUS
 10
175.5956282309
 20
119.0099179157
 11
176.6562884027
 21
119.6223298057
  0
LINE
  5
2CB
100
AcDbEntity
  8
SMUSSO
100
AcDbLine
 62
7
  6
CONTINUOUS
 10
175.5956282309
 20
118.193408184
 11
174.8885214498
 21
117.7851730456
  0
LINE
  5
2CC
100
AcDbEntity
  8
SMUSSO
100
AcDbLine
 62
7
  6
CONTINUOUS
 10
176.3027350121
 20
117.7851730456
 11
177.3633951839
 21
118.3975849356
  0
LINE
  5
2CD
100
AcDbEntity
  8
0
100
AcDbLine
 62
250
  6
CONTINUOUS
 10
176.6209330637
 20
119.6433007838
 11
178.6715427291
 21
120.7859676336
  0
LWPOLYLINE
  5
2CE
100
AcDbEntity
  8
0
100
AcDbPolyline
 62
250
  6
CONTINUOUS
 90
6
 70
0
 10
130.4685440467
 20
105.2783215918
 10
130.4602728081
 20
105.2809640291
 10
130.4444171767
 20
105.2837300247
 10
130.4279094484
 20
105.2837576166
 10
130.41098415
 20
105.2810464102
 10
130.393881741
 20
105.2756349214
  0
LINE
  5
2CF
100
AcDbEntity
  8
0
100
AcDbLine
 62
250
  6
CONTINUOUS
 10
130.1159127705
 20
105.1539578922
 11
130.1467808761
 21
105.1424197287
  0
LINE
  5
2D0
100
AcDbEntity
  8
0
100
AcDbLine
 62
250
  6
CONTINUOUS
 10
130.1121887157
 20
105.3809287226
 11
130.393881741
 21
105.2756349214
  0
LINE
  5
2D1
100
AcDbEntity
  8
0
100
AcDbLine
 62
7
  6
CONTINUOUS
 10
130.1121887157
 20
105.411523354
 11
130.4685440467
 21
105.2783215918
  0
LWPOLYLINE
  5
2D2
100
AcDbEntity
  8
0
100
AcDbPolyline
 62
250
  6
CONTINUOUS
 90
16
 70
0
 10
130.393881741
 20
105.2756349214
 10
130.3974043238
 20
105.2741488868
 10
130.4004482253
 20
105.272565441
 10
130.4030134455
 20
105.270884584
 10
130.4051120319
 20
105.2690884355
 10
130.406731937
 20
105.2671948758
 10
130.4078370179
 20
105.2652575461
 10
130.408418808
 20
105.2632759292
 10
130.408485774
 20
105.2612505424
 10
130.4080271729
 20
105.2592365787
 10
130.4070291932
 20
105.2572307634
 10
130.4055056464
 20
105.2552363713
 10
130.4034872237
 20
105.2533184204
 10
130.4009841556
 20
105.2514985836
 10
130.3979862117
 20
105.249755188
 10
130.3944933919
 20
105.2480882338
  0
LINE
  5
2D3
100
AcDbEntity
  8
0
100
AcDbLine
 62
7
  6
CONTINUOUS
 10
141.6842275778
 20
80.7317510822
 11
141.378663114
 21
79.6718807038
  0
LINE
  5
2D4
100
AcDbEntity
  8
0
100
AcDbLine
 62
250
  6
CONTINUOUS
 10
143.2503163642
 20
85.0406237815
 11
143.2565772219
 21
85.0596045064
  0
LINE
  5
2D5
100
AcDbEntity
  8
0
100
AcDbLine
 62
7
  6
CONTINUOUS
 10
141.5086993717
 20
79.0370157381
 11
142.0087011536
 21
80.5444041061
  0
LINE
  5
2D6
100
AcDbEntity
  8
0
100
AcDbLine
 62
7
  6
CONTINUOUS
 10
141.6367404976
 20
85.0570617502
 11
141.654502734
 21
85.087826846
  0
LINE
  5
2D7
100
AcDbEntity
  8
0
100
AcDbLine
 62
7
  6
CONTINUOUS
 10
141.9019901074
 20
85.1082524122
 11
142.0080561246
 21
85.2919641427
  0
LINE
  5
2D8
100
AcDbEntity
  8
0
100
AcDbLine
 62
7
  6
CONTINUOUS
 10
142.255543498
 20
85.3123897088
 11
142.3616095152
 21
85.4961014394
  0
LINE
  5
2D9
100
AcDbEntity
  8
0
100
AcDbLine
 62
7
  6
CONTINUOUS
 10
142.6090968886
 20
85.5165270055
 11
142.7151629058
 21
85.700238736
  0
LINE
  5
2DA
100
AcDbEntity
  8
0
100
AcDbLine
 62
7
  6
CONTINUOUS
 10
142.9626502792
 20
85.7206643022
 11
143.0687162964
 21
85.9043760327
  0
LINE
  5
2DB
100
AcDbEntity
  8
0
100
AcDbLine
 62
250
  6
CONTINUOUS
 10
177.3638333697
 20
118.3565597101
 11
179.3786495103
 21
119.5612227634
  0
LINE
  5
2DC
100
AcDbEntity
  8
RACCORDO
100
AcDbLine
 62
250
  6
CONTINUOUS
 10
128.6437379602
 20
90.1094110148
 11
130.7650583037
 21
91.3342347948
  0
LINE
  5
2DD
100
AcDbEntity
  8
0
100
AcDbLine
 62
7
  6
CONTINUOUS
 10
144.7344052708
 20
77.8105494331
 11
144.8960757336
 21
78.3837522085
  0
LINE
  5
2DE
100
AcDbEntity
  8
0
100
AcDbLine
 62
7
  6
CONTINUOUS
 10
144.5783913927
 20
77.2646140375
 11
144.6679870706
 21
77.5714443862
  0
LINE
  5
2DF
100
AcDbEntity
  8
0
100
AcDbLine
 62
7
  6
CONTINUOUS
 10
144.7451250765
 20
78.9644272285
 11
144.2572194667
 21
77.4500546823
  0
LINE
  5
2E0
100
AcDbEntity
  8
0
100
AcDbLine
 62
7
  6
CONTINUOUS
 10
143.7395234495
 20
79.5450490048
 11
143.414828381
 21
78.7353331506
  0
LINE
  5
2E1
100
AcDbEntity
  8
0
100
AcDbLine
 62
7
  6
CONTINUOUS
 10
143.435824266
 20
77.9243179767
 11
143.821886907
 21
78.8693296341
  0
LINE
  5
2E2
100
AcDbEntity
  8
0
100
AcDbLine
 62
7
  6
CONTINUOUS
 10
143.3162036698
 20
85.9248015988
 11
143.422269687
 21
86.1085133294
  0
LINE
  5
2E3
100
AcDbEntity
  8
0
100
AcDbLine
 62
7
  6
CONTINUOUS
 10
137.7654154375
 20
87.3333371093
 11
137.9068367937
 21
87.414992028
  0
LINE
  5
2E4
100
AcDbEntity
  8
0
100
AcDbLine
 62
7
  6
CONTINUOUS
 10
138.1189688281
 20
87.537474406
 11
138.2603901843
 21
87.6191293247
  0
LINE
  5
2E5
100
AcDbEntity
  8
0
100
AcDbLine
 62
7
  6
CONTINUOUS
 10
138.4725222187
 20
87.7416117027
 11
138.6139435749
 21
87.8232666213
  0
LINE
  5
2E6
100
AcDbEntity
  8
0
100
AcDbLine
 62
7
  6
CONTINUOUS
 10
138.8260756092
 20
87.9457489993
 11
138.9674969655
 21
88.027403918
  0
LINE
  5
2E7
100
AcDbEntity
  8
0
100
AcDbLine
 62
7
  6
CONTINUOUS
 10
139.1796289998
 20
88.149886296
 11
139.3210503561
 21
88.2315412147
  0
LINE
  5
2E8
100
AcDbEntity
  8
0
100
AcDbLine
 62
7
  6
CONTINUOUS
 10
139.5331823904
 20
88.3540235927
 11
139.6746037467
 21
88.4356785113
  0
LINE
  5
2E9
100
AcDbEntity
  8
0
100
AcDbLine
 62
7
  6
CONTINUOUS
 10
137.5498416484
 20
87.4167859249
 11
139.7081987493
 21
88.5388769538
  0
LINE
  5
2EA
100
AcDbEntity
  8
0
100
AcDbLine
 62
7
  6
CONTINUOUS
 10
139.7822459023
 20
88.5733207499
 11
141.0926001579
 21
89.1107830765
  0
LWPOLYLINE
  5
2EB
100
AcDbEntity
  8
0
100
AcDbPolyline
 62
250
  6
CONTINUOUS
 90
9
 70
0
 10
130.4527175542
 20
118.0564098926
 10
130.4473174762
 20
118.0592598481
 10
130.433211732
 20
118.0645735258
 10
130.4179767089
 20
118.0674794311
 10
130.4017756392
 20
118.0679464281
 10
130.3847821063
 20
118.0659695118
 10
130.3671781842
 20
118.0615698626
 10
130.3491524864
 20
118.0547946186
 10
130.330898146
 20
118.045716371
  0
LINE
  5
2EC
100
AcDbEntity
  8
0
100
AcDbLine
 62
250
  6
CONTINUOUS
 10
129.9165301663
 20
118.2849672493
 11
130.330898146
 21
118.045716371
  0
LINE
  5
2ED
100
AcDbEntity
  8
0
100
AcDbLine
 62
7
  6
CONTINUOUS
 10
129.9165301663
 20
118.3659978655
 11
130.452819045
 21
118.0563513882
  0
LWPOLYLINE
  5
2EE
100
AcDbEntity
  8
0
100
AcDbPolyline
 62
250
  6
CONTINUOUS
 90
19
 70
0
 10
130.330898146
 20
118.045716371
 10
130.3498741307
 20
118.0340990458
 10
130.3684596199
 20
118.0208157435
 10
130.3865212882
 20
118.0060293902
 10
130.4038629722
 20
117.9899806338
 10
130.4204561634
 20
117.9727771716
 10
130.4364135807
 20
117.9543347541
 10
130.4516864112
 20
117.9346903777
 10
130.466090857
 20
117.9140603582
 10
130.4795207503
 20
117.8925910969
 10
130.4918121984
 20
117.8705580957
 10
130.5029525267
 20
117.8479989641
 10
130.5130131368
 20
117.8246903772
 10
130.5218928691
 20
117.8006678468
 10
130.5293950488
 20
117.7762297066
 10
130.5353869579
 20
117.7515544412
 10
130.5397346814
 20
117.7268529638
 10
130.5423099495
 20
117.7023672079
 10
130.5429978716
 20
117.6783488704
  0
LINE
  5
2EF
100
AcDbEntity
  8
0
100
AcDbLine
 62
250
  6
CONTINUOUS
 10
143.2565772219
 20
85.0596045064
 11
143.5925221868
 21
85.3863580962
  0
LINE
  5
2F0
100
AcDbEntity
  8
0
100
AcDbLine
 62
7
  6
CONTINUOUS
 10
143.2605021166
 20
85.0260693418
 11
143.6894864601
 21
85.4433167747
  0
LWPOLYLINE
  5
2F1
100
AcDbEntity
  8
0
100
AcDbPolyline
 62
250
  6
CONTINUOUS
 90
5
 70
0
 10
143.2073950916
 20
84.9850441507
 10
143.220621248
 20
84.995605496
 10
143.2322543101
 20
85.0084736547
 10
143.2421832147
 20
85.0235265762
 10
143.2503163642
 20
85.0406237815
  0
LINE
  5
2F2
100
AcDbEntity
  8
0
100
AcDbLine
 62
7
  6
CONTINUOUS
 10
143.9545360076
 20
86.08709504
 11
142.0111425449
 21
84.8408867005
  0
LINE
  5
2F3
100
AcDbEntity
  8
0
100
AcDbLine
 62
250
  6
CONTINUOUS
 10
143.2018885951
 20
84.9816057974
 11
143.2073950916
 21
84.9850441507
  0
LINE
  5
2F4
100
AcDbEntity
  8
0
100
AcDbLine
 62
7
  6
CONTINUOUS
 10
142.3403485964
 20
84.6508072522
 11
145.2010566349
 21
86.3312421599
  0
LINE
  5
2F5
100
AcDbEntity
  8
0
100
AcDbLine
 62
7
  6
CONTINUOUS
 10
143.2018877668
 20
84.9816053167
 11
142.4864251641
 21
84.5664644728
  0
LINE
  5
2F6
100
AcDbEntity
  8
0
100
AcDbLine
 62
250
  6
CONTINUOUS
 10
143.2565772219
 20
85.0596045064
 11
142.4461920674
 21
84.5896945586
  0
LINE
  5
2F7
100
AcDbEntity
  8
0
100
AcDbLine
 62
7
  6
CONTINUOUS
 10
141.654502734
 20
85.087826846
 11
141.7959240902
 21
85.1694817647
  0
LINE
  5
2F8
100
AcDbEntity
  8
0
100
AcDbLine
 62
7
  6
CONTINUOUS
 10
142.0080561246
 20
85.2919641427
 11
142.1494774808
 21
85.3736190614
  0
LINE
  5
2F9
100
AcDbEntity
  8
0
100
AcDbLine
 62
7
  6
CONTINUOUS
 10
142.3616095152
 20
85.4961014394
 11
142.5030308714
 21
85.577756358
  0
LINE
  5
2FA
100
AcDbEntity
  8
0
100
AcDbLine
 62
7
  6
CONTINUOUS
 10
142.7151629058
 20
85.700238736
 11
142.856584262
 21
85.7818936547
  0
LINE
  5
2FB
100
AcDbEntity
  8
0
100
AcDbLine
 62
7
  6
CONTINUOUS
 10
143.0687162964
 20
85.9043760327
 11
143.2101376526
 21
85.9860309514
  0
LINE
  5
2FC
100
AcDbEntity
  8
0
100
AcDbLine
 62
7
  6
CONTINUOUS
 10
143.422269687
 20
86.1085133294
 11
143.5636910432
 21
86.190168248
  0
LINE
  5
2FD
100
AcDbEntity
  8
0
100
AcDbLine
 62
7
  6
CONTINUOUS
 10
143.6697570604
 20
86.1289388955
 11
141.7250357449
 21
85.006081181
  0
LINE
  5
2FE
100
AcDbEntity
  8
0
100
AcDbLine
 62
7
  6
CONTINUOUS
 10
145.2010566349
 20
86.7386117978
 11
144.0212083636
 21
86.1257969514
  0
LINE
  5
2FF
100
AcDbEntity
  8
RACCORDO
100
AcDbLine
 62
7
  6
CONTINUOUS
 10
159.7564363324
 20
73.1250932405
 11
159.7564363324
 21
108.0700210873
  0
LWPOLYLINE
  5
300
100
AcDbEntity
  8
RACCORDO
100
AcDbPolyline
 62
7
  6
CONTINUOUS
 90
13
 70
0
 10
159.7564363324
 20
73.1250932405
 10
159.7545551332
 20
73.0616490749
 10
159.7491203898
 20
73.001072848
 10
159.7401321021
 20
72.9433645597
 10
159.727521544
 20
72.888302291
 10
159.7113574417
 20
72.836107961
 10
159.6918459739
 20
72.7874473265
 10
159.6689442615
 20
72.7423656534
 10
159.6426951836
 20
72.7008176759
 10
159.6134335564
 20
72.6633333528
 10
159.5811207897
 20
72.6299647388
 10
159.5457954736
 20
72.6006597792
 10
159.5079371871
 20
72.5758090072
  0
LINE
  5
301
100
AcDbEntity
  8
0
100
AcDbLine
 62
7
  6
CONTINUOUS
 10
141.7999738963
 20
79.9151402692
 11
141.378663114
 21
79.6718807038
  0
LINE
  5
302
100
AcDbEntity
  8
0
100
AcDbLine
 62
7
  6
CONTINUOUS
 10
141.6442648838
 20
79.4457140335
 11
141.222561824
 21
79.202227972
  0
LINE
  5
303
100
AcDbEntity
  8
0
100
AcDbLine
 62
7
  6
CONTINUOUS
 10
143.2170889617
 20
79.4632783146
 11
143.0093803075
 21
79.3433499409
  0
LINE
  5
304
100
AcDbEntity
  8
0
100
AcDbLine
 62
7
  6
CONTINUOUS
 10
142.4538905121
 20
78.8662239461
 11
142.1291954435
 21
78.6787490829
  0
LINE
  5
305
100
AcDbEntity
  8
0
100
AcDbLine
 62
7
  6
CONTINUOUS
 10
142.9623297313
 20
78.582993669
 11
142.6286838659
 21
78.3903507279
  0
LINE
  5
306
100
AcDbEntity
  8
0
100
AcDbLine
 62
7
  6
CONTINUOUS
 10
144.0793854969
 20
79.1190401005
 11
143.414828381
 21
78.7353331506
  0
LINE
  5
307
100
AcDbEntity
  8
RACCORDO
100
AcDbLine
 62
7
  6
CONTINUOUS
 10
158.9079081949
 20
109.5397149314
 11
128.6437379602
 21
127.0138675258
  0
LWPOLYLINE
  5
308
100
AcDbEntity
  8
RACCORDO
100
AcDbPolyline
 62
7
  6
CONTINUOUS
 90
25
 70
0
 10
158.9079081949
 20
109.5397149314
 10
158.9637949147
 20
109.5052744881
 10
159.0189747906
 20
109.4671390204
 10
159.0734478225
 20
109.4253085282
 10
159.1274405707
 20
109.379572843
 10
159.1807264749
 20
109.3301421333
 10
159.232625855
 20
109.2776469051
 10
159.2831209498
 20
109.2220479026
 10
159.3322295205
 20
109.1633843815
 10
159.37932517
 20
109.1024046155
 10
159.4243821132
 20
109.0390789341
 10
159.4674261354
 20
108.9734370078
 10
159.5079081949
 20
108.9063161223
 10
159.5457954736
 20
108.8376973324
 10
159.5811207897
 20
108.7675995833
 10
159.6134335564
 20
108.6969169962
 10
159.6426951836
 20
108.6256420795
 10
159.6689442615
 20
108.5537823248
 10
159.6918459739
 20
108.4822543283
 10
159.7113574417
 20
108.4110623398
 10
159.727521544
 20
108.3402021096
 10
159.7401321021
 20
108.2705774845
 10
159.7491203898
 20
108.2024897469
 10
159.7545551332
 20
108.1356376145
 10
159.7564363324
 20
108.0700210873
  0
LINE
  5
309
100
AcDbEntity
  8
0
100
AcDbLine
 62
7
  6
CONTINUOUS
 10
153.6575557778
 20
78.1163936636
 11
153.6753180142
 21
78.1471587595
  0
LINE
  5
30A
100
AcDbEntity
  8
0
100
AcDbLine
 62
7
  6
CONTINUOUS
 10
153.9228053876
 20
78.1675843256
 11
154.0288714048
 21
78.3512960561
  0
LINE
  5
30B
100
AcDbEntity
  8
0
100
AcDbLine
 62
7
  6
CONTINUOUS
 10
154.2763587782
 20
78.3717216223
 11
154.3824247954
 21
78.5554333528
  0
LINE
  5
30C
100
AcDbEntity
  8
0
100
AcDbLine
 62
7
  6
CONTINUOUS
 10
154.6299121688
 20
78.5758589189
 11
154.7359781859
 21
78.7595706495
  0
LINE
  5
30D
100
AcDbEntity
  8
0
100
AcDbLine
 62
7
  6
CONTINUOUS
 10
154.9834655594
 20
78.7799962156
 11
155.0895315765
 21
78.9637079461
  0
LINE
  5
30E
100
AcDbEntity
  8
0
100
AcDbLine
 62
7
  6
CONTINUOUS
 10
155.33701895
 20
78.9841335123
 11
155.4430849671
 21
79.1678452428
  0
LWPOLYLINE
  5
30F
100
AcDbEntity
  8
0
100
AcDbPolyline
 62
7
  6
CONTINUOUS
 90
53
 70
0
 10
146.5596942197
 20
77.0449511579
 10
146.5604880415
 20
77.0454151108
 10
146.5656226297
 20
77.0485157181
 10
146.5707993418
 20
77.0518406482
 10
146.5760072017
 20
77.0554373243
 10
146.5812491222
 20
77.0593030887
 10
146.5865221906
 20
77.063440599
 10
146.5918066933
 20
77.0679052517
 10
146.5971034803
 20
77.0726926786
 10
146.6024117017
 20
77.0778072479
 10
146.6077090933
 20
77.0833174593
 10
146.6130008318
 20
77.0892201027
 10
146.6182817407
 20
77.0955183883
 10
146.6235140264
 20
77.1022904472
 10
146.628703215
 20
77.1095333198
 10
146.6338437804
 20
77.1172499656
 10
146.6388813519
 20
77.1255273939
 10
146.6438219497
 20
77.1343627908
 10
146.6486595535
 20
77.1437589701
 10
146.6533217317
 20
77.1538113834
 10
146.6578136941
 20
77.1645164712
 10
146.662130231
 20
77.1758777929
 10
146.6661832817
 20
77.1880014777
 10
146.6699779431
 20
77.2008922309
 10
146.6735091183
 20
77.2145453472
 10
146.6766734557
 20
77.2290528397
 10
146.6794745524
 20
77.2444155945
 10
146.6819088113
 20
77.2606327255
 10
146.6838620906
 20
77.2777935876
 10
146.6853386658
 20
77.295883507
 10
146.6863342614
 20
77.3149171575
 10
146.6867219088
 20
77.3350279154
 10
146.6865444098
 20
77.3562031967
 10
146.6857589627
 20
77.3784555854
 10
146.6841101931
 20
77.40195621
 10
146.68165062
 20
77.4267192214
 10
146.6783277244
 20
77.4527304687
 10
146.6737285763
 20
77.4801186275
 10
146.6678609498
 20
77.5089638657
 10
146.6607170708
 20
77.5391860154
 10
146.6518606866
 20
77.5706732487
 10
146.641172001
 20
77.6036760075
 10
146.6287708102
 20
77.6379438499
 10
146.6145802508
 20
77.6726136223
 10
146.5983581593
 20
77.7078739303
 10
146.5803466991
 20
77.7435361684
 10
146.5611954971
 20
77.7781713664
 10
146.5407697901
 20
77.811735101
 10
146.5192043412
 20
77.8442717955
 10
146.4975530673
 20
77.8744857501
 10
146.4761672737
 20
77.9019450646
 10
146.4546956549
 20
77.9270816391
 10
146.433138211
 20
77.9498954737
  0
LINE
  5
310
100
AcDbEntity
  8
0
100
AcDbLine
 62
7
  6
CONTINUOUS
 10
144.0868680373
 20
79.0223264178
 11
143.821886907
 21
78.8693296341
  0
LINE
  5
311
100
AcDbEntity
  8
0
100
AcDbLine
 62
7
  6
CONTINUOUS
 10
143.4639386256
 20
77.9931368541
 11
143.3902863893
 21
77.950610976
  0
LINE
  5
312
100
AcDbEntity
  8
0
100
AcDbLine
 62
7
  6
CONTINUOUS
 10
145.1212675423
 20
78.5137751366
 11
144.8960757336
 21
78.3837522085
  0
LINE
  5
313
100
AcDbEntity
  8
0
100
AcDbLine
 62
7
  6
CONTINUOUS
 10
144.1790688339
 20
77.8306083567
 11
143.8885962331
 21
77.6628931175
  0
LINE
  5
314
100
AcDbEntity
  8
0
100
AcDbLine
 62
7
  6
CONTINUOUS
 10
144.8079898677
 20
77.7680626091
 11
144.2572194667
 21
77.4500546823
  0
LINE
  5
315
100
AcDbEntity
  8
0
100
AcDbLine
 62
7
  6
CONTINUOUS
 10
144.908253875
 20
77.7101714279
 11
144.6679870706
 21
77.5714443862
  0
LINE
  5
316
100
AcDbEntity
  8
0
100
AcDbLine
 62
7
  6
CONTINUOUS
 10
145.291832178
 20
77.7734133861
 11
145.0452774126
 21
77.6310557546
  0
LINE
  5
317
100
AcDbEntity
  8
0
100
AcDbLine
 62
7
  6
CONTINUOUS
 10
146.2197451599
 20
78.1249082706
 11
145.9444631532
 21
77.96596389
  0
LINE
  5
318
100
AcDbEntity
  8
0
100
AcDbLine
 62
7
  6
CONTINUOUS
 10
145.3634841831
 20
77.4623969569
 11
145.1101673868
 21
77.3161350135
  0
LINE
  5
319
100
AcDbEntity
  8
0
100
AcDbLine
 62
250
  6
CONTINUOUS
 10
146.4266141917
 20
77.961194772
 11
146.1988243484
 21
77.8296728584
  0
LINE
  5
31A
100
AcDbEntity
  8
0
100
AcDbLine
 62
7
  6
CONTINUOUS
 10
145.4561417447
 20
77.0602027139
 11
145.194280563
 21
76.9090073494
  0
LINE
  5
31B
100
AcDbEntity
  8
0
100
AcDbLine
 62
250
  6
CONTINUOUS
 10
146.6275886428
 20
77.6408320712
 11
146.3822467774
 21
77.4991655689
  0
LINE
  5
31C
100
AcDbEntity
  8
0
100
AcDbLine
 62
7
  6
CONTINUOUS
 10
146.2225802726
 20
77.3268974452
 11
145.9552295416
 21
77.1725324838
  0
LINE
  5
31D
100
AcDbEntity
  8
0
100
AcDbLine
 62
7
  6
CONTINUOUS
 10
146.3214004556
 20
77.3322030178
 11
146.6630186734
 21
77.5294490953
  0
LINE
  5
31E
100
AcDbEntity
  8
0
100
AcDbLine
 62
250
  6
CONTINUOUS
 10
146.6847585755
 20
77.3927145356
 11
146.1293230929
 21
77.0720130492
  0
LINE
  5
31F
100
AcDbEntity
  8
0
100
AcDbLine
 62
7
  6
CONTINUOUS
 10
145.9552295416
 20
76.8430852499
 11
145.6318412926
 21
76.6563649279
  0
LINE
  5
320
100
AcDbEntity
  8
0
100
AcDbLine
 62
7
  6
CONTINUOUS
 10
146.6363691912
 20
77.1213995655
 11
146.4666154969
 21
77.0233859099
  0
LINE
  5
321
100
AcDbEntity
  8
0
100
AcDbLine
 62
7
  6
CONTINUOUS
 10
146.6999146579
 20
76.3254332845
 11
146.4524547216
 21
76.1825530187
  0
LINE
  5
322
100
AcDbEntity
  8
0
100
AcDbLine
 62
250
  6
CONTINUOUS
 10
146.5266832868
 20
76.9342389021
 11
146.3104105469
 21
76.8093929499
  0
LWPOLYLINE
  5
323
100
AcDbEntity
  8
0
100
AcDbPolyline
 62
7
  6
CONTINUOUS
 90
11
 70
0
 10
146.3214130814
 20
77.3321810564
 10
146.3164867745
 20
77.329569247
 10
146.3013714812
 20
77.3237943179
 10
146.2848321613
 20
77.3205862832
 10
146.2668283978
 20
77.3198485928
 10
146.2472707442
 20
77.3215987872
 10
146.226248647
 20
77.3258193259
 10
146.2039900284
 20
77.332361037
 10
146.1805708625
 20
77.3411741965
 10
146.1559151752
 20
77.3523085285
 10
146.1300229665
 20
77.3657640328
  0
LINE
  5
324
100
AcDbEntity
  8
0
100
AcDbLine
 62
7
  6
CONTINUOUS
 10
157.5466430743
 20
75.8708834003
 11
157.5644053107
 21
75.9016484962
  0
LINE
  5
325
100
AcDbEntity
  8
0
100
AcDbLine
 62
7
  6
CONTINUOUS
 10
157.8118926841
 20
75.9220740623
 11
157.9179587013
 21
76.1057857928
  0
LINE
  5
326
100
AcDbEntity
  8
0
100
AcDbLine
 62
7
  6
CONTINUOUS
 10
158.1654460747
 20
76.126211359
 11
158.2715120919
 21
76.3099230895
  0
LINE
  5
327
100
AcDbEntity
  8
0
100
AcDbLine
 62
7
  6
CONTINUOUS
 10
158.5189994653
 20
76.3303486556
 11
158.6250654825
 21
76.5140603861
  0
LINE
  5
328
100
AcDbEntity
  8
0
100
AcDbLine
 62
7
  6
CONTINUOUS
 10
158.8725528559
 20
76.5344859523
 11
158.9786188731
 21
76.7181976828
  0
LINE
  5
329
100
AcDbEntity
  8
0
100
AcDbLine
 62
7
  6
CONTINUOUS
 10
159.2261062465
 20
76.738623249
 11
159.3321722637
 21
76.9223349795
  0
LINE
  5
32A
100
AcDbEntity
  8
0
100
AcDbLine
 62
7
  6
CONTINUOUS
 10
153.6753180142
 20
78.1471587595
 11
153.8167393704
 21
78.2288136781
  0
LINE
  5
32B
100
AcDbEntity
  8
0
100
AcDbLine
 62
7
  6
CONTINUOUS
 10
154.0288714048
 20
78.3512960561
 11
154.170292761
 21
78.4329509748
  0
LINE
  5
32C
100
AcDbEntity
  8
0
100
AcDbLine
 62
7
  6
CONTINUOUS
 10
154.3824247954
 20
78.5554333528
 11
154.5238461516
 21
78.6370882715
  0
LINE
  5
32D
100
AcDbEntity
  8
0
100
AcDbLine
 62
7
  6
CONTINUOUS
 10
154.7359781859
 20
78.7595706495
 11
154.8773995422
 21
78.8412255681
  0
LINE
  5
32E
100
AcDbEntity
  8
0
100
AcDbLine
 62
7
  6
CONTINUOUS
 10
155.0895315765
 20
78.9637079461
 11
155.2309529328
 21
79.0453628648
  0
LINE
  5
32F
100
AcDbEntity
  8
0
100
AcDbLine
 62
7
  6
CONTINUOUS
 10
155.4430849671
 20
79.1678452428
 11
155.5845063234
 21
79.2495001614
  0
LINE
  5
330
100
AcDbEntity
  8
0
100
AcDbLine
 62
7
  6
CONTINUOUS
 10
153.4597442251
 20
78.230607575
 11
155.618101326
 21
79.3526986039
  0
LINE
  5
331
100
AcDbEntity
  8
0
100
AcDbLine
 62
7
  6
CONTINUOUS
 10
155.6921484789
 20
79.3871424
 11
157.0025027346
 21
79.9246047267
  0
LINE
  5
332
100
AcDbEntity
  8
SMUSSO
100
AcDbLine
 62
7
  6
CONTINUOUS
 10
174.8885214498
 20
45.9357886878
 11
174.8885214498
 21
117.7851730456
  0
LINE
  5
333
100
AcDbEntity
  8
SMUSSO
100
AcDbLine
 62
7
  6
CONTINUOUS
 10
175.5956282309
 20
119.0099179157
 11
175.5956282309
 21
118.193408184
  0
LINE
  5
334
100
AcDbEntity
  8
SMUSSO
100
AcDbLine
 62
7
  6
CONTINUOUS
 10
176.3027350121
 20
45.9357886878
 11
176.3027350121
 21
117.7851730456
  0
LINE
  5
335
100
AcDbEntity
  8
0
100
AcDbLine
 62
250
  6
CONTINUOUS
 10
179.378797104
 20
119.5949806074
 11
179.5907815447
 21
120.4499023266
  0
LINE
  5
336
100
AcDbEntity
  8
0
100
AcDbLine
 62
7
  6
CONTINUOUS
 10
159.7564363324
 20
76.8316598414
 11
157.9210451216
 21
75.6547083506
  0
LINE
  5
337
100
AcDbEntity
  8
0
100
AcDbLine
 62
7
  6
CONTINUOUS
 10
158.2502511731
 20
75.4646289024
 11
159.7564363324
 21
76.349391026
  0
LINE
  5
338
100
AcDbEntity
  8
0
100
AcDbLine
 62
7
  6
CONTINUOUS
 10
157.5644053107
 20
75.9016484962
 11
157.7058266669
 21
75.9833034148
  0
LINE
  5
339
100
AcDbEntity
  8
0
100
AcDbLine
 62
7
  6
CONTINUOUS
 10
157.9179587013
 20
76.1057857928
 11
158.0593800575
 21
76.1874407115
  0
LINE
  5
33A
100
AcDbEntity
  8
0
100
AcDbLine
 62
7
  6
CONTINUOUS
 10
158.2715120919
 20
76.3099230895
 11
158.4129334481
 21
76.3915780082
  0
LINE
  5
33B
100
AcDbEntity
  8
0
100
AcDbLine
 62
7
  6
CONTINUOUS
 10
158.6250654825
 20
76.5140603861
 11
158.7664868387
 21
76.5957153048
  0
LINE
  5
33C
100
AcDbEntity
  8
0
100
AcDbLine
 62
7
  6
CONTINUOUS
 10
158.9786188731
 20
76.7181976828
 11
159.1200402293
 21
76.7998526015
  0
LINE
  5
33D
100
AcDbEntity
  8
0
100
AcDbLine
 62
7
  6
CONTINUOUS
 10
159.3321722637
 20
76.9223349795
 11
159.4735936199
 21
77.0039898981
  0
LINE
  5
33E
100
AcDbEntity
  8
0
100
AcDbLine
 62
7
  6
CONTINUOUS
 10
159.5796596371
 20
76.9427605456
 11
157.6349383216
 21
75.8199028311
  0
LINE
  5
33F
100
AcDbEntity
  8
0
100
AcDbLine
 62
250
  6
CONTINUOUS
 10
178.7008525541
 20
120.7692150114
 11
179.5471603594
 21
120.5254564358
  0
LINE
  5
340
100
AcDbEntity
  8
SMUSSO
100
AcDbLine
 62
7
  6
CONTINUOUS
 10
174.8885214498
 20
117.7851730456
 11
112.6631247053
 21
153.7133372584
  0
LINE
  5
341
100
AcDbEntity
  8
SMUSSO
100
AcDbLine
 62
7
  6
CONTINUOUS
 10
175.5956282309
 20
118.193408184
 11
176.3027350121
 21
117.7851730456
  0
LINE
  5
342
100
AcDbEntity
  8
SMUSSO
100
AcDbLine
 62
7
  6
CONTINUOUS
 10
175.5956282309
 20
119.0099179157
 11
113.3702314865
 21
154.9380821285
  0
LWPOLYLINE
  5
343
100
AcDbEntity
  8
0
100
AcDbPolyline
 62
7
  6
CONTINUOUS
 90
22
 70
0
 10
179.378797104
 20
119.5949806074
 10
179.3774822381
 20
119.6563245412
 10
179.3724118841
 20
119.7191766328
 10
179.3636123603
 20
119.7832327858
 10
179.3511222317
 20
119.8482638185
 10
179.3350009654
 20
119.9138684843
 10
179.3153679516
 20
119.9794696733
 10
179.2924196725
 20
120.0445466716
 10
179.2662509639
 20
120.1089741366
 10
179.2368382421
 20
120.172762757
 10
179.2041796979
 20
120.2358103532
 10
179.168526703
 20
120.2975631501
 10
179.1302549992
 20
120.3573703435
 10
179.0897184866
 20
120.4147373463
 10
179.0470065635
 20
120.4696146296
 10
179.0021217682
 20
120.5220279585
 10
178.9551252358
 20
120.5718325293
 10
178.9063696783
 20
120.6185978234
 10
178.8562951937
 20
120.661931885
 10
178.8052195432
 20
120.7015825797
 10
178.7533219291
 20
120.7374019062
 10
178.7008525541
 20
120.7692150114
  0
LINE
  5
344
100
AcDbEntity
  8
SMUSSO
100
AcDbLine
 62
7
  6
CONTINUOUS
 10
177.3633951839
 20
46.5482005778
 11
177.3633951839
 21
119.2140946673
  0
LINE
  5
345
100
AcDbEntity
  8
0
100
AcDbLine
 62
7
  6
CONTINUOUS
 10
179.3786495103
 20
119.5612227634
 11
179.3786495103
 21
48.8548967932
  0
LINE
  5
346
100
AcDbEntity
  8
0
100
AcDbLine
 62
7
  6
CONTINUOUS
 10
179.5907815447
 20
120.4499023266
 11
179.5907815447
 21
50.170900034
  0
LINE
  5
347
100
AcDbEntity
  8
RACCORDO
100
AcDbLine
 62
250
  6
CONTINUOUS
 10
158.9079081949
 20
72.6352584204
 11
159.7563953283
 21
73.1251642571
  0
LWPOLYLINE
  5
348
100
AcDbEntity
  8
RACCORDO
100
AcDbPolyline
 62
7
  6
CONTINUOUS
 90
13
 70
0
 10
159.5079371871
 20
72.5758090072
 10
159.4674261354
 20
72.5554190512
 10
159.4243821132
 20
72.5394832827
 10
159.37932517
 20
72.52818823
 10
159.3322295205
 20
72.5215933396
 10
159.2831209498
 20
72.5196391649
 10
159.232625855
 20
72.5223506321
 10
159.1807264749
 20
72.5297875071
 10
159.1274405707
 20
72.5418900241
 10
159.0734478225
 20
72.558503811
 10
159.0189747906
 20
72.5795774108
 10
158.9637949147
 20
72.6051622805
 10
158.9079081949
 20
72.6352584204
  0
LWPOLYLINE
  5
349
100
AcDbEntity
  8
0
100
AcDbPolyline
 62
7
  6
CONTINUOUS
 90
4
 70
0
 10
117.4082615907
 20
156.1587888571
 10
117.3608417912
 20
156.1846505099
 10
117.3135460828
 20
156.2061041714
 10
117.3058159414
 20
156.2091947504
  0
LINE
  5
34A
100
AcDbEntity
  8
SMUSSO
100
AcDbLine
 62
7
  6
CONTINUOUS
 10
114.4308916583
 20
155.5504940185
 11
177.3633951839
 21
119.2140946673
  0
LINE
  5
34B
100
AcDbEntity
  8
0
100
AcDbLine
 62
7
  6
CONTINUOUS
 10
117.4360954784
 20
156.1425474157
 11
178.6715427291
 21
120.7859676336
  0
LINE
  5
34C
100
AcDbEntity
  8
0
100
AcDbLine
 62
7
  6
CONTINUOUS
 10
118.6817981917
 20
155.6683537292
 11
179.5471603594
 21
120.5254564358
  0
LWPOLYLINE
  5
34D
100
AcDbEntity
  8
0
100
AcDbPolyline
 62
7
  6
CONTINUOUS
 90
4
 70
0
 10
179.3712316235
 20
48.708813407
 10
179.3724118916
 20
48.7169956476
 10
179.3774822387
 20
48.768678453
 10
179.378797104
 20
48.8226728871
  0
LINE
  5
34E
100
AcDbEntity
  8
0
100
AcDbLine
 62
7
  6
CONTINUOUS
 10
179.5902246216
 20
50.1631153308
 11
179.3712131976
 21
48.7088016019
  0
LINE
  5
34F
100
AcDbEntity
  8
0
100
AcDbLine
 62
250
  6
CONTINUOUS
 10
179.378797104
 20
48.8226728871
 11
179.5907815447
 21
50.170900034
  0
LWPOLYLINE
  5
350
100
AcDbEntity
  8
0
100
AcDbPolyline
 62
7
  6
CONTINUOUS
 90
10
 70
0
 10
117.3058159414
 20
156.2091947504
 10
117.2666246673
 20
156.2230357717
 10
117.2202837239
 20
156.2353708092
 10
117.174814032
 20
156.2430100544
 10
117.130574755
 20
156.2458839506
 10
117.0879013441
 20
156.2440256542
 10
117.0468722053
 20
156.2374993998
 10
117.0074607446
 20
156.22629331
 10
116.9697466365
 20
156.210359273
 10
116.9578154549
 20
156.2041179753
  0
LINE
  5
351
100
AcDbEntity
  8
0
100
AcDbLine
 62
250
  6
CONTINUOUS
 10
117.4082615907
 20
156.1587888571
 11
118.6817981917
 21
155.6683537292
  0
LINE
  5
352
100
AcDbEntity
  8
0
100
AcDbLine
 62
7
  6
CONTINUOUS
 10
118.6747740604
 20
155.6717656369
 11
117.3057965281
 21
156.2091847062
  0
LWPOLYLINE
  5
353
100
AcDbEntity
  8
0
100
AcDbPolyline
 62
7
  6
CONTINUOUS
 90
10
 70
0
 10
179.1928559282
 20
48.4099773645
 10
179.204179772
 20
48.4171592515
 10
179.2368384025
 20
48.4418496399
 10
179.2662511638
 20
48.4703739918
 10
179.2924198814
 20
48.5026392563
 10
179.3153681373
 20
48.5386625223
 10
179.3350010945
 20
48.5784080102
 10
179.3511222975
 20
48.6216018213
 10
179.3636123856
 20
48.6678981713
 10
179.3712316235
 20
48.708813407
  0
LINE
  5
354
100
AcDbEntity
  8
0
100
AcDbLine
 62
7
  6
CONTINUOUS
 10
177.3633951839
 20
47.3008660808
 11
179.1928636044
 21
48.4099820182
  0
LINE
  5
355
100
AcDbEntity
  8
0
100
AcDbLine
 62
250
  6
CONTINUOUS
 10
177.3638333697
 20
47.6502337399
 11
179.3786495103
 21
48.8548967932
  0
LINE
  5
356
100
AcDbEntity
  8
SMUSSO
100
AcDbLine
 62
7
  6
CONTINUOUS
 10
177.3633951839
 20
46.5482005778
 11
175.5956282309
 21
45.5275535494
  0
ARC
  5
357
100
AcDbEntity
  8
0
100
AcDbCircle
 62
7
  6
CONTINUOUS
 10
143.0511683645
 20
85.2412532625
 40
0.3
100
AcDbArc
 50
300.108989426
 51
314.2001404117
  0
ELLIPSE
  5
358
100
AcDbEntity
  8
0
100
AcDbEllipse
 62
7
  6
CONTINUOUS
 10
179.5460525675
 20
50.1980051115
 30
0.0
 11
-0.0320188688
 21
0.0554549875
 31
0.0
 40
0.5632057935
 41
-2.5265952341
 42
-2.3686251639
  0
ELLIPSE
  5
359
100
AcDbEntity
  8
0
100
AcDbEllipse
 62
7
  6
CONTINUOUS
 10
179.5460525675
 20
120.4744491508
 30
0.0
 11
-0.0312356712
 21
0.0540980115
 31
0.0
 40
0.5918118391
 41
-2.3438606673
 42
-0.7978336343
  0
ELLIPSE
  5
35A
100
AcDbEntity
  8
0
100
AcDbEllipse
 62
7
  6
CONTINUOUS
 10
118.6829059836
 20
155.6160671939
 30
0.0
 11
-0.0320188688
 21
0.0554549875
 31
0.0
 40
0.5632057935
 41
-0.7730595434
 42
-0.6150059205
  0
ELLIPSE
  5
35B
100
AcDbEntity
  8
0
100
AcDbEllipse
 62
7
  6
CONTINUOUS
 10
145.0524276698
 20
86.2453711038
 30
0.0
 11
0.1999995634
 21
0.1164181051
 31
0.0
 40
0.0035896273
 41
-0.7351277754
 42
-0.6748017824
  0
ELLIPSE
  5
35C
100
AcDbEntity
  8
0
100
AcDbEllipse
 62
7
  6
CONTINUOUS
 10
157.1363288559
 20
79.83964284
 30
0.0
 11
0.1998333781
 21
-0.0157785196
 31
0.0
 40
0.5172961965
 41
0.8262203412
 42
2.3446567905
  0
ELLIPSE
  5
35D
100
AcDbEntity
  8
0
100
AcDbEllipse
 62
7
  6
CONTINUOUS
 10
141.2264262792
 20
89.0258211899
 30
0.0
 11
0.1998333781
 21
-0.0157785196
 31
0.0
 40
0.5172961965
 41
0.8262203412
 42
2.3446567905
  0
ELLIPSE
  5
35E
100
AcDbEntity
  8
0
100
AcDbEllipse
 62
7
  6
CONTINUOUS
 10
155.618101326
 20
78.5362283271
 30
0.0
 11
0.5413005334
 21
0.8416911418
 31
0.0
 40
0.6067084637
 41
0.7148472392
 42
0.8145158917
  0
ELLIPSE
  5
35F
100
AcDbEntity
  8
0
100
AcDbEllipse
 62
7
  6
CONTINUOUS
 10
139.7081987493
 20
87.722406677
 30
0.0
 11
0.5413005334
 21
0.8416911418
 31
0.0
 40
0.6067084637
 41
0.7148472392
 42
0.8145158917
  0
ELLIPSE
  5
360
100
AcDbEntity
  8
0
100
AcDbEllipse
 62
7
  6
CONTINUOUS
 10
145.0524276698
 20
86.8167359381
 30
0.0
 11
0.1998333781
 21
-0.0157785196
 31
0.0
 40
0.5172961965
 41
-0.692216108
 42
0.8262203412
  0
ELLIPSE
  5
361
100
AcDbEntity
  8
0
100
AcDbEllipse
 62
7
  6
CONTINUOUS
 10
143.9545360076
 20
85.2706247632
 30
0.0
 11
0.4625183445
 21
0.8873459255
 31
0.0
 40
0.5463614449
 41
0.662201126
 42
0.7618697785
  0
ELLIPSE
  5
362
100
AcDbEntity
  8
0
100
AcDbEllipse
 62
7
  6
CONTINUOUS
 10
179.5365526991
 20
120.4863773091
 30
0.0
 11
1.1066889452
 21
-0.4882482052
 31
0.0
 40
0.0945009384
 41
-2.4253001261
 42
-2.3839902126
  0
ELLIPSE
  5
363
100
AcDbEntity
  8
0
100
AcDbEllipse
 62
7
  6
CONTINUOUS
 10
118.3011054484
 20
155.8429570913
 30
0.0
 11
1.1066889452
 21
-0.4882482052
 31
0.0
 40
0.0945009384
 41
-2.4666100396
 42
-2.4253001261
  0
ELLIPSE
  5
364
100
AcDbEntity
  8
0
100
AcDbEllipse
 62
7
  6
CONTINUOUS
 10
179.5516515043
 20
49.7538994412
 30
0.0
 11
0.1304932868
 21
1.2025842266
 31
0.0
 40
0.0944494463
 41
-3.8578203675
 42
-3.816510454
  0
ELLIPSE
  5
365
100
AcDbEntity
  8
0
100
AcDbEllipse
 62
7
  6
CONTINUOUS
 10
179.5516515043
 20
120.4602254114
 30
0.0
 11
0.1304932868
 21
1.2025842266
 31
0.0
 40
0.0944494463
 41
-3.899130281
 42
-3.8578203675
  0
ENDSEC
  0
SECTION
  2
OBJECTS
  0
DICTIONARY
  5
C
100
AcDbDictionary
280
0
281
1
  3
ACAD_GROUP
350
D
  3
ACAD_MLINESTYLE
350
17
  3
ACAD_LAYOUT
350
1A
  3
ACAD_PLOTSETTINGS
350
19
  3
ACAD_PLOTSTYLENAME
350
E
  0
DICTIONARY
  5
D
102
{ACAD_REACTORS
330
C
102
}
100
AcDbDictionary
280
0
281
1
  0
ACDBDICTIONARYWDFLT
  5
E
102
{ACAD_REACTORS
330
C
102
}
100
AcDbDictionary
281
1
  3
Normal
350
F
100
AcDbDictionaryWithDefault
340
F
  0
DICTIONARY
  5
17
102
{ACAD_REACTORS
330
C
102
}
100
AcDbDictionary
280
0
281
1
  3
Standard
350
18
  0
DICTIONARY
  5
19
102
{ACAD_REACTORS
330
C
102
}
100
AcDbDictionary
281
1
  0
DICTIONARY
  5
1A
102
{ACAD_REACTORS
330
C
102
}
100
AcDbDictionary
281
1
  3
Model
350
366
  3
Layout1
350
367
  0
ACDBPLACEHOLDER
  5
F
102
{ACAD_REACTORS
330
E
102
}
  0
MLINESTYLE
  5
18
102
{ACAD_REACTORS
330
17
102
}
100
AcDbMlineStyle
  2
STANDARD
 70
0
  3

 62
256
 51
90.0
 52
90.0
 71
2
 49
0.5
 62
256
  6
BYLAYER
 49
-0.5
 62
256
  6
BYLAYER
  0
LAYOUT
  5
366
102
{ACAD_REACTORS
330
1A
102
}
100
AcDbPlotSettings
  1

  2
none_device
  4
ISO_A4_(297.00_x_210.00_MM)
  6

 40
0.0
 41
0.0
 42
0.0
 43
0.0
 44
297.0
 45
210.0
 46
0.0
 47
0.0
 48
0.0
 49
0.0
140
0.0
141
0.0
142
1.0
143
1.0
 70
1024
 72
1
 73
0
 74
0
  7

 75
0
147
1.0
148
0.0
149
0.0
100
AcDbLayout
  1
Model
 70
0
 71
0
 10
0.0
 20
0.0
 11
297.0
 21
210.0
 12
0.0
 22
0.0
 32
0.0
 14
0.0
 24
0.0
 34
0.0
 15
0.0
 25
0.0
 35
0.0
146
0.0
 13
0.0
 23
0.0
 33
0.0
 16
1.0
 26
0.0
 36
0.0
 17
0.0
 27
1.0
 37
0.0
 76
0
330
224
345
0
346
0
  0
LAYOUT
  5
367
102
{ACAD_REACTORS
330
1A
102
}
100
AcDbPlotSettings
  1

  2
none_device
  4
ISO_A4_(297.00_x_210.00_MM)
  6

 40
0.0
 41
0.0
 42
0.0
 43
0.0
 44
297.0
 45
210.0
 46
0.0
 47
0.0
 48
0.0
 49
0.0
140
0.0
141
0.0
142
1.0
143
1.0
 70
0
 72
1
 73
0
 74
0
  7

 75
0
147
1.0
148
0.0
149
0.0
100
AcDbLayout
  1
Layout1
 70
0
 71
1
 10
0.0
 20
0.0
 11
297.0
 21
210.0
 12
0.0
 22
0.0
 32
0.0
 14
0.0
 24
0.0
 34
0.0
 15
0.0
 25
0.0
 35
0.0
146
0.0
 13
0.0
 23
0.0
 33
0.0
 16
1.0
 26
0.0
 36
0.0
 17
0.0
 27
1.0
 37
0.0
 76
0
330
225
345
0
346
0
  0
ENDSEC
  0
EOF
