  0
SECTION
  2
HEADER
  9
$ACADVER
  1
AC1024
  9
$DWGCODEPAGE
  3
ANSI_1252
  9
$EXTMAX
 10
297.0
 20
210.0
 30
0.0
  9
$EXTMIN
 10
0.0
 20
0.0
 30
0.0
  9
$LIMMIN
 10
0.0
 20
0.0
  9
$LIMMAX
 10
297.0
 20
210.0
  9
$VIEWCTR
 10
148.5
 20
105.0
  9
$VIEWSIZE
 40
210.0
  9
$CLAYER
  8
0
  9
$LTSCALE
 40
16.335
  9
$CELTYPE
  6
BYLAYER
  9
$DIMSCALE
 40
1.0
  9
$DIMASZ
 40
3.0
  9
$DIMEXO
 40
0.5
  9
$DIMDLI
 40
11.286
  9
$DIMEXE
 40
1.5
  9
$DIMCEN
 40
2.673
  9
$DIMLFAC
 40
1.0
  9
$DIMBLK
  1
_FILLED
  9
$DIMALT
 70
0
  9
$DIMALTF
 40
0.0393700787
  9
$DIMTXT
 40
3.0
  9
$DIMTOL
 70
1
  9
$DIMLIM
 70
0
  9
$DIMTFAC
 40
1.0
  9
$DIMTP
 40
0.01
  9
$DIMTM
 40
0.01
  9
$DIMGAP
 40
0.625
  9
$DIMDSEP
 70
44
  9
$AUNITS
 70
0
  9
$PDMODE
 70
3
  9
$PDSIZE
 40
3.0
  9
$HANDSEED
  5
31F
  9
$TILEMODE
 70
1
  9
$MEASUREMENT
 70
1
  9
$INSUNITS
 70
4
  0
ENDSEC
  0
SECTION
  2
CLASSES
  0
CLASS
  1
ACDBDICTIONARYWDFLT
  2
AcDbDictionaryWithDefault
  3
AutoCAD 2000
 90
0
 91
1
280
0
281
0
  0
CLASS
  1
ACDBPLACEHOLDER
  2
AcDbPlaceHolder
  3
AutoCAD 2000
 90
0
 91
1
280
0
281
0
  0
CLASS
  1
LAYOUT
  2
AcDbLayout
  3
AutoCAD 2000
 90
0
 91
0
280
0
281
0
  0
ENDSEC
  0
SECTION
  2
TABLES
  0
TABLE
  2
VPORT
  5
8
100
AcDbSymbolTable
 70
2
  0
VPORT
  5
1F4
100
AcDbSymbolTableRecord
100
AcDbViewportTableRecord
  2
*ACTIVE
 70
0
 10
0.0
 20
0.0
 11
1.0
 21
1.0
 12
148.5
 22
105.0
 13
0.0
 23
0.0
 14
1.0
 24
1.0
 15
0.0
 25
0.0
 16
0.0
 26
0.0
 36
1.0
 17
0.0
 27
0.0
 37
0.0
 40
210.0
 41
1.4142857143
 42
50.0
 43
0.0
 44
0.0
 50
0.0
 51
0.0
 71
0
 72
100
 73
1
 74
1
 75
0
 76
0
 77
0
 78
0
  0
ENDTAB
  0
TABLE
  2
LTYPE
  5
5
100
AcDbSymbolTable
 70
6
  0
LTYPE
  5
14
100
AcDbSymbolTableRecord
100
AcDbLinetypeTableRecord
  2
BYBLOCK
 70
0
  3

 72
65
 73
0
 40
0.0
  0
LTYPE
  5
15
100
AcDbSymbolTableRecord
100
AcDbLinetypeTableRecord
  2
BYLAYER
 70
0
  3

 72
65
 73
0
 40
0.0
  0
LTYPE
  5
16
100
AcDbSymbolTableRecord
100
AcDbLinetypeTableRecord
  2
CONTINUOUS
 70
64
  3
Solid line
 72
65
 73
0
 40
0.0
  0
LTYPE
  5
1F5
100
AcDbSymbolTableRecord
100
AcDbLinetypeTableRecord
  2
CENTER
 70
64
  3
____ _ ____ _ ____ _ ____ _ ____ _ ____ _ ____
 72
65
 73
4
 40
0.6
 49
0.375
 74
0
 49
-0.075
 74
0
 49
0.075
 74
0
 49
-0.075
 74
0
  0
LTYPE
  5
1F6
100
AcDbSymbolTableRecord
100
AcDbLinetypeTableRecord
  2
HIDDEN
 70
64
  3
- - - - - - - - - - - - - - - - - - - -
 72
65
 73
2
 40
0.2
 49
0.1
 74
0
 49
-0.1
 74
0
  0
LTYPE
  5
1F7
100
AcDbSymbolTableRecord
100
AcDbLinetypeTableRecord
  2
PHANTOM
 70
64
  3
_____ _ _ _____ _ _ _____ _ _ _____
 72
65
 73
6
 40
0.8
 49
0.45
 74
0
 49
-0.05
 74
0
 49
0.1
 74
0
 49
-0.05
 74
0
 49
0.1
 74
0
 49
-0.05
 74
0
  0
LTYPE
  5
1F8
100
AcDbSymbolTableRecord
100
AcDbLinetypeTableRecord
  2
DOT
 70
64
  3
. . . . . . . . . . . . . . . . . . . .
 72
65
 73
2
 40
0.2
 49
0.1
 74
0
 49
-0.1
 74
0
  0
LTYPE
  5
1F9
100
AcDbSymbolTableRecord
100
AcDbLinetypeTableRecord
  2
DASHED
 70
64
  3
- - - - - - - - - - - - - - - - - - - -
 72
65
 73
2
 40
0.2
 49
0.1
 74
0
 49
-0.1
 74
0
  0
ENDTAB
  0
TABLE
  2
LAYER
  5
2
100
AcDbSymbolTable
 70
36
  0
LAYER
  5
10
100
AcDbSymbolTableRecord
100
AcDbLayerTableRecord
  2
0
 70
0
 62
7
  6
CONTINUOUS
370
-3
390
F
  0
LAYER
  5
1FA
100
AcDbSymbolTableRecord
100
AcDbLayerTableRecord
  2
DEFAULT_1
 70
0
 62
7
  6
CENTER
370
-3
390
F
  0
LAYER
  5
1FB
100
AcDbSymbolTableRecord
100
AcDbLayerTableRecord
  2
DEFAULT_2
 70
0
 62
7
  6
HIDDEN
370
-3
390
F
  0
LAYER
  5
1FC
100
AcDbSymbolTableRecord
100
AcDbLayerTableRecord
  2
DEFAULT_3
 70
0
 62
7
  6
PHANTOM
370
-3
390
F
  0
LAYER
  5
1FD
100
AcDbSymbolTableRecord
100
AcDbLayerTableRecord
  2
ASSI
 70
0
 62
7
  6
CONTINUOUS
370
-3
390
F
  0
LAYER
  5
1FE
100
AcDbSymbolTableRecord
100
AcDbLayerTableRecord
  2
COORDINATE
 70
0
 62
7
  6
CONTINUOUS
370
-3
390
F
  0
LAYER
  5
1FF
100
AcDbSymbolTableRecord
100
AcDbLayerTableRecord
  2
COORD_ORIGINE
 70
0
 62
7
  6
CONTINUOUS
370
-3
390
F
  0
LAYER
  5
200
100
AcDbSymbolTableRecord
100
AcDbLayerTableRecord
  2
COPY_PUBLISH
 70
0
 62
7
  6
CONTINUOUS
370
-3
390
F
  0
LAYER
  5
201
100
AcDbSymbolTableRecord
100
AcDbLayerTableRecord
  2
COSMETIC
 70
0
 62
7
  6
CONTINUOUS
370
-3
390
F
  0
LAYER
  5
202
100
AcDbSymbolTableRecord
100
AcDbLayerTableRecord
  2
COSMETICI
 70
0
 62
7
  6
CONTINUOUS
370
-3
390
F
  0
LAYER
  5
203
100
AcDbSymbolTableRecord
100
AcDbLayerTableRecord
  2
CURVE
 70
0
 62
7
  6
CONTINUOUS
370
-3
390
F
  0
LAYER
  5
204
100
AcDbSymbolTableRecord
100
AcDbLayerTableRecord
  2
CURVE_TASSELLI
 70
0
 62
7
  6
CONTINUOUS
370
-3
390
F
  0
LAYER
  5
205
100
AcDbSymbolTableRecord
100
AcDbLayerTableRecord
  2
DRAFT
 70
0
 62
7
  6
CONTINUOUS
370
-3
390
F
  0
LAYER
  5
206
100
AcDbSymbolTableRecord
100
AcDbLayerTableRecord
  2
IMPORT_IGES
 70
0
 62
7
  6
CONTINUOUS
370
-3
390
F
  0
LAYER
  5
207
100
AcDbSymbolTableRecord
100
AcDbLayerTableRecord
  2
INTFCLR_2
 70
0
 62
7
  6
CONTINUOUS
370
-3
390
F
  0
LAYER
  5
208
100
AcDbSymbolTableRecord
100
AcDbLayerTableRecord
  2
INTFCLR_3
 70
0
 62
7
  6
CONTINUOUS
370
-3
390
F
  0
LAYER
  5
209
100
AcDbSymbolTableRecord
100
AcDbLayerTableRecord
  2
INTF_1
 70
0
 62
7
  6
CONTINUOUS
370
-3
390
F
  0
LAYER
  5
20A
100
AcDbSymbolTableRecord
100
AcDbLayerTableRecord
  2
INTF_14
 70
0
 62
7
  6
CONTINUOUS
370
-3
390
F
  0
LAYER
  5
20B
100
AcDbSymbolTableRecord
100
AcDbLayerTableRecord
  2
INTF_15
 70
0
 62
7
  6
CONTINUOUS
370
-3
390
F
  0
LAYER
  5
20C
100
AcDbSymbolTableRecord
100
AcDbLayerTableRecord
  2
INTF_18
 70
0
 62
7
  6
CONTINUOUS
370
-3
390
F
  0
LAYER
  5
20D
100
AcDbSymbolTableRecord
100
AcDbLayerTableRecord
  2
INTF_19
 70
0
 62
7
  6
CONTINUOUS
370
-3
390
F
  0
LAYER
  5
20E
100
AcDbSymbolTableRecord
100
AcDbLayerTableRecord
  2
INTF_2
 70
0
 62
7
  6
CONTINUOUS
370
-3
390
F
  0
LAYER
  5
20F
100
AcDbSymbolTableRecord
100
AcDbLayerTableRecord
  2
INTF_7
 70
0
 62
7
  6
CONTINUOUS
370
-3
390
F
  0
LAYER
  5
210
100
AcDbSymbolTableRecord
100
AcDbLayerTableRecord
  2
INTF_CYAN
 70
0
 62
7
  6
CONTINUOUS
370
-3
390
F
  0
LAYER
  5
211
100
AcDbSymbolTableRecord
100
AcDbLayerTableRecord
  2
INTF_YELLOW
 70
0
 62
7
  6
CONTINUOUS
370
-3
390
F
  0
LAYER
  5
212
100
AcDbSymbolTableRecord
100
AcDbLayerTableRecord
  2
LIVELLO_1
 70
0
 62
7
  6
CONTINUOUS
370
-3
390
F
  0
LAYER
  5
213
100
AcDbSymbolTableRecord
100
AcDbLayerTableRecord
  2
NOTE
 70
0
 62
7
  6
CONTINUOUS
370
-3
390
F
  0
LAYER
  5
214
100
AcDbSymbolTableRecord
100
AcDbLayerTableRecord
  2
PIANI
 70
0
 62
7
  6
CONTINUOUS
370
-3
390
F
  0
LAYER
  5
215
100
AcDbSymbolTableRecord
100
AcDbLayerTableRecord
  2
PIANI_ORIGINE
 70
0
 62
7
  6
CONTINUOUS
370
-3
390
F
  0
LAYER
  5
216
100
AcDbSymbolTableRecord
100
AcDbLayerTableRecord
  2
PIANI_RIFERIMENTO
 70
0
 62
7
  6
CONTINUOUS
370
-3
390
F
  0
LAYER
  5
217
100
AcDbSymbolTableRecord
100
AcDbLayerTableRecord
  2
PUNTI
 70
0
 62
7
  6
CONTINUOUS
370
-3
390
F
  0
LAYER
  5
218
100
AcDbSymbolTableRecord
100
AcDbLayerTableRecord
  2
RACCORDO
 70
0
 62
7
  6
CONTINUOUS
370
-3
390
F
  0
LAYER
  5
219
100
AcDbSymbolTableRecord
100
AcDbLayerTableRecord
  2
RGB__255__255__255__
 70
0
 62
7
  6
CONTINUOUS
370
-3
390
F
  0
LAYER
  5
21A
100
AcDbSymbolTableRecord
100
AcDbLayerTableRecord
  2
RGB____0____0____0__
 70
0
 62
7
  6
CONTINUOUS
370
-3
390
F
  0
LAYER
  5
21B
100
AcDbSymbolTableRecord
100
AcDbLayerTableRecord
  2
SIMBOLI
 70
0
 62
7
  6
CONTINUOUS
370
-3
390
F
  0
LAYER
  5
21C
100
AcDbSymbolTableRecord
100
AcDbLayerTableRecord
  2
SMUSSO
 70
0
 62
7
  6
CONTINUOUS
370
-3
390
F
  0
LAYER
  5
21D
100
AcDbSymbolTableRecord
100
AcDbLayerTableRecord
  2
SNAPLINE
 70
0
 62
7
  6
CONTINUOUS
370
-3
390
F
  0
LAYER
  5
21E
100
AcDbSymbolTableRecord
100
AcDbLayerTableRecord
  2
SUPERFICI
 70
0
 62
7
  6
CONTINUOUS
370
-3
390
F
  0
LAYER
  5
21F
100
AcDbSymbolTableRecord
100
AcDbLayerTableRecord
  2
TRASH
 70
0
 62
7
  6
CONTINUOUS
370
-3
390
F
  0
LAYER
  5
220
100
AcDbSymbolTableRecord
100
AcDbLayerTableRecord
  2
WHITE
 70
0
 62
7
  6
CONTINUOUS
370
-3
390
F
  0
LAYER
  5
221
100
AcDbSymbolTableRecord
100
AcDbLayerTableRecord
  2
XSEC_DATUMS
 70
0
 62
7
  6
CONTINUOUS
370
-3
390
F
  0
ENDTAB
  0
TABLE
  2
STYLE
  5
3
100
AcDbSymbolTable
 70
1
  0
STYLE
  5
11
100
AcDbSymbolTableRecord
100
AcDbTextStyleTableRecord
  2
STANDARD
 70
0
 40
0.0
 41
0.8
 50
0.0
 71
0
 42
0.2
  3
txt
  4

  0
STYLE
  5
222
100
AcDbSymbolTableRecord
100
AcDbTextStyleTableRecord
  2
TEXTSTYLE_1
 70
0
 40
0.0
 41
0.8
 50
0.0
 71
0
 42
0.2
  3
gdt
  4

  0
ENDTAB
  0
TABLE
  2
VIEW
  5
6
100
AcDbSymbolTable
 70
0
  0
ENDTAB
  0
TABLE
  2
UCS
  5
7
100
AcDbSymbolTable
 70
0
  0
ENDTAB
  0
TABLE
  2
APPID
  5
9
100
AcDbSymbolTable
 70
1
  0
APPID
  5
223
100
AcDbSymbolTableRecord
100
AcDbRegAppTableRecord
  2
ACAD
 70
0
  0
ENDTAB
  0
TABLE
  2
BLOCK_RECORD
  5
1
100
AcDbSymbolTable
 70
0
  0
BLOCK_RECORD
  5
224
100
AcDbSymbolTableRecord
100
AcDbBlockTableRecord
  2
*Model_Space
  0
BLOCK_RECORD
  5
225
100
AcDbSymbolTableRecord
100
AcDbBlockTableRecord
  2
*Paper_Space
  0
BLOCK_RECORD
  5
226
100
AcDbSymbolTableRecord
100
AcDbBlockTableRecord
  2
_FILLED
  0
ENDTAB
  0
TABLE
  2
DIMSTYLE
  5
A
100
AcDbSymbolTable
 70
1
100
AcDbDimStyleTable
 71
0
  0
DIMSTYLE
105
227
100
AcDbSymbolTableRecord
100
AcDbDimStyleTableRecord
  2
STANDARD
 70
0
  3

  4

 40
1.0
 41
3.0
 42
0.5
 43
0.38
 44
1.5
 45
0.0
 46
0.0
 47
0.01
 48
0.01
140
3.0
141
0.09
142
0.0
143
25.4
144
1.0
145
0.0
146
1.0
147
0.625
 71
1.0
 72
0.0
 73
0
 74
0
 75
0
 76
0
 77
1
 78
8
 79
2
170
0
171
1
172
0
173
0
174
0
175
0
176
0
177
0
178
0
270
2
179
2
271
2
272
2
273
2
274
2
275
0
280
0
281
0
282
0
283
1
284
8
285
0
286
0
287
3
288
0
340
11
278
44
341
226
342
226
343
226
344
226
  0
ENDTAB
  0
ENDSEC
  0
SECTION
  2
BLOCKS
  0
BLOCK
  5
20
100
AcDbEntity
  8
0
100
AcDbBlockBegin
  2
*Model_Space
 70
0
 10
0.0
 20
0.0
 30
0.0
  3
*Model_Space
  1

  0
ENDBLK
  5
21
100
AcDbEntity
  8
0
100
AcDbBlockEnd
  0
BLOCK
  5
1C
100
AcDbEntity
  8
0
100
AcDbBlockBegin
  2
*Paper_Space
 70
0
 10
0.0
 20
0.0
 30
0.0
  3
*Paper_Space
  1

  0
ENDBLK
  5
1D
100
AcDbEntity
  8
0
100
AcDbBlockEnd
  0
BLOCK
  5
228
100
AcDbEntity
  8
0
100
AcDbBlockBegin
  2
_FILLED
 70
64
 10
0.0
 20
0.0
  3
_FILLED
  1

  0
SOLID
  5
229
100
AcDbEntity
  8
0
  6
BYBLOCK
 62
0
100
AcDbTrace
 10
0.0
 20
0.0
 11
-1.0
 21
0.3166666667
 12
-1.0
 22
-0.3166666667
 13
-1.0
 23
-0.3166666667
  0
ENDBLK
  5
22A
100
AcDbEntity
  8
0
  6
BYBLOCK
 62
0
100
AcDbBlockEnd
  0
ENDSEC
  0
SECTION
  2
ENTITIES
  0
LINE
  5
22B
100
AcDbEntity
  8
SMUSSO
100
AcDbLine
 62
7
  6
CONTINUOUS
 10
99.0205088148
 20
157.7795337066
 11
101.4953825489
 21
159.2084553283
  0
LINE
  5
22C
100
AcDbEntity
  8
0
100
AcDbLine
 62
250
  6
CONTINUOUS
 10
104.5005863689
 20
159.8005087256
 11
102.4499767035
 21
158.6578418758
  0
LINE
  5
22D
100
AcDbEntity
  8
0
100
AcDbLine
 62
7
  6
CONTINUOUS
 10
104.0223142155
 20
159.8620836076
 11
102.1470992891
 21
158.8321622505
  0
LINE
  5
22E
100
AcDbEntity
  8
SMUSSO
100
AcDbLine
 62
7
  6
CONTINUOUS
 10
99.0205088148
 20
157.7795337066
 11
99.0205088148
 21
85.1136396171
  0
LINE
  5
22F
100
AcDbEntity
  8
0
100
AcDbLine
 62
250
  6
CONTINUOUS
 10
114.5061473227
 20
129.9778567188
 11
115.3545592931
 21
130.4677191574
  0
LWPOLYLINE
  5
230
100
AcDbEntity
  8
0
100
AcDbPolyline
 62
7
  6
CONTINUOUS
 90
13
 70
0
 10
114.754646468
 20
130.5271409522
 10
114.7952044258
 20
130.54758707
 10
114.8381298948
 20
130.5634784416
 10
114.8832674509
 20
130.5747634699
 10
114.9304239524
 20
130.5813938852
 10
114.9793972486
 20
130.5833412824
 10
115.0299768311
 20
130.5805974408
 10
115.0819462233
 20
130.5731743227
 10
115.1350825997
 20
130.5611039688
 10
115.1891568969
 20
130.5444388237
 10
115.2439369715
 20
130.5232510668
 10
115.299188687
 20
130.4976318839
 10
115.3546754602
 20
130.467691539
  0
LINE
  5
231
100
AcDbEntity
  8
SMUSSO
100
AcDbLine
 62
7
  6
CONTINUOUS
 10
99.0205088148
 20
85.1136396171
 11
161.9530123404
 21
48.7772402659
  0
LWPOLYLINE
  5
232
100
AcDbEntity
  8
0
100
AcDbPolyline
 62
7
  6
CONTINUOUS
 90
13
 70
0
 10
117.549160553
 20
126.9911521298
 10
117.564004989
 20
127.0010270946
 10
117.5823835461
 20
127.0154133236
 10
117.5995672207
 20
127.031480899
 10
117.6153523088
 20
127.0490879431
 10
117.6295969783
 20
127.0681106505
 10
117.642208163
 20
127.0884756002
 10
117.6530551493
 20
127.1100350906
 10
117.6620055798
 20
127.1325728238
 10
117.6689900384
 20
127.1559448459
 10
117.6739502583
 20
127.1800014683
 10
117.6768379055
 20
127.2045316965
 10
117.6776537993
 20
127.226398634
  0
LINE
  5
233
100
AcDbEntity
  8
0
100
AcDbLine
 62
250
  6
CONTINUOUS
 10
116.9810210569
 20
126.7387560988
 11
117.6074887622
 21
127.126173125
  0
LINE
  5
234
100
AcDbEntity
  8
0
100
AcDbLine
 62
7
  6
CONTINUOUS
 10
116.9810210569
 20
126.6398061091
 11
117.5492256343
 21
126.991192343
  0
LWPOLYLINE
  5
235
100
AcDbEntity
  8
0
100
AcDbPolyline
 62
250
  6
CONTINUOUS
 90
4
 70
0
 10
117.2539078773
 20
120.3348488706
 10
117.2729980561
 20
120.3590743392
 10
117.293140253
 20
120.3821165429
 10
117.3143002328
 20
120.4038296514
  0
LINE
  5
236
100
AcDbEntity
  8
0
100
AcDbLine
 62
250
  6
CONTINUOUS
 10
117.3143002328
 20
120.4038296514
 11
117.3365122306
 21
120.424359495
  0
LINE
  5
237
100
AcDbEntity
  8
0
100
AcDbLine
 62
250
  6
CONTINUOUS
 10
117.3365122306
 20
120.424359495
 11
117.3597762464
 21
120.4437060738
  0
LWPOLYLINE
  5
238
100
AcDbEntity
  8
0
100
AcDbPolyline
 62
7
  6
CONTINUOUS
 90
11
 70
0
 10
117.5855609542
 20
120.5559443685
 10
117.587674959
 20
120.5575891516
 10
117.6057327826
 20
120.5733096161
 10
117.6221784734
 20
120.5907881911
 10
117.6367631366
 20
120.6098017003
 10
117.6493435821
 20
120.6302249294
 10
117.6597638944
 20
120.6518623701
 10
117.6678804733
 20
120.6744474337
 10
117.6735976095
 20
120.6977403387
 10
117.676849687
 20
120.7215299954
 10
117.6776473097
 20
120.7406843904
  0
LINE
  5
239
100
AcDbEntity
  8
0
100
AcDbLine
 62
250
  6
CONTINUOUS
 10
117.3597762464
 20
120.4437060738
 11
117.6074887622
 21
120.6342532974
  0
LINE
  5
23A
100
AcDbEntity
  8
0
100
AcDbLine
 62
7
  6
CONTINUOUS
 10
117.3378500906
 20
120.3653984157
 11
117.5855625796
 21
120.5559456187
  0
LWPOLYLINE
  5
23B
100
AcDbEntity
  8
0
100
AcDbPolyline
 62
250
  6
CONTINUOUS
 90
8
 70
0
 10
117.6074887622
 20
120.6342532974
 10
117.6244596591
 20
120.6461818413
 10
117.6393276146
 20
120.6591133891
 10
117.6519331574
 20
120.672917587
 10
117.6621552466
 20
120.6874869695
 10
117.6698617014
 20
120.7026447155
 10
117.6749511303
 20
120.7181388772
 10
117.6773428879
 20
120.7333738975
  0
LWPOLYLINE
  5
23C
100
AcDbEntity
  8
0
100
AcDbPolyline
 62
250
  6
CONTINUOUS
 90
9
 70
0
 10
117.1205475663
 20
119.9714065394
 10
117.1341383712
 20
119.9804230645
 10
117.1460421175
 20
119.9902024576
 10
117.1561312646
 20
120.0006399394
 10
117.164297714
 20
120.0116236797
 10
117.1704539674
 20
120.0230359957
 10
117.1745340646
 20
120.0347546127
 10
117.1764942896
 20
120.0466539741
 10
117.1766796063
 20
120.051623947
  0
LINE
  5
23D
100
AcDbEntity
  8
0
100
AcDbLine
 62
250
  6
CONTINUOUS
 10
117.3953890366
 20
121.7036776809
 11
116.9810210569
 21
121.4644259812
  0
LINE
  5
23E
100
AcDbEntity
  8
0
100
AcDbLine
 62
250
  6
CONTINUOUS
 10
117.6074887622
 20
121.3363101802
 11
116.9810210569
 21
120.9745943367
  0
LINE
  5
23F
100
AcDbEntity
  8
0
100
AcDbLine
 62
7
  6
CONTINUOUS
 10
113.7990405416
 20
95.0329288721
 11
113.7990405416
 21
129.9778567188
  0
LINE
  5
240
100
AcDbEntity
  8
0
100
AcDbLine
 62
7
  6
CONTINUOUS
 10
114.5061473227
 20
95.0329288721
 11
114.5061473227
 21
129.9778567188
  0
LWPOLYLINE
  5
241
100
AcDbEntity
  8
0
100
AcDbPolyline
 62
7
  6
CONTINUOUS
 90
28
 70
0
 10
113.7990405416
 20
129.9778567188
 10
113.8011303591
 20
130.0577970393
 10
113.8072169413
 20
130.1346182993
 10
113.817300288
 20
130.2083204986
 10
113.8314413484
 20
130.2791320567
 10
113.8495791734
 20
130.3468245543
 10
113.8715309154
 20
130.4107127332
 10
113.897335411
 20
130.4707576624
 10
113.9269538236
 20
130.5269982729
 10
113.9600867959
 20
130.5788660994
 10
113.9967699175
 20
130.6263165379
 10
114.0369675988
 20
130.6693941925
 10
114.0802737144
 20
130.7076644103
 10
114.126719365
 20
130.7410783887
 10
114.1762734498
 20
130.7696849303
 10
114.2284365411
 20
130.7931957905
 10
114.2832352508
 20
130.811559647
 10
114.3406429671
 20
130.824827822
 10
114.4000804259
 20
130.8328660379
 10
114.4615685108
 20
130.8356212335
 10
114.5250863384
 20
130.8331464699
 10
114.5899919945
 20
130.8254666536
 10
114.65629982
 20
130.8125286819
 10
114.7239954741
 20
130.7943856573
 10
114.7923940199
 20
130.7712217936
 10
114.8612671448
 20
130.7430984952
 10
114.9308431614
 20
130.7099543576
 10
115.0011220696
 20
130.6717893807
  0
LWPOLYLINE
  5
242
100
AcDbEntity
  8
0
100
AcDbPolyline
 62
7
  6
CONTINUOUS
 90
13
 70
0
 10
114.5061473227
 20
129.9778567188
 10
114.5079634111
 20
130.0408758842
 10
114.5134042459
 20
130.1015309338
 10
114.5224470484
 20
130.1595618504
 10
114.5350537464
 20
130.2147202921
 10
114.5511707946
 20
130.2667690982
 10
114.5707290739
 20
130.3154836078
 10
114.5936449327
 20
130.3606548424
 10
114.6198204916
 20
130.4020893306
 10
114.6491433159
 20
130.4396088015
 10
114.6814876914
 20
130.4730523928
 10
114.7167152465
 20
130.5022770244
 10
114.754646468
 20
130.5271409522
  0
LWPOLYLINE
  5
243
100
AcDbEntity
  8
0
100
AcDbPolyline
 62
250
  6
CONTINUOUS
 90
8
 70
0
 10
117.6774221792
 20
127.2202326012
 10
117.6749719271
 20
127.2053583898
 10
117.6698718288
 20
127.1907101007
 10
117.6621765258
 20
127.1764446809
 10
117.6519684664
 20
127.1627149759
 10
117.6393570212
 20
127.149668091
 10
117.6244773116
 20
127.1374438154
 10
117.6074887622
 20
127.1261731248
  0
LWPOLYLINE
  5
244
100
AcDbEntity
  8
0
100
AcDbPolyline
 62
250
  6
CONTINUOUS
 90
8
 70
0
 10
117.1522187968
 20
120.1442047577
 10
117.1631818465
 20
120.1734890665
 10
117.1756451919
 20
120.2026396384
 10
117.1891970958
 20
120.2309267525
 10
117.2036782577
 20
120.2580679408
 10
117.219247978
 20
120.2843456714
 10
117.2359724213
 20
120.3098776285
 10
117.2539078773
 20
120.3348488706
  0
LINE
  5
245
100
AcDbEntity
  8
0
100
AcDbLine
 62
7
  6
CONTINUOUS
 10
145.2652923044
 20
75.4767099985
 11
115.0011220696
 21
92.9508625929
  0
LINE
  5
246
100
AcDbEntity
  8
0
100
AcDbLine
 62
7
  6
CONTINUOUS
 10
145.6188456949
 20
76.0890824335
 11
115.3546754602
 21
93.563235028
  0
LWPOLYLINE
  5
247
100
AcDbEntity
  8
0
100
AcDbPolyline
 62
7
  6
CONTINUOUS
 90
28
 70
0
 10
115.0011220696
 20
92.9508625929
 10
114.9308444811
 20
92.9938530274
 10
114.8612695899
 20
93.0410526509
 10
114.792397396
 20
93.0924614632
 10
114.7239995985
 20
93.1482816583
 10
114.6563044983
 20
93.2083110423
 10
114.5899969981
 20
93.2719430337
 10
114.525091394
 20
93.339214221
 10
114.4615733898
 20
93.4100880157
 10
114.4000849999
 20
93.4838480699
 10
114.3406470574
 20
93.5605234486
 10
114.2832387292
 20
93.6400850868
 10
114.2284395301
 20
93.7217294415
 10
114.176276174
 20
93.8054769995
 10
114.1267219471
 20
93.8913072741
 10
114.0802762225
 20
93.9783552625
 10
114.036970141
 20
94.0666337124
 10
113.9967725619
 20
94.1561298761
 10
113.9600894367
 20
94.2459405075
 10
113.9269562767
 20
94.3360692162
 10
113.8973375707
 20
94.4265123927
 10
113.8715327365
 20
94.5163559621
 10
113.8495805926
 20
94.6055940701
 10
113.8314423206
 20
94.694232571
 10
113.8173008832
 20
94.7813749529
 10
113.807217268
 20
94.8667223784
 10
113.8011304875
 20
94.9505736848
 10
113.7990405416
 20
95.0329288721
  0
LWPOLYLINE
  5
248
100
AcDbEntity
  8
0
100
AcDbPolyline
 62
7
  6
CONTINUOUS
 90
25
 70
0
 10
115.3546754602
 20
93.563235028
 10
115.2991893718
 20
93.5973689707
 10
115.2439381854
 20
93.6355526457
 10
115.18915848
 20
93.6776231536
 10
115.1350843711
 20
93.7234013583
 10
115.0819480277
 20
93.7726913817
 10
115.0299785809
 20
93.825281117
 10
114.9793988471
 20
93.8809453235
 10
114.9304253273
 20
93.9394459782
 10
114.8832686364
 20
94.0005316508
 10
114.838130953
 20
94.063940448
 10
114.7952053843
 20
94.1294010999
 10
114.7546759035
 20
94.1966330693
 10
114.716716087
 20
94.2653484142
 10
114.6814885033
 20
94.3352528449
 10
114.649144108
 20
94.4060467746
 10
114.6198212854
 20
94.4774272884
 10
114.593645721
 20
94.5490884008
 10
114.5707297986
 20
94.6207221569
 10
114.551171407
 20
94.6920220789
 10
114.535054221
 20
94.7626825659
 10
114.5224473633
 20
94.8323992161
 10
114.5134044057
 20
94.9008730504
 10
114.507963456
 20
94.9678117167
 10
114.5061473227
 20
95.0329288721
  0
LWPOLYLINE
  5
249
100
AcDbEntity
  8
0
100
AcDbPolyline
 62
250
  6
CONTINUOUS
 90
8
 70
0
 10
117.3597762464
 20
120.4437060738
 10
117.3611290065
 20
120.4269194939
 10
117.360527352
 20
120.4114384165
 10
117.3579793799
 20
120.3974711896
 10
117.3535193817
 20
120.3852057875
 10
117.3472073808
 20
120.3748072807
 10
117.3391283258
 20
120.366415615
 10
117.3378536986
 20
120.3654011914
  0
LWPOLYLINE
  5
24A
100
AcDbEntity
  8
0
100
AcDbPolyline
 62
250
  6
CONTINUOUS
 90
8
 70
0
 10
117.6074887622
 20
120.6342532974
 10
117.6088415168
 20
120.6174666673
 10
117.6082398471
 20
120.6019855525
 10
117.6056918522
 20
120.5880183014
 10
117.6012318251
 20
120.5757528871
 10
117.5949197917
 20
120.5653543805
 10
117.5868407043
 20
120.5569627271
 10
117.5855625796
 20
120.5559456187
  0
LWPOLYLINE
  5
24B
100
AcDbEntity
  8
0
100
AcDbPolyline
 62
7
  6
CONTINUOUS
 90
14
 70
0
 10
117.6776537538
 20
102.2494318741
 10
117.6763988291
 20
102.2768831118
 10
117.6729057563
 20
102.3028839642
 10
117.6672177229
 20
102.3286240324
 10
117.659350524
 20
102.3540514505
 10
117.6495732119
 20
102.378483762
 10
117.6377865437
 20
102.4022806977
 10
117.623893381
 20
102.4254766824
 10
117.608443277
 20
102.4471378821
 10
117.5914404755
 20
102.4673455792
 10
117.5726143124
 20
102.4863343837
 10
117.5524566177
 20
102.5035156793
 10
117.5310505105
 20
102.5188227165
 10
117.517208445
 20
102.5273196977
  0
LWPOLYLINE
  5
24C
100
AcDbEntity
  8
0
100
AcDbPolyline
 62
7
  6
CONTINUOUS
 90
14
 70
0
 10
117.6776537538
 20
121.4364833787
 10
117.6763988291
 20
121.4639346164
 10
117.6729057563
 20
121.4899354688
 10
117.6672177229
 20
121.515675537
 10
117.659350524
 20
121.5411029552
 10
117.6495732119
 20
121.5655352667
 10
117.6377865437
 20
121.5893322024
 10
117.623893381
 20
121.612528187
 10
117.608443277
 20
121.6341893868
 10
117.5914404755
 20
121.6543970839
 10
117.5726143124
 20
121.6733858883
 10
117.5524566177
 20
121.6905671839
 10
117.5310505105
 20
121.7058742212
 10
117.517208445
 20
121.7143712024
  0
LWPOLYLINE
  5
24D
100
AcDbEntity
  8
RACCORDO
100
AcDbPolyline
 62
7
  6
CONTINUOUS
 90
25
 70
0
 10
116.9810210569
 20
96.4618899487
 10
116.9829022561
 20
96.3962734215
 10
116.9883369995
 20
96.3294212891
 10
116.9973252871
 20
96.2613335515
 10
117.0099358452
 20
96.1917089264
 10
117.0260999476
 20
96.1208486962
 10
117.0456114154
 20
96.0496567077
 10
117.0685131278
 20
95.9781287113
 10
117.0947622057
 20
95.9062689566
 10
117.1240238329
 20
95.8349940398
 10
117.1563365996
 20
95.7643114528
 10
117.1916619156
 20
95.6942137037
 10
117.2295491943
 20
95.6255949138
 10
117.2700312539
 20
95.5584740283
 10
117.313075276
 20
95.492832102
 10
117.3581322193
 20
95.4295064205
 10
117.4052278688
 20
95.3685266545
 10
117.4543364394
 20
95.3098631335
 10
117.5048315342
 20
95.2542641309
 10
117.5567309143
 20
95.2017689027
 10
117.6100168186
 20
95.152338193
 10
117.6640095667
 20
95.1066025078
 10
117.7184825987
 20
95.0647720156
 10
117.7736624746
 20
95.0266365479
 10
117.8295491943
 20
94.9921961046
  0
LWPOLYLINE
  5
24E
100
AcDbEntity
  8
0
100
AcDbPolyline
 62
7
  6
CONTINUOUS
 90
15
 70
0
 10
117.677647086
 20
108.7352921837
 10
117.6776333493
 20
108.7377099082
 10
117.6762895367
 20
108.7590383465
 10
117.6727695786
 20
108.7800902073
 10
117.6671031402
 20
108.8007000584
 10
117.6593650176
 20
108.8206054233
 10
117.6496465422
 20
108.8396064439
 10
117.6379783326
 20
108.8576338924
 10
117.6244061069
 20
108.8745536602
 10
117.6091443952
 20
108.8900685757
 10
117.5924580319
 20
108.9039542302
 10
117.574448776
 20
108.9161848535
 10
117.5553927629
 20
108.9266531822
 10
117.5357275614
 20
108.9352588596
 10
117.5330438044
 20
108.9362795866
  0
LINE
  5
24F
100
AcDbEntity
  8
RACCORDO
100
AcDbLine
 62
7
  6
CONTINUOUS
 10
116.9810210569
 20
129.5286205194
 11
116.9810210569
 21
96.4618899487
  0
LINE
  5
250
100
AcDbEntity
  8
0
100
AcDbLine
 62
250
  6
CONTINUOUS
 10
117.1205475663
 20
108.7217388124
 11
117.1205475663
 21
119.9714065394
  0
LINE
  5
251
100
AcDbEntity
  8
0
100
AcDbLine
 62
7
  6
CONTINUOUS
 10
117.1766796063
 20
108.8019562198
 11
117.1766796063
 21
120.051623947
  0
LINE
  5
252
100
AcDbEntity
  8
0
100
AcDbLine
 62
250
  6
CONTINUOUS
 10
117.6074887622
 20
129.1669059179
 11
117.6074887622
 21
127.126173125
  0
LINE
  5
253
100
AcDbEntity
  8
0
100
AcDbLine
 62
250
  6
CONTINUOUS
 10
117.6074887622
 20
121.3363101802
 11
117.6074887622
 21
120.6342532974
  0
LINE
  5
254
100
AcDbEntity
  8
0
100
AcDbLine
 62
250
  6
CONTINUOUS
 10
117.6074887622
 20
108.6411785032
 11
117.6074887622
 21
107.9391216204
  0
LINE
  5
255
100
AcDbEntity
  8
0
100
AcDbLine
 62
250
  6
CONTINUOUS
 10
117.6074887622
 20
102.1492586756
 11
117.6074887622
 21
95.1546833465
  0
LINE
  5
256
100
AcDbEntity
  8
0
100
AcDbLine
 62
7
  6
CONTINUOUS
 10
117.6776538121
 20
129.1263934974
 11
117.6776538121
 21
127.2264448934
  0
LINE
  5
257
100
AcDbEntity
  8
0
100
AcDbLine
 62
7
  6
CONTINUOUS
 10
117.6776538121
 20
121.4365819395
 11
117.6776538121
 21
120.7406492057
  0
LINE
  5
258
100
AcDbEntity
  8
0
100
AcDbLine
 62
7
  6
CONTINUOUS
 10
117.6776538121
 20
108.7353268427
 11
117.6776538121
 21
108.0393933887
  0
LINE
  5
259
100
AcDbEntity
  8
0
100
AcDbLine
 62
7
  6
CONTINUOUS
 10
117.6776538121
 20
102.2495304349
 11
117.6776538121
 21
95.0961249287
  0
LWPOLYLINE
  5
25A
100
AcDbEntity
  8
0
100
AcDbPolyline
 62
7
  6
CONTINUOUS
 90
20
 70
0
 10
117.1766796056
 20
120.0516337948
 10
117.176739064
 20
120.0565106269
 10
117.1775103708
 20
120.0705858231
 10
117.1793247686
 20
120.0865865905
 10
117.1823546536
 20
120.1043776584
 10
117.1866602875
 20
120.1234489255
 10
117.1922840326
 20
120.1435234128
 10
117.1992541127
 20
120.1643807279
 10
117.2074781622
 20
120.1855544878
 10
117.2168758866
 20
120.2067515416
 10
117.2273608086
 20
120.2277379119
 10
117.2387469316
 20
120.2481463544
 10
117.2508749509
 20
120.2677345228
 10
117.2635883984
 20
120.2863172961
 10
117.2766592286
 20
120.3036478903
 10
117.2899043208
 20
120.31958905
 10
117.3031163275
 20
120.3340139262
 10
117.3159972762
 20
120.3467402878
 10
117.3283555765
 20
120.3577436936
 10
117.3378536986
 20
120.3654011914
  0
LWPOLYLINE
  5
25B
100
AcDbEntity
  8
0
100
AcDbPolyline
 62
250
  6
CONTINUOUS
 90
16
 70
0
 10
117.6074887622
 20
127.126173125
 10
117.6072330927
 20
127.1106745738
 10
117.6061297258
 20
127.0962623098
 10
117.6042747192
 20
127.0829316707
 10
117.6017686977
 20
127.0706911286
 10
117.5987005011
 20
127.0594878244
 10
117.5951326463
 20
127.0492210906
 10
117.5911374721
 20
127.0398580402
 10
117.5867869593
 20
127.0313669515
 10
117.5821173829
 20
127.0236611613
 10
117.5771793221
 20
127.0167002129
 10
117.5720307483
 20
127.0104562076
 10
117.5667021537
 20
127.0048715633
 10
117.5612326731
 20
126.9999069578
 10
117.5556684558
 20
126.9955310941
 10
117.552399393
 20
126.9933067035
  0
LWPOLYLINE
  5
25C
100
AcDbEntity
  8
0
100
AcDbPolyline
 62
250
  6
CONTINUOUS
 90
16
 70
0
 10
117.6074887622
 20
107.9391216204
 10
117.6072330927
 20
107.9236230692
 10
117.6061297258
 20
107.9092108052
 10
117.6042747192
 20
107.8958801661
 10
117.6017686977
 20
107.883639624
 10
117.5987005011
 20
107.8724363198
 10
117.5951326463
 20
107.862169586
 10
117.5911374721
 20
107.8528065356
 10
117.5867869593
 20
107.8443154469
 10
117.5821173829
 20
107.8366096566
 10
117.5771793221
 20
107.8296487083
 10
117.5720307483
 20
107.823404703
 10
117.5667021537
 20
107.8178200586
 10
117.5612326731
 20
107.8128554532
 10
117.5556684558
 20
107.8084795895
 10
117.552399393
 20
107.8062551989
  0
LWPOLYLINE
  5
25D
100
AcDbEntity
  8
0
100
AcDbPolyline
 62
250
  6
CONTINUOUS
 90
9
 70
0
 10
117.677653807
 20
108.7352990638
 10
117.6774676074
 20
108.7301150001
 10
117.6751576983
 20
108.7162708032
 10
117.6701994341
 20
108.7025393565
 10
117.662615828
 20
108.6891028237
 10
117.6524577442
 20
108.6760956619
 10
117.6398056451
 20
108.6636669894
 10
117.6247696143
 20
108.6519787065
 10
117.6074887622
 20
108.6411785032
  0
LINE
  5
25E
100
AcDbEntity
  8
0
100
AcDbLine
 62
250
  6
CONTINUOUS
 10
117.6774012437
 20
120.7337456122
 11
117.6776538121
 21
120.7406501088
  0
LWPOLYLINE
  5
25F
100
AcDbEntity
  8
0
100
AcDbPolyline
 62
250
  6
CONTINUOUS
 90
7
 70
0
 10
117.1205475663
 20
119.9714065394
 10
117.1215816481
 20
119.9993581763
 10
117.1243135125
 20
120.0276490397
 10
117.1287431596
 20
120.0562791296
 10
117.1349364183
 20
120.0854061003
 10
117.1428274597
 20
120.1148722975
 10
117.1522187968
 20
120.1442047577
  0
LWPOLYLINE
  5
260
100
AcDbEntity
  8
0
100
AcDbPolyline
 62
250
  6
CONTINUOUS
 90
9
 70
0
 10
117.6776537538
 20
121.4364833787
 10
117.6774221694
 20
121.4303695164
 10
117.6749718953
 20
121.4154953121
 10
117.6698717794
 20
121.4008470365
 10
117.6621764658
 20
121.3865816355
 10
117.6519684045
 20
121.3728519531
 10
117.6393569678
 20
121.3598050934
 10
117.6244772785
 20
121.3475808443
 10
117.6074887622
 20
121.3363101802
  0
LWPOLYLINE
  5
261
100
AcDbEntity
  8
0
100
AcDbPolyline
 62
250
  6
CONTINUOUS
 90
9
 70
0
 10
117.6776537538
 20
102.2494318741
 10
117.6774221694
 20
102.2433180118
 10
117.6749718953
 20
102.2284438075
 10
117.6698717794
 20
102.2137955318
 10
117.6621764658
 20
102.1995301309
 10
117.6519684045
 20
102.1858004485
 10
117.6393569678
 20
102.1727535887
 10
117.6244772785
 20
102.1605293396
 10
117.6074887622
 20
102.1492586756
  0
LWPOLYLINE
  5
262
100
AcDbEntity
  8
0
100
AcDbPolyline
 62
250
  6
CONTINUOUS
 90
16
 70
0
 10
117.3597762464
 20
108.5355099981
 10
117.361129006
 20
108.5561515784
 10
117.3605273311
 20
108.5775949339
 10
117.3579793244
 20
108.5995514702
 10
117.353519283
 20
108.6217256875
 10
117.3472072366
 20
108.6438191586
 10
117.3391281388
 20
108.6655345453
 10
117.3293907247
 20
108.6865795969
 10
117.3181260465
 20
108.7066710866
 10
117.305485708
 20
108.7255386245
 10
117.2916398283
 20
108.7429282896
 10
117.2767747497
 20
108.7586060523
 10
117.2610905267
 20
108.7723609252
 10
117.2447982394
 20
108.7840077963
 10
117.2281171539
 20
108.7933899218
 10
117.2112717667
 20
108.8003810386
  0
LWPOLYLINE
  5
263
100
AcDbEntity
  8
0
100
AcDbPolyline
 62
250
  6
CONTINUOUS
 90
16
 70
0
 10
117.6074887622
 20
108.6411785032
 10
117.6088415223
 20
108.6618199681
 10
117.6082398678
 20
108.6832632201
 10
117.6056918957
 20
108.7052196708
 10
117.6012318974
 20
108.7273938252
 10
117.5949198966
 20
108.7494872582
 10
117.5868408415
 20
108.7712026312
 10
117.5771034622
 20
108.7922476937
 10
117.5658388064
 20
108.8123392161
 10
117.5531984767
 20
108.8312068021
 10
117.5393525895
 20
108.8485965273
 10
117.524487486
 20
108.8642743566
 10
117.5088032244
 20
108.878029294
 10
117.4925108871
 20
108.8896762225
 10
117.4758297402
 20
108.8990583948
 10
117.4589842825
 20
108.9060495436
  0
LWPOLYLINE
  5
264
100
AcDbEntity
  8
0
100
AcDbPolyline
 62
250
  6
CONTINUOUS
 90
8
 70
0
 10
117.6774221792
 20
108.0331810965
 10
117.6749719271
 20
108.0183068851
 10
117.6698718288
 20
108.0036585961
 10
117.6621765258
 20
107.9893931763
 10
117.6519684664
 20
107.9756634713
 10
117.6393570212
 20
107.9626165864
 10
117.6244773116
 20
107.9503923108
 10
117.6074887622
 20
107.9391216201
  0
LINE
  5
265
100
AcDbEntity
  8
RACCORDO
100
AcDbLine
 62
7
  6
CONTINUOUS
 10
117.8295491943
 20
94.9921961046
 11
146.4673738324
 21
78.4570750748
  0
LINE
  5
266
100
AcDbEntity
  8
0
100
AcDbLine
 62
7
  6
CONTINUOUS
 10
144.6288962013
 20
79.559609806
 11
140.7398089048
 21
81.8051200693
  0
LINE
  5
267
100
AcDbEntity
  8
0
100
AcDbLine
 62
7
  6
CONTINUOUS
 10
128.7189936246
 20
88.7457881559
 11
124.8299063281
 21
90.9912984192
  0
LINE
  5
268
100
AcDbEntity
  8
0
100
AcDbLine
 62
7
  6
CONTINUOUS
 10
144.8763835747
 20
79.5800353721
 11
140.881230261
 21
81.8867749879
  0
LINE
  5
269
100
AcDbEntity
  8
0
100
AcDbLine
 62
7
  6
CONTINUOUS
 10
128.966480998
 20
88.766213722
 11
124.9713276843
 21
91.0729533378
  0
LINE
  5
26A
100
AcDbEntity
  8
0
100
AcDbLine
 62
7
  6
CONTINUOUS
 10
144.9824495919
 20
79.7637471026
 11
141.0933622954
 21
82.0092573659
  0
LINE
  5
26B
100
AcDbEntity
  8
0
100
AcDbLine
 62
7
  6
CONTINUOUS
 10
129.0725470152
 20
88.9499254525
 11
125.1834597187
 21
91.1954357158
  0
LINE
  5
26C
100
AcDbEntity
  8
0
100
AcDbLine
 62
7
  6
CONTINUOUS
 10
145.2299369653
 20
79.7841726688
 11
141.2347836516
 21
82.0909122846
  0
LINE
  5
26D
100
AcDbEntity
  8
0
100
AcDbLine
 62
7
  6
CONTINUOUS
 10
129.3200343886
 20
88.9703510187
 11
125.3248810749
 21
91.2770906345
  0
LINE
  5
26E
100
AcDbEntity
  8
0
100
AcDbLine
 62
7
  6
CONTINUOUS
 10
145.3360029825
 20
79.9678843993
 11
141.4469156859
 21
82.2133946626
  0
LINE
  5
26F
100
AcDbEntity
  8
0
100
AcDbLine
 62
7
  6
CONTINUOUS
 10
129.4261004058
 20
89.1540627492
 11
125.5370131092
 21
91.3995730125
  0
LINE
  5
270
100
AcDbEntity
  8
0
100
AcDbLine
 62
7
  6
CONTINUOUS
 10
145.5834903559
 20
79.9883099655
 11
141.5883370422
 21
82.2950495813
  0
LINE
  5
271
100
AcDbEntity
  8
0
100
AcDbLine
 62
7
  6
CONTINUOUS
 10
129.6735877792
 20
89.1744883153
 11
125.6784344655
 21
91.4812279311
  0
LINE
  5
272
100
AcDbEntity
  8
0
100
AcDbLine
 62
7
  6
CONTINUOUS
 10
145.6895563731
 20
80.172021696
 11
141.8004690765
 21
82.4175319593
  0
LINE
  5
273
100
AcDbEntity
  8
0
100
AcDbLine
 62
7
  6
CONTINUOUS
 10
129.7796537964
 20
89.3582000458
 11
125.8905664998
 21
91.6037103091
  0
LINE
  5
274
100
AcDbEntity
  8
0
100
AcDbLine
 62
7
  6
CONTINUOUS
 10
145.9370437465
 20
80.1924472621
 11
141.9418904328
 21
82.4991868779
  0
LINE
  5
275
100
AcDbEntity
  8
0
100
AcDbLine
 62
7
  6
CONTINUOUS
 10
130.0271411698
 20
89.378625612
 11
126.0319878561
 21
91.6853652278
  0
LINE
  5
276
100
AcDbEntity
  8
0
100
AcDbLine
 62
7
  6
CONTINUOUS
 10
146.0431097637
 20
80.3761589926
 11
142.1540224671
 21
82.6216692559
  0
LINE
  5
277
100
AcDbEntity
  8
0
100
AcDbLine
 62
7
  6
CONTINUOUS
 10
130.133207187
 20
89.5623373425
 11
126.2441198904
 21
91.8078476058
  0
LINE
  5
278
100
AcDbEntity
  8
0
100
AcDbLine
 62
7
  6
CONTINUOUS
 10
146.2905971371
 20
80.3965845588
 11
142.2954438234
 21
82.7033241746
  0
LINE
  5
279
100
AcDbEntity
  8
0
100
AcDbLine
 62
7
  6
CONTINUOUS
 10
130.3806945604
 20
89.5827629087
 11
126.3855412467
 21
91.8895025245
  0
LINE
  5
27A
100
AcDbEntity
  8
0
100
AcDbLine
 62
7
  6
CONTINUOUS
 10
146.3966631543
 20
80.5802962893
 11
142.5075758577
 21
82.8258065526
  0
LINE
  5
27B
100
AcDbEntity
  8
0
100
AcDbLine
 62
7
  6
CONTINUOUS
 10
130.4867605776
 20
89.7664746392
 11
126.597673281
 21
92.0119849025
  0
LINE
  5
27C
100
AcDbEntity
  8
0
100
AcDbLine
 62
7
  6
CONTINUOUS
 10
146.4673738324
 20
80.7027786673
 11
142.648997214
 21
82.9074614713
  0
LINE
  5
27D
100
AcDbEntity
  8
0
100
AcDbLine
 62
7
  6
CONTINUOUS
 10
130.734247951
 20
89.7869002053
 11
126.7390946373
 21
92.0936398211
  0
LINE
  5
27E
100
AcDbEntity
  8
0
100
AcDbLine
 62
250
  6
CONTINUOUS
 10
146.4673738324
 20
80.8253744432
 11
142.6825922166
 21
83.0106599137
  0
LINE
  5
27F
100
AcDbEntity
  8
0
100
AcDbLine
 62
250
  6
CONTINUOUS
 10
131.0190268982
 20
89.7450563498
 11
126.7726896399
 21
92.1968382636
  0
LINE
  5
280
100
AcDbEntity
  8
0
100
AcDbLine
 62
250
  6
CONTINUOUS
 10
146.4673738324
 20
80.9025721374
 11
142.7566393695
 21
83.0451037098
  0
LINE
  5
281
100
AcDbEntity
  8
0
100
AcDbLine
 62
250
  6
CONTINUOUS
 10
131.0856992542
 20
89.7837582612
 11
126.8467367928
 21
92.2312820597
  0
LINE
  5
282
100
AcDbEntity
  8
0
100
AcDbLine
 62
250
  6
CONTINUOUS
 10
115.0011220696
 20
92.9508625929
 11
115.3546754602
 21
93.563235028
  0
LWPOLYLINE
  5
283
100
AcDbEntity
  8
0
100
AcDbPolyline
 62
7
  6
CONTINUOUS
 90
13
 70
0
 10
117.549160553
 20
107.8041006252
 10
117.564004989
 20
107.81397559
 10
117.5823835461
 20
107.828361819
 10
117.5995672207
 20
107.8444293944
 10
117.6153523088
 20
107.8620364384
 10
117.6295969783
 20
107.8810591459
 10
117.642208163
 20
107.9014240956
 10
117.6530551493
 20
107.922983586
 10
117.6620055798
 20
107.9455213191
 10
117.6689900384
 20
107.9688933413
 10
117.6739502583
 20
107.9929499637
 10
117.6768379055
 20
108.0174801919
 10
117.6776537993
 20
108.0393471294
  0
LWPOLYLINE
  5
284
100
AcDbEntity
  8
0
100
AcDbPolyline
 62
250
  6
CONTINUOUS
 90
9
 70
0
 10
117.1205475663
 20
108.7217388124
 10
117.1341383794
 20
108.7307553436
 10
117.1460421309
 20
108.7405347428
 10
117.1561312802
 20
108.7509722306
 10
117.1642977293
 20
108.7619559765
 10
117.1704539801
 20
108.7733682973
 10
117.1745340729
 20
108.7850869178
 10
117.1764942921
 20
108.7969862813
 10
117.1766796046
 20
108.801941365
  0
LINE
  5
285
100
AcDbEntity
  8
0
100
AcDbLine
 62
250
  6
CONTINUOUS
 10
116.9810210569
 20
107.5517045942
 11
117.6074887622
 21
107.9391216204
  0
LINE
  5
286
100
AcDbEntity
  8
0
100
AcDbLine
 62
7
  6
CONTINUOUS
 10
116.9810210569
 20
107.4527546045
 11
117.5492256343
 21
107.8041408384
  0
LINE
  5
287
100
AcDbEntity
  8
0
100
AcDbLine
 62
250
  6
CONTINUOUS
 10
117.4589842825
 20
108.9060495436
 11
117.2112717667
 21
108.8003810386
  0
LINE
  5
288
100
AcDbEntity
  8
0
100
AcDbLine
 62
250
  6
CONTINUOUS
 10
117.6074887622
 20
108.6411785032
 11
117.3597762464
 21
108.5355099981
  0
LWPOLYLINE
  5
289
100
AcDbEntity
  8
0
100
AcDbPolyline
 62
250
  6
CONTINUOUS
 90
5
 70
0
 10
117.2112717667
 20
108.8003810386
 10
117.1999380636
 20
108.7956787402
 10
117.189034465
 20
108.7923185977
 10
117.178654359
 20
108.7903024074
 10
117.1770858038
 20
108.7901913996
  0
LWPOLYLINE
  5
28A
100
AcDbEntity
  8
0
100
AcDbPolyline
 62
250
  6
CONTINUOUS
 90
19
 70
0
 10
117.3597762464
 20
108.5355099981
 10
117.3355658347
 20
108.5266017331
 10
117.3122631006
 20
108.5204648448
 10
117.2898680441
 20
108.5170993333
 10
117.2681883717
 20
108.5166087064
 10
117.2474163768
 20
108.5188894563
 10
117.2281289401
 20
108.5236310595
 10
117.2104041433
 20
108.5310431667
 10
117.1941639045
 20
108.5409161273
 10
117.179750859
 20
108.5523104664
 10
117.1674302765
 20
108.5649858534
 10
117.1569368873
 20
108.579182619
 10
117.147817517
 20
108.5946822801
 10
117.1399396921
 20
108.6111477598
 10
117.1334358862
 20
108.628916135
 10
117.128250346
 20
108.6487801531
 10
117.124364487
 20
108.6710040633
 10
117.1217968938
 20
108.6953236164
 10
117.1205475663
 20
108.7217388124
  0
LINE
  5
28B
100
AcDbEntity
  8
0
100
AcDbLine
 62
250
  6
CONTINUOUS
 10
113.7990405416
 20
95.0329288721
 11
114.5061473227
 21
95.0329288721
  0
LWPOLYLINE
  5
28C
100
AcDbEntity
  8
0
100
AcDbPolyline
 62
250
  6
CONTINUOUS
 90
9
 70
0
 10
117.5172084448
 20
102.5273196978
 10
117.5118083668
 20
102.5301696533
 10
117.4977026226
 20
102.535483331
 10
117.4824675995
 20
102.5383892363
 10
117.4662665298
 20
102.5388562333
 10
117.4492729969
 20
102.536879317
 10
117.4316690748
 20
102.5324796678
 10
117.413643377
 20
102.5257044238
 10
117.3953890366
 20
102.5166261762
  0
LINE
  5
28D
100
AcDbEntity
  8
0
100
AcDbLine
 62
7
  6
CONTINUOUS
 10
128.432338526
 20
92.7491080129
 11
132.2583399166
 21
90.540022761
  0
LINE
  5
28E
100
AcDbEntity
  8
0
100
AcDbLine
 62
7
  6
CONTINUOUS
 10
144.3422411027
 20
83.562929663
 11
146.4673738324
 21
82.3359046591
  0
LINE
  5
28F
100
AcDbEntity
  8
0
100
AcDbLine
 62
250
  6
CONTINUOUS
 10
116.9810210569
 20
102.7558770544
 11
117.3953890366
 21
102.5166261762
  0
LINE
  5
290
100
AcDbEntity
  8
0
100
AcDbLine
 62
7
  6
CONTINUOUS
 10
116.9810210569
 20
102.8369076707
 11
117.5173099356
 21
102.5272611934
  0
LWPOLYLINE
  5
291
100
AcDbEntity
  8
0
100
AcDbPolyline
 62
250
  6
CONTINUOUS
 90
19
 70
0
 10
117.3953890366
 20
102.5166261762
 10
117.4143650213
 20
102.505008851
 10
117.4329505105
 20
102.4917255487
 10
117.4510121788
 20
102.4769391954
 10
117.4683538628
 20
102.4608904389
 10
117.484947054
 20
102.4436869768
 10
117.5009044713
 20
102.4252445593
 10
117.5161773018
 20
102.4056001829
 10
117.5305817476
 20
102.3849701634
 10
117.5440116409
 20
102.3635009021
 10
117.556303089
 20
102.3414679009
 10
117.5674434173
 20
102.3189087693
 10
117.5775040274
 20
102.2956001824
 10
117.5863837597
 20
102.271577652
 10
117.5938859394
 20
102.2471395118
 10
117.5998778485
 20
102.2224642464
 10
117.604225572
 20
102.197762769
 10
117.6068008401
 20
102.173277013
 10
117.6074887622
 20
102.1492586756
  0
LWPOLYLINE
  5
292
100
AcDbEntity
  8
0
100
AcDbPolyline
 62
7
  6
CONTINUOUS
 90
8
 70
0
 10
117.1808062175
 20
108.7682898398
 10
117.1810213722
 20
108.7678753915
 10
117.1807945491
 20
108.7684813898
 10
117.1799493664
 20
108.771189605
 10
117.1788426781
 20
108.7759743802
 10
117.1777896555
 20
108.7826204461
 10
117.1770111215
 20
108.7909947166
 10
117.1766796046
 20
108.801941365
  0
LWPOLYLINE
  5
293
100
AcDbEntity
  8
0
100
AcDbPolyline
 62
250
  6
CONTINUOUS
 90
10
 70
0
 10
130.3210681125
 20
88.7175658162
 10
130.3233701832
 20
88.7121450702
 10
130.3252458894
 20
88.7070393197
 10
130.3266648272
 20
88.7022839519
 10
130.3275922943
 20
88.6979357256
 10
130.3280085503
 20
88.6940052227
 10
130.3278814978
 20
88.6904830499
 10
130.3271561123
 20
88.6874274375
 10
130.3257770339
 20
88.6849092825
 10
130.3249926439
 20
88.6840302983
  0
LINE
  5
294
100
AcDbEntity
  8
0
100
AcDbLine
 62
250
  6
CONTINUOUS
 10
117.3953890366
 20
102.5166261762
 11
116.9810210569
 21
102.2773744765
  0
LINE
  5
295
100
AcDbEntity
  8
0
100
AcDbLine
 62
250
  6
CONTINUOUS
 10
117.6074887622
 20
102.1492586756
 11
116.9810210569
 21
101.787542832
  0
LINE
  5
296
100
AcDbEntity
  8
0
100
AcDbLine
 62
250
  6
CONTINUOUS
 10
132.2655475255
 20
90.3965731076
 11
132.2655475255
 21
89.9892034698
  0
LINE
  5
297
100
AcDbEntity
  8
0
100
AcDbLine
 62
7
  6
CONTINUOUS
 10
132.3169185604
 20
90.4631506145
 11
132.3169185604
 21
90.0197487645
  0
LINE
  5
298
100
AcDbEntity
  8
0
100
AcDbLine
 62
7
  6
CONTINUOUS
 10
124.8121440917
 20
90.9605333233
 11
124.8299063281
 21
90.9912984192
  0
LINE
  5
299
100
AcDbEntity
  8
0
100
AcDbLine
 62
7
  6
CONTINUOUS
 10
125.0773937015
 20
91.0117239853
 11
125.1834597187
 21
91.1954357158
  0
LINE
  5
29A
100
AcDbEntity
  8
0
100
AcDbLine
 62
7
  6
CONTINUOUS
 10
125.4309470921
 20
91.215861282
 11
125.5370131092
 21
91.3995730125
  0
LINE
  5
29B
100
AcDbEntity
  8
0
100
AcDbLine
 62
7
  6
CONTINUOUS
 10
125.7845004827
 20
91.4199985786
 11
125.8905664998
 21
91.6037103091
  0
LINE
  5
29C
100
AcDbEntity
  8
0
100
AcDbLine
 62
7
  6
CONTINUOUS
 10
126.1380538733
 20
91.6241358753
 11
126.2441198904
 21
91.8078476058
  0
LINE
  5
29D
100
AcDbEntity
  8
0
100
AcDbLine
 62
250
  6
CONTINUOUS
 10
114.5061473227
 20
95.0329288721
 11
116.9810210569
 21
96.4618899487
  0
LINE
  5
29E
100
AcDbEntity
  8
SMUSSO
100
AcDbLine
 62
7
  6
CONTINUOUS
 10
161.9530123404
 20
122.2596046322
 11
163.7207792933
 21
123.2802911155
  0
LINE
  5
29F
100
AcDbEntity
  8
SMUSSO
100
AcDbLine
 62
7
  6
CONTINUOUS
 10
161.9530123404
 20
121.4430949005
 11
161.2459055592
 21
121.0348597621
  0
LINE
  5
2A0
100
AcDbEntity
  8
SMUSSO
100
AcDbLine
 62
7
  6
CONTINUOUS
 10
162.6601191215
 20
121.0348597621
 11
164.4278860745
 21
122.0555462454
  0
LINE
  5
2A1
100
AcDbEntity
  8
0
100
AcDbLine
 62
250
  6
CONTINUOUS
 10
163.6854239543
 20
123.3012620936
 11
165.7360336197
 21
124.4439289434
  0
LWPOLYLINE
  5
2A2
100
AcDbEntity
  8
0
100
AcDbPolyline
 62
250
  6
CONTINUOUS
 90
6
 70
0
 10
117.5330349373
 20
108.9362829016
 10
117.5247636987
 20
108.9389253389
 10
117.5089080673
 20
108.9416913345
 10
117.492400339
 20
108.9417189264
 10
117.4754750406
 20
108.93900772
 10
117.4583726315
 20
108.9335962312
  0
LINE
  5
2A3
100
AcDbEntity
  8
0
100
AcDbLine
 62
250
  6
CONTINUOUS
 10
117.1804036611
 20
108.811919202
 11
117.2112717667
 21
108.8003810386
  0
LINE
  5
2A4
100
AcDbEntity
  8
0
100
AcDbLine
 62
250
  6
CONTINUOUS
 10
117.1766796063
 20
109.0388900324
 11
117.4583726315
 21
108.9335962312
  0
LINE
  5
2A5
100
AcDbEntity
  8
0
100
AcDbLine
 62
7
  6
CONTINUOUS
 10
117.1766796063
 20
109.0694846639
 11
117.5330349373
 21
108.9362829016
  0
LWPOLYLINE
  5
2A6
100
AcDbEntity
  8
0
100
AcDbPolyline
 62
250
  6
CONTINUOUS
 90
16
 70
0
 10
117.4583726315
 20
108.9335962312
 10
117.4618952144
 20
108.9321101966
 10
117.4649391159
 20
108.9305267508
 10
117.4675043361
 20
108.9288458938
 10
117.4696029225
 20
108.9270497453
 10
117.4712228276
 20
108.9251561856
 10
117.4723279085
 20
108.923218856
 10
117.4729096986
 20
108.9212372391
 10
117.4729766646
 20
108.9192118522
 10
117.4725180635
 20
108.9171978886
 10
117.4715200838
 20
108.9151920732
 10
117.4699965369
 20
108.9131976811
 10
117.4679781143
 20
108.9112797303
 10
117.4654750462
 20
108.9094598934
 10
117.4624771023
 20
108.9077164979
 10
117.4589842825
 20
108.9060495436
  0
LINE
  5
2A7
100
AcDbEntity
  8
0
100
AcDbLine
 62
250
  6
CONTINUOUS
 10
130.3148072548
 20
88.6985850913
 11
130.3210681125
 21
88.7175658162
  0
LINE
  5
2A8
100
AcDbEntity
  8
0
100
AcDbLine
 62
7
  6
CONTINUOUS
 10
126.4916072639
 20
91.828273172
 11
126.597673281
 21
92.0119849025
  0
LINE
  5
2A9
100
AcDbEntity
  8
0
100
AcDbLine
 62
7
  6
CONTINUOUS
 10
128.7012313882
 20
88.71502306
 11
128.7189936246
 21
88.7457881559
  0
LINE
  5
2AA
100
AcDbEntity
  8
0
100
AcDbLine
 62
7
  6
CONTINUOUS
 10
128.966480998
 20
88.766213722
 11
129.0725470152
 21
88.9499254525
  0
LINE
  5
2AB
100
AcDbEntity
  8
0
100
AcDbLine
 62
7
  6
CONTINUOUS
 10
129.3200343886
 20
88.9703510187
 11
129.4261004058
 21
89.1540627492
  0
LINE
  5
2AC
100
AcDbEntity
  8
0
100
AcDbLine
 62
7
  6
CONTINUOUS
 10
129.6735877792
 20
89.1744883153
 11
129.7796537964
 21
89.3582000458
  0
LINE
  5
2AD
100
AcDbEntity
  8
0
100
AcDbLine
 62
250
  6
CONTINUOUS
 10
164.4283242603
 20
122.01452102
 11
166.4431404009
 21
123.2191840733
  0
LINE
  5
2AE
100
AcDbEntity
  8
0
100
AcDbLine
 62
250
  6
CONTINUOUS
 10
115.3546754602
 20
93.563235028
 11
117.8295491943
 21
94.9921961046
  0
LINE
  5
2AF
100
AcDbEntity
  8
0
100
AcDbLine
 62
7
  6
CONTINUOUS
 10
130.0271411698
 20
89.378625612
 11
130.133207187
 21
89.5623373425
  0
LINE
  5
2B0
100
AcDbEntity
  8
0
100
AcDbLine
 62
7
  6
CONTINUOUS
 10
130.3806945604
 20
89.5827629087
 11
130.4867605776
 21
89.7664746392
  0
LINE
  5
2B1
100
AcDbEntity
  8
0
100
AcDbLine
 62
7
  6
CONTINUOUS
 10
124.8299063281
 20
90.9912984192
 11
124.9713276843
 21
91.0729533378
  0
LINE
  5
2B2
100
AcDbEntity
  8
0
100
AcDbLine
 62
7
  6
CONTINUOUS
 10
125.1834597187
 20
91.1954357158
 11
125.3248810749
 21
91.2770906345
  0
LINE
  5
2B3
100
AcDbEntity
  8
0
100
AcDbLine
 62
7
  6
CONTINUOUS
 10
125.5370131092
 20
91.3995730125
 11
125.6784344655
 21
91.4812279311
  0
LINE
  5
2B4
100
AcDbEntity
  8
0
100
AcDbLine
 62
7
  6
CONTINUOUS
 10
125.8905664998
 20
91.6037103091
 11
126.0319878561
 21
91.6853652278
  0
LINE
  5
2B5
100
AcDbEntity
  8
0
100
AcDbLine
 62
7
  6
CONTINUOUS
 10
126.2441198904
 20
91.8078476058
 11
126.3855412467
 21
91.8895025245
  0
LINE
  5
2B6
100
AcDbEntity
  8
0
100
AcDbLine
 62
7
  6
CONTINUOUS
 10
126.597673281
 20
92.0119849025
 11
126.7390946373
 21
92.0936398211
  0
LINE
  5
2B7
100
AcDbEntity
  8
0
100
AcDbLine
 62
7
  6
CONTINUOUS
 10
124.614332539
 20
91.0747472347
 11
126.7726896399
 21
92.1968382636
  0
LINE
  5
2B8
100
AcDbEntity
  8
0
100
AcDbLine
 62
7
  6
CONTINUOUS
 10
126.8467367928
 20
92.2312820597
 11
128.1570910485
 21
92.7687443864
  0
LWPOLYLINE
  5
2B9
100
AcDbEntity
  8
0
100
AcDbPolyline
 62
250
  6
CONTINUOUS
 90
9
 70
0
 10
117.5172084448
 20
121.7143712025
 10
117.5118083668
 20
121.717221158
 10
117.4977026226
 20
121.7225348356
 10
117.4824675995
 20
121.7254407409
 10
117.4662665298
 20
121.7259077379
 10
117.4492729969
 20
121.7239308217
 10
117.4316690748
 20
121.7195311724
 10
117.413643377
 20
121.7127559285
 10
117.3953890366
 20
121.7036776809
  0
LINE
  5
2BA
100
AcDbEntity
  8
0
100
AcDbLine
 62
250
  6
CONTINUOUS
 10
116.9810210569
 20
121.9429285591
 11
117.3953890366
 21
121.7036776809
  0
LINE
  5
2BB
100
AcDbEntity
  8
0
100
AcDbLine
 62
7
  6
CONTINUOUS
 10
116.9810210569
 20
122.0239591753
 11
117.5173099356
 21
121.714312698
  0
LWPOLYLINE
  5
2BC
100
AcDbEntity
  8
0
100
AcDbPolyline
 62
250
  6
CONTINUOUS
 90
19
 70
0
 10
117.3953890366
 20
121.7036776809
 10
117.4143650213
 20
121.6920603557
 10
117.4329505105
 20
121.6787770533
 10
117.4510121788
 20
121.6639907
 10
117.4683538628
 20
121.6479419436
 10
117.484947054
 20
121.6307384815
 10
117.5009044713
 20
121.6122960639
 10
117.5161773018
 20
121.5926516875
 10
117.5305817476
 20
121.572021668
 10
117.5440116409
 20
121.5505524067
 10
117.556303089
 20
121.5285194055
 10
117.5674434173
 20
121.505960274
 10
117.5775040274
 20
121.4826516871
 10
117.5863837597
 20
121.4586291566
 10
117.5938859394
 20
121.4341910164
 10
117.5998778485
 20
121.4095157511
 10
117.604225572
 20
121.3848142736
 10
117.6068008401
 20
121.3603285177
 10
117.6074887622
 20
121.3363101802
  0
LINE
  5
2BD
100
AcDbEntity
  8
0
100
AcDbLine
 62
250
  6
CONTINUOUS
 10
130.3210681125
 20
88.7175658162
 11
130.6570130774
 21
89.044319406
  0
LINE
  5
2BE
100
AcDbEntity
  8
0
100
AcDbLine
 62
7
  6
CONTINUOUS
 10
130.3249930071
 20
88.6840306517
 11
130.7539773507
 21
89.1012780845
  0
LWPOLYLINE
  5
2BF
100
AcDbEntity
  8
0
100
AcDbPolyline
 62
250
  6
CONTINUOUS
 90
5
 70
0
 10
130.2718859822
 20
88.6430054605
 10
130.2851121386
 20
88.6535668059
 10
130.2967452007
 20
88.6664349645
 10
130.3066741053
 20
88.681487886
 10
130.3148072548
 20
88.6985850913
  0
LINE
  5
2C0
100
AcDbEntity
  8
0
100
AcDbLine
 62
7
  6
CONTINUOUS
 10
131.0190268982
 20
89.7450563498
 11
129.0756334355
 21
88.4988480103
  0
LINE
  5
2C1
100
AcDbEntity
  8
0
100
AcDbLine
 62
250
  6
CONTINUOUS
 10
130.2663794857
 20
88.6395671072
 11
130.2718859822
 21
88.6430054605
  0
LINE
  5
2C2
100
AcDbEntity
  8
0
100
AcDbLine
 62
7
  6
CONTINUOUS
 10
129.404839487
 20
88.3087685621
 11
132.2655475255
 21
89.9892034698
  0
LINE
  5
2C3
100
AcDbEntity
  8
0
100
AcDbLine
 62
7
  6
CONTINUOUS
 10
130.2663786574
 20
88.6395666265
 11
129.5509160547
 21
88.2244257826
  0
LINE
  5
2C4
100
AcDbEntity
  8
0
100
AcDbLine
 62
250
  6
CONTINUOUS
 10
130.3210681125
 20
88.7175658162
 11
129.510682958
 21
88.2476558685
  0
LINE
  5
2C5
100
AcDbEntity
  8
0
100
AcDbLine
 62
7
  6
CONTINUOUS
 10
128.7189936246
 20
88.7457881559
 11
128.8604149808
 21
88.8274430745
  0
LINE
  5
2C6
100
AcDbEntity
  8
0
100
AcDbLine
 62
7
  6
CONTINUOUS
 10
129.0725470152
 20
88.9499254525
 11
129.2139683714
 21
89.0315803712
  0
LINE
  5
2C7
100
AcDbEntity
  8
0
100
AcDbLine
 62
7
  6
CONTINUOUS
 10
129.4261004058
 20
89.1540627492
 11
129.567521762
 21
89.2357176678
  0
LINE
  5
2C8
100
AcDbEntity
  8
0
100
AcDbLine
 62
7
  6
CONTINUOUS
 10
129.7796537964
 20
89.3582000458
 11
129.9210751526
 21
89.4398549645
  0
LINE
  5
2C9
100
AcDbEntity
  8
0
100
AcDbLine
 62
7
  6
CONTINUOUS
 10
130.133207187
 20
89.5623373425
 11
130.2746285432
 21
89.6439922612
  0
LINE
  5
2CA
100
AcDbEntity
  8
0
100
AcDbLine
 62
7
  6
CONTINUOUS
 10
130.4867605776
 20
89.7664746392
 11
130.6281819338
 21
89.8481295578
  0
LINE
  5
2CB
100
AcDbEntity
  8
0
100
AcDbLine
 62
7
  6
CONTINUOUS
 10
130.734247951
 20
89.7869002053
 11
128.7895266355
 21
88.6640424908
  0
LINE
  5
2CC
100
AcDbEntity
  8
0
100
AcDbLine
 62
7
  6
CONTINUOUS
 10
132.2655475255
 20
90.3965731076
 11
131.0856992542
 21
89.7837582612
  0
LINE
  5
2CD
100
AcDbEntity
  8
0
100
AcDbLine
 62
7
  6
CONTINUOUS
 10
146.4673738324
 20
111.1155705071
 11
146.4673738324
 21
76.1706426604
  0
LWPOLYLINE
  5
2CE
100
AcDbEntity
  8
0
100
AcDbPolyline
 62
7
  6
CONTINUOUS
 90
28
 70
0
 10
146.4673738324
 20
76.1706426604
 10
146.4652840148
 20
76.0907023399
 10
146.4591974327
 20
76.0138810799
 10
146.449114086
 20
75.9401788806
 10
146.4349730255
 20
75.8693673225
 10
146.4168352005
 20
75.8016748249
 10
146.3948834585
 20
75.737786646
 10
146.3690789629
 20
75.6777417168
 10
146.3394605503
 20
75.6215011063
 10
146.306327578
 20
75.5696332797
 10
146.2696444564
 20
75.5221828413
 10
146.2294467751
 20
75.4791051867
 10
146.1861406595
 20
75.4408349689
 10
146.139695009
 20
75.4074209905
 10
146.0901409241
 20
75.3788144489
 10
146.0379778329
 20
75.3553035887
 10
145.9831791231
 20
75.3369397322
 10
145.9257714069
 20
75.3236715572
 10
145.866333948
 20
75.3156333413
 10
145.8048458631
 20
75.3128781457
 10
145.7413280355
 20
75.3153529093
 10
145.6764223795
 20
75.3230327256
 10
145.6101145539
 20
75.3359706973
 10
145.5424188998
 20
75.3541137219
 10
145.4740203541
 20
75.3772775856
 10
145.4051472291
 20
75.405400884
 10
145.3355712125
 20
75.4385450216
 10
145.2652923044
 20
75.4767099985
  0
LWPOLYLINE
  5
2CF
100
AcDbEntity
  8
0
100
AcDbPolyline
 62
7
  6
CONTINUOUS
 90
7
 70
0
 10
146.4673738324
 20
76.5789172537
 10
146.465557744
 20
76.5158980883
 10
146.4601169092
 20
76.4552430388
 10
146.4510741067
 20
76.3972121221
 10
146.4384674087
 20
76.3420536804
 10
146.4223503605
 20
76.2900048744
 10
146.4027920813
 20
76.2412903647
  0
LINE
  5
2D0
100
AcDbEntity
  8
0
100
AcDbLine
 62
7
  6
CONTINUOUS
 10
115.0011220696
 20
130.6717893807
 11
145.2652923044
 21
113.1976367863
  0
LWPOLYLINE
  5
2D1
100
AcDbEntity
  8
0
100
AcDbPolyline
 62
7
  6
CONTINUOUS
 90
28
 70
0
 10
145.2652923044
 20
113.1976367863
 10
145.3355698929
 20
113.1546463517
 10
145.405144784
 20
113.1074467283
 10
145.4740169779
 20
113.056037916
 10
145.5424147754
 20
113.0002177209
 10
145.6101098756
 20
112.9401883369
 10
145.6764173758
 20
112.8765563455
 10
145.74132298
 20
112.8092851582
 10
145.8048409841
 20
112.7384113635
 10
145.866329374
 20
112.6646513093
 10
145.9257673165
 20
112.5879759306
 10
145.9831756447
 20
112.5084142924
 10
146.0379748438
 20
112.4267699377
 10
146.0901381999
 20
112.3430223797
 10
146.1396924269
 20
112.2571921051
 10
146.1861381514
 20
112.1701441167
 10
146.2294442329
 20
112.0818656668
 10
146.269641812
 20
111.9923695031
 10
146.3063249372
 20
111.9025588717
 10
146.3394580972
 20
111.812430163
 10
146.3690768032
 20
111.7219869865
 10
146.3948816374
 20
111.6321434171
 10
146.4168337813
 20
111.5429053091
 10
146.4349720533
 20
111.4542668081
 10
146.4491134907
 20
111.3671244263
 10
146.4591971059
 20
111.2817770008
 10
146.4652838864
 20
111.1979256944
 10
146.4673738324
 20
111.1155705071
  0
LINE
  5
2D2
100
AcDbEntity
  8
0
100
AcDbLine
 62
7
  6
CONTINUOUS
 10
140.7220466684
 20
81.7743549735
 11
140.7398089048
 21
81.8051200693
  0
LINE
  5
2D3
100
AcDbEntity
  8
0
100
AcDbLine
 62
7
  6
CONTINUOUS
 10
140.9872962782
 20
81.8255456354
 11
141.0933622954
 21
82.0092573659
  0
LINE
  5
2D4
100
AcDbEntity
  8
0
100
AcDbLine
 62
7
  6
CONTINUOUS
 10
141.3408496688
 20
82.0296829321
 11
141.4469156859
 21
82.2133946626
  0
LINE
  5
2D5
100
AcDbEntity
  8
0
100
AcDbLine
 62
7
  6
CONTINUOUS
 10
141.6944030594
 20
82.2338202288
 11
141.8004690765
 21
82.4175319593
  0
LINE
  5
2D6
100
AcDbEntity
  8
0
100
AcDbLine
 62
7
  6
CONTINUOUS
 10
142.04795645
 20
82.4379575254
 11
142.1540224671
 21
82.6216692559
  0
LINE
  5
2D7
100
AcDbEntity
  8
0
100
AcDbLine
 62
7
  6
CONTINUOUS
 10
142.4015098405
 20
82.6420948221
 11
142.5075758577
 21
82.8258065526
  0
LWPOLYLINE
  5
2D8
100
AcDbEntity
  8
0
100
AcDbPolyline
 62
7
  6
CONTINUOUS
 90
7
 70
0
 10
146.4027920813
 20
76.2412903647
 10
146.3798762224
 20
76.1961191301
 10
146.3537006635
 20
76.1546846419
 10
146.3243778392
 20
76.117165171
 10
146.2920334638
 20
76.0837215797
 10
146.2568059086
 20
76.0544969481
 10
146.2188746871
 20
76.0296330203
  0
LINE
  5
2D9
100
AcDbEntity
  8
0
100
AcDbLine
 62
7
  6
CONTINUOUS
 10
144.6111339649
 20
79.5288447102
 11
144.6288962013
 21
79.559609806
  0
LINE
  5
2DA
100
AcDbEntity
  8
0
100
AcDbLine
 62
7
  6
CONTINUOUS
 10
144.8763835747
 20
79.5800353721
 11
144.9824495919
 21
79.7637471026
  0
LINE
  5
2DB
100
AcDbEntity
  8
0
100
AcDbLine
 62
7
  6
CONTINUOUS
 10
145.2299369653
 20
79.7841726688
 11
145.3360029825
 21
79.9678843993
  0
LINE
  5
2DC
100
AcDbEntity
  8
0
100
AcDbLine
 62
7
  6
CONTINUOUS
 10
145.5834903559
 20
79.9883099655
 11
145.6895563731
 21
80.172021696
  0
LINE
  5
2DD
100
AcDbEntity
  8
0
100
AcDbLine
 62
7
  6
CONTINUOUS
 10
145.9370437465
 20
80.1924472621
 11
146.0431097637
 21
80.3761589926
  0
LINE
  5
2DE
100
AcDbEntity
  8
0
100
AcDbLine
 62
7
  6
CONTINUOUS
 10
146.2905971371
 20
80.3965845588
 11
146.3966631543
 21
80.5802962893
  0
LINE
  5
2DF
100
AcDbEntity
  8
0
100
AcDbLine
 62
250
  6
CONTINUOUS
 10
145.2652923044
 20
75.4767099985
 11
145.6188456949
 21
76.0890824335
  0
LINE
  5
2E0
100
AcDbEntity
  8
0
100
AcDbLine
 62
7
  6
CONTINUOUS
 10
140.7398089048
 20
81.8051200693
 11
140.881230261
 21
81.8867749879
  0
LINE
  5
2E1
100
AcDbEntity
  8
0
100
AcDbLine
 62
7
  6
CONTINUOUS
 10
141.0933622954
 20
82.0092573659
 11
141.2347836516
 21
82.0909122846
  0
LINE
  5
2E2
100
AcDbEntity
  8
0
100
AcDbLine
 62
7
  6
CONTINUOUS
 10
141.4469156859
 20
82.2133946626
 11
141.5883370422
 21
82.2950495813
  0
LINE
  5
2E3
100
AcDbEntity
  8
0
100
AcDbLine
 62
7
  6
CONTINUOUS
 10
141.8004690765
 20
82.4175319593
 11
141.9418904328
 21
82.4991868779
  0
LINE
  5
2E4
100
AcDbEntity
  8
0
100
AcDbLine
 62
7
  6
CONTINUOUS
 10
142.1540224671
 20
82.6216692559
 11
142.2954438234
 21
82.7033241746
  0
LINE
  5
2E5
100
AcDbEntity
  8
0
100
AcDbLine
 62
7
  6
CONTINUOUS
 10
142.5075758577
 20
82.8258065526
 11
142.648997214
 21
82.9074614713
  0
LINE
  5
2E6
100
AcDbEntity
  8
0
100
AcDbLine
 62
7
  6
CONTINUOUS
 10
140.5242351157
 20
81.8885688848
 11
142.6825922166
 21
83.0106599137
  0
LINE
  5
2E7
100
AcDbEntity
  8
0
100
AcDbLine
 62
7
  6
CONTINUOUS
 10
142.7566393695
 20
83.0451037098
 11
144.0669936252
 21
83.5825660365
  0
LINE
  5
2E8
100
AcDbEntity
  8
0
100
AcDbLine
 62
250
  6
CONTINUOUS
 10
113.7990405416
 20
129.9778567188
 11
114.5061473227
 21
129.9778567188
  0
LINE
  5
2E9
100
AcDbEntity
  8
SMUSSO
100
AcDbLine
 62
7
  6
CONTINUOUS
 10
161.2459055592
 20
49.1854754043
 11
161.2459055592
 21
121.0348597621
  0
LINE
  5
2EA
100
AcDbEntity
  8
SMUSSO
100
AcDbLine
 62
7
  6
CONTINUOUS
 10
161.9530123404
 20
122.2596046322
 11
161.9530123404
 21
121.4430949005
  0
LINE
  5
2EB
100
AcDbEntity
  8
SMUSSO
100
AcDbLine
 62
7
  6
CONTINUOUS
 10
162.6601191215
 20
49.1854754043
 11
162.6601191215
 21
121.0348597621
  0
LINE
  5
2EC
100
AcDbEntity
  8
0
100
AcDbLine
 62
250
  6
CONTINUOUS
 10
166.4432879946
 20
123.2529419172
 11
166.6552724352
 21
124.1078636364
  0
LINE
  5
2ED
100
AcDbEntity
  8
0
100
AcDbLine
 62
7
  6
CONTINUOUS
 10
146.4673738324
 20
80.2629037148
 11
144.9855360122
 21
79.3126696604
  0
LINE
  5
2EE
100
AcDbEntity
  8
0
100
AcDbLine
 62
7
  6
CONTINUOUS
 10
145.3147420637
 20
79.1225902122
 11
146.4673738324
 21
79.799668276
  0
LINE
  5
2EF
100
AcDbEntity
  8
0
100
AcDbLine
 62
7
  6
CONTINUOUS
 10
144.6288962013
 20
79.559609806
 11
144.7703175575
 21
79.6412647246
  0
LINE
  5
2F0
100
AcDbEntity
  8
0
100
AcDbLine
 62
7
  6
CONTINUOUS
 10
144.9824495919
 20
79.7637471026
 11
145.1238709481
 21
79.8454020213
  0
LINE
  5
2F1
100
AcDbEntity
  8
0
100
AcDbLine
 62
7
  6
CONTINUOUS
 10
145.3360029825
 20
79.9678843993
 11
145.4774243387
 21
80.049539318
  0
LINE
  5
2F2
100
AcDbEntity
  8
0
100
AcDbLine
 62
7
  6
CONTINUOUS
 10
145.6895563731
 20
80.172021696
 11
145.8309777293
 21
80.2536766146
  0
LINE
  5
2F3
100
AcDbEntity
  8
0
100
AcDbLine
 62
7
  6
CONTINUOUS
 10
146.0431097637
 20
80.3761589926
 11
146.1845311199
 21
80.4578139113
  0
LINE
  5
2F4
100
AcDbEntity
  8
0
100
AcDbLine
 62
7
  6
CONTINUOUS
 10
146.3966631543
 20
80.5802962893
 11
146.4673738324
 21
80.6211237486
  0
LINE
  5
2F5
100
AcDbEntity
  8
0
100
AcDbLine
 62
7
  6
CONTINUOUS
 10
146.4673738324
 20
80.4986532071
 11
144.6994292122
 21
79.477864141
  0
LINE
  5
2F6
100
AcDbEntity
  8
0
100
AcDbLine
 62
250
  6
CONTINUOUS
 10
145.6188456949
 20
76.0890824335
 11
146.4673738324
 21
76.5790119455
  0
LINE
  5
2F7
100
AcDbEntity
  8
0
100
AcDbLine
 62
250
  6
CONTINUOUS
 10
165.7653434447
 20
124.4271763212
 11
166.6116512499
 21
124.1834177456
  0
LINE
  5
2F8
100
AcDbEntity
  8
SMUSSO
100
AcDbLine
 62
7
  6
CONTINUOUS
 10
161.2459055592
 20
121.0348597621
 11
99.0205088148
 21
156.9630239749
  0
LINE
  5
2F9
100
AcDbEntity
  8
SMUSSO
100
AcDbLine
 62
7
  6
CONTINUOUS
 10
161.9530123404
 20
121.4430949005
 11
162.6601191215
 21
121.0348597621
  0
LINE
  5
2FA
100
AcDbEntity
  8
SMUSSO
100
AcDbLine
 62
7
  6
CONTINUOUS
 10
161.9530123404
 20
122.2596046322
 11
99.7276155959
 21
158.187768845
  0
LWPOLYLINE
  5
2FB
100
AcDbEntity
  8
0
100
AcDbPolyline
 62
7
  6
CONTINUOUS
 90
22
 70
0
 10
166.4432879946
 20
123.2529419172
 10
166.4419731287
 20
123.3142858511
 10
166.4369027747
 20
123.3771379426
 10
166.4281032509
 20
123.4411940956
 10
166.4156131223
 20
123.5062251283
 10
166.399491856
 20
123.5718297941
 10
166.3798588422
 20
123.6374309831
 10
166.3569105631
 20
123.7025079815
 10
166.3307418545
 20
123.7669354464
 10
166.3013291327
 20
123.8307240668
 10
166.2686705885
 20
123.893771663
 10
166.2330175936
 20
123.9555244599
 10
166.1947458898
 20
124.0153316533
 10
166.1542093772
 20
124.0726986561
 10
166.1114974541
 20
124.1275759394
 10
166.0666126587
 20
124.1799892683
 10
166.0196161263
 20
124.2297938391
 10
165.9708605689
 20
124.2765591332
 10
165.9207860843
 20
124.3198931948
 10
165.8697104338
 20
124.3595438895
 10
165.8178128196
 20
124.3953632161
 10
165.7653434447
 20
124.4271763212
  0
LINE
  5
2FC
100
AcDbEntity
  8
SMUSSO
100
AcDbLine
 62
7
  6
CONTINUOUS
 10
164.4278860745
 20
50.2061618876
 11
164.4278860745
 21
122.8720559771
  0
LINE
  5
2FD
100
AcDbEntity
  8
0
100
AcDbLine
 62
7
  6
CONTINUOUS
 10
166.4431404009
 20
123.2191840733
 11
166.4431404009
 21
52.512858103
  0
LINE
  5
2FE
100
AcDbEntity
  8
0
100
AcDbLine
 62
7
  6
CONTINUOUS
 10
166.6552724352
 20
124.1078636364
 11
166.6552724352
 21
53.8288613438
  0
LWPOLYLINE
  5
2FF
100
AcDbEntity
  8
0
100
AcDbPolyline
 62
7
  6
CONTINUOUS
 90
13
 70
0
 10
146.2188746871
 20
76.0296330203
 10
146.1783167293
 20
76.0091869025
 10
146.1353912603
 20
75.9932955309
 10
146.0902537042
 20
75.9820105027
 10
146.0430972027
 20
75.9753800873
 10
145.9941239066
 20
75.9734326902
 10
145.943544324
 20
75.9761765317
 10
145.8915749318
 20
75.9835996498
 10
145.8384385554
 20
75.9956700037
 10
145.7843642582
 20
76.0123351488
 10
145.7295841836
 20
76.0335229057
 10
145.6743324681
 20
76.0591420886
 10
145.6188456949
 20
76.0890824335
  0
LWPOLYLINE
  5
300
100
AcDbEntity
  8
0
100
AcDbPolyline
 62
7
  6
CONTINUOUS
 90
4
 70
0
 10
104.4727524813
 20
159.8167501669
 10
104.4253326818
 20
159.8426118198
 10
104.3780369734
 20
159.8640654812
 10
104.370306832
 20
159.8671560602
  0
LINE
  5
301
100
AcDbEntity
  8
SMUSSO
100
AcDbLine
 62
7
  6
CONTINUOUS
 10
101.4953825489
 20
159.2084553283
 11
164.4278860745
 21
122.8720559771
  0
LINE
  5
302
100
AcDbEntity
  8
0
100
AcDbLine
 62
7
  6
CONTINUOUS
 10
104.5005863689
 20
159.8005087256
 11
165.7360336197
 21
124.4439289434
  0
LINE
  5
303
100
AcDbEntity
  8
0
100
AcDbLine
 62
7
  6
CONTINUOUS
 10
105.7462890823
 20
159.3263150391
 11
166.6116512499
 21
124.1834177456
  0
LWPOLYLINE
  5
304
100
AcDbEntity
  8
0
100
AcDbPolyline
 62
7
  6
CONTINUOUS
 90
4
 70
0
 10
166.4357225141
 20
52.3667747168
 10
166.4369027822
 20
52.3749569575
 10
166.4419731293
 20
52.4266397628
 10
166.4432879946
 20
52.480634197
  0
LINE
  5
305
100
AcDbEntity
  8
0
100
AcDbLine
 62
7
  6
CONTINUOUS
 10
166.6547155122
 20
53.8210766406
 11
166.4357040882
 21
52.3667629117
  0
LINE
  5
306
100
AcDbEntity
  8
0
100
AcDbLine
 62
250
  6
CONTINUOUS
 10
166.4432879946
 20
52.480634197
 11
166.6552724352
 21
53.8288613438
  0
LWPOLYLINE
  5
307
100
AcDbEntity
  8
0
100
AcDbPolyline
 62
7
  6
CONTINUOUS
 90
10
 70
0
 10
104.370306832
 20
159.8671560602
 10
104.3311155579
 20
159.8809970815
 10
104.2847746145
 20
159.893332119
 10
104.2393049226
 20
159.9009713642
 10
104.1950656455
 20
159.9038452604
 10
104.1523922347
 20
159.901986964
 10
104.1113630959
 20
159.8954607096
 10
104.0719516352
 20
159.8842546198
 10
104.0342375271
 20
159.8683205829
 10
104.0223063455
 20
159.8620792852
  0
LINE
  5
308
100
AcDbEntity
  8
0
100
AcDbLine
 62
250
  6
CONTINUOUS
 10
104.4727524813
 20
159.8167501669
 11
105.7462890823
 21
159.3263150391
  0
LINE
  5
309
100
AcDbEntity
  8
0
100
AcDbLine
 62
7
  6
CONTINUOUS
 10
105.739264951
 20
159.3297269467
 11
104.3702874187
 21
159.867146016
  0
LWPOLYLINE
  5
30A
100
AcDbEntity
  8
0
100
AcDbPolyline
 62
7
  6
CONTINUOUS
 90
10
 70
0
 10
166.2573468188
 20
52.0679386744
 10
166.2686706626
 20
52.0751205614
 10
166.3013292931
 20
52.0998109497
 10
166.3307420544
 20
52.1283353017
 10
166.356910772
 20
52.1606005661
 10
166.3798590279
 20
52.1966238321
 10
166.3994919851
 20
52.23636932
 10
166.4156131881
 20
52.2795631311
 10
166.4281032762
 20
52.3258594811
 10
166.4357225141
 20
52.3667747168
  0
LINE
  5
30B
100
AcDbEntity
  8
0
100
AcDbLine
 62
7
  6
CONTINUOUS
 10
164.4278860745
 20
50.9588273906
 11
166.257354495
 21
52.067943328
  0
LINE
  5
30C
100
AcDbEntity
  8
0
100
AcDbLine
 62
250
  6
CONTINUOUS
 10
164.4283242603
 20
51.3081950497
 11
166.4431404009
 21
52.512858103
  0
LINE
  5
30D
100
AcDbEntity
  8
SMUSSO
100
AcDbLine
 62
7
  6
CONTINUOUS
 10
164.4278860745
 20
50.2061618876
 11
161.9530123404
 21
48.7772402659
  0
ARC
  5
30E
100
AcDbEntity
  8
0
100
AcDbCircle
 62
7
  6
CONTINUOUS
 10
130.1156592551
 20
88.8992145724
 40
0.3
100
AcDbArc
 50
300.108989426
 51
314.2001404117
  0
ELLIPSE
  5
30F
100
AcDbEntity
  8
0
100
AcDbEllipse
 62
7
  6
CONTINUOUS
 10
166.6105434581
 20
53.8559664213
 30
0.0
 11
-0.0320188688
 21
0.0554549875
 31
0.0
 40
0.5632057935
 41
-2.5265952341
 42
-2.3686251639
  0
ELLIPSE
  5
310
100
AcDbEntity
  8
0
100
AcDbEllipse
 62
7
  6
CONTINUOUS
 10
166.6105434581
 20
124.1324104606
 30
0.0
 11
-0.0312356712
 21
0.0540980115
 31
0.0
 40
0.5918118391
 41
-2.3438606673
 42
-0.7978336343
  0
ELLIPSE
  5
311
100
AcDbEntity
  8
0
100
AcDbEllipse
 62
7
  6
CONTINUOUS
 10
105.7473968742
 20
159.2740285038
 30
0.0
 11
-0.0320188688
 21
0.0554549875
 31
0.0
 40
0.5632057935
 41
-0.7730595434
 42
-0.6150059205
  0
ELLIPSE
  5
312
100
AcDbEntity
  8
0
100
AcDbEllipse
 62
7
  6
CONTINUOUS
 10
132.1169185604
 20
89.9033324136
 30
0.0
 11
0.1999995634
 21
0.1164181051
 31
0.0
 40
0.0035896273
 41
-0.7351277754
 42
-0.6748017824
  0
ELLIPSE
  5
313
100
AcDbEntity
  8
0
100
AcDbEllipse
 62
7
  6
CONTINUOUS
 10
144.2008197465
 20
83.4976041499
 30
0.0
 11
0.1998333781
 21
-0.0157785196
 31
0.0
 40
0.5172961965
 41
0.8262203412
 42
2.3446567905
  0
ELLIPSE
  5
314
100
AcDbEntity
  8
0
100
AcDbEllipse
 62
7
  6
CONTINUOUS
 10
128.2909171698
 20
92.6837824997
 30
0.0
 11
0.1998333781
 21
-0.0157785196
 31
0.0
 40
0.5172961965
 41
0.8262203412
 42
2.3446567905
  0
ELLIPSE
  5
315
100
AcDbEntity
  8
0
100
AcDbEllipse
 62
7
  6
CONTINUOUS
 10
142.6825922166
 20
82.194189637
 30
0.0
 11
0.5413005334
 21
0.8416911418
 31
0.0
 40
0.6067084637
 41
0.7148472392
 42
0.8145158917
  0
ELLIPSE
  5
316
100
AcDbEntity
  8
0
100
AcDbEllipse
 62
7
  6
CONTINUOUS
 10
126.7726896399
 20
91.3803679868
 30
0.0
 11
0.5413005334
 21
0.8416911418
 31
0.0
 40
0.6067084637
 41
0.7148472392
 42
0.8145158917
  0
ELLIPSE
  5
317
100
AcDbEntity
  8
0
100
AcDbEllipse
 62
7
  6
CONTINUOUS
 10
132.1169185604
 20
90.4746972479
 30
0.0
 11
0.1998333781
 21
-0.0157785196
 31
0.0
 40
0.5172961965
 41
-0.692216108
 42
0.8262203412
  0
ELLIPSE
  5
318
100
AcDbEntity
  8
0
100
AcDbEllipse
 62
7
  6
CONTINUOUS
 10
131.0190268982
 20
88.928586073
 30
0.0
 11
0.4625183445
 21
0.8873459255
 31
0.0
 40
0.5463614449
 41
0.662201126
 42
0.7618697785
  0
ELLIPSE
  5
319
100
AcDbEntity
  8
0
100
AcDbEllipse
 62
7
  6
CONTINUOUS
 10
166.6010435897
 20
124.144338619
 30
0.0
 11
1.1066889452
 21
-0.4882482052
 31
0.0
 40
0.0945009384
 41
-2.4253001261
 42
-2.3839902126
  0
ELLIPSE
  5
31A
100
AcDbEntity
  8
0
100
AcDbEllipse
 62
7
  6
CONTINUOUS
 10
105.3655963389
 20
159.5009184011
 30
0.0
 11
1.1066889452
 21
-0.4882482052
 31
0.0
 40
0.0945009384
 41
-2.4666100396
 42
-2.4253001261
  0
ELLIPSE
  5
31B
100
AcDbEntity
  8
0
100
AcDbEllipse
 62
7
  6
CONTINUOUS
 10
166.6161423949
 20
53.411860751
 30
0.0
 11
0.1304932868
 21
1.2025842266
 31
0.0
 40
0.0944494463
 41
-3.8578203675
 42
-3.816510454
  0
ELLIPSE
  5
31C
100
AcDbEntity
  8
0
100
AcDbEllipse
 62
7
  6
CONTINUOUS
 10
166.6161423949
 20
124.1181867213
 30
0.0
 11
0.1304932868
 21
1.2025842266
 31
0.0
 40
0.0944494463
 41
-3.899130281
 42
-3.8578203675
  0
ENDSEC
  0
SECTION
  2
OBJECTS
  0
DICTIONARY
  5
C
100
AcDbDictionary
280
0
281
1
  3
ACAD_GROUP
350
D
  3
ACAD_MLINESTYLE
350
17
  3
ACAD_LAYOUT
350
1A
  3
ACAD_PLOTSETTINGS
350
19
  3
ACAD_PLOTSTYLENAME
350
E
  0
DICTIONARY
  5
D
102
{ACAD_REACTORS
330
C
102
}
100
AcDbDictionary
280
0
281
1
  0
ACDBDICTIONARYWDFLT
  5
E
102
{ACAD_REACTORS
330
C
102
}
100
AcDbDictionary
281
1
  3
Normal
350
F
100
AcDbDictionaryWithDefault
340
F
  0
DICTIONARY
  5
17
102
{ACAD_REACTORS
330
C
102
}
100
AcDbDictionary
280
0
281
1
  3
Standard
350
18
  0
DICTIONARY
  5
19
102
{ACAD_REACTORS
330
C
102
}
100
AcDbDictionary
281
1
  0
DICTIONARY
  5
1A
102
{ACAD_REACTORS
330
C
102
}
100
AcDbDictionary
281
1
  3
Model
350
31D
  3
Layout1
350
31E
  0
ACDBPLACEHOLDER
  5
F
102
{ACAD_REACTORS
330
E
102
}
  0
MLINESTYLE
  5
18
102
{ACAD_REACTORS
330
17
102
}
100
AcDbMlineStyle
  2
STANDARD
 70
0
  3

 62
256
 51
90.0
 52
90.0
 71
2
 49
0.5
 62
256
  6
BYLAYER
 49
-0.5
 62
256
  6
BYLAYER
  0
LAYOUT
  5
31D
102
{ACAD_REACTORS
330
1A
102
}
100
AcDbPlotSettings
  1

  2
none_device
  4
ISO_A4_(297.00_x_210.00_MM)
  6

 40
0.0
 41
0.0
 42
0.0
 43
0.0
 44
297.0
 45
210.0
 46
0.0
 47
0.0
 48
0.0
 49
0.0
140
0.0
141
0.0
142
1.0
143
1.0
 70
1024
 72
1
 73
0
 74
0
  7

 75
0
147
1.0
148
0.0
149
0.0
100
AcDbLayout
  1
Model
 70
0
 71
0
 10
0.0
 20
0.0
 11
297.0
 21
210.0
 12
0.0
 22
0.0
 32
0.0
 14
0.0
 24
0.0
 34
0.0
 15
0.0
 25
0.0
 35
0.0
146
0.0
 13
0.0
 23
0.0
 33
0.0
 16
1.0
 26
0.0
 36
0.0
 17
0.0
 27
1.0
 37
0.0
 76
0
330
224
345
0
346
0
  0
LAYOUT
  5
31E
102
{ACAD_REACTORS
330
1A
102
}
100
AcDbPlotSettings
  1

  2
none_device
  4
ISO_A4_(297.00_x_210.00_MM)
  6

 40
0.0
 41
0.0
 42
0.0
 43
0.0
 44
297.0
 45
210.0
 46
0.0
 47
0.0
 48
0.0
 49
0.0
140
0.0
141
0.0
142
1.0
143
1.0
 70
0
 72
1
 73
0
 74
0
  7

 75
0
147
1.0
148
0.0
149
0.0
100
AcDbLayout
  1
Layout1
 70
0
 71
1
 10
0.0
 20
0.0
 11
297.0
 21
210.0
 12
0.0
 22
0.0
 32
0.0
 14
0.0
 24
0.0
 34
0.0
 15
0.0
 25
0.0
 35
0.0
146
0.0
 13
0.0
 23
0.0
 33
0.0
 16
1.0
 26
0.0
 36
0.0
 17
0.0
 27
1.0
 37
0.0
 76
0
330
225
345
0
346
0
  0
ENDSEC
  0
EOF
