  0
SECTION
  2
HEADER
  9
$ACADVER
  1
AC1024
  9
$DWGCODEPAGE
  3
ANSI_1252
  9
$EXTMAX
 10
297.0
 20
210.0
 30
0.0
  9
$EXTMIN
 10
0.0
 20
0.0
 30
0.0
  9
$LIMMIN
 10
0.0
 20
0.0
  9
$LIMMAX
 10
297.0
 20
210.0
  9
$VIEWCTR
 10
148.5
 20
105.0
  9
$VIEWSIZE
 40
210.0
  9
$CLAYER
  8
0
  9
$LTSCALE
 40
16.335
  9
$CELTYPE
  6
BYLAYER
  9
$DIMSCALE
 40
1.0
  9
$DIMASZ
 40
3.0
  9
$DIMEXO
 40
0.5
  9
$DIMDLI
 40
11.286
  9
$DIMEXE
 40
1.5
  9
$DIMCEN
 40
2.673
  9
$DIMLFAC
 40
1.0
  9
$DIMBLK
  1
_FILLED
  9
$DIMALT
 70
0
  9
$DIMALTF
 40
0.0393700787
  9
$DIMTXT
 40
3.0
  9
$DIMTOL
 70
1
  9
$DIMLIM
 70
0
  9
$DIMTFAC
 40
1.0
  9
$DIMTP
 40
0.01
  9
$DIMTM
 40
0.01
  9
$DIMGAP
 40
0.625
  9
$DIMDSEP
 70
44
  9
$AUNITS
 70
0
  9
$PDMODE
 70
3
  9
$PDSIZE
 40
3.0
  9
$HANDSEED
  5
421
  9
$TILEMODE
 70
1
  9
$MEASUREMENT
 70
1
  9
$INSUNITS
 70
4
  0
ENDSEC
  0
SECTION
  2
CLASSES
  0
CLASS
  1
ACDBDICTIONARYWDFLT
  2
AcDbDictionaryWithDefault
  3
AutoCAD 2000
 90
0
 91
1
280
0
281
0
  0
CLASS
  1
ACDBPLACEHOLDER
  2
AcDbPlaceHolder
  3
AutoCAD 2000
 90
0
 91
1
280
0
281
0
  0
CLASS
  1
LAYOUT
  2
AcDbLayout
  3
AutoCAD 2000
 90
0
 91
0
280
0
281
0
  0
ENDSEC
  0
SECTION
  2
TABLES
  0
TABLE
  2
VPORT
  5
8
100
AcDbSymbolTable
 70
2
  0
VPORT
  5
1F4
100
AcDbSymbolTableRecord
100
AcDbViewportTableRecord
  2
*ACTIVE
 70
0
 10
0.0
 20
0.0
 11
1.0
 21
1.0
 12
148.5
 22
105.0
 13
0.0
 23
0.0
 14
1.0
 24
1.0
 15
0.0
 25
0.0
 16
0.0
 26
0.0
 36
1.0
 17
0.0
 27
0.0
 37
0.0
 40
210.0
 41
1.4142857143
 42
50.0
 43
0.0
 44
0.0
 50
0.0
 51
0.0
 71
0
 72
100
 73
1
 74
1
 75
0
 76
0
 77
0
 78
0
  0
ENDTAB
  0
TABLE
  2
LTYPE
  5
5
100
AcDbSymbolTable
 70
6
  0
LTYPE
  5
14
100
AcDbSymbolTableRecord
100
AcDbLinetypeTableRecord
  2
BYBLOCK
 70
0
  3

 72
65
 73
0
 40
0.0
  0
LTYPE
  5
15
100
AcDbSymbolTableRecord
100
AcDbLinetypeTableRecord
  2
BYLAYER
 70
0
  3

 72
65
 73
0
 40
0.0
  0
LTYPE
  5
16
100
AcDbSymbolTableRecord
100
AcDbLinetypeTableRecord
  2
CONTINUOUS
 70
64
  3
Solid line
 72
65
 73
0
 40
0.0
  0
LTYPE
  5
1F5
100
AcDbSymbolTableRecord
100
AcDbLinetypeTableRecord
  2
CENTER
 70
64
  3
____ _ ____ _ ____ _ ____ _ ____ _ ____ _ ____
 72
65
 73
4
 40
0.6
 49
0.375
 74
0
 49
-0.075
 74
0
 49
0.075
 74
0
 49
-0.075
 74
0
  0
LTYPE
  5
1F6
100
AcDbSymbolTableRecord
100
AcDbLinetypeTableRecord
  2
HIDDEN
 70
64
  3
- - - - - - - - - - - - - - - - - - - -
 72
65
 73
2
 40
0.2
 49
0.1
 74
0
 49
-0.1
 74
0
  0
LTYPE
  5
1F7
100
AcDbSymbolTableRecord
100
AcDbLinetypeTableRecord
  2
PHANTOM
 70
64
  3
_____ _ _ _____ _ _ _____ _ _ _____
 72
65
 73
6
 40
0.8
 49
0.45
 74
0
 49
-0.05
 74
0
 49
0.1
 74
0
 49
-0.05
 74
0
 49
0.1
 74
0
 49
-0.05
 74
0
  0
LTYPE
  5
1F8
100
AcDbSymbolTableRecord
100
AcDbLinetypeTableRecord
  2
DOT
 70
64
  3
. . . . . . . . . . . . . . . . . . . .
 72
65
 73
2
 40
0.2
 49
0.1
 74
0
 49
-0.1
 74
0
  0
LTYPE
  5
1F9
100
AcDbSymbolTableRecord
100
AcDbLinetypeTableRecord
  2
DASHED
 70
64
  3
- - - - - - - - - - - - - - - - - - - -
 72
65
 73
2
 40
0.2
 49
0.1
 74
0
 49
-0.1
 74
0
  0
ENDTAB
  0
TABLE
  2
LAYER
  5
2
100
AcDbSymbolTable
 70
36
  0
LAYER
  5
10
100
AcDbSymbolTableRecord
100
AcDbLayerTableRecord
  2
0
 70
0
 62
7
  6
CONTINUOUS
370
-3
390
F
  0
LAYER
  5
1FA
100
AcDbSymbolTableRecord
100
AcDbLayerTableRecord
  2
DEFAULT_1
 70
0
 62
7
  6
CENTER
370
-3
390
F
  0
LAYER
  5
1FB
100
AcDbSymbolTableRecord
100
AcDbLayerTableRecord
  2
DEFAULT_2
 70
0
 62
7
  6
HIDDEN
370
-3
390
F
  0
LAYER
  5
1FC
100
AcDbSymbolTableRecord
100
AcDbLayerTableRecord
  2
DEFAULT_3
 70
0
 62
7
  6
PHANTOM
370
-3
390
F
  0
LAYER
  5
1FD
100
AcDbSymbolTableRecord
100
AcDbLayerTableRecord
  2
ASSI
 70
0
 62
7
  6
CONTINUOUS
370
-3
390
F
  0
LAYER
  5
1FE
100
AcDbSymbolTableRecord
100
AcDbLayerTableRecord
  2
COLOR6
 70
0
 62
7
  6
CONTINUOUS
370
-3
390
F
  0
LAYER
  5
1FF
100
AcDbSymbolTableRecord
100
AcDbLayerTableRecord
  2
COORDINATE
 70
0
 62
7
  6
CONTINUOUS
370
-3
390
F
  0
LAYER
  5
200
100
AcDbSymbolTableRecord
100
AcDbLayerTableRecord
  2
COORD_ORIGINE
 70
0
 62
7
  6
CONTINUOUS
370
-3
390
F
  0
LAYER
  5
201
100
AcDbSymbolTableRecord
100
AcDbLayerTableRecord
  2
COPY_PUBLISH
 70
0
 62
7
  6
CONTINUOUS
370
-3
390
F
  0
LAYER
  5
202
100
AcDbSymbolTableRecord
100
AcDbLayerTableRecord
  2
COSMETIC
 70
0
 62
7
  6
CONTINUOUS
370
-3
390
F
  0
LAYER
  5
203
100
AcDbSymbolTableRecord
100
AcDbLayerTableRecord
  2
COSMETICI
 70
0
 62
7
  6
CONTINUOUS
370
-3
390
F
  0
LAYER
  5
204
100
AcDbSymbolTableRecord
100
AcDbLayerTableRecord
  2
CURVE
 70
0
 62
7
  6
CONTINUOUS
370
-3
390
F
  0
LAYER
  5
205
100
AcDbSymbolTableRecord
100
AcDbLayerTableRecord
  2
CURVE_TASSELLI
 70
0
 62
7
  6
CONTINUOUS
370
-3
390
F
  0
LAYER
  5
206
100
AcDbSymbolTableRecord
100
AcDbLayerTableRecord
  2
DRAFT
 70
0
 62
7
  6
CONTINUOUS
370
-3
390
F
  0
LAYER
  5
207
100
AcDbSymbolTableRecord
100
AcDbLayerTableRecord
  2
IMPORT_IGES
 70
0
 62
7
  6
CONTINUOUS
370
-3
390
F
  0
LAYER
  5
208
100
AcDbSymbolTableRecord
100
AcDbLayerTableRecord
  2
INTFCLR_2
 70
0
 62
7
  6
CONTINUOUS
370
-3
390
F
  0
LAYER
  5
209
100
AcDbSymbolTableRecord
100
AcDbLayerTableRecord
  2
INTF_1
 70
0
 62
7
  6
CONTINUOUS
370
-3
390
F
  0
LAYER
  5
20A
100
AcDbSymbolTableRecord
100
AcDbLayerTableRecord
  2
INTF_11
 70
0
 62
7
  6
CONTINUOUS
370
-3
390
F
  0
LAYER
  5
20B
100
AcDbSymbolTableRecord
100
AcDbLayerTableRecord
  2
INTF_21
 70
0
 62
7
  6
CONTINUOUS
370
-3
390
F
  0
LAYER
  5
20C
100
AcDbSymbolTableRecord
100
AcDbLayerTableRecord
  2
INTF_7
 70
0
 62
7
  6
CONTINUOUS
370
-3
390
F
  0
LAYER
  5
20D
100
AcDbSymbolTableRecord
100
AcDbLayerTableRecord
  2
INTF_CYAN
 70
0
 62
7
  6
CONTINUOUS
370
-3
390
F
  0
LAYER
  5
20E
100
AcDbSymbolTableRecord
100
AcDbLayerTableRecord
  2
LINEA_CHIUSURA
 70
0
 62
7
  6
CONTINUOUS
370
-3
390
F
  0
LAYER
  5
20F
100
AcDbSymbolTableRecord
100
AcDbLayerTableRecord
  2
NOTE
 70
0
 62
7
  6
CONTINUOUS
370
-3
390
F
  0
LAYER
  5
210
100
AcDbSymbolTableRecord
100
AcDbLayerTableRecord
  2
PIANI
 70
0
 62
7
  6
CONTINUOUS
370
-3
390
F
  0
LAYER
  5
211
100
AcDbSymbolTableRecord
100
AcDbLayerTableRecord
  2
PIANI_ORIGINE
 70
0
 62
7
  6
CONTINUOUS
370
-3
390
F
  0
LAYER
  5
212
100
AcDbSymbolTableRecord
100
AcDbLayerTableRecord
  2
PIANI_RIFERIMENTO
 70
0
 62
7
  6
CONTINUOUS
370
-3
390
F
  0
LAYER
  5
213
100
AcDbSymbolTableRecord
100
AcDbLayerTableRecord
  2
PUNTI
 70
0
 62
7
  6
CONTINUOUS
370
-3
390
F
  0
LAYER
  5
214
100
AcDbSymbolTableRecord
100
AcDbLayerTableRecord
  2
RACCORDO
 70
0
 62
7
  6
CONTINUOUS
370
-3
390
F
  0
LAYER
  5
215
100
AcDbSymbolTableRecord
100
AcDbLayerTableRecord
  2
RGB__255__255__255__
 70
0
 62
7
  6
CONTINUOUS
370
-3
390
F
  0
LAYER
  5
216
100
AcDbSymbolTableRecord
100
AcDbLayerTableRecord
  2
RGB____0____0____0__
 70
0
 62
7
  6
CONTINUOUS
370
-3
390
F
  0
LAYER
  5
217
100
AcDbSymbolTableRecord
100
AcDbLayerTableRecord
  2
SIMBOLI
 70
0
 62
7
  6
CONTINUOUS
370
-3
390
F
  0
LAYER
  5
218
100
AcDbSymbolTableRecord
100
AcDbLayerTableRecord
  2
SMUSSO
 70
0
 62
7
  6
CONTINUOUS
370
-3
390
F
  0
LAYER
  5
219
100
AcDbSymbolTableRecord
100
AcDbLayerTableRecord
  2
SUPERFICI
 70
0
 62
7
  6
CONTINUOUS
370
-3
390
F
  0
LAYER
  5
21A
100
AcDbSymbolTableRecord
100
AcDbLayerTableRecord
  2
TRASH
 70
0
 62
7
  6
CONTINUOUS
370
-3
390
F
  0
LAYER
  5
21B
100
AcDbSymbolTableRecord
100
AcDbLayerTableRecord
  2
XSEC_DATUMS
 70
0
 62
7
  6
CONTINUOUS
370
-3
390
F
  0
LAYER
  5
21C
100
AcDbSymbolTableRecord
100
AcDbLayerTableRecord
  2
___SHELL
 70
0
 62
7
  6
CONTINUOUS
370
-3
390
F
  0
ENDTAB
  0
TABLE
  2
STYLE
  5
3
100
AcDbSymbolTable
 70
1
  0
STYLE
  5
11
100
AcDbSymbolTableRecord
100
AcDbTextStyleTableRecord
  2
STANDARD
 70
0
 40
0.0
 41
0.8
 50
0.0
 71
0
 42
0.2
  3
txt
  4

  0
STYLE
  5
21D
100
AcDbSymbolTableRecord
100
AcDbTextStyleTableRecord
  2
TEXTSTYLE_1
 70
0
 40
0.0
 41
0.8
 50
0.0
 71
0
 42
0.2
  3
gdt
  4

  0
ENDTAB
  0
TABLE
  2
VIEW
  5
6
100
AcDbSymbolTable
 70
0
  0
ENDTAB
  0
TABLE
  2
UCS
  5
7
100
AcDbSymbolTable
 70
0
  0
ENDTAB
  0
TABLE
  2
APPID
  5
9
100
AcDbSymbolTable
 70
1
  0
APPID
  5
21E
100
AcDbSymbolTableRecord
100
AcDbRegAppTableRecord
  2
ACAD
 70
0
  0
ENDTAB
  0
TABLE
  2
BLOCK_RECORD
  5
1
100
AcDbSymbolTable
 70
0
  0
BLOCK_RECORD
  5
21F
100
AcDbSymbolTableRecord
100
AcDbBlockTableRecord
  2
*Model_Space
  0
BLOCK_RECORD
  5
220
100
AcDbSymbolTableRecord
100
AcDbBlockTableRecord
  2
*Paper_Space
  0
BLOCK_RECORD
  5
221
100
AcDbSymbolTableRecord
100
AcDbBlockTableRecord
  2
_FILLED
  0
ENDTAB
  0
TABLE
  2
DIMSTYLE
  5
A
100
AcDbSymbolTable
 70
1
100
AcDbDimStyleTable
 71
0
  0
DIMSTYLE
105
222
100
AcDbSymbolTableRecord
100
AcDbDimStyleTableRecord
  2
STANDARD
 70
0
  3

  4

 40
1.0
 41
3.0
 42
0.5
 43
0.38
 44
1.5
 45
0.0
 46
0.0
 47
0.01
 48
0.01
140
3.0
141
0.09
142
0.0
143
25.4
144
1.0
145
0.0
146
1.0
147
0.625
 71
1
 72
0
 73
0
 74
0
 75
0
 76
0
 77
1
 78
8
 79
2
170
0
171
1
172
0
173
0
174
0
175
0
176
0
177
0
178
0
270
2
179
2
271
2
272
2
273
2
274
2
275
0
280
0
281
0
282
0
283
1
284
8
285
0
286
0
287
3
288
0
340
11
278
44
341
221
342
221
343
221
344
221
  0
ENDTAB
  0
ENDSEC
  0
SECTION
  2
BLOCKS
  0
BLOCK
  5
20
100
AcDbEntity
  8
0
100
AcDbBlockBegin
  2
*Model_Space
 70
0
 10
0.0
 20
0.0
 30
0.0
  3
*Model_Space
  1

  0
ENDBLK
  5
21
100
AcDbEntity
  8
0
100
AcDbBlockEnd
  0
BLOCK
  5
1C
100
AcDbEntity
  8
0
100
AcDbBlockBegin
  2
*Paper_Space
 70
0
 10
0.0
 20
0.0
 30
0.0
  3
*Paper_Space
  1

  0
ENDBLK
  5
1D
100
AcDbEntity
  8
0
100
AcDbBlockEnd
  0
BLOCK
  5
223
100
AcDbEntity
  8
0
100
AcDbBlockBegin
  2
_FILLED
 70
64
 10
0.0
 20
0.0
  3
_FILLED
  1

  0
SOLID
  5
224
100
AcDbEntity
  8
0
  6
BYBLOCK
 62
0
100
AcDbTrace
 10
0.0
 20
0.0
 11
-1.0
 21
0.3166666667
 12
-1.0
 22
-0.3166666667
 13
-1.0
 23
-0.3166666667
  0
ENDBLK
  5
225
100
AcDbEntity
  8
0
  6
BYBLOCK
 62
0
100
AcDbBlockEnd
  0
ENDSEC
  0
SECTION
  2
ENTITIES
  0
LINE
  5
226
100
AcDbEntity
  8
SMUSSO
100
AcDbLine
 62
7
  6
CONTINUOUS
 10
95.0848597175
 20
176.1901672361
 11
94.3984613699
 21
175.6927035539
  0
LINE
  5
227
100
AcDbEntity
  8
SMUSSO
100
AcDbLine
 62
7
  6
CONTINUOUS
 10
94.7021704177
 20
174.8025462861
 11
94.4231944835
 21
174.6003599086
  0
LINE
  5
228
100
AcDbEntity
  8
SMUSSO
100
AcDbLine
 62
7
  6
CONTINUOUS
 10
95.0848597175
 20
176.1901672361
 11
95.1056233317
 21
176.2037451144
  0
LINE
  5
229
100
AcDbEntity
  8
SMUSSO
100
AcDbLine
 62
7
  6
CONTINUOUS
 10
95.1056233317
 20
176.2037451144
 11
98.8934371188
 21
178.4025746474
  0
LINE
  5
22A
100
AcDbEntity
  8
SMUSSO
100
AcDbLine
 62
7
  6
CONTINUOUS
 10
94.3980860624
 20
175.6909611071
 11
94.3984613699
 21
175.6927035539
  0
LINE
  5
22B
100
AcDbEntity
  8
SMUSSO
100
AcDbLine
 62
7
  6
CONTINUOUS
 10
94.7021704177
 20
174.8025462861
 11
95.0848597175
 21
176.1901672361
  0
LINE
  5
22C
100
AcDbEntity
  8
SMUSSO
100
AcDbLine
 62
7
  6
CONTINUOUS
 10
94.4231944835
 20
99.4696468475
 11
94.3984613699
 21
99.7942623331
  0
LINE
  5
22D
100
AcDbEntity
  8
SMUSSO
100
AcDbLine
 62
7
  6
CONTINUOUS
 10
94.4231944835
 20
174.6003599086
 11
94.3984613699
 21
175.6927035539
  0
LINE
  5
22E
100
AcDbEntity
  8
SMUSSO
100
AcDbLine
 62
7
  6
CONTINUOUS
 10
94.3984613699
 20
99.7942623331
 11
94.3980860624
 21
99.8175061317
  0
LINE
  5
22F
100
AcDbEntity
  8
SMUSSO
100
AcDbLine
 62
7
  6
CONTINUOUS
 10
94.3980860624
 20
175.6909611071
 11
94.3980860624
 21
99.8175061317
  0
LINE
  5
230
100
AcDbEntity
  8
SMUSSO
100
AcDbLine
 62
7
  6
CONTINUOUS
 10
94.4231944835
 20
174.6003599086
 11
94.4231944835
 21
99.4696468475
  0
LINE
  5
231
100
AcDbEntity
  8
SMUSSO
100
AcDbLine
 62
7
  6
CONTINUOUS
 10
94.4231944835
 20
99.4696468475
 11
94.7021704177
 21
98.9884845359
  0
LINE
  5
232
100
AcDbEntity
  8
0
100
AcDbLine
 62
7
  6
CONTINUOUS
 10
113.349568095
 20
140.5167912288
 11
114.4701592322
 21
141.2815151913
  0
LINE
  5
233
100
AcDbEntity
  8
0
100
AcDbLine
 62
7
  6
CONTINUOUS
 10
114.4701592322
 20
146.3133261907
 11
113.349568095
 21
145.7084387633
  0
LINE
  5
234
100
AcDbEntity
  8
0
100
AcDbLine
 62
7
  6
CONTINUOUS
 10
113.1765636107
 20
145.4041733779
 11
110.4336415535
 21
144.0327123493
  0
LINE
  5
235
100
AcDbEntity
  8
0
100
AcDbLine
 62
7
  6
CONTINUOUS
 10
110.5602685203
 20
143.9899598155
 11
110.7016898765
 21
144.0606704936
  0
LINE
  5
236
100
AcDbEntity
  8
0
100
AcDbLine
 62
7
  6
CONTINUOUS
 10
110.9138219109
 20
144.1667365108
 11
111.0552432671
 21
144.2374471889
  0
LINE
  5
237
100
AcDbEntity
  8
0
100
AcDbLine
 62
7
  6
CONTINUOUS
 10
111.2673753015
 20
144.3435132061
 11
111.4087966577
 21
144.4142238842
  0
LINE
  5
238
100
AcDbEntity
  8
0
100
AcDbLine
 62
7
  6
CONTINUOUS
 10
111.6209286921
 20
144.5202899014
 11
111.7623500483
 21
144.5910005795
  0
LINE
  5
239
100
AcDbEntity
  8
0
100
AcDbLine
 62
7
  6
CONTINUOUS
 10
111.9744820827
 20
144.6970665967
 11
112.1159034389
 21
144.7677772748
  0
LINE
  5
23A
100
AcDbEntity
  8
0
100
AcDbLine
 62
7
  6
CONTINUOUS
 10
112.3280354733
 20
144.873843292
 11
112.4694568295
 21
144.9445539701
  0
LINE
  5
23B
100
AcDbEntity
  8
0
100
AcDbLine
 62
7
  6
CONTINUOUS
 10
112.6815888639
 20
145.0506199873
 11
112.8230102201
 21
145.1213306654
  0
LINE
  5
23C
100
AcDbEntity
  8
0
100
AcDbLine
 62
7
  6
CONTINUOUS
 10
113.0351422545
 20
145.2273966826
 11
113.1765636107
 21
145.2981073607
  0
LINE
  5
23D
100
AcDbEntity
  8
0
100
AcDbLine
 62
7
  6
CONTINUOUS
 10
110.4336415535
 20
144.7249740916
 11
112.8949914734
 21
145.9041311348
  0
LINE
  5
23E
100
AcDbEntity
  8
0
100
AcDbLine
 62
7
  6
CONTINUOUS
 10
113.282717577
 20
145.6760203903
 11
110.4336415535
 21
144.4343536249
  0
LWPOLYLINE
  5
23F
100
AcDbEntity
  8
0
100
AcDbPolyline
 62
7
  6
CONTINUOUS
 90
11
 70
0
 10
114.1624425502
 20
146.4671845317
 10
114.1716026743
 20
146.4710368383
 10
114.1803281977
 20
146.4742389226
 10
114.1885785863
 20
146.4767855759
 10
114.1963119748
 20
146.4786838417
 10
114.2034926169
 20
146.4799253368
 10
114.210093907
 20
146.4804972057
 10
114.2160741196
 20
146.4804220887
 10
114.2214157839
 20
146.4797202194
 10
114.2261368801
 20
146.4783939334
 10
114.2287985018
 20
146.4772442225
  0
LINE
  5
240
100
AcDbEntity
  8
0
100
AcDbLine
 62
7
  6
CONTINUOUS
 10
109.6307056716
 20
149.1024648576
 11
109.6314024046
 21
149.1027134253
  0
LINE
  5
241
100
AcDbEntity
  8
0
100
AcDbLine
 62
250
  6
CONTINUOUS
 10
109.4848522223
 20
148.825238615
 11
109.9423763987
 21
148.9874758508
  0
LWPOLYLINE
  5
242
100
AcDbEntity
  8
0
100
AcDbPolyline
 62
7
  6
CONTINUOUS
 90
10
 70
0
 10
109.6307169591
 20
149.1024686337
 10
109.6331327955
 20
149.1033018324
 10
109.6425068219
 20
149.1056426899
 10
109.6535097585
 20
149.1069600946
 10
109.6663575532
 20
149.1070224518
 10
109.6812972359
 20
149.1055392231
 10
109.698374939
 20
149.1021831213
 10
109.7172016993
 20
149.0967446318
 10
109.7372263904
 20
149.0892106339
 10
109.7578510621
 20
149.0797386438
  0
LINE
  5
243
100
AcDbEntity
  8
SMUSSO
100
AcDbLine
 62
7
  6
CONTINUOUS
 10
206.529698153
 20
43.4163950127
 11
207.946657284
 21
43.020164376
  0
LINE
  5
244
100
AcDbEntity
  8
SMUSSO
100
AcDbLine
 62
7
  6
CONTINUOUS
 10
94.7021704177
 20
98.9884845359
 11
95.0848597175
 21
98.6104003033
  0
LWPOLYLINE
  5
245
100
AcDbEntity
  8
0
100
AcDbPolyline
 62
250
  6
CONTINUOUS
 90
25
 70
0
 10
110.3109963436
 20
110.8306125882
 10
110.3131690073
 20
110.8030494161
 10
110.3166896666
 20
110.7747478653
 10
110.3215663353
 20
110.7458271219
 10
110.3278171273
 20
110.7163784382
 10
110.3354237134
 20
110.6865591675
 10
110.3443125511
 20
110.656593764
 10
110.354433747
 20
110.6266349151
 10
110.3657578738
 20
110.5967881446
 10
110.3782115272
 20
110.5672059011
 10
110.3917155826
 20
110.5380490105
 10
110.4062262821
 20
110.5093970373
 10
110.4217226537
 20
110.4812801042
 10
110.4381215658
 20
110.4538564894
 10
110.455376778
 20
110.4271987112
 10
110.473550098
 20
110.4012311742
 10
110.4926537388
 20
110.3760022103
 10
110.5125646513
 20
110.3517416999
 10
110.5331451883
 20
110.3286555124
 10
110.5543412156
 20
110.3068180681
 10
110.5760311844
 20
110.2863961772
 10
110.5979428127
 20
110.2676706097
 10
110.6199027609
 20
110.2507490924
 10
110.6418550347
 20
110.2356161928
 10
110.6636884959
 20
110.2223086073
  0
LWPOLYLINE
  5
246
100
AcDbEntity
  8
0
100
AcDbPolyline
 62
250
  6
CONTINUOUS
 90
10
 70
0
 10
109.7059880735
 20
149.1878554549
 10
109.7066955169
 20
149.1709062259
 10
109.7088107693
 20
149.1548340132
 10
109.7123126681
 20
149.1397996156
 10
109.7171661778
 20
149.1259534485
 10
109.7233227399
 20
149.1134340396
 10
109.7307207597
 20
149.1023666426
 10
109.7392862217
 20
149.0928619841
 10
109.7489334306
 20
149.0850151559
 10
109.7578510621
 20
149.0797386438
  0
LINE
  5
247
100
AcDbEntity
  8
0
100
AcDbLine
 62
250
  6
CONTINUOUS
 10
109.2122190602
 20
110.4509832844
 11
109.2122190602
 21
148.8299988949
  0
LINE
  5
248
100
AcDbEntity
  8
0
100
AcDbLine
 62
250
  6
CONTINUOUS
 10
109.4849500136
 20
110.4166288964
 11
109.4848522223
 21
148.825238615
  0
LINE
  5
249
100
AcDbEntity
  8
RACCORDO
100
AcDbLine
 62
7
  6
CONTINUOUS
 10
110.1006491125
 20
148.9083394939
 11
110.1006491125
 21
110.7631666239
  0
LINE
  5
24A
100
AcDbEntity
  8
0
100
AcDbLine
 62
250
  6
CONTINUOUS
 10
110.3109963436
 20
148.8031658784
 11
110.3109963436
 21
110.8306125882
  0
LINE
  5
24B
100
AcDbEntity
  8
0
100
AcDbLine
 62
7
  6
CONTINUOUS
 10
110.4336415535
 20
148.7418432734
 11
110.4336415535
 21
110.9946273447
  0
LINE
  5
24C
100
AcDbEntity
  8
0
100
AcDbLine
 62
7
  6
CONTINUOUS
 10
110.5602685203
 20
143.9899598155
 11
110.5602685203
 21
139.2268200947
  0
LINE
  5
24D
100
AcDbEntity
  8
0
100
AcDbLine
 62
7
  6
CONTINUOUS
 10
110.5602685203
 20
124.5043882303
 11
110.5602685203
 21
119.7412485095
  0
LINE
  5
24E
100
AcDbEntity
  8
0
100
AcDbLine
 62
7
  6
CONTINUOUS
 10
110.7016898765
 20
119.8119591876
 11
110.7016898765
 21
124.6811649256
  0
LINE
  5
24F
100
AcDbEntity
  8
0
100
AcDbLine
 62
7
  6
CONTINUOUS
 10
110.7016898765
 20
139.2975307728
 11
110.7016898765
 21
144.1667365108
  0
LINE
  5
250
100
AcDbEntity
  8
0
100
AcDbLine
 62
7
  6
CONTINUOUS
 10
110.9138219109
 20
144.1667365108
 11
110.9138219109
 21
139.40359679
  0
LINE
  5
251
100
AcDbEntity
  8
0
100
AcDbLine
 62
7
  6
CONTINUOUS
 10
110.9138219109
 20
124.6811649256
 11
110.9138219109
 21
119.9180252048
  0
LINE
  5
252
100
AcDbEntity
  8
0
100
AcDbLine
 62
7
  6
CONTINUOUS
 10
111.0552432671
 20
119.9887358829
 11
111.0552432671
 21
124.8579416209
  0
LINE
  5
253
100
AcDbEntity
  8
0
100
AcDbLine
 62
7
  6
CONTINUOUS
 10
111.0552432671
 20
139.4743074681
 11
111.0552432671
 21
144.3435132061
  0
LINE
  5
254
100
AcDbEntity
  8
0
100
AcDbLine
 62
7
  6
CONTINUOUS
 10
111.2673753015
 20
144.3435132061
 11
111.2673753015
 21
139.5803734853
  0
LINE
  5
255
100
AcDbEntity
  8
0
100
AcDbLine
 62
7
  6
CONTINUOUS
 10
111.2673753015
 20
124.8579416209
 11
111.2673753015
 21
120.0948019001
  0
LINE
  5
256
100
AcDbEntity
  8
0
100
AcDbLine
 62
7
  6
CONTINUOUS
 10
111.4087966577
 20
120.1655125782
 11
111.4087966577
 21
125.0347183162
  0
LINE
  5
257
100
AcDbEntity
  8
0
100
AcDbLine
 62
7
  6
CONTINUOUS
 10
111.4087966577
 20
139.6510841634
 11
111.4087966577
 21
144.5202899014
  0
LINE
  5
258
100
AcDbEntity
  8
0
100
AcDbLine
 62
7
  6
CONTINUOUS
 10
111.6209286921
 20
144.5202899014
 11
111.6209286921
 21
139.7571501806
  0
LINE
  5
259
100
AcDbEntity
  8
0
100
AcDbLine
 62
7
  6
CONTINUOUS
 10
111.6209286921
 20
125.0347183162
 11
111.6209286921
 21
120.2715785954
  0
LINE
  5
25A
100
AcDbEntity
  8
0
100
AcDbLine
 62
7
  6
CONTINUOUS
 10
111.7623500483
 20
120.3422892735
 11
111.7623500483
 21
125.2114950115
  0
LINE
  5
25B
100
AcDbEntity
  8
0
100
AcDbLine
 62
7
  6
CONTINUOUS
 10
111.7623500483
 20
139.8278608587
 11
111.7623500483
 21
144.6970665967
  0
LINE
  5
25C
100
AcDbEntity
  8
0
100
AcDbLine
 62
7
  6
CONTINUOUS
 10
111.9744820827
 20
144.6970665967
 11
111.9744820827
 21
139.9339268759
  0
LINE
  5
25D
100
AcDbEntity
  8
0
100
AcDbLine
 62
7
  6
CONTINUOUS
 10
111.9744820827
 20
125.2114950115
 11
111.9744820827
 21
120.4483552907
  0
LWPOLYLINE
  5
25E
100
AcDbEntity
  8
0
100
AcDbPolyline
 62
250
  6
CONTINUOUS
 90
16
 70
0
 10
109.4848522223
 20
148.825238615
 10
109.4849276205
 20
148.8528712033
 10
109.4865704303
 20
148.8796699837
 10
109.4897679456
 20
148.9055154629
 10
109.4944975185
 20
148.9303015301
 10
109.5007399945
 20
148.9539060896
 10
109.5084733428
 20
148.9761980566
 10
109.5176575159
 20
148.9970798842
 10
109.5282439279
 20
149.0164675009
 10
109.5401812885
 20
149.034269737
 10
109.5534049649
 20
149.0504089372
 10
109.5678563812
 20
149.0648344326
 10
109.5834872849
 20
149.0775057545
 10
109.6002423361
 20
149.0883785537
 10
109.6180390305
 20
149.0974013234
 10
109.6307056716
 20
149.1024648576
  0
LWPOLYLINE
  5
25F
100
AcDbEntity
  8
0
100
AcDbPolyline
 62
250
  6
CONTINUOUS
 90
25
 70
0
 10
109.2122190602
 20
148.8299988949
 10
109.2132998839
 20
148.86928432
 10
109.2164526046
 20
148.9070513563
 10
109.2216772225
 20
148.9433000037
 10
109.2290175446
 20
148.97818774
 10
109.2384297638
 20
149.0115570874
 10
109.2497824591
 20
149.0429356131
 10
109.2631061767
 20
149.0722817398
 10
109.2783703703
 20
149.0996370448
 10
109.2953519804
 20
149.1246538271
 10
109.3140602255
 20
149.1472874583
 10
109.3344858869
 20
149.1675825668
 10
109.3563782489
 20
149.1853253369
 10
109.3797659354
 20
149.2004935279
 10
109.4046203225
 20
149.2131093805
 10
109.4306048222
 20
149.2230258013
 10
109.4576645962
 20
149.2302188765
 10
109.4858544828
 20
149.2347125199
 10
109.5150024093
 20
149.2364313805
 10
109.5451871877
 20
149.2353676725
 10
109.576330006
 20
149.2315291816
 10
109.6080223547
 20
149.2248639139
 10
109.6401280639
 20
149.2153545378
 10
109.6727833035
 20
149.2030183848
 10
109.7059880735
 20
149.1878554549
  0
LWPOLYLINE
  5
260
100
AcDbEntity
  8
0
100
AcDbPolyline
 62
250
  6
CONTINUOUS
 90
16
 70
0
 10
109.7059880735
 20
109.5993577112
 10
109.7066955435
 20
109.6170147225
 10
109.7088108667
 20
109.6352024863
 10
109.7123128662
 20
109.6537390284
 10
109.7171664911
 20
109.672438886
 10
109.7233231691
 20
109.6911149694
 10
109.7307212944
 20
109.7095804338
 10
109.7392868392
 20
109.7276505364
 10
109.7489340985
 20
109.7451444953
 10
109.7595665522
 20
109.7618873034
 10
109.7710778191
 20
109.7777114588
 10
109.7833527286
 20
109.7924586539
 10
109.7962684811
 20
109.8059813668
 10
109.8096958612
 20
109.8181443168
 10
109.8235005292
 20
109.8288258214
 10
109.8375443746
 20
109.8379190236
  0
LWPOLYLINE
  5
261
100
AcDbEntity
  8
0
100
AcDbPolyline
 62
250
  6
CONTINUOUS
 90
10
 70
0
 10
110.4336415529
 20
110.9946150004
 10
110.4330540136
 20
110.9825112948
 10
110.4293003576
 20
110.9617550544
 10
110.4221021229
 20
110.9412272695
 10
110.4115093383
 20
110.9210705977
 10
110.3975956231
 20
110.9014251167
 10
110.3804576719
 20
110.8824273491
 10
110.3602145866
 20
110.8642093177
 10
110.3370070495
 20
110.8468976287
 10
110.3109963436
 20
110.8306125882
  0
LINE
  5
262
100
AcDbEntity
  8
0
100
AcDbLine
 62
7
  6
CONTINUOUS
 10
110.4336415535
 20
138.8679313528
 11
113.282717577
 21
140.475340611
  0
LINE
  5
263
100
AcDbEntity
  8
0
100
AcDbLine
 62
7
  6
CONTINUOUS
 10
110.5602685203
 20
139.2268200947
 11
110.7016898765
 21
139.2975307728
  0
LINE
  5
264
100
AcDbEntity
  8
0
100
AcDbLine
 62
7
  6
CONTINUOUS
 10
110.9138219109
 20
139.40359679
 11
111.0552432671
 21
139.4743074681
  0
LINE
  5
265
100
AcDbEntity
  8
0
100
AcDbLine
 62
7
  6
CONTINUOUS
 10
111.2673753015
 20
139.5803734853
 11
111.4087966577
 21
139.6510841634
  0
LINE
  5
266
100
AcDbEntity
  8
0
100
AcDbLine
 62
7
  6
CONTINUOUS
 10
111.6209286921
 20
139.7571501806
 11
111.7623500483
 21
139.8278608587
  0
LINE
  5
267
100
AcDbEntity
  8
0
100
AcDbLine
 62
7
  6
CONTINUOUS
 10
111.9744820827
 20
139.9339268759
 11
112.1159034389
 21
140.004637554
  0
LINE
  5
268
100
AcDbEntity
  8
0
100
AcDbLine
 62
7
  6
CONTINUOUS
 10
112.3280354733
 20
140.1107035712
 11
112.4694568295
 21
140.1814142493
  0
LINE
  5
269
100
AcDbEntity
  8
0
100
AcDbLine
 62
7
  6
CONTINUOUS
 10
112.6815888639
 20
140.2874802665
 11
112.8230102201
 21
140.3581909446
  0
LINE
  5
26A
100
AcDbEntity
  8
0
100
AcDbLine
 62
7
  6
CONTINUOUS
 10
113.0351422545
 20
140.4642569617
 11
113.1765636107
 21
140.5349676399
  0
LINE
  5
26B
100
AcDbEntity
  8
SMUSSO
100
AcDbLine
 62
7
  6
CONTINUOUS
 10
95.1056233317
 20
98.5971848552
 11
95.0848597175
 21
98.6104003033
  0
LINE
  5
26C
100
AcDbEntity
  8
0
100
AcDbLine
 62
7
  6
CONTINUOUS
 10
112.1159034389
 20
120.5190659688
 11
112.1159034389
 21
125.3882717068
  0
LINE
  5
26D
100
AcDbEntity
  8
0
100
AcDbLine
 62
7
  6
CONTINUOUS
 10
112.1159034389
 20
140.004637554
 11
112.1159034389
 21
144.873843292
  0
LINE
  5
26E
100
AcDbEntity
  8
0
100
AcDbLine
 62
7
  6
CONTINUOUS
 10
112.3280354733
 20
144.873843292
 11
112.3280354733
 21
140.1107035712
  0
LINE
  5
26F
100
AcDbEntity
  8
0
100
AcDbLine
 62
7
  6
CONTINUOUS
 10
112.3280354733
 20
125.3882717068
 11
112.3280354733
 21
120.625131986
  0
LINE
  5
270
100
AcDbEntity
  8
0
100
AcDbLine
 62
7
  6
CONTINUOUS
 10
112.4694568295
 20
120.6958426641
 11
112.4694568295
 21
125.5650484021
  0
LINE
  5
271
100
AcDbEntity
  8
0
100
AcDbLine
 62
7
  6
CONTINUOUS
 10
112.4694568295
 20
140.1814142493
 11
112.4694568295
 21
145.0506199873
  0
LINE
  5
272
100
AcDbEntity
  8
0
100
AcDbLine
 62
7
  6
CONTINUOUS
 10
112.6815888639
 20
145.0506199873
 11
112.6815888639
 21
140.2874802665
  0
LINE
  5
273
100
AcDbEntity
  8
0
100
AcDbLine
 62
7
  6
CONTINUOUS
 10
112.6815888639
 20
125.5650484021
 11
112.6815888639
 21
120.8019086813
  0
LINE
  5
274
100
AcDbEntity
  8
0
100
AcDbLine
 62
7
  6
CONTINUOUS
 10
112.8230102201
 20
120.8726193594
 11
112.8230102201
 21
125.7418250974
  0
LINE
  5
275
100
AcDbEntity
  8
0
100
AcDbLine
 62
7
  6
CONTINUOUS
 10
112.8230102201
 20
140.3581909446
 11
112.8230102201
 21
145.2273966826
  0
LINE
  5
276
100
AcDbEntity
  8
0
100
AcDbLine
 62
7
  6
CONTINUOUS
 10
113.0351422545
 20
145.2273966826
 11
113.0351422545
 21
140.4642569617
  0
LINE
  5
277
100
AcDbEntity
  8
0
100
AcDbLine
 62
7
  6
CONTINUOUS
 10
113.0351422545
 20
125.7418250974
 11
113.0351422545
 21
120.9786853766
  0
LINE
  5
278
100
AcDbEntity
  8
0
100
AcDbLine
 62
7
  6
CONTINUOUS
 10
113.1765636107
 20
121.0493960547
 11
113.1765636107
 21
125.9186017927
  0
LINE
  5
279
100
AcDbEntity
  8
0
100
AcDbLine
 62
7
  6
CONTINUOUS
 10
113.1765636107
 20
140.5349676399
 11
113.1765636107
 21
145.4041733779
  0
LINE
  5
27A
100
AcDbEntity
  8
0
100
AcDbLine
 62
250
  6
CONTINUOUS
 10
113.282717577
 20
145.6760203903
 11
113.282717577
 21
140.475340611
  0
LINE
  5
27B
100
AcDbEntity
  8
0
100
AcDbLine
 62
250
  6
CONTINUOUS
 10
113.282717577
 20
126.1904488051
 11
113.282717577
 21
120.9897690258
  0
LINE
  5
27C
100
AcDbEntity
  8
0
100
AcDbLine
 62
250
  6
CONTINUOUS
 10
113.349568095
 20
145.7084387633
 11
113.349568095
 21
140.5167912288
  0
LINE
  5
27D
100
AcDbEntity
  8
0
100
AcDbLine
 62
250
  6
CONTINUOUS
 10
113.349568095
 20
126.2228671782
 11
113.349568095
 21
121.0312196437
  0
LINE
  5
27E
100
AcDbEntity
  8
0
100
AcDbLine
 62
7
  6
CONTINUOUS
 10
114.5907771731
 20
122.0426222792
 11
114.5907771731
 21
126.7284978602
  0
LINE
  5
27F
100
AcDbEntity
  8
0
100
AcDbLine
 62
7
  6
CONTINUOUS
 10
114.5907771731
 20
141.5281938644
 11
114.5907771731
 21
146.2140694454
  0
LINE
  5
280
100
AcDbEntity
  8
SMUSSO
100
AcDbLine
 62
7
  6
CONTINUOUS
 10
95.1056233317
 20
98.5971848552
 11
207.2606213666
 21
42.5196858378
  0
LINE
  5
281
100
AcDbEntity
  8
SMUSSO
100
AcDbLine
 62
7
  6
CONTINUOUS
 10
94.7021704177
 20
98.9884845359
 11
206.2507222189
 21
43.2142086352
  0
LINE
  5
282
100
AcDbEntity
  8
0
100
AcDbLine
 62
7
  6
CONTINUOUS
 10
113.349568095
 20
121.0312196437
 11
114.4701592322
 21
121.7959436061
  0
LINE
  5
283
100
AcDbEntity
  8
0
100
AcDbLine
 62
7
  6
CONTINUOUS
 10
114.4701592322
 20
126.8277546056
 11
113.349568095
 21
126.2228671782
  0
LINE
  5
284
100
AcDbEntity
  8
0
100
AcDbLine
 62
7
  6
CONTINUOUS
 10
113.1765636107
 20
125.9186017927
 11
110.4336415535
 21
124.5471407641
  0
LINE
  5
285
100
AcDbEntity
  8
0
100
AcDbLine
 62
7
  6
CONTINUOUS
 10
110.5602685203
 20
124.5043882303
 11
110.7016898765
 21
124.5750989085
  0
LINE
  5
286
100
AcDbEntity
  8
0
100
AcDbLine
 62
7
  6
CONTINUOUS
 10
110.9138219109
 20
124.6811649256
 11
111.0552432671
 21
124.7518756038
  0
LINE
  5
287
100
AcDbEntity
  8
0
100
AcDbLine
 62
7
  6
CONTINUOUS
 10
111.2673753015
 20
124.8579416209
 11
111.4087966577
 21
124.928652299
  0
LINE
  5
288
100
AcDbEntity
  8
0
100
AcDbLine
 62
7
  6
CONTINUOUS
 10
111.6209286921
 20
125.0347183162
 11
111.7623500483
 21
125.1054289943
  0
LINE
  5
289
100
AcDbEntity
  8
0
100
AcDbLine
 62
7
  6
CONTINUOUS
 10
111.9744820827
 20
125.2114950115
 11
112.1159034389
 21
125.2822056896
  0
LINE
  5
28A
100
AcDbEntity
  8
0
100
AcDbLine
 62
7
  6
CONTINUOUS
 10
112.3280354733
 20
125.3882717068
 11
112.4694568295
 21
125.4589823849
  0
LINE
  5
28B
100
AcDbEntity
  8
0
100
AcDbLine
 62
7
  6
CONTINUOUS
 10
112.6815888639
 20
125.5650484021
 11
112.8230102201
 21
125.6357590802
  0
LINE
  5
28C
100
AcDbEntity
  8
0
100
AcDbLine
 62
7
  6
CONTINUOUS
 10
113.0351422545
 20
125.7418250974
 11
113.1765636107
 21
125.8125357755
  0
LINE
  5
28D
100
AcDbEntity
  8
0
100
AcDbLine
 62
7
  6
CONTINUOUS
 10
110.4336415535
 20
125.2394025065
 11
114.1173554112
 21
127.0041565161
  0
LINE
  5
28E
100
AcDbEntity
  8
0
100
AcDbLine
 62
7
  6
CONTINUOUS
 10
113.282717577
 20
126.1904488051
 11
110.4336415535
 21
124.9487820397
  0
LINE
  5
28F
100
AcDbEntity
  8
0
100
AcDbLine
 62
250
  6
CONTINUOUS
 10
125.9995473568
 20
105.2977280022
 11
125.9995359183
 21
105.2987236966
  0
LINE
  5
290
100
AcDbEntity
  8
0
100
AcDbLine
 62
250
  6
CONTINUOUS
 10
126.516546431
 20
105.6187153952
 11
126.516546431
 21
106.0508100656
  0
LINE
  5
291
100
AcDbEntity
  8
0
100
AcDbLine
 62
7
  6
CONTINUOUS
 10
126.5679174659
 20
106.1063821629
 11
126.5679174659
 21
105.636068329
  0
LWPOLYLINE
  5
292
100
AcDbEntity
  8
0
100
AcDbPolyline
 62
250
  6
CONTINUOUS
 90
5
 70
0
 10
124.572067018
 20
104.3509463779
 10
124.5658084993
 20
104.3301120763
 10
124.5576787104
 20
104.3110642964
 10
124.5477539075
 20
104.2939822089
 10
124.5361254552
 20
104.279025649
  0
LINE
  5
293
100
AcDbEntity
  8
0
100
AcDbLine
 62
7
  6
CONTINUOUS
 10
110.4336415535
 20
119.3823597677
 11
113.282717577
 21
120.9897690258
  0
LINE
  5
294
100
AcDbEntity
  8
0
100
AcDbLine
 62
7
  6
CONTINUOUS
 10
110.5602685203
 20
119.7412485095
 11
110.7016898765
 21
119.8119591876
  0
LINE
  5
295
100
AcDbEntity
  8
0
100
AcDbLine
 62
7
  6
CONTINUOUS
 10
110.9138219109
 20
119.9180252048
 11
111.0552432671
 21
119.9887358829
  0
LINE
  5
296
100
AcDbEntity
  8
0
100
AcDbLine
 62
7
  6
CONTINUOUS
 10
111.2673753015
 20
120.0948019001
 11
111.4087966577
 21
120.1655125782
  0
LINE
  5
297
100
AcDbEntity
  8
0
100
AcDbLine
 62
7
  6
CONTINUOUS
 10
111.6209286921
 20
120.2715785954
 11
111.7623500483
 21
120.3422892735
  0
LINE
  5
298
100
AcDbEntity
  8
0
100
AcDbLine
 62
7
  6
CONTINUOUS
 10
111.9744820827
 20
120.4483552907
 11
112.1159034389
 21
120.5190659688
  0
LINE
  5
299
100
AcDbEntity
  8
0
100
AcDbLine
 62
7
  6
CONTINUOUS
 10
112.3280354733
 20
120.625131986
 11
112.4694568295
 21
120.6958426641
  0
LINE
  5
29A
100
AcDbEntity
  8
0
100
AcDbLine
 62
7
  6
CONTINUOUS
 10
112.6815888639
 20
120.8019086813
 11
112.8230102201
 21
120.8726193594
  0
LINE
  5
29B
100
AcDbEntity
  8
0
100
AcDbLine
 62
7
  6
CONTINUOUS
 10
113.0351422545
 20
120.9786853766
 11
113.1765636107
 21
121.0493960547
  0
LINE
  5
29C
100
AcDbEntity
  8
SMUSSO
100
AcDbLine
 62
7
  6
CONTINUOUS
 10
206.2507222189
 20
43.2142086352
 11
207.2602589363
 21
42.5227006939
  0
LWPOLYLINE
  5
29D
100
AcDbEntity
  8
0
100
AcDbPolyline
 62
250
  6
CONTINUOUS
 90
9
 70
0
 10
124.572067018
 20
104.3509463779
 10
124.5747349603
 20
104.3432749048
 10
124.5768519005
 20
104.3357970972
 10
124.5783138163
 20
104.3286219433
 10
124.5790114597
 20
104.3218571683
 10
124.5788338627
 20
104.3156409195
 10
124.5776810012
 20
104.3101303223
 10
124.5754568314
 20
104.3054601241
 10
124.5731181367
 20
104.3026716342
  0
LINE
  5
29E
100
AcDbEntity
  8
0
100
AcDbLine
 62
250
  6
CONTINUOUS
 10
109.4848522223
 20
110.4462230045
 11
110.1006491125
 21
110.7631666239
  0
LINE
  5
29F
100
AcDbEntity
  8
0
100
AcDbLine
 62
250
  6
CONTINUOUS
 10
109.8375443746
 20
109.8379190236
 11
110.4533412648
 21
110.154862643
  0
LINE
  5
2A0
100
AcDbEntity
  8
0
100
AcDbLine
 62
250
  6
CONTINUOUS
 10
110.3109963436
 20
110.8306125882
 11
110.1017265107
 21
110.7295137594
  0
LINE
  5
2A1
100
AcDbEntity
  8
0
100
AcDbLine
 62
250
  6
CONTINUOUS
 10
110.6636884959
 20
110.2223086073
 11
110.4881019844
 21
110.1374822832
  0
LWPOLYLINE
  5
2A2
100
AcDbEntity
  8
0
100
AcDbPolyline
 62
250
  6
CONTINUOUS
 90
16
 70
0
 10
159.4168005245
 20
85.3486925523
 10
159.431635768
 20
85.3419823739
 10
159.4477374753
 20
85.3360467727
 10
159.4649445527
 20
85.3309451329
 10
159.4830848473
 20
85.3267284951
 10
159.50197687
 20
85.323439046
 10
159.5214316106
 20
85.3211096955
 10
159.541254429
 20
85.3197637483
 10
159.5612470027
 20
85.3194146702
 10
159.5812093108
 20
85.3200659538
 10
159.6009416352
 20
85.3217110831
 10
159.6202465586
 20
85.3243335989
 10
159.63893094
 20
85.3279072636
 10
159.6568078466
 20
85.3323963236
 10
159.6736984241
 20
85.3377558668
 10
159.6894336865
 20
85.3439322724
  0
LWPOLYLINE
  5
2A3
100
AcDbEntity
  8
0
100
AcDbPolyline
 62
250
  6
CONTINUOUS
 90
16
 70
0
 10
109.2122190602
 20
110.4509832844
 10
109.2270543038
 20
110.444273106
 10
109.2431560111
 20
110.4383375048
 10
109.2603630884
 20
110.433235865
 10
109.2785033831
 20
110.4290192273
 10
109.2973954058
 20
110.4257297781
 10
109.3168501464
 20
110.4234004276
 10
109.3366729648
 20
110.4220544804
 10
109.3566655385
 20
110.4217054024
 10
109.3766278466
 20
110.4223566859
 10
109.3963601709
 20
110.4240018152
 10
109.4156650944
 20
110.426624331
 10
109.4343494757
 20
110.4301979957
 10
109.4522263823
 20
110.4346870557
 10
109.4691169599
 20
110.4400465989
 10
109.4848522223
 20
110.4462230045
  0
LWPOLYLINE
  5
2A4
100
AcDbEntity
  8
0
100
AcDbPolyline
 62
250
  6
CONTINUOUS
 90
9
 70
0
 10
161.0671916938
 20
85.1229534583
 10
161.058564915
 20
85.126994955
 10
161.0344379975
 20
85.1356648803
 10
161.008984898
 20
85.1411384686
 10
160.9823825033
 20
85.143377681
 10
160.9548156874
 20
85.1423669559
 10
160.9264760264
 20
85.1381133176
 10
160.8975604676
 20
85.1306463266
 10
160.8682699602
 20
85.1200178752
  0
LWPOLYLINE
  5
2A5
100
AcDbEntity
  8
0
100
AcDbPolyline
 62
250
  6
CONTINUOUS
 90
9
 70
0
 10
110.8626102296
 20
110.2252441905
 10
110.8539834508
 20
110.2292856871
 10
110.8298565333
 20
110.2379556125
 10
110.8044034338
 20
110.2434292007
 10
110.7778010391
 20
110.2456684131
 10
110.7502342231
 20
110.244657688
 10
110.7218945622
 20
110.2404040497
 10
110.6929790033
 20
110.2329370588
 10
110.6636884959
 20
110.2223086073
  0
LINE
  5
2A6
100
AcDbEntity
  8
0
100
AcDbLine
 62
250
  6
CONTINUOUS
 10
191.2469045631
 20
68.8288994664
 11
159.9105695377
 21
84.4970669791
  0
LINE
  5
2A7
100
AcDbEntity
  8
0
100
AcDbLine
 62
250
  6
CONTINUOUS
 10
141.0423230989
 20
93.9311901985
 11
109.7059880735
 21
109.5993577112
  0
LINE
  5
2A8
100
AcDbEntity
  8
0
100
AcDbLine
 62
250
  6
CONTINUOUS
 10
191.3784608642
 20
69.0674607788
 11
160.0421258388
 21
84.7356282915
  0
LINE
  5
2A9
100
AcDbEntity
  8
0
100
AcDbLine
 62
250
  6
CONTINUOUS
 10
141.1738794
 20
94.1697515109
 11
109.8375443746
 21
109.8379190236
  0
LINE
  5
2AA
100
AcDbEntity
  8
RACCORDO
100
AcDbLine
 62
7
  6
CONTINUOUS
 10
110.4533412648
 20
110.154862643
 11
141.4775134683
 21
94.6427765413
  0
LINE
  5
2AB
100
AcDbEntity
  8
RACCORDO
100
AcDbLine
 62
7
  6
CONTINUOUS
 10
160.6579227291
 20
85.0525719109
 11
191.6820949326
 21
69.5404858092
  0
LINE
  5
2AC
100
AcDbEntity
  8
0
100
AcDbLine
 62
250
  6
CONTINUOUS
 10
110.6636884959
 20
110.2223086073
 11
141.4775134683
 21
94.8153961211
  0
LINE
  5
2AD
100
AcDbEntity
  8
0
100
AcDbLine
 62
250
  6
CONTINUOUS
 10
160.8682699602
 20
85.1200178752
 11
191.6820949326
 21
69.713105389
  0
LINE
  5
2AE
100
AcDbEntity
  8
0
100
AcDbLine
 62
7
  6
CONTINUOUS
 10
110.8626326559
 20
110.2252329792
 11
141.4775134683
 21
94.9177925729
  0
LINE
  5
2AF
100
AcDbEntity
  8
0
100
AcDbLine
 62
7
  6
CONTINUOUS
 10
161.0672141201
 20
85.1229422471
 11
191.6820949326
 21
69.8155018408
  0
LINE
  5
2B0
100
AcDbEntity
  8
0
100
AcDbLine
 62
7
  6
CONTINUOUS
 10
188.7309231805
 20
71.4398938582
 11
184.841835884
 21
73.3844375065
  0
LINE
  5
2B1
100
AcDbEntity
  8
0
100
AcDbLine
 62
7
  6
CONTINUOUS
 10
134.6372544197
 20
98.4867282386
 11
138.5263417162
 21
96.5421845903
  0
LINE
  5
2B2
100
AcDbEntity
  8
0
100
AcDbLine
 62
7
  6
CONTINUOUS
 10
188.8723445367
 20
71.5106045363
 11
184.9832572402
 21
73.4551481846
  0
LINE
  5
2B3
100
AcDbEntity
  8
0
100
AcDbLine
 62
7
  6
CONTINUOUS
 10
134.7786757759
 20
98.5574389167
 11
138.6677630725
 21
96.6128952685
  0
LINE
  5
2B4
100
AcDbEntity
  8
0
100
AcDbLine
 62
7
  6
CONTINUOUS
 10
189.0844765711
 20
71.6166705535
 11
185.1953892745
 21
73.5612142018
  0
LINE
  5
2B5
100
AcDbEntity
  8
0
100
AcDbLine
 62
7
  6
CONTINUOUS
 10
134.9908078103
 20
98.6635049339
 11
138.8798951068
 21
96.7189612856
  0
LINE
  5
2B6
100
AcDbEntity
  8
0
100
AcDbLine
 62
7
  6
CONTINUOUS
 10
189.2258979273
 20
71.6873812316
 11
185.3368106308
 21
73.6319248799
  0
LINE
  5
2B7
100
AcDbEntity
  8
0
100
AcDbLine
 62
7
  6
CONTINUOUS
 10
135.1322291665
 20
98.734215612
 11
139.0213164631
 21
96.7896719637
  0
LINE
  5
2B8
100
AcDbEntity
  8
0
100
AcDbLine
 62
7
  6
CONTINUOUS
 10
189.4380299617
 20
71.7934472488
 11
185.5489426651
 21
73.7379908971
  0
LINE
  5
2B9
100
AcDbEntity
  8
0
100
AcDbLine
 62
7
  6
CONTINUOUS
 10
135.3443612009
 20
98.8402816292
 11
139.2334484974
 21
96.8957379809
  0
LINE
  5
2BA
100
AcDbEntity
  8
0
100
AcDbLine
 62
7
  6
CONTINUOUS
 10
189.5794513179
 20
71.8641579269
 11
185.6903640214
 21
73.8087015752
  0
LINE
  5
2BB
100
AcDbEntity
  8
0
100
AcDbLine
 62
7
  6
CONTINUOUS
 10
135.4857825571
 20
98.9109923073
 11
139.3748698537
 21
96.966448659
  0
LINE
  5
2BC
100
AcDbEntity
  8
0
100
AcDbLine
 62
7
  6
CONTINUOUS
 10
189.7915833523
 20
71.9702239441
 11
185.9024960557
 21
73.9147675924
  0
LINE
  5
2BD
100
AcDbEntity
  8
0
100
AcDbLine
 62
7
  6
CONTINUOUS
 10
135.6979145915
 20
99.0170583245
 11
139.587001888
 21
97.0725146762
  0
LINE
  5
2BE
100
AcDbEntity
  8
0
100
AcDbLine
 62
7
  6
CONTINUOUS
 10
189.9330047085
 20
72.0409346222
 11
186.043917412
 21
73.9854782705
  0
LINE
  5
2BF
100
AcDbEntity
  8
0
100
AcDbLine
 62
7
  6
CONTINUOUS
 10
135.8393359477
 20
99.0877690026
 11
139.7284232442
 21
97.1432253543
  0
LINE
  5
2C0
100
AcDbEntity
  8
0
100
AcDbLine
 62
7
  6
CONTINUOUS
 10
190.1451367429
 20
72.1470006394
 11
186.2560494463
 21
74.0915442877
  0
LINE
  5
2C1
100
AcDbEntity
  8
0
100
AcDbLine
 62
7
  6
CONTINUOUS
 10
136.0514679821
 20
99.1938350198
 11
139.9405552786
 21
97.2492913715
  0
LINE
  5
2C2
100
AcDbEntity
  8
0
100
AcDbLine
 62
7
  6
CONTINUOUS
 10
190.2865580991
 20
72.2177113175
 11
186.3974708026
 21
74.1622549658
  0
LINE
  5
2C3
100
AcDbEntity
  8
0
100
AcDbLine
 62
7
  6
CONTINUOUS
 10
136.1928893383
 20
99.2645456979
 11
140.0819766348
 21
97.3200020496
  0
LINE
  5
2C4
100
AcDbEntity
  8
0
100
AcDbLine
 62
7
  6
CONTINUOUS
 10
190.4986901334
 20
72.3237773347
 11
186.6096028369
 21
74.268320983
  0
LINE
  5
2C5
100
AcDbEntity
  8
0
100
AcDbLine
 62
7
  6
CONTINUOUS
 10
136.4050213727
 20
99.3706117151
 11
140.2941086692
 21
97.4260680668
  0
LINE
  5
2C6
100
AcDbEntity
  8
0
100
AcDbLine
 62
7
  6
CONTINUOUS
 10
190.6401114897
 20
72.3944880128
 11
186.7510241932
 21
74.3390316611
  0
LINE
  5
2C7
100
AcDbEntity
  8
0
100
AcDbLine
 62
7
  6
CONTINUOUS
 10
136.5464427289
 20
99.4413223932
 11
140.4355300254
 21
97.4967787449
  0
LWPOLYLINE
  5
2C8
100
AcDbEntity
  8
0
100
AcDbPolyline
 62
250
  6
CONTINUOUS
 90
24
 70
0
 10
109.8375443746
 20
109.8379190236
 10
109.8138037416
 20
109.8500237116
 10
109.7902144553
 20
109.8639587415
 10
109.7668676823
 20
109.8796644021
 10
109.7438367346
 20
109.8970790921
 10
109.7212309032
 20
109.9161244864
 10
109.6991935653
 20
109.9366985301
 10
109.6778201193
 20
109.9587045499
 10
109.6571873099
 20
109.9820461202
 10
109.6374044862
 20
110.0066040201
 10
109.6185636341
 20
110.0322528267
 10
109.6007237433
 20
110.0588920834
 10
109.5839403258
 20
110.0864345944
 10
109.5682762397
 20
110.1147806517
 10
109.5538035928
 20
110.1437936039
 10
109.5405862425
 20
110.1733286298
 10
109.5287043454
 20
110.2031949835
 10
109.5181758275
 20
110.2333342151
 10
109.5089827282
 20
110.2638006306
 10
109.501169727
 20
110.294542064
 10
109.4948166477
 20
110.3253557184
 10
109.4899687042
 20
110.356068083
 10
109.4866663682
 20
110.386532514
 10
109.4849500136
 20
110.4166288964
  0
LWPOLYLINE
  5
2C9
100
AcDbEntity
  8
0
100
AcDbPolyline
 62
250
  6
CONTINUOUS
 90
24
 70
0
 10
160.0421258388
 20
84.7356282915
 10
160.0183852058
 20
84.7477329795
 10
159.9947959196
 20
84.7616680094
 10
159.9714491465
 20
84.77737367
 10
159.9484181989
 20
84.79478836
 10
159.9258123674
 20
84.8138337542
 10
159.9037750295
 20
84.834407798
 10
159.8824015836
 20
84.8564138178
 10
159.8617687741
 20
84.879755388
 10
159.8419859504
 20
84.904313288
 10
159.8231450983
 20
84.9299620946
 10
159.8053052075
 20
84.9566013512
 10
159.7885217901
 20
84.9841438623
 10
159.772857704
 20
85.0124899196
 10
159.7583850571
 20
85.0415028718
 10
159.7451677067
 20
85.0710378977
 10
159.7332858096
 20
85.1009042514
 10
159.7227572918
 20
85.131043483
 10
159.7135641924
 20
85.1615098984
 10
159.7057511913
 20
85.1922513319
 10
159.699398112
 20
85.2230649863
 10
159.6945501685
 20
85.2537773509
 10
159.6912478324
 20
85.2842417819
 10
159.6895314779
 20
85.3143381643
  0
LWPOLYLINE
  5
2CA
100
AcDbEntity
  8
0
100
AcDbPolyline
 62
7
  6
CONTINUOUS
 90
30
 70
0
 10
110.8626102296
 20
110.2252441905
 10
110.851707177
 20
110.2309588733
 10
110.835818533
 20
110.2401675387
 10
110.8182870864
 20
110.2514539978
 10
110.7994265713
 20
110.2648417068
 10
110.7794060126
 20
110.2804154134
 10
110.7584143812
 20
110.2982264407
 10
110.7367952547
 20
110.3181586659
 10
110.7147616593
 20
110.3401637209
 10
110.6924763043
 20
110.3642197764
 10
110.6701870556
 20
110.3901898014
 10
110.6480797901
 20
110.4179704748
 10
110.6263236233
 20
110.4474523168
 10
110.6051155702
 20
110.4784618008
 10
110.5846095383
 20
110.5108558765
 10
110.5649612512
 20
110.5444578618
 10
110.5463448322
 20
110.5790199155
 10
110.5288747291
 20
110.6143653772
 10
110.5126722883
 20
110.6502667873
 10
110.4978845792
 20
110.686375126
 10
110.4845779196
 20
110.7224698543
 10
110.4728037821
 20
110.7583233616
 10
110.4626337879
 20
110.7935613877
 10
110.454061835
 20
110.8279743773
 10
110.4470680396
 20
110.8613496782
 10
110.4416385167
 20
110.8933129252
 10
110.4376917214
 20
110.9236975028
 10
110.4351342121
 20
110.9523230733
 10
110.433857929
 20
110.9788284066
 10
110.4336415529
 20
110.9946150004
  0
LWPOLYLINE
  5
2CB
100
AcDbEntity
  8
0
100
AcDbPolyline
 62
7
  6
CONTINUOUS
 90
30
 70
0
 10
161.0671916938
 20
85.1229534583
 10
161.0562886412
 20
85.1286681412
 10
161.0403999972
 20
85.1378768066
 10
161.0228685507
 20
85.1491632656
 10
161.0040080355
 20
85.1625509747
 10
160.9839874769
 20
85.1781246812
 10
160.9629958454
 20
85.1959357086
 10
160.9413767189
 20
85.2158679338
 10
160.9193431235
 20
85.2378729888
 10
160.8970577686
 20
85.2619290443
 10
160.8747685199
 20
85.2878990693
 10
160.8526612544
 20
85.3156797427
 10
160.8309050876
 20
85.3451615846
 10
160.8096970344
 20
85.3761710686
 10
160.7891910025
 20
85.4085651443
 10
160.7695427154
 20
85.4421671297
 10
160.7509262965
 20
85.4767291834
 10
160.7334561933
 20
85.5120746451
 10
160.7172537525
 20
85.5479760552
 10
160.7024660435
 20
85.5840843939
 10
160.6891593839
 20
85.6201791222
 10
160.6773852464
 20
85.6560326295
 10
160.6672152522
 20
85.6912706555
 10
160.6586432992
 20
85.7256836452
 10
160.6516495039
 20
85.7590589461
 10
160.646219981
 20
85.7910221931
 10
160.6422731856
 20
85.8214067707
 10
160.6397156763
 20
85.8500323412
 10
160.6384393933
 20
85.8765376744
 10
160.6382230171
 20
85.8923242683
  0
LWPOLYLINE
  5
2CC
100
AcDbEntity
  8
0
100
AcDbPolyline
 62
250
  6
CONTINUOUS
 90
25
 70
0
 10
109.7059880735
 20
109.5993577112
 10
109.6734704138
 20
109.6169402742
 10
109.641346665
 20
109.6368634272
 10
109.609616827
 20
109.6591271701
 10
109.5781344357
 20
109.6838583876
 10
109.5470459552
 20
109.710930195
 10
109.5167907778
 20
109.7399619391
 10
109.4873903807
 20
109.7709802924
 10
109.4588232868
 20
109.8039585823
 10
109.4314644563
 20
109.8384361373
 10
109.4053465647
 20
109.8744079104
 10
109.3804369366
 20
109.9118789485
 10
109.3570125062
 20
109.9504037218
 10
109.3350797471
 20
109.9900140505
 10
109.3146321855
 20
110.0306781143
 10
109.2959273342
 20
110.0718549227
 10
109.2790071065
 20
110.113456356
 10
109.263829589
 20
110.1555705338
 10
109.250526554
 20
110.1979208247
 10
109.2390721838
 20
110.2406166625
 10
109.2294922961
 20
110.2835486133
 10
109.2219961173
 20
110.3261117442
 10
109.2166533894
 20
110.3681044108
 10
109.2133943704
 20
110.4097282576
 10
109.2122190602
 20
110.4509832844
  0
LWPOLYLINE
  5
2CD
100
AcDbEntity
  8
0
100
AcDbPolyline
 62
250
  6
CONTINUOUS
 90
25
 70
0
 10
159.9105695377
 20
84.4970669791
 10
159.8780518781
 20
84.5146495421
 10
159.8459281292
 20
84.534572695
 10
159.8141982912
 20
84.556836438
 10
159.7827158999
 20
84.5815676555
 10
159.7516274194
 20
84.6086394629
 10
159.721372242
 20
84.6376712069
 10
159.691971845
 20
84.6686895603
 10
159.663404751
 20
84.7016678502
 10
159.6360459205
 20
84.7361454052
 10
159.609928029
 20
84.7721171782
 10
159.5850184009
 20
84.8095882164
 10
159.5615939704
 20
84.8481129897
 10
159.5396612113
 20
84.8877233184
 10
159.5192136498
 20
84.9283873822
 10
159.5005087985
 20
84.9695641906
 10
159.4835885707
 20
85.0111656239
 10
159.4684110532
 20
85.0532798017
 10
159.4551080183
 20
85.0956300926
 10
159.443653648
 20
85.1383259304
 10
159.4340737604
 20
85.1812578812
 10
159.4265775815
 20
85.2238210121
 10
159.4212348537
 20
85.2658136787
 10
159.4179758346
 20
85.3074375254
 10
159.4168005245
 20
85.3486925523
  0
LWPOLYLINE
  5
2CE
100
AcDbEntity
  8
0
100
AcDbPolyline
 62
250
  6
CONTINUOUS
 90
9
 70
0
 10
141.5360921121
 20
94.2890467585
 10
141.5226715163
 20
94.2964645264
 10
141.5108001697
 20
94.3045155229
 10
141.5005968313
 20
94.3131191916
 10
141.4921635704
 20
94.3221894468
 10
141.4855847435
 20
94.3316355383
 10
141.4809261522
 20
94.3413629593
 10
141.4782343891
 20
94.3512743856
 10
141.4775134982
 20
94.3597027634
  0
LWPOLYLINE
  5
2CF
100
AcDbEntity
  8
0
100
AcDbPolyline
 62
250
  6
CONTINUOUS
 90
9
 70
0
 10
191.7406735763
 20
69.1867560263
 10
191.7272529805
 20
69.1941737943
 10
191.715381634
 20
69.2022247908
 10
191.7051782955
 20
69.2108284594
 10
191.6967450347
 20
69.2198987147
 10
191.6901662078
 20
69.2293448062
 10
191.6855076165
 20
69.2390722271
 10
191.6828158534
 20
69.2489836535
 10
191.6820949625
 20
69.2574120313
  0
LINE
  5
2D0
100
AcDbEntity
  8
0
100
AcDbLine
 62
7
  6
CONTINUOUS
 10
138.6677630725
 20
96.6128952685
 11
138.7738290896
 21
96.5360244665
  0
LINE
  5
2D1
100
AcDbEntity
  8
0
100
AcDbLine
 62
7
  6
CONTINUOUS
 10
139.0213164631
 20
96.7896719637
 11
139.1273824802
 21
96.7128011618
  0
LINE
  5
2D2
100
AcDbEntity
  8
0
100
AcDbLine
 62
7
  6
CONTINUOUS
 10
139.3748698537
 20
96.966448659
 11
139.4809358708
 21
96.8895778571
  0
LINE
  5
2D3
100
AcDbEntity
  8
0
100
AcDbLine
 62
7
  6
CONTINUOUS
 10
139.7284232442
 20
97.1432253543
 11
139.8344892614
 21
97.0663545524
  0
LINE
  5
2D4
100
AcDbEntity
  8
0
100
AcDbLine
 62
7
  6
CONTINUOUS
 10
140.0819766348
 20
97.3200020496
 11
140.188042652
 21
97.2431312477
  0
LINE
  5
2D5
100
AcDbEntity
  8
0
100
AcDbLine
 62
7
  6
CONTINUOUS
 10
140.4355300254
 20
97.4967787449
 11
140.5415960426
 21
97.419907943
  0
LINE
  5
2D6
100
AcDbEntity
  8
0
100
AcDbLine
 62
7
  6
CONTINUOUS
 10
140.789083416
 20
97.6735554402
 11
140.8951494332
 21
97.5966846383
  0
LWPOLYLINE
  5
2D7
100
AcDbEntity
  8
0
100
AcDbPolyline
 62
250
  6
CONTINUOUS
 90
10
 70
0
 10
141.0423230989
 20
133.5196879422
 10
141.043030569
 20
133.502738401
 10
141.0451458923
 20
133.4866659605
 10
141.0486478918
 20
133.4716314179
 10
141.0535015168
 20
133.4577851852
 10
141.0596581948
 20
133.4452657798
 10
141.0670563201
 20
133.4341984407
 10
141.0756218649
 20
133.4246938829
 10
141.0852691243
 20
133.4168471833
 10
141.0943017362
 20
133.4115131821
  0
LINE
  5
2D8
100
AcDbEntity
  8
0
100
AcDbLine
 62
7
  6
CONTINUOUS
 10
141.4775134683
 20
132.7387730471
 11
141.4775134683
 21
94.3597574364
  0
LINE
  5
2D9
100
AcDbEntity
  8
0
100
AcDbLine
 62
250
  6
CONTINUOUS
 10
141.5360921121
 20
132.668062369
 11
141.5360921121
 21
94.2890467585
  0
LWPOLYLINE
  5
2DA
100
AcDbEntity
  8
0
100
AcDbPolyline
 62
7
  6
CONTINUOUS
 90
15
 70
0
 10
141.4775134982
 20
94.3597027634
 10
141.4771999712
 20
94.3415393944
 10
141.475800831
 20
94.3178699918
 10
141.4733322318
 20
94.2954965343
 10
141.4698602166
 20
94.2745407142
 10
141.4654640739
 20
94.2551130478
 10
141.4602497221
 20
94.2373381723
 10
141.4543478676
 20
94.221340889
 10
141.447931892
 20
94.2072610396
 10
141.4412258383
 20
94.195211527
 10
141.4344035757
 20
94.1851331623
 10
141.4275796889
 20
94.1768784974
 10
141.4210671213
 20
94.1704718357
 10
141.4148248581
 20
94.1655388016
 10
141.4138405506
 20
94.1648618301
  0
LWPOLYLINE
  5
2DB
100
AcDbEntity
  8
0
100
AcDbPolyline
 62
250
  6
CONTINUOUS
 90
5
 70
0
 10
141.5360921121
 20
94.2890467585
 10
141.5350112885
 20
94.2497613334
 10
141.5318585677
 20
94.2119942971
 10
141.5266339498
 20
94.1757456497
 10
141.5192936278
 20
94.1408579135
  0
LWPOLYLINE
  5
2DC
100
AcDbEntity
  8
0
100
AcDbPolyline
 62
250
  6
CONTINUOUS
 90
16
 70
0
 10
141.0423230989
 20
93.9311901985
 10
141.0430305423
 20
93.9488468709
 10
141.0451457947
 20
93.967034336
 10
141.0486476935
 20
93.9855706325
 10
141.0535012032
 20
94.0042703092
 10
141.0596577653
 20
94.0229462802
 10
141.0670557851
 20
94.0414116971
 10
141.0756212471
 20
94.0594818176
 10
141.085268456
 20
94.0769758546
 10
141.0959008936
 20
94.0937187844
 10
141.107412185
 20
94.109543098
 10
141.1196871625
 20
94.124290477
 10
141.1326030179
 20
94.1378133773
 10
141.1460305312
 20
94.1499765056
 10
141.1598353632
 20
94.1606581726
 10
141.1738794
 20
94.1697515109
  0
LWPOLYLINE
  5
2DD
100
AcDbEntity
  8
0
100
AcDbPolyline
 62
250
  6
CONTINUOUS
 90
4
 70
0
 10
124.5361254552
 20
104.279025649
 10
124.5229041021
 20
104.2663362796
 10
124.5082190117
 20
104.256036191
 10
124.5016526767
 20
104.2524493872
  0
LINE
  5
2DE
100
AcDbEntity
  8
0
100
AcDbLine
 62
250
  6
CONTINUOUS
 10
125.0724369874
 20
104.8247620737
 11
124.572067018
 21
104.3509463779
  0
LINE
  5
2DF
100
AcDbEntity
  8
0
100
AcDbLine
 62
7
  6
CONTINUOUS
 10
124.5731178047
 20
104.3026713197
 11
125.1850871418
 21
104.8821638853
  0
LINE
  5
2E0
100
AcDbEntity
  8
0
100
AcDbLine
 62
7
  6
CONTINUOUS
 10
126.5562281776
 20
105.6229134234
 11
126.5616376738
 21
105.6268540339
  0
LINE
  5
2E1
100
AcDbEntity
  8
0
100
AcDbLine
 62
7
  6
CONTINUOUS
 10
190.852243524
 20
72.50055403
 11
186.9631562275
 21
74.4450976783
  0
LINE
  5
2E2
100
AcDbEntity
  8
0
100
AcDbLine
 62
7
  6
CONTINUOUS
 10
136.7585747633
 20
99.5473884104
 11
140.6476620598
 21
97.6028447621
  0
LINE
  5
2E3
100
AcDbEntity
  8
0
100
AcDbLine
 62
7
  6
CONTINUOUS
 10
190.9936648803
 20
72.5712647081
 11
187.1045775837
 21
74.5158083564
  0
LINE
  5
2E4
100
AcDbEntity
  8
0
100
AcDbLine
 62
7
  6
CONTINUOUS
 10
136.8999961195
 20
99.6180990885
 11
140.789083416
 21
97.6735554402
  0
LINE
  5
2E5
100
AcDbEntity
  8
0
100
AcDbLine
 62
250
  6
CONTINUOUS
 10
191.3845098447
 20
72.4581583989
 11
187.1381725864
 21
74.581327028
  0
LINE
  5
2E6
100
AcDbEntity
  8
0
100
AcDbLine
 62
250
  6
CONTINUOUS
 10
175.474607268
 20
80.4131096872
 11
171.2282700097
 21
82.5362783163
  0
LINE
  5
2E7
100
AcDbEntity
  8
0
100
AcDbLine
 62
250
  6
CONTINUOUS
 10
121.0236885454
 20
107.6385690485
 11
125.2700258037
 21
105.5154004193
  0
LINE
  5
2E8
100
AcDbEntity
  8
0
100
AcDbLine
 62
250
  6
CONTINUOUS
 10
136.9335911221
 20
99.6836177601
 11
141.1799283804
 21
97.560449131
  0
LINE
  5
2E9
100
AcDbEntity
  8
0
100
AcDbLine
 62
250
  6
CONTINUOUS
 10
191.4511822007
 20
72.490884056
 11
187.2122197393
 21
74.6103652866
  0
LINE
  5
2EA
100
AcDbEntity
  8
0
100
AcDbLine
 62
250
  6
CONTINUOUS
 10
175.541279624
 20
80.4458353443
 11
171.3023171626
 21
82.565316575
  0
LINE
  5
2EB
100
AcDbEntity
  8
0
100
AcDbLine
 62
250
  6
CONTINUOUS
 10
121.0977356984
 20
107.6676073071
 11
125.3366981597
 21
105.5481260764
  0
LINE
  5
2EC
100
AcDbEntity
  8
0
100
AcDbLine
 62
250
  6
CONTINUOUS
 10
137.0076382751
 20
99.7126560188
 11
141.2466007364
 21
97.5931747881
  0
LINE
  5
2ED
100
AcDbEntity
  8
0
100
AcDbLine
 62
7
  6
CONTINUOUS
 10
141.4775134683
 20
98.6879324585
 11
138.5932400083
 21
100.1300691886
  0
LINE
  5
2EE
100
AcDbEntity
  8
0
100
AcDbLine
 62
7
  6
CONTINUOUS
 10
126.5093388221
 20
106.1720197816
 11
122.6833374316
 21
108.0850204769
  0
LINE
  5
2EF
100
AcDbEntity
  8
0
100
AcDbLine
 62
7
  6
CONTINUOUS
 10
172.8879188958
 20
82.9827297448
 11
176.7139202864
 21
81.0697290495
  0
LINE
  5
2F0
100
AcDbEntity
  8
0
100
AcDbLine
 62
7
  6
CONTINUOUS
 10
188.7978214725
 20
75.0277784564
 11
191.6820949326
 21
73.5856417264
  0
LWPOLYLINE
  5
2F1
100
AcDbEntity
  8
0
100
AcDbPolyline
 62
250
  6
CONTINUOUS
 90
3
 70
0
 10
141.5316577829
 20
132.7509412426
 10
141.5349168019
 20
132.7093173958
 10
141.5360921121
 20
132.668062369
  0
LWPOLYLINE
  5
2F2
100
AcDbEntity
  8
0
100
AcDbPolyline
 62
250
  6
CONTINUOUS
 90
21
 70
0
 10
141.5192936278
 20
94.1408579135
 10
141.5098814086
 20
94.107488566
 10
141.4985287133
 20
94.0761100403
 10
141.4852049957
 20
94.0467639136
 10
141.469940802
 20
94.0194086086
 10
141.452959192
 20
93.9943918263
 10
141.4342509469
 20
93.9717581951
 10
141.4138252854
 20
93.9514630866
 10
141.3919329234
 20
93.9337203165
 10
141.3685452369
 20
93.9185521255
 10
141.3436908499
 20
93.905936273
 10
141.3177063502
 20
93.8960198521
 10
141.2906465762
 20
93.8888267769
 10
141.2624566895
 20
93.8843331335
 10
141.2333087631
 20
93.8826142729
 10
141.2031239846
 20
93.8836779809
 10
141.1719811663
 20
93.8875164718
 10
141.1402888177
 20
93.8941817396
 10
141.1081831084
 20
93.9036911156
 10
141.0755278688
 20
93.9160272686
 10
141.0423230989
 20
93.9311901985
  0
LINE
  5
2F3
100
AcDbEntity
  8
0
100
AcDbLine
 62
7
  6
CONTINUOUS
 10
134.5703675855
 20
98.3713655144
 11
134.6372544197
 21
98.4867282386
  0
LINE
  5
2F4
100
AcDbEntity
  8
0
100
AcDbLine
 62
7
  6
CONTINUOUS
 10
134.8954566367
 20
98.4990484863
 11
134.9908078103
 21
98.6635049339
  0
LINE
  5
2F5
100
AcDbEntity
  8
0
100
AcDbLine
 62
7
  6
CONTINUOUS
 10
135.2490100273
 20
98.6758251816
 11
135.3443612009
 21
98.8402816292
  0
LINE
  5
2F6
100
AcDbEntity
  8
0
100
AcDbLine
 62
7
  6
CONTINUOUS
 10
135.6025634179
 20
98.8526018769
 11
135.6979145915
 21
99.0170583245
  0
LINE
  5
2F7
100
AcDbEntity
  8
0
100
AcDbLine
 62
7
  6
CONTINUOUS
 10
135.9561168085
 20
99.0293785722
 11
136.0514679821
 21
99.1938350198
  0
LINE
  5
2F8
100
AcDbEntity
  8
0
100
AcDbLine
 62
7
  6
CONTINUOUS
 10
136.3096701991
 20
99.2061552675
 11
136.4050213727
 21
99.3706117151
  0
LINE
  5
2F9
100
AcDbEntity
  8
0
100
AcDbLine
 62
7
  6
CONTINUOUS
 10
136.6632235897
 20
99.3829319628
 11
136.7585747633
 21
99.5473884104
  0
LINE
  5
2FA
100
AcDbEntity
  8
0
100
AcDbLine
 62
7
  6
CONTINUOUS
 10
138.459454882
 20
96.4268218661
 11
138.5263417162
 21
96.5421845903
  0
LINE
  5
2FB
100
AcDbEntity
  8
0
100
AcDbLine
 62
7
  6
CONTINUOUS
 10
138.7738290896
 20
96.5360244665
 11
138.8798951068
 21
96.7189612856
  0
LINE
  5
2FC
100
AcDbEntity
  8
0
100
AcDbLine
 62
7
  6
CONTINUOUS
 10
139.1273824802
 20
96.7128011618
 11
139.2334484974
 21
96.8957379809
  0
LWPOLYLINE
  5
2FD
100
AcDbEntity
  8
0
100
AcDbPolyline
 62
250
  6
CONTINUOUS
 90
3
 70
0
 10
125.9995359183
 20
105.2987236966
 10
125.9859343596
 20
105.2902550948
 10
125.9845084325
 20
105.2895155711
  0
LINE
  5
2FE
100
AcDbEntity
  8
0
100
AcDbLine
 62
250
  6
CONTINUOUS
 10
126.5616376738
 20
105.6268540339
 11
126.5562693218
 21
105.622717854
  0
LINE
  5
2FF
100
AcDbEntity
  8
0
100
AcDbLine
 62
7
  6
CONTINUOUS
 10
125.9995473568
 20
105.2977280022
 11
126.5562693218
 21
105.622717854
  0
LINE
  5
300
100
AcDbEntity
  8
0
100
AcDbLine
 62
7
  6
CONTINUOUS
 10
122.9068596645
 20
104.2031194749
 11
125.2700258037
 21
105.5154004193
  0
LINE
  5
301
100
AcDbEntity
  8
0
100
AcDbLine
 62
250
  6
CONTINUOUS
 10
125.9995359183
 20
105.2987236966
 11
125.9845084325
 21
105.2895155711
  0
LINE
  5
302
100
AcDbEntity
  8
0
100
AcDbLine
 62
7
  6
CONTINUOUS
 10
123.3841428056
 20
103.9644779043
 11
125.9845084325
 21
105.2895155711
  0
LINE
  5
303
100
AcDbEntity
  8
0
100
AcDbLine
 62
7
  6
CONTINUOUS
 10
123.6572590817
 20
103.8279197663
 11
124.5015642803
 21
104.2524048961
  0
LINE
  5
304
100
AcDbEntity
  8
0
100
AcDbLine
 62
250
  6
CONTINUOUS
 10
124.572067018
 20
104.3509463779
 11
123.5938305144
 21
103.8596340499
  0
LINE
  5
305
100
AcDbEntity
  8
0
100
AcDbLine
 62
7
  6
CONTINUOUS
 10
123.2903137424
 20
104.0113924359
 11
126.516546431
 21
105.6187153952
  0
LINE
  5
306
100
AcDbEntity
  8
0
100
AcDbLine
 62
7
  6
CONTINUOUS
 10
121.0236885454
 20
107.6385690485
 11
118.3991266565
 21
106.4569859788
  0
LINE
  5
307
100
AcDbEntity
  8
0
100
AcDbLine
 62
7
  6
CONTINUOUS
 10
125.3366981597
 20
105.5481260764
 11
126.516546431
 21
106.0508100656
  0
LINE
  5
308
100
AcDbEntity
  8
0
100
AcDbLine
 62
7
  6
CONTINUOUS
 10
159.8352871358
 20
124.0001741255
 11
159.8359838688
 21
124.0004226932
  0
LINE
  5
309
100
AcDbEntity
  8
0
100
AcDbLine
 62
250
  6
CONTINUOUS
 10
159.6894336865
 20
123.7229478829
 11
160.1469578629
 21
123.8851851187
  0
LWPOLYLINE
  5
30A
100
AcDbEntity
  8
0
100
AcDbPolyline
 62
7
  6
CONTINUOUS
 90
10
 70
0
 10
159.8352984234
 20
124.0001779015
 10
159.8377142597
 20
124.0010111003
 10
159.8470882861
 20
124.0033519578
 10
159.8580912227
 20
124.0046693625
 10
159.8709390175
 20
124.0047317197
 10
159.8858787002
 20
124.003248491
 10
159.9029564032
 20
123.9998923892
 10
159.9217831636
 20
123.9944538996
 10
159.9418078546
 20
123.9869199018
 10
159.9624325263
 20
123.9774479117
  0
LINE
  5
30B
100
AcDbEntity
  8
0
100
AcDbLine
 62
7
  6
CONTINUOUS
 10
122.4080899541
 20
108.1050383041
 11
121.0977356984
 21
107.6676073071
  0
LINE
  5
30C
100
AcDbEntity
  8
SMUSSO
100
AcDbLine
 62
7
  6
CONTINUOUS
 10
206.529698153
 20
118.5471080738
 11
207.946657284
 21
118.9186055969
  0
LINE
  5
30D
100
AcDbEntity
  8
0
100
AcDbLine
 62
7
  6
CONTINUOUS
 10
188.8723445367
 20
71.5106045363
 11
188.9784105539
 21
71.4337337343
  0
LINE
  5
30E
100
AcDbEntity
  8
0
100
AcDbLine
 62
7
  6
CONTINUOUS
 10
189.2258979273
 20
71.6873812316
 11
189.3319639445
 21
71.6105104296
  0
LINE
  5
30F
100
AcDbEntity
  8
0
100
AcDbLine
 62
7
  6
CONTINUOUS
 10
189.5794513179
 20
71.8641579269
 11
189.6855173351
 21
71.7872871249
  0
LINE
  5
310
100
AcDbEntity
  8
0
100
AcDbLine
 62
7
  6
CONTINUOUS
 10
189.9330047085
 20
72.0409346222
 11
190.0390707257
 21
71.9640638202
  0
LINE
  5
311
100
AcDbEntity
  8
0
100
AcDbLine
 62
7
  6
CONTINUOUS
 10
190.2865580991
 20
72.2177113175
 11
190.3926241163
 21
72.1408405155
  0
LINE
  5
312
100
AcDbEntity
  8
0
100
AcDbLine
 62
7
  6
CONTINUOUS
 10
190.6401114897
 20
72.3944880128
 11
190.7461775069
 21
72.3176172108
  0
LINE
  5
313
100
AcDbEntity
  8
0
100
AcDbLine
 62
7
  6
CONTINUOUS
 10
190.9936648803
 20
72.5712647081
 11
191.0997308975
 21
72.4943939061
  0
LWPOLYLINE
  5
314
100
AcDbEntity
  8
0
100
AcDbPolyline
 62
250
  6
CONTINUOUS
 90
3
 70
0
 10
141.5188188762
 20
132.8354970401
 10
141.526315055
 20
132.7929339092
 10
141.5316577829
 20
132.7509412426
  0
LINE
  5
315
100
AcDbEntity
  8
0
100
AcDbLine
 62
7
  6
CONTINUOUS
 10
139.4809358708
 20
96.8895778571
 11
139.587001888
 21
97.0725146762
  0
LINE
  5
316
100
AcDbEntity
  8
0
100
AcDbLine
 62
7
  6
CONTINUOUS
 10
139.8344892614
 20
97.0663545524
 11
139.9405552786
 21
97.2492913715
  0
LINE
  5
317
100
AcDbEntity
  8
0
100
AcDbLine
 62
7
  6
CONTINUOUS
 10
140.188042652
 20
97.2431312477
 11
140.2941086692
 21
97.4260680668
  0
LINE
  5
318
100
AcDbEntity
  8
0
100
AcDbLine
 62
7
  6
CONTINUOUS
 10
140.5415960426
 20
97.419907943
 11
140.6476620598
 21
97.6028447621
  0
LINE
  5
319
100
AcDbEntity
  8
0
100
AcDbLine
 62
7
  6
CONTINUOUS
 10
163.4872990413
 20
115.3730498788
 11
160.6382230177
 21
113.7656406207
  0
LINE
  5
31A
100
AcDbEntity
  8
0
100
AcDbLine
 62
7
  6
CONTINUOUS
 10
163.5541495593
 20
120.6061480312
 11
164.6747406964
 21
121.2110354586
  0
LINE
  5
31B
100
AcDbEntity
  8
0
100
AcDbLine
 62
7
  6
CONTINUOUS
 10
160.6382230177
 20
119.6226833595
 11
163.0995730114
 21
120.801840438
  0
LINE
  5
31C
100
AcDbEntity
  8
0
100
AcDbLine
 62
7
  6
CONTINUOUS
 10
160.6382230177
 20
119.3320628927
 11
163.4872990413
 21
120.5737296581
  0
LINE
  5
31D
100
AcDbEntity
  8
0
100
AcDbLine
 62
250
  6
CONTINUOUS
 10
114.4701592322
 20
126.8277546056
 11
114.1173554112
 21
127.0041565161
  0
LINE
  5
31E
100
AcDbEntity
  8
0
100
AcDbLine
 62
250
  6
CONTINUOUS
 10
164.3219368754
 20
101.901865784
 11
164.6747406964
 21
101.7254638734
  0
LINE
  5
31F
100
AcDbEntity
  8
0
100
AcDbLine
 62
7
  6
CONTINUOUS
 10
114.1683886841
 20
127.0218775462
 11
114.5439963996
 21
126.8340736885
  0
LINE
  5
320
100
AcDbEntity
  8
0
100
AcDbLine
 62
7
  6
CONTINUOUS
 10
164.3729701483
 20
101.9195868141
 11
164.7485778639
 21
101.7317829563
  0
LWPOLYLINE
  5
321
100
AcDbEntity
  8
0
100
AcDbPolyline
 62
250
  6
CONTINUOUS
 90
25
 70
0
 10
160.5155778079
 20
85.728321856
 10
160.5177504715
 20
85.700758684
 10
160.5212711309
 20
85.6724571332
 10
160.5261477996
 20
85.6435363898
 10
160.5323985916
 20
85.6140877061
 10
160.5400051776
 20
85.5842684354
 10
160.5488940153
 20
85.5543030319
 10
160.5590152113
 20
85.524344183
 10
160.570339338
 20
85.4944974125
 10
160.5827929915
 20
85.464915169
 10
160.5962970468
 20
85.4357582784
 10
160.6108077463
 20
85.4071063052
 10
160.6263041179
 20
85.3789893721
 10
160.6427030301
 20
85.3515657573
 10
160.6599582423
 20
85.324907979
 10
160.6781315623
 20
85.2989404421
 10
160.6972352031
 20
85.2737114782
 10
160.7171461156
 20
85.2494509677
 10
160.7377266525
 20
85.2263647803
 10
160.7589226799
 20
85.2045273359
 10
160.7806126487
 20
85.1841054451
 10
160.8025242769
 20
85.1653798776
 10
160.8244842251
 20
85.1484583603
 10
160.8464364989
 20
85.1333254607
 10
160.8682699602
 20
85.1200178752
  0
LINE
  5
322
100
AcDbEntity
  8
0
100
AcDbLine
 62
250
  6
CONTINUOUS
 10
159.4168005245
 20
85.3486925523
 11
159.4168005245
 21
123.7277081628
  0
LINE
  5
323
100
AcDbEntity
  8
0
100
AcDbLine
 62
250
  6
CONTINUOUS
 10
159.6895314779
 20
85.3143381643
 11
159.6894336865
 21
123.7229478829
  0
LWPOLYLINE
  5
324
100
AcDbEntity
  8
0
100
AcDbPolyline
 62
250
  6
CONTINUOUS
 90
16
 70
0
 10
159.6894336865
 20
123.7229478829
 10
159.6895090848
 20
123.7505804712
 10
159.6911518945
 20
123.7773792516
 10
159.6943494099
 20
123.8032247307
 10
159.6990789828
 20
123.828010798
 10
159.7053214587
 20
123.8516153575
 10
159.713054807
 20
123.8739073245
 10
159.7222389801
 20
123.8947891521
 10
159.7328253922
 20
123.9141767688
 10
159.7447627528
 20
123.9319790049
 10
159.7579864292
 20
123.9481182051
 10
159.7724378454
 20
123.9625437005
 10
159.7880687492
 20
123.9752150224
 10
159.8048238003
 20
123.9860878216
 10
159.8226204948
 20
123.9951105913
 10
159.8352871358
 20
124.0001741255
  0
LWPOLYLINE
  5
325
100
AcDbEntity
  8
0
100
AcDbPolyline
 62
250
  6
CONTINUOUS
 90
25
 70
0
 10
159.4168005245
 20
123.7277081628
 10
159.4178813481
 20
123.7669935879
 10
159.4210340689
 20
123.8047606242
 10
159.4262586867
 20
123.8410092716
 10
159.4335990088
 20
123.8758970078
 10
159.443011228
 20
123.9092663553
 10
159.4543639233
 20
123.940644881
 10
159.4676876409
 20
123.9699910077
 10
159.4829518346
 20
123.9973463127
 10
159.4999334446
 20
124.022363095
 10
159.5186416897
 20
124.0449967262
 10
159.5390673512
 20
124.0652918347
 10
159.5609597132
 20
124.0830346048
 10
159.5843473997
 20
124.0982027958
 10
159.6092017867
 20
124.1108186483
 10
159.6351862864
 20
124.1207350692
 10
159.6622460604
 20
124.1279281444
 10
159.690435947
 20
124.1324217878
 10
159.7195838735
 20
124.1341406484
 10
159.749768652
 20
124.1330769404
 10
159.7809114702
 20
124.1292384495
 10
159.8126038189
 20
124.1225731817
 10
159.8447095281
 20
124.1130638057
 10
159.8773647677
 20
124.1007276527
 10
159.9105695377
 20
124.0855647228
  0
LINE
  5
326
100
AcDbEntity
  8
0
100
AcDbLine
 62
7
  6
CONTINUOUS
 10
164.6747406964
 20
116.1792244592
 11
163.5541495593
 21
115.4145004967
  0
LWPOLYLINE
  5
327
100
AcDbEntity
  8
0
100
AcDbPolyline
 62
250
  6
CONTINUOUS
 90
3
 70
0
 10
139.5687079222
 20
96.1510339162
 10
139.5643133518
 20
96.1481284038
 10
139.5599382856
 20
96.1454218252
  0
LINE
  5
328
100
AcDbEntity
  8
0
100
AcDbLine
 62
7
  6
CONTINUOUS
 10
140.0823130015
 20
96.4762891952
 11
140.0867942924
 21
96.4791409229
  0
LINE
  5
329
100
AcDbEntity
  8
0
100
AcDbLine
 62
250
  6
CONTINUOUS
 10
139.5748890274
 20
96.1541250677
 11
139.5687079222
 21
96.1510339162
  0
LINE
  5
32A
100
AcDbEntity
  8
0
100
AcDbLine
 62
7
  6
CONTINUOUS
 10
139.5748890274
 20
96.1541250677
 11
140.0757296694
 21
96.4720998061
  0
LWPOLYLINE
  5
32B
100
AcDbEntity
  8
0
100
AcDbPolyline
 62
250
  6
CONTINUOUS
 90
3
 70
0
 10
139.5599382856
 20
96.1454218252
 10
139.5555867547
 20
96.1429117209
 10
139.5512871785
 20
96.1406081362
  0
LINE
  5
32C
100
AcDbEntity
  8
0
100
AcDbLine
 62
7
  6
CONTINUOUS
 10
138.8167622412
 20
96.2481681865
 11
141.1799283804
 21
97.560449131
  0
LWPOLYLINE
  5
32D
100
AcDbEntity
  8
0
100
AcDbPolyline
 62
7
  6
CONTINUOUS
 90
3
 70
0
 10
139.5506557687
 20
96.1402846646
 10
139.5643484858
 20
96.1477361196
 10
139.5749051656
 20
96.1541352938
  0
LINE
  5
32E
100
AcDbEntity
  8
0
100
AcDbLine
 62
7
  6
CONTINUOUS
 10
141.214607123
 20
97.0600192836
 11
140.0753484326
 21
96.472698893
  0
LINE
  5
32F
100
AcDbEntity
  8
0
100
AcDbLine
 62
250
  6
CONTINUOUS
 10
139.5687079222
 20
96.1510339162
 11
139.5506627459
 21
96.1402881017
  0
LINE
  5
330
100
AcDbEntity
  8
0
100
AcDbLine
 62
7
  6
CONTINUOUS
 10
139.2940453823
 20
96.0095266159
 11
139.5506627459
 21
96.1402881017
  0
LINE
  5
331
100
AcDbEntity
  8
0
100
AcDbLine
 62
7
  6
CONTINUOUS
 10
134.6372544197
 20
98.4867282386
 11
134.7786757759
 21
98.5574389167
  0
LINE
  5
332
100
AcDbEntity
  8
0
100
AcDbLine
 62
7
  6
CONTINUOUS
 10
134.9908078103
 20
98.6635049339
 11
135.1322291665
 21
98.734215612
  0
LINE
  5
333
100
AcDbEntity
  8
0
100
AcDbLine
 62
7
  6
CONTINUOUS
 10
135.3443612009
 20
98.8402816292
 11
135.4857825571
 21
98.9109923073
  0
LINE
  5
334
100
AcDbEntity
  8
0
100
AcDbLine
 62
7
  6
CONTINUOUS
 10
135.6979145915
 20
99.0170583245
 11
135.8393359477
 21
99.0877690026
  0
LINE
  5
335
100
AcDbEntity
  8
0
100
AcDbLine
 62
7
  6
CONTINUOUS
 10
136.0514679821
 20
99.1938350198
 11
136.1928893383
 21
99.2645456979
  0
LINE
  5
336
100
AcDbEntity
  8
0
100
AcDbLine
 62
7
  6
CONTINUOUS
 10
136.4050213727
 20
99.3706117151
 11
136.5464427289
 21
99.4413223932
  0
LINE
  5
337
100
AcDbEntity
  8
0
100
AcDbLine
 62
7
  6
CONTINUOUS
 10
136.7585747633
 20
99.5473884104
 11
136.8999961195
 21
99.6180990885
  0
LINE
  5
338
100
AcDbEntity
  8
0
100
AcDbLine
 62
7
  6
CONTINUOUS
 10
138.5263417162
 20
96.5421845903
 11
138.6677630725
 21
96.6128952685
  0
LINE
  5
339
100
AcDbEntity
  8
0
100
AcDbLine
 62
7
  6
CONTINUOUS
 10
138.8798951068
 20
96.7189612856
 11
139.0213164631
 21
96.7896719637
  0
LINE
  5
33A
100
AcDbEntity
  8
0
100
AcDbLine
 62
7
  6
CONTINUOUS
 10
139.2334484974
 20
96.8957379809
 11
139.3748698537
 21
96.966448659
  0
LINE
  5
33B
100
AcDbEntity
  8
0
100
AcDbLine
 62
7
  6
CONTINUOUS
 10
139.587001888
 20
97.0725146762
 11
139.7284232442
 21
97.1432253543
  0
LINE
  5
33C
100
AcDbEntity
  8
0
100
AcDbLine
 62
7
  6
CONTINUOUS
 10
139.9405552786
 20
97.2492913715
 11
140.0819766348
 21
97.3200020496
  0
LINE
  5
33D
100
AcDbEntity
  8
0
100
AcDbLine
 62
7
  6
CONTINUOUS
 10
140.2941086692
 20
97.4260680668
 11
140.4355300254
 21
97.4967787449
  0
LINE
  5
33E
100
AcDbEntity
  8
0
100
AcDbLine
 62
7
  6
CONTINUOUS
 10
140.6476620598
 20
97.6028447621
 11
140.789083416
 21
97.6735554402
  0
LINE
  5
33F
100
AcDbEntity
  8
0
100
AcDbLine
 62
7
  6
CONTINUOUS
 10
140.8951494332
 20
97.5966846383
 11
138.5074393855
 21
96.4028296144
  0
LINE
  5
340
100
AcDbEntity
  8
0
100
AcDbLine
 62
7
  6
CONTINUOUS
 10
139.2002163191
 20
96.0564411476
 11
141.214607196
 21
97.06001932
  0
LINE
  5
341
100
AcDbEntity
  8
0
100
AcDbLine
 62
7
  6
CONTINUOUS
 10
136.9335911221
 20
99.6836177601
 11
134.3090292332
 21
98.5020346905
  0
LINE
  5
342
100
AcDbEntity
  8
0
100
AcDbLine
 62
7
  6
CONTINUOUS
 10
138.3179925308
 20
100.1500870157
 11
137.0076382751
 21
99.7126560188
  0
LWPOLYLINE
  5
343
100
AcDbEntity
  8
0
100
AcDbPolyline
 62
250
  6
CONTINUOUS
 90
10
 70
0
 10
159.9105695377
 20
124.0855647228
 10
159.9112769811
 20
124.0686154938
 10
159.9133922335
 20
124.0525432811
 10
159.9168941324
 20
124.0375088835
 10
159.921747642
 20
124.0236627164
 10
159.9279042042
 20
124.0111433075
 10
159.935302224
 20
124.0000759105
 10
159.943867686
 20
123.990571252
 10
159.9535148948
 20
123.9827244238
 10
159.9624325263
 20
123.9774479117
  0
LINE
  5
344
100
AcDbEntity
  8
RACCORDO
100
AcDbLine
 62
7
  6
CONTINUOUS
 10
160.3052305768
 20
123.8060487618
 11
160.3052305768
 21
85.6608758918
  0
LINE
  5
345
100
AcDbEntity
  8
0
100
AcDbLine
 62
250
  6
CONTINUOUS
 10
160.5155778079
 20
123.7008751462
 11
160.5155778079
 21
85.728321856
  0
LINE
  5
346
100
AcDbEntity
  8
0
100
AcDbLine
 62
7
  6
CONTINUOUS
 10
160.6382230177
 20
123.6395525413
 11
160.6382230177
 21
85.8923366126
  0
LINE
  5
347
100
AcDbEntity
  8
0
100
AcDbLine
 62
250
  6
CONTINUOUS
 10
163.4872990413
 20
95.8874782937
 11
163.4872990413
 21
101.088158073
  0
LINE
  5
348
100
AcDbEntity
  8
0
100
AcDbLine
 62
250
  6
CONTINUOUS
 10
163.4872990413
 20
115.3730498788
 11
163.4872990413
 21
120.5737296581
  0
LINE
  5
349
100
AcDbEntity
  8
0
100
AcDbLine
 62
250
  6
CONTINUOUS
 10
163.5541495593
 20
95.9289289115
 11
163.5541495593
 21
101.1205764461
  0
LINE
  5
34A
100
AcDbEntity
  8
0
100
AcDbLine
 62
250
  6
CONTINUOUS
 10
163.5541495593
 20
115.4145004967
 11
163.5541495593
 21
120.6061480312
  0
LINE
  5
34B
100
AcDbEntity
  8
0
100
AcDbLine
 62
7
  6
CONTINUOUS
 10
164.7953586373
 20
121.1117787133
 11
164.7953586373
 21
116.4259031322
  0
LINE
  5
34C
100
AcDbEntity
  8
0
100
AcDbLine
 62
7
  6
CONTINUOUS
 10
164.7953586373
 20
101.6262071281
 11
164.7953586373
 21
96.9403315471
  0
LWPOLYLINE
  5
34D
100
AcDbEntity
  8
0
100
AcDbPolyline
 62
250
  6
CONTINUOUS
 90
16
 70
0
 10
159.9105695377
 20
84.4970669791
 10
159.9112770077
 20
84.5147239904
 10
159.913392331
 20
84.5329117542
 10
159.9168943304
 20
84.5514482963
 10
159.9217479553
 20
84.5701481539
 10
159.9279046333
 20
84.5888242373
 10
159.9353027586
 20
84.6072897017
 10
159.9438683034
 20
84.6253598043
 10
159.9535155627
 20
84.6428537632
 10
159.9641480164
 20
84.6595965713
 10
159.9756592833
 20
84.6754207266
 10
159.9879341929
 20
84.6901679218
 10
160.0008499453
 20
84.7036906347
 10
160.0142773255
 20
84.7158535847
 10
160.0280819934
 20
84.7265350892
 10
160.0421258388
 20
84.7356282915
  0
LWPOLYLINE
  5
34E
100
AcDbEntity
  8
0
100
AcDbPolyline
 62
250
  6
CONTINUOUS
 90
10
 70
0
 10
160.6382230171
 20
85.8923242683
 10
160.6376354779
 20
85.8802205627
 10
160.6338818219
 20
85.8594643223
 10
160.6266835871
 20
85.8389365374
 10
160.6160908026
 20
85.8187798656
 10
160.6021770873
 20
85.7991343846
 10
160.5850391362
 20
85.7801366169
 10
160.5647960508
 20
85.7619185856
 10
160.5415885138
 20
85.7446068966
 10
160.5155778079
 20
85.728321856
  0
LINE
  5
34F
100
AcDbEntity
  8
0
100
AcDbLine
 62
7
  6
CONTINUOUS
 10
141.4138276316
 20
94.1648527759
 11
141.4135607283
 21
94.1646743526
  0
LINE
  5
350
100
AcDbEntity
  8
0
100
AcDbLine
 62
250
  6
CONTINUOUS
 10
141.1738794
 20
94.1697515109
 11
141.4716714712
 21
94.3684579373
  0
LWPOLYLINE
  5
351
100
AcDbEntity
  8
0
100
AcDbPolyline
 62
250
  6
CONTINUOUS
 90
13
 70
0
 10
141.4135607283
 20
94.1646743526
 10
141.4031357774
 20
94.1582005703
 10
141.3855151183
 20
94.1492658182
 10
141.3670545008
 20
94.1422762412
 10
141.347881345
 20
94.1372657562
 10
141.328041164
 20
94.1342329296
 10
141.3074882064
 20
94.1331797214
 10
141.2862514719
 20
94.1341457782
 10
141.2644640879
 20
94.1371622834
 10
141.2422318301
 20
94.1422338821
 10
141.2196574439
 20
94.1493588269
 10
141.1968381126
 20
94.1585360447
 10
141.1738794
 20
94.1697515109
  0
LINE
  5
352
100
AcDbEntity
  8
0
100
AcDbLine
 62
7
  6
CONTINUOUS
 10
160.6382230177
 20
100.1371117744
 11
164.3219368754
 21
101.901865784
  0
LWPOLYLINE
  5
353
100
AcDbEntity
  8
0
100
AcDbPolyline
 62
250
  6
CONTINUOUS
 90
3
 70
0
 10
139.5687079222
 20
96.1510339162
 10
139.5736514858
 20
96.1533776883
 10
139.5748890266
 20
96.1541250672
  0
LINE
  5
354
100
AcDbEntity
  8
0
100
AcDbLine
 62
7
  6
CONTINUOUS
 10
160.6382230177
 20
99.8464913076
 11
163.4872990413
 21
101.088158073
  0
LINE
  5
355
100
AcDbEntity
  8
0
100
AcDbLine
 62
7
  6
CONTINUOUS
 10
141.2466007364
 20
97.5931747881
 11
141.4775134683
 21
97.6915570429
  0
LINE
  5
356
100
AcDbEntity
  8
0
100
AcDbLine
 62
7
  6
CONTINUOUS
 10
110.4336415535
 20
119.7412485095
 11
110.5602685203
 21
119.7412485095
  0
LINE
  5
357
100
AcDbEntity
  8
0
100
AcDbLine
 62
7
  6
CONTINUOUS
 10
110.7016898765
 20
119.9180252048
 11
110.9138219109
 21
119.9180252048
  0
LINE
  5
358
100
AcDbEntity
  8
0
100
AcDbLine
 62
7
  6
CONTINUOUS
 10
111.0552432671
 20
120.0948019001
 11
111.2673753015
 21
120.0948019001
  0
LINE
  5
359
100
AcDbEntity
  8
0
100
AcDbLine
 62
7
  6
CONTINUOUS
 10
111.4087966577
 20
120.2715785954
 11
111.6209286921
 21
120.2715785954
  0
LINE
  5
35A
100
AcDbEntity
  8
0
100
AcDbLine
 62
7
  6
CONTINUOUS
 10
111.7623500483
 20
120.4483552907
 11
111.9744820827
 21
120.4483552907
  0
LINE
  5
35B
100
AcDbEntity
  8
0
100
AcDbLine
 62
7
  6
CONTINUOUS
 10
112.1159034389
 20
120.625131986
 11
112.3280354733
 21
120.625131986
  0
LINE
  5
35C
100
AcDbEntity
  8
0
100
AcDbLine
 62
7
  6
CONTINUOUS
 10
112.4694568295
 20
120.8019086813
 11
112.6815888639
 21
120.8019086813
  0
LINE
  5
35D
100
AcDbEntity
  8
0
100
AcDbLine
 62
7
  6
CONTINUOUS
 10
112.8230102201
 20
120.9786853766
 11
113.0351422545
 21
120.9786853766
  0
LWPOLYLINE
  5
35E
100
AcDbEntity
  8
0
100
AcDbPolyline
 62
250
  6
CONTINUOUS
 90
17
 70
0
 10
141.1701767366
 20
133.4351872658
 10
141.2012652171
 20
133.4081154584
 10
141.2315203945
 20
133.3790837143
 10
141.2609207916
 20
133.348065361
 10
141.2894878856
 20
133.3150870711
 10
141.316846716
 20
133.2806095161
 10
141.3429646076
 20
133.2446377431
 10
141.3678742357
 20
133.2071667049
 10
141.3912986662
 20
133.1686419316
 10
141.4132314253
 20
133.1290316029
 10
141.4336789868
 20
133.0883675391
 10
141.4523838381
 20
133.0471907307
 10
141.4693040658
 20
133.0055892974
 10
141.4844815834
 20
132.9634751196
 10
141.4977846183
 20
132.9211248287
 10
141.5092389886
 20
132.8784289909
 10
141.5188188762
 20
132.8354970401
  0
LWPOLYLINE
  5
35F
100
AcDbEntity
  8
0
100
AcDbPolyline
 62
250
  6
CONTINUOUS
 90
11
 70
0
 10
174.7766484822
 20
79.2486556458
 10
174.7789540188
 20
79.242078593
 10
174.7808316584
 20
79.2357719813
 10
174.7822508985
 20
79.229772756
 10
174.7831770108
 20
79.2241459681
 10
174.7835900362
 20
79.2188982776
 10
174.7834577783
 20
79.2140030433
 10
174.7827254501
 20
79.2095180886
 10
174.7813379686
 20
79.2055197534
 10
174.7792221041
 20
79.2020520046
 10
174.7776763602
 20
79.2003588946
  0
LINE
  5
360
100
AcDbEntity
  8
0
100
AcDbLine
 62
7
  6
CONTINUOUS
 10
164.6747406964
 20
96.693652874
 11
163.5541495593
 21
95.9289289115
  0
LINE
  5
361
100
AcDbEntity
  8
0
100
AcDbLine
 62
7
  6
CONTINUOUS
 10
163.4872990413
 20
95.8874782937
 11
160.6382230177
 21
94.2800690356
  0
LINE
  5
362
100
AcDbEntity
  8
0
100
AcDbLine
 62
7
  6
CONTINUOUS
 10
163.5541495593
 20
101.1205764461
 11
164.6747406964
 21
101.7254638734
  0
LINE
  5
363
100
AcDbEntity
  8
SMUSSO
100
AcDbLine
 62
7
  6
CONTINUOUS
 10
207.2606213666
 20
120.126246097
 11
211.3225543513
 21
122.1880160312
  0
LINE
  5
364
100
AcDbEntity
  8
SMUSSO
100
AcDbLine
 62
7
  6
CONTINUOUS
 10
207.9681586358
 20
118.9059248204
 11
212.0300916206
 21
120.9676947547
  0
LINE
  5
365
100
AcDbEntity
  8
0
100
AcDbLine
 62
7
  6
CONTINUOUS
 10
110.4336415535
 20
124.5043882303
 11
110.5602685203
 21
124.5043882303
  0
LINE
  5
366
100
AcDbEntity
  8
0
100
AcDbLine
 62
7
  6
CONTINUOUS
 10
110.7016898765
 20
124.6811649256
 11
110.9138219109
 21
124.6811649256
  0
LINE
  5
367
100
AcDbEntity
  8
0
100
AcDbLine
 62
7
  6
CONTINUOUS
 10
111.0552432671
 20
124.8579416209
 11
111.2673753015
 21
124.8579416209
  0
LINE
  5
368
100
AcDbEntity
  8
0
100
AcDbLine
 62
7
  6
CONTINUOUS
 10
111.4087966577
 20
125.0347183162
 11
111.6209286921
 21
125.0347183162
  0
LINE
  5
369
100
AcDbEntity
  8
0
100
AcDbLine
 62
7
  6
CONTINUOUS
 10
111.7623500483
 20
125.2114950115
 11
111.9744820827
 21
125.2114950115
  0
LINE
  5
36A
100
AcDbEntity
  8
0
100
AcDbLine
 62
7
  6
CONTINUOUS
 10
112.1159034389
 20
125.3882717068
 11
112.3280354733
 21
125.3882717068
  0
LINE
  5
36B
100
AcDbEntity
  8
0
100
AcDbLine
 62
7
  6
CONTINUOUS
 10
112.4694568295
 20
125.5650484021
 11
112.6815888639
 21
125.5650484021
  0
LINE
  5
36C
100
AcDbEntity
  8
0
100
AcDbLine
 62
7
  6
CONTINUOUS
 10
112.8230102201
 20
125.7418250974
 11
113.0351422545
 21
125.7418250974
  0
LWPOLYLINE
  5
36D
100
AcDbEntity
  8
0
100
AcDbPolyline
 62
7
  6
CONTINUOUS
 90
11
 70
0
 10
164.4333788424
 20
121.3749540522
 10
164.4303830824
 20
121.3762246483
 10
164.4256506615
 20
121.37749749
 10
164.4203162451
 20
121.3781535668
 10
164.4143590639
 20
121.3781931581
 10
164.4077988213
 20
121.377597134
 10
164.4006743736
 20
121.3763458439
 10
164.3929991226
 20
121.3744498965
 10
164.3848029774
 20
121.3719133867
 10
164.3761305682
 20
121.3687276046
 10
164.3670213304
 20
121.3648951416
  0
LWPOLYLINE
  5
36E
100
AcDbEntity
  8
0
100
AcDbPolyline
 62
250
  6
CONTINUOUS
 90
16
 70
0
 10
159.4168005245
 20
123.7277081628
 10
159.4316360605
 20
123.720997865
 10
159.4477380536
 20
123.7150621918
 10
159.464945391
 20
123.7099605226
 10
159.4830859016
 20
123.7057438922
 10
159.5019780846
 20
123.7024544787
 10
159.5214329264
 20
123.7001251831
 10
159.5412557792
 20
123.6987793016
 10
159.5612483191
 20
123.698430291
 10
159.5812105373
 20
123.6990816356
 10
159.6009427179
 20
123.7007268123
 10
159.620247451
 20
123.7033493554
 10
159.6389316184
 20
123.7069230241
 10
159.6568083007
 20
123.711412063
 10
159.6736986485
 20
123.7167715568
 10
159.6894336865
 20
123.7229478829
  0
LWPOLYLINE
  5
36F
100
AcDbEntity
  8
0
100
AcDbPolyline
 62
250
  6
CONTINUOUS
 90
16
 70
0
 10
109.2122190602
 20
148.8299988949
 10
109.2270545963
 20
148.8232885971
 10
109.2431565893
 20
148.8173529239
 10
109.2603639268
 20
148.8122512547
 10
109.2785044374
 20
148.8080346243
 10
109.2973966204
 20
148.8047452109
 10
109.3168514622
 20
148.8024159152
 10
109.336674315
 20
148.8010700337
 10
109.3566668548
 20
148.8007210231
 10
109.376629073
 20
148.8013723677
 10
109.3963612536
 20
148.8030175444
 10
109.4156659868
 20
148.8056400875
 10
109.4343501542
 20
148.8092137563
 10
109.4522268364
 20
148.8137027952
 10
109.4691171842
 20
148.819062289
 10
109.4848522223
 20
148.825238615
  0
LINE
  5
370
100
AcDbEntity
  8
0
100
AcDbLine
 62
250
  6
CONTINUOUS
 10
114.4701592322
 20
146.3133261907
 11
114.1624521896
 21
146.467179712
  0
LINE
  5
371
100
AcDbEntity
  8
0
100
AcDbLine
 62
250
  6
CONTINUOUS
 10
164.3670336539
 20
121.3648889799
 11
164.6747406964
 21
121.2110354586
  0
LINE
  5
372
100
AcDbEntity
  8
0
100
AcDbLine
 62
7
  6
CONTINUOUS
 10
114.2287889367
 20
146.4772490051
 11
114.5439963996
 21
146.3196452736
  0
LINE
  5
373
100
AcDbEntity
  8
0
100
AcDbLine
 62
7
  6
CONTINUOUS
 10
164.433370401
 20
121.374958273
 11
164.7485778639
 21
121.2173545415
  0
LINE
  5
374
100
AcDbEntity
  8
0
100
AcDbLine
 62
7
  6
CONTINUOUS
 10
109.7579667106
 20
149.0796806949
 11
141.0943017362
 21
133.4115131821
  0
LINE
  5
375
100
AcDbEntity
  8
0
100
AcDbLine
 62
7
  6
CONTINUOUS
 10
159.9625481748
 20
123.9773899627
 11
191.2988832005
 21
108.3092224499
  0
LINE
  5
376
100
AcDbEntity
  8
0
100
AcDbLine
 62
250
  6
CONTINUOUS
 10
109.7059880735
 20
149.1878554549
 11
141.0423230989
 21
133.5196879422
  0
LINE
  5
377
100
AcDbEntity
  8
0
100
AcDbLine
 62
250
  6
CONTINUOUS
 10
159.9105695377
 20
124.0855647228
 11
191.2469045631
 21
108.4173972101
  0
LWPOLYLINE
  5
378
100
AcDbEntity
  8
0
100
AcDbPolyline
 62
7
  6
CONTINUOUS
 90
24
 70
0
 10
141.0943714721
 20
133.4114783594
 10
141.1134338577
 20
133.4012561214
 10
141.1363442455
 20
133.3872040044
 10
141.160082043
 20
133.3706504286
 10
141.1842869121
 20
133.3516775171
 10
141.2087275467
 20
133.3303335482
 10
141.2331984564
 20
133.3066725581
 10
141.2574295463
 20
133.2808436991
 10
141.2812060258
 20
133.2529860178
 10
141.3043362803
 20
133.2232394364
 10
141.3266174302
 20
133.1917896171
 10
141.3478812813
 20
133.158812261
 10
141.3679514012
 20
133.1245244089
 10
141.3866467452
 20
133.0891992916
 10
141.4038435595
 20
133.0530545902
 10
141.4194137532
 20
133.0163526245
 10
141.4332182389
 20
132.9794587238
 10
141.4451935139
 20
132.9426275058
 10
141.4552910957
 20
132.9061205962
 10
141.4634607815
 20
132.8703203017
 10
141.4697203379
 20
132.8354604076
 10
141.474104799
 20
132.8017741963
 10
141.4766667859
 20
132.7696463356
 10
141.4775134879
 20
132.7388172573
  0
LWPOLYLINE
  5
379
100
AcDbEntity
  8
0
100
AcDbPolyline
 62
7
  6
CONTINUOUS
 90
24
 70
0
 10
191.2989529364
 20
108.3091876272
 10
191.3180153219
 20
108.2989653893
 10
191.3409257098
 20
108.2849132723
 10
191.3646635072
 20
108.2683596965
 10
191.3888683763
 20
108.2493867849
 10
191.4133090109
 20
108.2280428161
 10
191.4377799206
 20
108.204381826
 10
191.4620110105
 20
108.178552967
 10
191.48578749
 20
108.1506952856
 10
191.5089177445
 20
108.1209487043
 10
191.5311988945
 20
108.0894988849
 10
191.5524627455
 20
108.0565215289
 10
191.5725328654
 20
108.0222336768
 10
191.5912282094
 20
107.9869085594
 10
191.6084250238
 20
107.9507638581
 10
191.6239952174
 20
107.9140618924
 10
191.6377997031
 20
107.8771679917
 10
191.6497749781
 20
107.8403367737
 10
191.6598725599
 20
107.8038298641
 10
191.6680422457
 20
107.7680295696
 10
191.6743018022
 20
107.7331696755
 10
191.6786862632
 20
107.6994834642
 10
191.6812482502
 20
107.6673556034
 10
191.6820949521
 20
107.6365265252
  0
LWPOLYLINE
  5
37A
100
AcDbEntity
  8
0
100
AcDbPolyline
 62
250
  6
CONTINUOUS
 90
5
 70
0
 10
141.0423230989
 20
133.5196879422
 10
141.0748407585
 20
133.5021053792
 10
141.1069645073
 20
133.4821822263
 10
141.1386943454
 20
133.4599184833
 10
141.1701767366
 20
133.4351872658
  0
LWPOLYLINE
  5
37B
100
AcDbEntity
  8
0
100
AcDbPolyline
 62
250
  6
CONTINUOUS
 90
5
 70
0
 10
191.2469045631
 20
108.4173972101
 10
191.2794222227
 20
108.3998146471
 10
191.3115459716
 20
108.3798914941
 10
191.3432758096
 20
108.3576277511
 10
191.3747582009
 20
108.3328965337
  0
LWPOLYLINE
  5
37C
100
AcDbEntity
  8
0
100
AcDbPolyline
 62
250
  6
CONTINUOUS
 90
9
 70
0
 10
141.5360921121
 20
132.668062369
 10
141.5226717554
 20
132.6754799908
 10
141.5108005529
 20
132.6835308444
 10
141.5005972733
 20
132.6921343831
 10
141.4921639978
 20
132.7012045304
 10
141.4855850995
 20
132.7106505418
 10
141.4809263985
 20
132.7203779121
 10
141.4782345041
 20
132.7302893213
 10
141.4775134683
 20
132.7387730471
  0
LWPOLYLINE
  5
37D
100
AcDbEntity
  8
0
100
AcDbPolyline
 62
250
  6
CONTINUOUS
 90
9
 70
0
 10
191.7406735763
 20
107.5657716369
 10
191.7272532196
 20
107.5731892587
 10
191.7153820172
 20
107.5812401123
 10
191.7051787375
 20
107.589843651
 10
191.6967454621
 20
107.5989137983
 10
191.6901665637
 20
107.6083598097
 10
191.6855078627
 20
107.61808718
 10
191.6828159683
 20
107.6279985892
 10
191.6820949326
 20
107.636482315
  0
LINE
  5
37E
100
AcDbEntity
  8
0
100
AcDbLine
 62
250
  6
CONTINUOUS
 10
176.2041288211
 20
80.1954372701
 11
176.2041173826
 21
80.1964329645
  0
LINE
  5
37F
100
AcDbEntity
  8
0
100
AcDbLine
 62
250
  6
CONTINUOUS
 10
176.7211278952
 20
80.9485193335
 11
176.7211278952
 21
80.5164246631
  0
LINE
  5
380
100
AcDbEntity
  8
0
100
AcDbLine
 62
7
  6
CONTINUOUS
 10
176.7724989301
 20
81.0040914308
 11
176.7724989301
 21
80.5337775969
  0
LWPOLYLINE
  5
381
100
AcDbEntity
  8
0
100
AcDbPolyline
 62
250
  6
CONTINUOUS
 90
17
 70
0
 10
191.3747582009
 20
108.3328965337
 10
191.4058466814
 20
108.3058247263
 10
191.4361018588
 20
108.2767929822
 10
191.4655022558
 20
108.2457746289
 10
191.4940693498
 20
108.212796339
 10
191.5214281803
 20
108.178318784
 10
191.5475460718
 20
108.1423470109
 10
191.5724556999
 20
108.1048759728
 10
191.5958801304
 20
108.0663511995
 10
191.6178128895
 20
108.0267408708
 10
191.638260451
 20
107.986076807
 10
191.6569653024
 20
107.9448999986
 10
191.6738855301
 20
107.9032985653
 10
191.6890630476
 20
107.8611843875
 10
191.7023660825
 20
107.8188340966
 10
191.7138204528
 20
107.7761382588
 10
191.7234003405
 20
107.733206308
  0
LINE
  5
382
100
AcDbEntity
  8
0
100
AcDbLine
 62
250
  6
CONTINUOUS
 10
174.7703874884
 20
79.2278141277
 11
174.7766484822
 21
79.2486556458
  0
LINE
  5
383
100
AcDbEntity
  8
0
100
AcDbLine
 62
250
  6
CONTINUOUS
 10
159.6894336865
 20
85.3439322724
 11
160.3052305768
 21
85.6608758918
  0
LINE
  5
384
100
AcDbEntity
  8
0
100
AcDbLine
 62
250
  6
CONTINUOUS
 10
160.0421258388
 20
84.7356282915
 11
160.6579227291
 21
85.0525719109
  0
LINE
  5
385
100
AcDbEntity
  8
0
100
AcDbLine
 62
250
  6
CONTINUOUS
 10
160.5155778079
 20
85.728321856
 11
160.3063079749
 21
85.6272230272
  0
LINE
  5
386
100
AcDbEntity
  8
0
100
AcDbLine
 62
250
  6
CONTINUOUS
 10
160.8682699602
 20
85.1200178752
 11
160.6926834487
 21
85.0351915511
  0
LINE
  5
387
100
AcDbEntity
  8
0
100
AcDbLine
 62
7
  6
CONTINUOUS
 10
110.4336415535
 20
139.2268200947
 11
110.5602685203
 21
139.2268200947
  0
LINE
  5
388
100
AcDbEntity
  8
0
100
AcDbLine
 62
7
  6
CONTINUOUS
 10
110.7016898765
 20
139.40359679
 11
110.9138219109
 21
139.40359679
  0
LINE
  5
389
100
AcDbEntity
  8
0
100
AcDbLine
 62
7
  6
CONTINUOUS
 10
111.0552432671
 20
139.5803734853
 11
111.2673753015
 21
139.5803734853
  0
LINE
  5
38A
100
AcDbEntity
  8
0
100
AcDbLine
 62
7
  6
CONTINUOUS
 10
111.4087966577
 20
139.7571501806
 11
111.6209286921
 21
139.7571501806
  0
LINE
  5
38B
100
AcDbEntity
  8
0
100
AcDbLine
 62
7
  6
CONTINUOUS
 10
111.7623500483
 20
139.9339268759
 11
111.9744820827
 21
139.9339268759
  0
LINE
  5
38C
100
AcDbEntity
  8
0
100
AcDbLine
 62
7
  6
CONTINUOUS
 10
112.1159034389
 20
140.1107035712
 11
112.3280354733
 21
140.1107035712
  0
LINE
  5
38D
100
AcDbEntity
  8
0
100
AcDbLine
 62
7
  6
CONTINUOUS
 10
112.4694568295
 20
140.2874802665
 11
112.6815888639
 21
140.2874802665
  0
LINE
  5
38E
100
AcDbEntity
  8
0
100
AcDbLine
 62
7
  6
CONTINUOUS
 10
112.8230102201
 20
140.4642569617
 11
113.0351422545
 21
140.4642569617
  0
LINE
  5
38F
100
AcDbEntity
  8
SMUSSO
100
AcDbLine
 62
7
  6
CONTINUOUS
 10
206.2507222189
 20
119.0282703854
 11
207.2602589363
 21
120.1024676267
  0
LINE
  5
390
100
AcDbEntity
  8
0
100
AcDbLine
 62
7
  6
CONTINUOUS
 10
168.6037081208
 20
81.3546952467
 11
171.2282700097
 21
82.5362783163
  0
LINE
  5
391
100
AcDbEntity
  8
0
100
AcDbLine
 62
7
  6
CONTINUOUS
 10
176.7211278952
 20
80.9485193335
 11
175.541279624
 21
80.4458353443
  0
LINE
  5
392
100
AcDbEntity
  8
0
100
AcDbLine
 62
7
  6
CONTINUOUS
 10
171.3023171626
 20
82.565316575
 11
172.6126714183
 21
83.0027475719
  0
LINE
  5
393
100
AcDbEntity
  8
0
100
AcDbLine
 62
7
  6
CONTINUOUS
 10
110.4336415535
 20
143.9899598155
 11
110.5602685203
 21
143.9899598155
  0
LINE
  5
394
100
AcDbEntity
  8
0
100
AcDbLine
 62
7
  6
CONTINUOUS
 10
110.7016898765
 20
144.1667365108
 11
110.9138219109
 21
144.1667365108
  0
LINE
  5
395
100
AcDbEntity
  8
0
100
AcDbLine
 62
7
  6
CONTINUOUS
 10
111.0552432671
 20
144.3435132061
 11
111.2673753015
 21
144.3435132061
  0
LINE
  5
396
100
AcDbEntity
  8
0
100
AcDbLine
 62
7
  6
CONTINUOUS
 10
111.4087966577
 20
144.5202899014
 11
111.6209286921
 21
144.5202899014
  0
LINE
  5
397
100
AcDbEntity
  8
0
100
AcDbLine
 62
7
  6
CONTINUOUS
 10
111.7623500483
 20
144.6970665967
 11
111.9744820827
 21
144.6970665967
  0
LINE
  5
398
100
AcDbEntity
  8
0
100
AcDbLine
 62
7
  6
CONTINUOUS
 10
112.1159034389
 20
144.873843292
 11
112.3280354733
 21
144.873843292
  0
LINE
  5
399
100
AcDbEntity
  8
0
100
AcDbLine
 62
7
  6
CONTINUOUS
 10
112.4694568295
 20
145.0506199873
 11
112.6815888639
 21
145.0506199873
  0
LINE
  5
39A
100
AcDbEntity
  8
0
100
AcDbLine
 62
7
  6
CONTINUOUS
 10
112.8230102201
 20
145.2273966826
 11
113.0351422545
 21
145.2273966826
  0
LINE
  5
39B
100
AcDbEntity
  8
SMUSSO
100
AcDbLine
 62
7
  6
CONTINUOUS
 10
206.2507222189
 20
119.0282703854
 11
94.7021704177
 21
174.8025462861
  0
LINE
  5
39C
100
AcDbEntity
  8
SMUSSO
100
AcDbLine
 62
7
  6
CONTINUOUS
 10
207.2606213666
 20
120.126246097
 11
95.1056233317
 21
176.2037451144
  0
LINE
  5
39D
100
AcDbEntity
  8
SMUSSO
100
AcDbLine
 62
7
  6
CONTINUOUS
 10
211.3225543513
 20
122.1880160312
 11
98.8934371188
 21
178.4025746474
  0
LINE
  5
39E
100
AcDbEntity
  8
SMUSSO
100
AcDbLine
 62
7
  6
CONTINUOUS
 10
207.946657284
 20
118.9186055969
 11
207.9681586358
 21
118.9059248204
  0
LWPOLYLINE
  5
39F
100
AcDbEntity
  8
0
100
AcDbPolyline
 62
250
  6
CONTINUOUS
 90
3
 70
0
 10
191.7362392471
 20
107.6486505105
 10
191.7394982662
 20
107.6070266637
 10
191.7406735763
 20
107.5657716369
  0
LWPOLYLINE
  5
3A0
100
AcDbEntity
  8
0
100
AcDbPolyline
 62
250
  6
CONTINUOUS
 90
10
 70
0
 10
191.2469045631
 20
108.4173972101
 10
191.2476120333
 20
108.4004476689
 10
191.2497273566
 20
108.3843752284
 10
191.2532293561
 20
108.3693406857
 10
191.258082981
 20
108.355494453
 10
191.264239659
 20
108.3429750477
 10
191.2716377843
 20
108.3319077085
 10
191.2802033292
 20
108.3224031508
 10
191.2898505885
 20
108.3145564512
 10
191.2988832005
 20
108.3092224499
  0
LINE
  5
3A1
100
AcDbEntity
  8
0
100
AcDbLine
 62
7
  6
CONTINUOUS
 10
191.6820949326
 20
107.636482315
 11
191.6820949326
 21
69.2574667042
  0
LINE
  5
3A2
100
AcDbEntity
  8
0
100
AcDbLine
 62
250
  6
CONTINUOUS
 10
191.7406735763
 20
107.5657716369
 11
191.7406735763
 21
69.1867560263
  0
LWPOLYLINE
  5
3A3
100
AcDbEntity
  8
0
100
AcDbPolyline
 62
7
  6
CONTINUOUS
 90
15
 70
0
 10
191.6820949625
 20
69.2574120313
 10
191.6817814355
 20
69.2392486623
 10
191.6803822953
 20
69.2155792597
 10
191.6779136961
 20
69.1932058022
 10
191.6744416809
 20
69.1722499821
 10
191.6700455381
 20
69.1528223156
 10
191.6648311864
 20
69.1350474402
 10
191.6589293319
 20
69.1190501569
 10
191.6525133562
 20
69.1049703075
 10
191.6458073025
 20
69.0929207949
 10
191.63898504
 20
69.0828424301
 10
191.6321611532
 20
69.0745877653
 10
191.6256485855
 20
69.0681811036
 10
191.6194063224
 20
69.0632480694
 10
191.6184220148
 20
69.062571098
  0
LWPOLYLINE
  5
3A4
100
AcDbEntity
  8
0
100
AcDbPolyline
 62
250
  6
CONTINUOUS
 90
5
 70
0
 10
191.7406735763
 20
69.1867560263
 10
191.7395927527
 20
69.1474706013
 10
191.736440032
 20
69.109703565
 10
191.7312154141
 20
69.0734549176
 10
191.723875092
 20
69.0385671813
  0
LWPOLYLINE
  5
3A5
100
AcDbEntity
  8
0
100
AcDbPolyline
 62
250
  6
CONTINUOUS
 90
16
 70
0
 10
191.2469045631
 20
68.8288994664
 10
191.2476120065
 20
68.8465561388
 10
191.2497272589
 20
68.8647436039
 10
191.2532291578
 20
68.8832799004
 10
191.2580826674
 20
68.9019795771
 10
191.2642392296
 20
68.9206555481
 10
191.2716372494
 20
68.9391209649
 10
191.2802027114
 20
68.9571910855
 10
191.2898499202
 20
68.9746851225
 10
191.3004823578
 20
68.9914280523
 10
191.3119936493
 20
69.0072523659
 10
191.3242686268
 20
69.0219997449
 10
191.3371844822
 20
69.0355226452
 10
191.3506119954
 20
69.0476857735
 10
191.3644168275
 20
69.0583674405
 10
191.3784608642
 20
69.0674607788
  0
LINE
  5
3A6
100
AcDbEntity
  8
0
100
AcDbLine
 62
250
  6
CONTINUOUS
 10
174.7766484822
 20
79.2486556458
 11
175.2770184516
 21
79.7224713416
  0
LINE
  5
3A7
100
AcDbEntity
  8
0
100
AcDbLine
 62
7
  6
CONTINUOUS
 10
174.7776766651
 20
79.2003591834
 11
175.389668606
 21
79.7798731531
  0
LINE
  5
3A8
100
AcDbEntity
  8
0
100
AcDbLine
 62
7
  6
CONTINUOUS
 10
176.766219138
 20
80.5245633018
 11
176.7608096774
 21
80.5206225219
  0
LWPOLYLINE
  5
3A9
100
AcDbEntity
  8
0
100
AcDbPolyline
 62
250
  6
CONTINUOUS
 90
6
 70
0
 10
174.7127750013
 20
79.1537304057
 10
174.7274649591
 20
79.1640284652
 10
174.7406915687
 20
79.176717618
 10
174.7523250012
 20
79.1916757248
 10
174.7622541516
 20
79.2087611056
 10
174.7703874884
 20
79.2278141277
  0
LINE
  5
3AA
100
AcDbEntity
  8
0
100
AcDbLine
 62
250
  6
CONTINUOUS
 10
176.760850786
 20
80.5204271218
 11
176.766219138
 21
80.5245633018
  0
LINE
  5
3AB
100
AcDbEntity
  8
0
100
AcDbLine
 62
7
  6
CONTINUOUS
 10
176.2041288211
 20
80.1954372701
 11
176.760850786
 21
80.5204271218
  0
LINE
  5
3AC
100
AcDbEntity
  8
0
100
AcDbLine
 62
7
  6
CONTINUOUS
 10
175.474607268
 20
80.4131096872
 11
173.1114411287
 21
79.1008287428
  0
LINE
  5
3AD
100
AcDbEntity
  8
0
100
AcDbLine
 62
250
  6
CONTINUOUS
 10
174.7061459749
 20
79.1501142797
 11
174.7127750013
 21
79.1537304057
  0
LWPOLYLINE
  5
3AE
100
AcDbEntity
  8
0
100
AcDbPolyline
 62
250
  6
CONTINUOUS
 90
3
 70
0
 10
176.1890898968
 20
80.187224839
 10
176.1905158238
 20
80.1879643627
 10
176.2041173826
 20
80.1964329645
  0
LINE
  5
3AF
100
AcDbEntity
  8
0
100
AcDbLine
 62
250
  6
CONTINUOUS
 10
176.2041173826
 20
80.1964329645
 11
176.1890898968
 21
80.187224839
  0
LINE
  5
3B0
100
AcDbEntity
  8
0
100
AcDbLine
 62
7
  6
CONTINUOUS
 10
176.1890898968
 20
80.187224839
 11
173.5887242699
 21
78.8621871722
  0
LINE
  5
3B1
100
AcDbEntity
  8
0
100
AcDbLine
 62
7
  6
CONTINUOUS
 10
174.7061459474
 20
79.150114266
 11
173.8618405459
 21
78.7256290341
  0
LINE
  5
3B2
100
AcDbEntity
  8
0
100
AcDbLine
 62
250
  6
CONTINUOUS
 10
174.7766484822
 20
79.2486556458
 11
173.7984119786
 21
78.7573433178
  0
LINE
  5
3B3
100
AcDbEntity
  8
0
100
AcDbLine
 62
7
  6
CONTINUOUS
 10
173.4948952066
 20
78.9091017038
 11
176.7211278952
 21
80.5164246631
  0
LWPOLYLINE
  5
3B4
100
AcDbEntity
  8
0
100
AcDbPolyline
 62
250
  6
CONTINUOUS
 90
3
 70
0
 10
191.7234003405
 20
107.733206308
 10
191.7308965193
 20
107.6906431771
 10
191.7362392471
 20
107.6486505105
  0
LWPOLYLINE
  5
3B5
100
AcDbEntity
  8
0
100
AcDbPolyline
 62
250
  6
CONTINUOUS
 90
21
 70
0
 10
191.723875092
 20
69.0385671813
 10
191.7144628728
 20
69.0051978339
 10
191.7031101775
 20
68.9738193082
 10
191.6897864599
 20
68.9444731815
 10
191.6745222662
 20
68.9171178765
 10
191.6575406562
 20
68.8921010942
 10
191.6388324111
 20
68.869467463
 10
191.6184067496
 20
68.8491723545
 10
191.5965143877
 20
68.8314295844
 10
191.5731267011
 20
68.8162613934
 10
191.5482723141
 20
68.8036455408
 10
191.5222878144
 20
68.7937291199
 10
191.4952280404
 20
68.7865360448
 10
191.4670381538
 20
68.7820424014
 10
191.4378902273
 20
68.7803235408
 10
191.4077054488
 20
68.7813872488
 10
191.3765626306
 20
68.7852257397
 10
191.3448702819
 20
68.7918910074
 10
191.3127645727
 20
68.8014003835
 10
191.2801093331
 20
68.8137365365
 10
191.2469045631
 20
68.8288994664
  0
LINE
  5
3B6
100
AcDbEntity
  8
0
100
AcDbLine
 62
7
  6
CONTINUOUS
 10
184.7749490498
 20
73.2690747822
 11
184.841835884
 21
73.3844375065
  0
LINE
  5
3B7
100
AcDbEntity
  8
0
100
AcDbLine
 62
7
  6
CONTINUOUS
 10
185.100038101
 20
73.3967577542
 11
185.1953892745
 21
73.5612142018
  0
LINE
  5
3B8
100
AcDbEntity
  8
0
100
AcDbLine
 62
7
  6
CONTINUOUS
 10
185.4535914916
 20
73.5735344495
 11
185.5489426651
 21
73.7379908971
  0
LINE
  5
3B9
100
AcDbEntity
  8
0
100
AcDbLine
 62
7
  6
CONTINUOUS
 10
185.8071448822
 20
73.7503111448
 11
185.9024960557
 21
73.9147675924
  0
LINE
  5
3BA
100
AcDbEntity
  8
0
100
AcDbLine
 62
7
  6
CONTINUOUS
 10
186.1606982728
 20
73.9270878401
 11
186.2560494463
 21
74.0915442877
  0
LINE
  5
3BB
100
AcDbEntity
  8
0
100
AcDbLine
 62
7
  6
CONTINUOUS
 10
186.5142516634
 20
74.1038645354
 11
186.6096028369
 21
74.268320983
  0
LINE
  5
3BC
100
AcDbEntity
  8
0
100
AcDbLine
 62
7
  6
CONTINUOUS
 10
186.867805054
 20
74.2806412307
 11
186.9631562275
 21
74.4450976783
  0
LINE
  5
3BD
100
AcDbEntity
  8
0
100
AcDbLine
 62
7
  6
CONTINUOUS
 10
184.841835884
 20
73.3844375065
 11
184.9832572402
 21
73.4551481846
  0
LINE
  5
3BE
100
AcDbEntity
  8
0
100
AcDbLine
 62
7
  6
CONTINUOUS
 10
185.1953892745
 20
73.5612142018
 11
185.3368106308
 21
73.6319248799
  0
LINE
  5
3BF
100
AcDbEntity
  8
0
100
AcDbLine
 62
7
  6
CONTINUOUS
 10
185.5489426651
 20
73.7379908971
 11
185.6903640214
 21
73.8087015752
  0
LINE
  5
3C0
100
AcDbEntity
  8
0
100
AcDbLine
 62
7
  6
CONTINUOUS
 10
185.9024960557
 20
73.9147675924
 11
186.043917412
 21
73.9854782705
  0
LINE
  5
3C1
100
AcDbEntity
  8
0
100
AcDbLine
 62
7
  6
CONTINUOUS
 10
186.2560494463
 20
74.0915442877
 11
186.3974708026
 21
74.1622549658
  0
LINE
  5
3C2
100
AcDbEntity
  8
0
100
AcDbLine
 62
7
  6
CONTINUOUS
 10
186.6096028369
 20
74.268320983
 11
186.7510241932
 21
74.3390316611
  0
LINE
  5
3C3
100
AcDbEntity
  8
0
100
AcDbLine
 62
7
  6
CONTINUOUS
 10
186.9631562275
 20
74.4450976783
 11
187.1045775837
 21
74.5158083564
  0
LINE
  5
3C4
100
AcDbEntity
  8
0
100
AcDbLine
 62
7
  6
CONTINUOUS
 10
184.5136106975
 20
73.3997439584
 11
187.1381725864
 21
74.581327028
  0
LINE
  5
3C5
100
AcDbEntity
  8
0
100
AcDbLine
 62
7
  6
CONTINUOUS
 10
187.2122197393
 20
74.6103652866
 11
188.522573995
 21
75.0477962836
  0
LINE
  5
3C6
100
AcDbEntity
  8
SMUSSO
100
AcDbLine
 62
7
  6
CONTINUOUS
 10
207.2602589363
 20
42.5227006939
 11
207.2606213666
 21
42.5196858378
  0
LINE
  5
3C7
100
AcDbEntity
  8
SMUSSO
100
AcDbLine
 62
7
  6
CONTINUOUS
 10
206.529698153
 20
43.4163950127
 11
206.529698153
 21
118.5471080738
  0
LINE
  5
3C8
100
AcDbEntity
  8
SMUSSO
100
AcDbLine
 62
7
  6
CONTINUOUS
 10
207.2606213666
 20
120.126246097
 11
207.2602589363
 21
120.1024676267
  0
LINE
  5
3C9
100
AcDbEntity
  8
0
100
AcDbLine
 62
7
  6
CONTINUOUS
 10
188.6640363463
 20
71.324531134
 11
188.7309231805
 21
71.4398938582
  0
LINE
  5
3CA
100
AcDbEntity
  8
0
100
AcDbLine
 62
7
  6
CONTINUOUS
 10
188.9784105539
 20
71.4337337343
 11
189.0844765711
 21
71.6166705535
  0
LINE
  5
3CB
100
AcDbEntity
  8
0
100
AcDbLine
 62
7
  6
CONTINUOUS
 10
189.3319639445
 20
71.6105104296
 11
189.4380299617
 21
71.7934472488
  0
LINE
  5
3CC
100
AcDbEntity
  8
0
100
AcDbLine
 62
7
  6
CONTINUOUS
 10
189.6855173351
 20
71.7872871249
 11
189.7915833523
 21
71.9702239441
  0
LINE
  5
3CD
100
AcDbEntity
  8
0
100
AcDbLine
 62
7
  6
CONTINUOUS
 10
190.0390707257
 20
71.9640638202
 11
190.1451367429
 21
72.1470006394
  0
LINE
  5
3CE
100
AcDbEntity
  8
0
100
AcDbLine
 62
7
  6
CONTINUOUS
 10
190.3926241163
 20
72.1408405155
 11
190.4986901334
 21
72.3237773347
  0
LINE
  5
3CF
100
AcDbEntity
  8
0
100
AcDbLine
 62
7
  6
CONTINUOUS
 10
190.7461775069
 20
72.3176172108
 11
190.852243524
 21
72.50055403
  0
LINE
  5
3D0
100
AcDbEntity
  8
0
100
AcDbLine
 62
250
  6
CONTINUOUS
 10
189.7650234044
 20
71.0434308907
 11
189.7732893865
 21
71.048743184
  0
LINE
  5
3D1
100
AcDbEntity
  8
0
100
AcDbLine
 62
7
  6
CONTINUOUS
 10
190.2869024893
 20
71.3740025992
 11
190.2913757543
 21
71.3768501896
  0
LINE
  5
3D2
100
AcDbEntity
  8
0
100
AcDbLine
 62
250
  6
CONTINUOUS
 10
189.7732893865
 20
71.048743184
 11
189.7794705083
 21
71.0518343461
  0
LINE
  5
3D3
100
AcDbEntity
  8
0
100
AcDbLine
 62
7
  6
CONTINUOUS
 10
189.7794705083
 20
71.0518343461
 11
190.2803246481
 21
71.3698152781
  0
LINE
  5
3D4
100
AcDbEntity
  8
0
100
AcDbLine
 62
7
  6
CONTINUOUS
 10
191.3845098447
 20
72.4581583989
 11
189.0213437054
 21
71.1458774544
  0
LWPOLYLINE
  5
3D5
100
AcDbEntity
  8
0
100
AcDbPolyline
 62
7
  6
CONTINUOUS
 90
4
 70
0
 10
189.7552006542
 20
71.037974389
 10
189.7623333258
 20
71.0417365314
 10
189.7714473482
 20
71.046919857
 10
189.7794670984
 20
71.0518321871
  0
LWPOLYLINE
  5
3D6
100
AcDbEntity
  8
0
100
AcDbPolyline
 62
250
  6
CONTINUOUS
 90
3
 70
0
 10
189.7552636081
 20
71.038007254
 10
189.756882444
 20
71.0388444182
 10
189.7623333258
 20
71.0417365314
  0
LINE
  5
3D7
100
AcDbEntity
  8
0
100
AcDbLine
 62
7
  6
CONTINUOUS
 10
190.2799298952
 20
71.3704081601
 11
191.4191885872
 21
71.9577285515
  0
LINE
  5
3D8
100
AcDbEntity
  8
0
100
AcDbLine
 62
250
  6
CONTINUOUS
 10
189.7732893865
 20
71.048743184
 11
189.7552396002
 21
71.0379950205
  0
LINE
  5
3D9
100
AcDbEntity
  8
0
100
AcDbLine
 62
7
  6
CONTINUOUS
 10
189.7552396002
 20
71.0379950205
 11
189.4986268466
 21
70.9072358838
  0
LINE
  5
3DA
100
AcDbEntity
  8
0
100
AcDbLine
 62
7
  6
CONTINUOUS
 10
188.7309231805
 20
71.4398938582
 11
188.8723445367
 21
71.5106045363
  0
LINE
  5
3DB
100
AcDbEntity
  8
0
100
AcDbLine
 62
7
  6
CONTINUOUS
 10
189.0844765711
 20
71.6166705535
 11
189.2258979273
 21
71.6873812316
  0
LINE
  5
3DC
100
AcDbEntity
  8
0
100
AcDbLine
 62
7
  6
CONTINUOUS
 10
189.4380299617
 20
71.7934472488
 11
189.5794513179
 21
71.8641579269
  0
LINE
  5
3DD
100
AcDbEntity
  8
0
100
AcDbLine
 62
7
  6
CONTINUOUS
 10
189.7915833523
 20
71.9702239441
 11
189.9330047085
 21
72.0409346222
  0
LINE
  5
3DE
100
AcDbEntity
  8
0
100
AcDbLine
 62
7
  6
CONTINUOUS
 10
190.1451367429
 20
72.1470006394
 11
190.2865580991
 21
72.2177113175
  0
LINE
  5
3DF
100
AcDbEntity
  8
0
100
AcDbLine
 62
7
  6
CONTINUOUS
 10
190.4986901334
 20
72.3237773347
 11
190.6401114897
 21
72.3944880128
  0
LINE
  5
3E0
100
AcDbEntity
  8
0
100
AcDbLine
 62
7
  6
CONTINUOUS
 10
190.852243524
 20
72.50055403
 11
190.9936648803
 21
72.5712647081
  0
LINE
  5
3E1
100
AcDbEntity
  8
0
100
AcDbLine
 62
7
  6
CONTINUOUS
 10
191.0997308975
 20
72.4943939061
 11
188.7120208497
 21
71.3005388823
  0
LINE
  5
3E2
100
AcDbEntity
  8
0
100
AcDbLine
 62
7
  6
CONTINUOUS
 10
189.4047977833
 20
70.9541504154
 11
191.4191885872
 21
71.9577285515
  0
LWPOLYLINE
  5
3E3
100
AcDbEntity
  8
0
100
AcDbPolyline
 62
250
  6
CONTINUOUS
 90
3
 70
0
 10
189.7732893863
 20
71.0487431839
 10
189.7782329641
 20
71.0510869651
 10
189.7794670984
 20
71.051832187
  0
LINE
  5
3E4
100
AcDbEntity
  8
0
100
AcDbLine
 62
7
  6
CONTINUOUS
 10
191.6820949326
 20
72.5892663108
 11
191.4511822007
 21
72.490884056
  0
LINE
  5
3E5
100
AcDbEntity
  8
SMUSSO
100
AcDbLine
 62
7
  6
CONTINUOUS
 10
206.529698153
 20
118.5471080738
 11
206.2507222189
 21
119.0282703854
  0
LINE
  5
3E6
100
AcDbEntity
  8
SMUSSO
100
AcDbLine
 62
7
  6
CONTINUOUS
 10
207.946657284
 20
118.9186055969
 11
207.2602589363
 21
120.1024676267
  0
LINE
  5
3E7
100
AcDbEntity
  8
SMUSSO
100
AcDbLine
 62
7
  6
CONTINUOUS
 10
207.9681586358
 20
43.032469845
 11
207.9681586358
 21
118.9059248204
  0
LINE
  5
3E8
100
AcDbEntity
  8
SMUSSO
100
AcDbLine
 62
7
  6
CONTINUOUS
 10
212.0300916206
 20
44.7585136979
 11
212.0300916206
 21
120.9676947547
  0
LINE
  5
3E9
100
AcDbEntity
  8
0
100
AcDbLine
 62
7
  6
CONTINUOUS
 10
191.6184090959
 20
69.0625620438
 11
191.6181421926
 21
69.0623836204
  0
LINE
  5
3EA
100
AcDbEntity
  8
0
100
AcDbLine
 62
250
  6
CONTINUOUS
 10
191.3784608642
 20
69.0674607788
 11
191.6762529355
 21
69.2661672052
  0
LWPOLYLINE
  5
3EB
100
AcDbEntity
  8
0
100
AcDbPolyline
 62
250
  6
CONTINUOUS
 90
13
 70
0
 10
191.6181421926
 20
69.0623836204
 10
191.6077172416
 20
69.0559098382
 10
191.5900965825
 20
69.0469750861
 10
191.571635965
 20
69.0399855091
 10
191.5524628093
 20
69.0349750241
 10
191.5326226283
 20
69.0319421974
 10
191.5120696706
 20
69.0308889893
 10
191.4908329362
 20
69.031855046
 10
191.4690455521
 20
69.0348715513
 10
191.4468132944
 20
69.03994315
 10
191.4242389082
 20
69.0470680948
 10
191.4014195768
 20
69.0562453126
 10
191.3784608642
 20
69.0674607788
  0
LINE
  5
3EC
100
AcDbEntity
  8
SMUSSO
100
AcDbLine
 62
7
  6
CONTINUOUS
 10
211.3225543513
 20
122.1880160312
 11
212.0300916206
 21
120.9676947547
  0
LINE
  5
3ED
100
AcDbEntity
  8
SMUSSO
100
AcDbLine
 62
7
  6
CONTINUOUS
 10
206.2507222189
 20
43.2142086352
 11
206.529698153
 21
43.4163950127
  0
LINE
  5
3EE
100
AcDbEntity
  8
SMUSSO
100
AcDbLine
 62
7
  6
CONTINUOUS
 10
207.2602589363
 20
42.5227006939
 11
207.946657284
 21
43.020164376
  0
LINE
  5
3EF
100
AcDbEntity
  8
SMUSSO
100
AcDbLine
 62
7
  6
CONTINUOUS
 10
212.0300916206
 20
44.7585136979
 11
211.3225543513
 21
44.2457296906
  0
LINE
  5
3F0
100
AcDbEntity
  8
SMUSSO
100
AcDbLine
 62
7
  6
CONTINUOUS
 10
207.9681586358
 20
43.032469845
 11
207.946657284
 21
43.020164376
  0
LINE
  5
3F1
100
AcDbEntity
  8
SMUSSO
100
AcDbLine
 62
7
  6
CONTINUOUS
 10
207.9681586358
 20
43.032469845
 11
212.0300916206
 21
44.7585136979
  0
LINE
  5
3F2
100
AcDbEntity
  8
SMUSSO
100
AcDbLine
 62
7
  6
CONTINUOUS
 10
207.2606213666
 20
42.5196858378
 11
211.3225543513
 21
44.2457296906
  0
ARC
  5
3F3
100
AcDbEntity
  8
0
100
AcDbCircle
 62
7
  6
CONTINUOUS
 10
125.8483043296
 20
105.5568139855
 40
0.3
100
AcDbArc
 50
297.000902259
 51
300.2745073753
  0
ARC
  5
3F4
100
AcDbEntity
  8
0
100
AcDbCircle
 62
7
  6
CONTINUOUS
 10
124.3668417479
 20
104.5205067722
 40
0.3
100
AcDbArc
 50
296.7104568586
 51
313.4387126149
  0
ARC
  5
3F5
100
AcDbEntity
  8
0
100
AcDbCircle
 62
7
  6
CONTINUOUS
 10
176.0528857939
 20
80.4545232534
 40
0.3
100
AcDbArc
 50
297.0007631528
 51
300.274507432
  0
ARC
  5
3F6
100
AcDbEntity
  8
0
100
AcDbCircle
 62
7
  6
CONTINUOUS
 10
174.5712395122
 20
79.4183078901
 40
0.3
100
AcDbArc
 50
296.6727651315
 51
313.4308088689
  0
ELLIPSE
  5
3F7
100
AcDbEntity
  8
0
100
AcDbEllipse
 62
7
  6
CONTINUOUS
 10
113.9686655497
 20
126.8981323157
 30
0.0
 11
0.2005530505
 21
0.1230188791
 31
0.0
 40
0.0848418117
 41
0.0527809376
 42
0.6851403278
  0
ELLIPSE
  5
3F8
100
AcDbEntity
  8
0
100
AcDbEllipse
 62
7
  6
CONTINUOUS
 10
188.6564001163
 20
74.9743882864
 30
0.0
 11
0.1998906327
 21
-0.0151423951
 31
0.0
 40
0.4367367654
 41
0.8184703952
 42
2.3369068444
  0
ELLIPSE
  5
3F9
100
AcDbEntity
  8
0
100
AcDbEllipse
 62
7
  6
CONTINUOUS
 10
172.7464975396
 20
82.9293395748
 30
0.0
 11
0.1998906327
 21
-0.0151423951
 31
0.0
 40
0.4367367654
 41
0.8184703952
 42
2.3369068444
  0
ELLIPSE
  5
3FA
100
AcDbEntity
  8
0
100
AcDbEllipse
 62
7
  6
CONTINUOUS
 10
187.1381725864
 20
73.7153016242
 30
0.0
 11
0.4870649883
 21
0.8740372672
 31
0.0
 40
0.6437101552
 41
0.6138688214
 42
0.7135374739
  0
ELLIPSE
  5
3FB
100
AcDbEntity
  8
0
100
AcDbEllipse
 62
7
  6
CONTINUOUS
 10
171.2282700097
 20
81.6702529126
 30
0.0
 11
0.4870649883
 21
0.8740372672
 31
0.0
 40
0.6437101552
 41
0.6138688214
 42
0.7135374739
  0
ELLIPSE
  5
3FC
100
AcDbEntity
  8
0
100
AcDbEllipse
 62
7
  6
CONTINUOUS
 10
162.7801922601
 20
96.2410316843
 30
0.0
 11
0.9997175402
 21
0.0447299298
 31
0.0
 40
0.5313301283
 41
-0.8091667606
 42
-0.7094981082
  0
ELLIPSE
  5
3FD
100
AcDbEntity
  8
0
100
AcDbEllipse
 62
7
  6
CONTINUOUS
 10
164.173247014
 20
101.7958415835
 30
0.0
 11
0.2005530505
 21
0.1230188791
 31
0.0
 40
0.0848418117
 41
0.0527809376
 42
0.6851403278
  0
ELLIPSE
  5
3FE
100
AcDbEntity
  8
0
100
AcDbEllipse
 62
7
  6
CONTINUOUS
 10
164.6680794167
 20
96.8625498012
 30
0.0
 11
0.0765570305
 21
0.1851551354
 31
0.0
 40
0.5491663883
 41
-2.443869318
 42
-0.9254328688
  0
ELLIPSE
  5
3FF
100
AcDbEntity
  8
0
100
AcDbEllipse
 62
7
  6
CONTINUOUS
 10
162.7801922601
 20
115.7266032694
 30
0.0
 11
0.9997175402
 21
0.0447299298
 31
0.0
 40
0.5313301283
 41
-0.8091667606
 42
-0.7094981082
  0
ELLIPSE
  5
400
100
AcDbEntity
  8
0
100
AcDbEllipse
 62
7
  6
CONTINUOUS
 10
164.6680794167
 20
116.3481213863
 30
0.0
 11
0.0765570305
 21
0.1851551354
 31
0.0
 40
0.5491663883
 41
-2.443869318
 42
-0.9254328688
  0
ELLIPSE
  5
401
100
AcDbEntity
  8
0
100
AcDbEllipse
 62
7
  6
CONTINUOUS
 10
255.1722709877
 20
129.7037414834
 30
0.0
 11
355.466049941
 21
198.0094187483
 31
0.0
 40
0.0487796886
 41
-1.7782211021
 42
-1.7774696397
  0
ELLIPSE
  5
402
100
AcDbEntity
  8
0
100
AcDbEllipse
 62
7
  6
CONTINUOUS
 10
248.6220134079
 20
141.0012646505
 30
0.0
 11
375.6685100646
 21
163.1573594504
 31
0.0
 40
0.0388214462
 41
1.7801088751
 42
1.7835718216
  0
ELLIPSE
  5
403
100
AcDbEntity
  8
0
100
AcDbEllipse
 62
7
  6
CONTINUOUS
 10
121.0236885454
 20
106.7725436447
 30
0.0
 11
0.4870649883
 21
0.8740372672
 31
0.0
 40
0.6437101552
 41
0.6138688214
 42
0.7135374739
  0
ELLIPSE
  5
404
100
AcDbEntity
  8
0
100
AcDbEllipse
 62
7
  6
CONTINUOUS
 10
122.5419160753
 20
108.0316303069
 30
0.0
 11
0.1998906327
 21
-0.0151423951
 31
0.0
 40
0.4367367654
 41
0.8184703952
 42
2.3369068444
  0
ELLIPSE
  5
405
100
AcDbEntity
  8
0
100
AcDbEllipse
 62
7
  6
CONTINUOUS
 10
136.9335911221
 20
98.8175923563
 30
0.0
 11
0.4870649883
 21
0.8740372672
 31
0.0
 40
0.6437101552
 41
0.6138688214
 42
0.7135374739
  0
ELLIPSE
  5
406
100
AcDbEntity
  8
0
100
AcDbEllipse
 62
7
  6
CONTINUOUS
 10
198.4174319437
 20
166.1035553826
 30
0.0
 11
375.6685100646
 21
163.1573594504
 31
0.0
 40
0.0388214462
 41
1.7801088751
 42
1.7835718216
  0
ELLIPSE
  5
407
100
AcDbEntity
  8
0
100
AcDbEllipse
 62
7
  6
CONTINUOUS
 10
138.451818652
 20
100.0766790185
 30
0.0
 11
0.1998906327
 21
-0.0151423951
 31
0.0
 40
0.4367367654
 41
0.8184703952
 42
2.3369068444
  0
ELLIPSE
  5
408
100
AcDbEntity
  8
0
100
AcDbEllipse
 62
7
  6
CONTINUOUS
 10
204.9676895235
 20
154.8060322156
 30
0.0
 11
355.466049941
 21
198.0094187483
 31
0.0
 40
0.0487796886
 41
-1.7782211021
 42
-1.7774696397
  0
ELLIPSE
  5
409
100
AcDbEntity
  8
0
100
AcDbEllipse
 62
7
  6
CONTINUOUS
 10
112.5756107958
 20
140.8288940016
 30
0.0
 11
0.9997175402
 21
0.0447299298
 31
0.0
 40
0.5313301283
 41
-0.8091667606
 42
-0.7094981082
  0
ELLIPSE
  5
40A
100
AcDbEntity
  8
0
100
AcDbEllipse
 62
7
  6
CONTINUOUS
 10
114.4634979525
 20
121.9648405333
 30
0.0
 11
0.0765570305
 21
0.1851551354
 31
0.0
 40
0.5491663883
 41
-2.443869318
 42
-0.9254328688
  0
ELLIPSE
  5
40B
100
AcDbEntity
  8
0
100
AcDbEllipse
 62
7
  6
CONTINUOUS
 10
112.5756107958
 20
121.3433224164
 30
0.0
 11
0.9997175402
 21
0.0447299298
 31
0.0
 40
0.5313301283
 41
-0.8091667606
 42
-0.7094981082
  0
ELLIPSE
  5
40C
100
AcDbEntity
  8
0
100
AcDbEllipse
 62
7
  6
CONTINUOUS
 10
114.4634979525
 20
141.4504121184
 30
0.0
 11
0.0765570305
 21
0.1851551354
 31
0.0
 40
0.5491663883
 41
-2.443869318
 42
-0.9254328688
  0
ELLIPSE
  5
40D
100
AcDbEntity
  8
0
100
AcDbEllipse
 62
7
  6
CONTINUOUS
 10
162.7801922601
 20
101.4417114636
 30
0.0
 11
0.9998158572
 21
-0.0410662507
 31
0.0
 40
0.4672909446
 41
-0.7662070983
 42
-0.6665384458
  0
ELLIPSE
  5
40E
100
AcDbEntity
  8
0
100
AcDbEllipse
 62
7
  6
CONTINUOUS
 10
162.7801922601
 20
120.9272830487
 30
0.0
 11
0.9998158572
 21
-0.0410662507
 31
0.0
 40
0.4672909446
 41
-0.7662070983
 42
-0.6665384458
  0
ELLIPSE
  5
40F
100
AcDbEntity
  8
0
100
AcDbEllipse
 62
7
  6
CONTINUOUS
 10
164.6680794167
 20
121.0339969673
 30
0.0
 11
0.0765570305
 21
0.1851551354
 31
0.0
 40
0.5491663883
 41
5.3577524384
 42
6.8761888877
  0
ELLIPSE
  5
410
100
AcDbEntity
  8
0
100
AcDbEllipse
 62
7
  6
CONTINUOUS
 10
164.6680794167
 20
101.5484253822
 30
0.0
 11
0.0765570305
 21
0.1851551354
 31
0.0
 40
0.5491663883
 41
5.3577524384
 42
6.8761888877
  0
ELLIPSE
  5
411
100
AcDbEntity
  8
0
100
AcDbEllipse
 62
7
  6
CONTINUOUS
 10
176.5724989301
 20
80.410295432
 30
0.0
 11
0.1997674032
 21
0.1243735635
 31
0.0
 40
0.0775313764
 41
5.9836968272
 42
6.9679906257
  0
ELLIPSE
  5
412
100
AcDbEntity
  8
0
100
AcDbEllipse
 62
7
  6
CONTINUOUS
 10
126.3679174659
 20
106.1186296116
 30
0.0
 11
0.1998906327
 21
-0.0151423951
 31
0.0
 40
0.4367367654
 41
-0.6999660541
 42
0.8184703952
  0
ELLIPSE
  5
413
100
AcDbEntity
  8
0
100
AcDbEllipse
 62
7
  6
CONTINUOUS
 10
125.2700258037
 20
104.6493750155
 30
0.0
 11
0.4117883376
 21
0.9118470558
 31
0.0
 40
0.5796795686
 41
0.5621652879
 42
0.6618339404
  0
ELLIPSE
  5
414
100
AcDbEntity
  8
0
100
AcDbEllipse
 62
7
  6
CONTINUOUS
 10
126.3679174659
 20
105.5125861642
 30
0.0
 11
0.1997674032
 21
0.1243735635
 31
0.0
 40
0.0775313764
 41
5.9836968272
 42
6.9679906257
  0
ELLIPSE
  5
415
100
AcDbEntity
  8
0
100
AcDbEllipse
 62
7
  6
CONTINUOUS
 10
141.1799283804
 20
96.6944237272
 30
0.0
 11
0.4117883376
 21
0.9118470558
 31
0.0
 40
0.5796795686
 41
0.5621652879
 42
0.6618339404
  0
ELLIPSE
  5
416
100
AcDbEntity
  8
0
100
AcDbEllipse
 62
7
  6
CONTINUOUS
 10
176.5724989301
 20
81.0163388795
 30
0.0
 11
0.1998906327
 21
-0.0151423951
 31
0.0
 40
0.4367367654
 41
-0.6999660541
 42
0.8184703952
  0
ELLIPSE
  5
417
100
AcDbEntity
  8
0
100
AcDbEllipse
 62
7
  6
CONTINUOUS
 10
112.5756107958
 20
146.0295737809
 30
0.0
 11
0.9998158572
 21
-0.0410662507
 31
0.0
 40
0.4672909446
 41
-0.7662070983
 42
-0.6665384458
  0
ELLIPSE
  5
418
100
AcDbEntity
  8
0
100
AcDbEllipse
 62
7
  6
CONTINUOUS
 10
114.4634979525
 20
126.6507161143
 30
0.0
 11
0.0765570305
 21
0.1851551354
 31
0.0
 40
0.5491663883
 41
5.3577524384
 42
6.8761888877
  0
ELLIPSE
  5
419
100
AcDbEntity
  8
0
100
AcDbEllipse
 62
7
  6
CONTINUOUS
 10
112.5756107958
 20
126.5440021957
 30
0.0
 11
0.9998158572
 21
-0.0410662507
 31
0.0
 40
0.4672909446
 41
-0.7662070983
 42
-0.6665384458
  0
ELLIPSE
  5
41A
100
AcDbEntity
  8
0
100
AcDbEllipse
 62
7
  6
CONTINUOUS
 10
114.4634979525
 20
146.1362876995
 30
0.0
 11
0.0765570305
 21
0.1851551354
 31
0.0
 40
0.5491663883
 41
5.3577524384
 42
6.8761888877
  0
ELLIPSE
  5
41B
100
AcDbEntity
  8
0
100
AcDbEllipse
 62
7
  6
CONTINUOUS
 10
191.3845098447
 20
71.5921329951
 30
0.0
 11
0.4117883376
 21
0.9118470558
 31
0.0
 40
0.5796795686
 41
0.5621652879
 42
0.6618339404
  0
ELLIPSE
  5
41C
100
AcDbEntity
  8
0
100
AcDbEllipse
 62
7
  6
CONTINUOUS
 10
175.474607268
 20
79.5470842834
 30
0.0
 11
0.4117883376
 21
0.9118470558
 31
0.0
 40
0.5796795686
 41
0.5621652879
 42
0.6618339404
  0
ELLIPSE
  5
41D
100
AcDbEntity
  8
RACCORDO
100
AcDbEllipse
 62
7
  6
CONTINUOUS
 10
160.6596473087
 20
85.4857796959
 30
0.0
 11
-0.2231868307
 21
0.4474510936
 31
0.0
 40
0.6152983617
 41
0.8895908027
 42
2.4555211446
  0
ELLIPSE
  5
41E
100
AcDbEntity
  8
RACCORDO
100
AcDbEllipse
 62
7
  6
CONTINUOUS
 10
110.4550658445
 20
110.588070428
 30
0.0
 11
-0.2231868307
 21
0.4474510936
 31
0.0
 40
0.6152983617
 41
0.8895908027
 42
2.4555211446
  0
ENDSEC
  0
SECTION
  2
OBJECTS
  0
DICTIONARY
  5
C
100
AcDbDictionary
280
0
281
1
  3
ACAD_GROUP
350
D
  3
ACAD_MLINESTYLE
350
17
  3
ACAD_LAYOUT
350
1A
  3
ACAD_PLOTSETTINGS
350
19
  3
ACAD_PLOTSTYLENAME
350
E
  0
DICTIONARY
  5
D
102
{ACAD_REACTORS
330
C
102
}
100
AcDbDictionary
280
0
281
1
  0
ACDBDICTIONARYWDFLT
  5
E
102
{ACAD_REACTORS
330
C
102
}
100
AcDbDictionary
281
1
  3
Normal
350
F
100
AcDbDictionaryWithDefault
340
F
  0
DICTIONARY
  5
17
102
{ACAD_REACTORS
330
C
102
}
100
AcDbDictionary
280
0
281
1
  3
Standard
350
18
  0
DICTIONARY
  5
19
102
{ACAD_REACTORS
330
C
102
}
100
AcDbDictionary
281
1
  0
DICTIONARY
  5
1A
102
{ACAD_REACTORS
330
C
102
}
100
AcDbDictionary
281
1
  3
Model
350
41F
  3
Layout1
350
420
  0
ACDBPLACEHOLDER
  5
F
102
{ACAD_REACTORS
330
E
102
}
  0
MLINESTYLE
  5
18
102
{ACAD_REACTORS
330
17
102
}
100
AcDbMlineStyle
  2
STANDARD
 70
0
  3

 62
256
 51
90.0
 52
90.0
 71
2
 49
0.5
 62
256
  6
BYLAYER
 49
-0.5
 62
256
  6
BYLAYER
  0
LAYOUT
  5
41F
102
{ACAD_REACTORS
330
1A
102
}
100
AcDbPlotSettings
  1

  2
none_device
  4
ISO_A4_(297.00_x_210.00_MM)
  6

 40
0.0
 41
0.0
 42
0.0
 43
0.0
 44
297.0
 45
210.0
 46
0.0
 47
0.0
 48
0.0
 49
0.0
140
0.0
141
0.0
142
1.0
143
1.0
 70
1024
 72
1
 73
0
 74
0
  7

 75
0
147
1.0
148
0.0
149
0.0
100
AcDbLayout
  1
Model
 70
0
 71
0
 10
0.0
 20
0.0
 11
297.0
 21
210.0
 12
0.0
 22
0.0
 32
0.0
 14
0.0
 24
0.0
 34
0.0
 15
0.0
 25
0.0
 35
0.0
146
0.0
 13
0.0
 23
0.0
 33
0.0
 16
1.0
 26
0.0
 36
0.0
 17
0.0
 27
1.0
 37
0.0
 76
0
330
21F
345
0
346
0
  0
LAYOUT
  5
420
102
{ACAD_REACTORS
330
1A
102
}
100
AcDbPlotSettings
  1

  2
none_device
  4
ISO_A4_(297.00_x_210.00_MM)
  6

 40
0.0
 41
0.0
 42
0.0
 43
0.0
 44
297.0
 45
210.0
 46
0.0
 47
0.0
 48
0.0
 49
0.0
140
0.0
141
0.0
142
1.0
143
1.0
 70
0
 72
1
 73
0
 74
0
  7

 75
0
147
1.0
148
0.0
149
0.0
100
AcDbLayout
  1
Layout1
 70
0
 71
1
 10
0.0
 20
0.0
 11
297.0
 21
210.0
 12
0.0
 22
0.0
 32
0.0
 14
0.0
 24
0.0
 34
0.0
 15
0.0
 25
0.0
 35
0.0
146
0.0
 13
0.0
 23
0.0
 33
0.0
 16
1.0
 26
0.0
 36
0.0
 17
0.0
 27
1.0
 37
0.0
 76
0
330
220
345
0
346
0
  0
ENDSEC
  0
EOF
