  0
SECTION
  2
HEADER
  9
$ACADVER
  1
AC1024
  9
$DWGCODEPAGE
  3
ANSI_1252
  9
$EXTMAX
 10
297.0
 20
210.0
 30
0.0
  9
$EXTMIN
 10
0.0
 20
0.0
 30
0.0
  9
$LIMMIN
 10
0.0
 20
0.0
  9
$LIMMAX
 10
297.0
 20
210.0
  9
$VIEWCTR
 10
148.5
 20
105.0
  9
$VIEWSIZE
 40
210.0
  9
$CLAYER
  8
0
  9
$LTSCALE
 40
16.335
  9
$CELTYPE
  6
BYLAYER
  9
$DIMSCALE
 40
1.0
  9
$DIMASZ
 40
3.0
  9
$DIMEXO
 40
0.5
  9
$DIMDLI
 40
11.286
  9
$DIMEXE
 40
1.5
  9
$DIMCEN
 40
2.673
  9
$DIMLFAC
 40
1.0
  9
$DIMBLK
  1
_FILLED
  9
$DIMALT
 70
0
  9
$DIMALTF
 40
0.0393700787
  9
$DIMTXT
 40
3.0
  9
$DIMTOL
 70
1
  9
$DIMLIM
 70
0
  9
$DIMTFAC
 40
1.0
  9
$DIMTP
 40
0.01
  9
$DIMTM
 40
0.01
  9
$DIMGAP
 40
0.625
  9
$DIMDSEP
 70
44
  9
$AUNITS
 70
0
  9
$PDMODE
 70
3
  9
$PDSIZE
 40
3.0
  9
$HANDSEED
  5
3C2
  9
$TILEMODE
 70
1
  9
$MEASUREMENT
 70
1
  9
$INSUNITS
 70
4
  0
ENDSEC
  0
SECTION
  2
CLASSES
  0
CLASS
  1
ACDBDICTIONARYWDFLT
  2
AcDbDictionaryWithDefault
  3
AutoCAD 2000
 90
0
 91
1
280
0
281
0
  0
CLASS
  1
ACDBPLACEHOLDER
  2
AcDbPlaceHolder
  3
AutoCAD 2000
 90
0
 91
1
280
0
281
0
  0
CLASS
  1
LAYOUT
  2
AcDbLayout
  3
AutoCAD 2000
 90
0
 91
0
280
0
281
0
  0
ENDSEC
  0
SECTION
  2
TABLES
  0
TABLE
  2
VPORT
  5
8
100
AcDbSymbolTable
 70
2
  0
VPORT
  5
1F4
100
AcDbSymbolTableRecord
100
AcDbViewportTableRecord
  2
*ACTIVE
 70
0
 10
0.0
 20
0.0
 11
1.0
 21
1.0
 12
148.5
 22
105.0
 13
0.0
 23
0.0
 14
1.0
 24
1.0
 15
0.0
 25
0.0
 16
0.0
 26
0.0
 36
1.0
 17
0.0
 27
0.0
 37
0.0
 40
210.0
 41
1.4142857143
 42
50.0
 43
0.0
 44
0.0
 50
0.0
 51
0.0
 71
0
 72
100
 73
1
 74
1
 75
0
 76
0
 77
0
 78
0
  0
ENDTAB
  0
TABLE
  2
LTYPE
  5
5
100
AcDbSymbolTable
 70
6
  0
LTYPE
  5
14
100
AcDbSymbolTableRecord
100
AcDbLinetypeTableRecord
  2
BYBLOCK
 70
0
  3

 72
65
 73
0
 40
0.0
  0
LTYPE
  5
15
100
AcDbSymbolTableRecord
100
AcDbLinetypeTableRecord
  2
BYLAYER
 70
0
  3

 72
65
 73
0
 40
0.0
  0
LTYPE
  5
16
100
AcDbSymbolTableRecord
100
AcDbLinetypeTableRecord
  2
CONTINUOUS
 70
64
  3
Solid line
 72
65
 73
0
 40
0.0
  0
LTYPE
  5
1F5
100
AcDbSymbolTableRecord
100
AcDbLinetypeTableRecord
  2
CENTER
 70
64
  3
____ _ ____ _ ____ _ ____ _ ____ _ ____ _ ____
 72
65
 73
4
 40
0.6
 49
0.375
 74
0
 49
-0.075
 74
0
 49
0.075
 74
0
 49
-0.075
 74
0
  0
LTYPE
  5
1F6
100
AcDbSymbolTableRecord
100
AcDbLinetypeTableRecord
  2
HIDDEN
 70
64
  3
- - - - - - - - - - - - - - - - - - - -
 72
65
 73
2
 40
0.2
 49
0.1
 74
0
 49
-0.1
 74
0
  0
LTYPE
  5
1F7
100
AcDbSymbolTableRecord
100
AcDbLinetypeTableRecord
  2
PHANTOM
 70
64
  3
_____ _ _ _____ _ _ _____ _ _ _____
 72
65
 73
6
 40
0.8
 49
0.45
 74
0
 49
-0.05
 74
0
 49
0.1
 74
0
 49
-0.05
 74
0
 49
0.1
 74
0
 49
-0.05
 74
0
  0
LTYPE
  5
1F8
100
AcDbSymbolTableRecord
100
AcDbLinetypeTableRecord
  2
DOT
 70
64
  3
. . . . . . . . . . . . . . . . . . . .
 72
65
 73
2
 40
0.2
 49
0.1
 74
0
 49
-0.1
 74
0
  0
LTYPE
  5
1F9
100
AcDbSymbolTableRecord
100
AcDbLinetypeTableRecord
  2
DASHED
 70
64
  3
- - - - - - - - - - - - - - - - - - - -
 72
65
 73
2
 40
0.2
 49
0.1
 74
0
 49
-0.1
 74
0
  0
ENDTAB
  0
TABLE
  2
LAYER
  5
2
100
AcDbSymbolTable
 70
36
  0
LAYER
  5
10
100
AcDbSymbolTableRecord
100
AcDbLayerTableRecord
  2
0
 70
0
 62
7
  6
CONTINUOUS
370
-3
390
F
  0
LAYER
  5
1FA
100
AcDbSymbolTableRecord
100
AcDbLayerTableRecord
  2
DEFAULT_1
 70
0
 62
7
  6
CENTER
370
-3
390
F
  0
LAYER
  5
1FB
100
AcDbSymbolTableRecord
100
AcDbLayerTableRecord
  2
DEFAULT_2
 70
0
 62
7
  6
HIDDEN
370
-3
390
F
  0
LAYER
  5
1FC
100
AcDbSymbolTableRecord
100
AcDbLayerTableRecord
  2
DEFAULT_3
 70
0
 62
7
  6
PHANTOM
370
-3
390
F
  0
LAYER
  5
1FD
100
AcDbSymbolTableRecord
100
AcDbLayerTableRecord
  2
ASSI
 70
0
 62
7
  6
CONTINUOUS
370
-3
390
F
  0
LAYER
  5
1FE
100
AcDbSymbolTableRecord
100
AcDbLayerTableRecord
  2
COORDINATE
 70
0
 62
7
  6
CONTINUOUS
370
-3
390
F
  0
LAYER
  5
1FF
100
AcDbSymbolTableRecord
100
AcDbLayerTableRecord
  2
COORD_ORIGINE
 70
0
 62
7
  6
CONTINUOUS
370
-3
390
F
  0
LAYER
  5
200
100
AcDbSymbolTableRecord
100
AcDbLayerTableRecord
  2
COPY_PUBLISH
 70
0
 62
7
  6
CONTINUOUS
370
-3
390
F
  0
LAYER
  5
201
100
AcDbSymbolTableRecord
100
AcDbLayerTableRecord
  2
COSMETIC
 70
0
 62
7
  6
CONTINUOUS
370
-3
390
F
  0
LAYER
  5
202
100
AcDbSymbolTableRecord
100
AcDbLayerTableRecord
  2
COSMETICI
 70
0
 62
7
  6
CONTINUOUS
370
-3
390
F
  0
LAYER
  5
203
100
AcDbSymbolTableRecord
100
AcDbLayerTableRecord
  2
CURVE
 70
0
 62
7
  6
CONTINUOUS
370
-3
390
F
  0
LAYER
  5
204
100
AcDbSymbolTableRecord
100
AcDbLayerTableRecord
  2
CURVE_COSTRUZIONE
 70
0
 62
7
  6
CONTINUOUS
370
-3
390
F
  0
LAYER
  5
205
100
AcDbSymbolTableRecord
100
AcDbLayerTableRecord
  2
CURVE_TASSELLI
 70
0
 62
7
  6
CONTINUOUS
370
-3
390
F
  0
LAYER
  5
206
100
AcDbSymbolTableRecord
100
AcDbLayerTableRecord
  2
DRAFT
 70
0
 62
7
  6
CONTINUOUS
370
-3
390
F
  0
LAYER
  5
207
100
AcDbSymbolTableRecord
100
AcDbLayerTableRecord
  2
IMPORT_IGES
 70
0
 62
7
  6
CONTINUOUS
370
-3
390
F
  0
LAYER
  5
208
100
AcDbSymbolTableRecord
100
AcDbLayerTableRecord
  2
INTFCLR_2
 70
0
 62
7
  6
CONTINUOUS
370
-3
390
F
  0
LAYER
  5
209
100
AcDbSymbolTableRecord
100
AcDbLayerTableRecord
  2
INTF_1
 70
0
 62
7
  6
CONTINUOUS
370
-3
390
F
  0
LAYER
  5
20A
100
AcDbSymbolTableRecord
100
AcDbLayerTableRecord
  2
INTF_7
 70
0
 62
7
  6
CONTINUOUS
370
-3
390
F
  0
LAYER
  5
20B
100
AcDbSymbolTableRecord
100
AcDbLayerTableRecord
  2
INTF_CYAN
 70
0
 62
7
  6
CONTINUOUS
370
-3
390
F
  0
LAYER
  5
20C
100
AcDbSymbolTableRecord
100
AcDbLayerTableRecord
  2
NOTE
 70
0
 62
7
  6
CONTINUOUS
370
-3
390
F
  0
LAYER
  5
20D
100
AcDbSymbolTableRecord
100
AcDbLayerTableRecord
  2
PIANI
 70
0
 62
7
  6
CONTINUOUS
370
-3
390
F
  0
LAYER
  5
20E
100
AcDbSymbolTableRecord
100
AcDbLayerTableRecord
  2
PIANI_ORIGINE
 70
0
 62
7
  6
CONTINUOUS
370
-3
390
F
  0
LAYER
  5
20F
100
AcDbSymbolTableRecord
100
AcDbLayerTableRecord
  2
PIANI_RIFERIMENTO
 70
0
 62
7
  6
CONTINUOUS
370
-3
390
F
  0
LAYER
  5
210
100
AcDbSymbolTableRecord
100
AcDbLayerTableRecord
  2
PUNTI
 70
0
 62
7
  6
CONTINUOUS
370
-3
390
F
  0
LAYER
  5
211
100
AcDbSymbolTableRecord
100
AcDbLayerTableRecord
  2
RACCORDO
 70
0
 62
7
  6
CONTINUOUS
370
-3
390
F
  0
LAYER
  5
212
100
AcDbSymbolTableRecord
100
AcDbLayerTableRecord
  2
RGB__255__255__255__
 70
0
 62
7
  6
CONTINUOUS
370
-3
390
F
  0
LAYER
  5
213
100
AcDbSymbolTableRecord
100
AcDbLayerTableRecord
  2
RGB____0____0____0__
 70
0
 62
7
  6
CONTINUOUS
370
-3
390
F
  0
LAYER
  5
214
100
AcDbSymbolTableRecord
100
AcDbLayerTableRecord
  2
SIMBOLI
 70
0
 62
7
  6
CONTINUOUS
370
-3
390
F
  0
LAYER
  5
215
100
AcDbSymbolTableRecord
100
AcDbLayerTableRecord
  2
SMUSSO
 70
0
 62
7
  6
CONTINUOUS
370
-3
390
F
  0
LAYER
  5
216
100
AcDbSymbolTableRecord
100
AcDbLayerTableRecord
  2
SNAPLINE
 70
0
 62
7
  6
CONTINUOUS
370
-3
390
F
  0
LAYER
  5
217
100
AcDbSymbolTableRecord
100
AcDbLayerTableRecord
  2
SUPERFICI
 70
0
 62
7
  6
CONTINUOUS
370
-3
390
F
  0
LAYER
  5
218
100
AcDbSymbolTableRecord
100
AcDbLayerTableRecord
  2
TRASH
 70
0
 62
7
  6
CONTINUOUS
370
-3
390
F
  0
LAYER
  5
219
100
AcDbSymbolTableRecord
100
AcDbLayerTableRecord
  2
XSEC_DATUMS
 70
0
 62
7
  6
CONTINUOUS
370
-3
390
F
  0
ENDTAB
  0
TABLE
  2
STYLE
  5
3
100
AcDbSymbolTable
 70
1
  0
STYLE
  5
11
100
AcDbSymbolTableRecord
100
AcDbTextStyleTableRecord
  2
STANDARD
 70
0
 40
0.0
 41
0.8
 50
0.0
 71
0
 42
0.2
  3
txt
  4

  0
STYLE
  5
21A
100
AcDbSymbolTableRecord
100
AcDbTextStyleTableRecord
  2
TEXTSTYLE_1
 70
0
 40
0.0
 41
0.8
 50
0.0
 71
0
 42
0.2
  3
gdt
  4

  0
ENDTAB
  0
TABLE
  2
VIEW
  5
6
100
AcDbSymbolTable
 70
0
  0
ENDTAB
  0
TABLE
  2
UCS
  5
7
100
AcDbSymbolTable
 70
0
  0
ENDTAB
  0
TABLE
  2
APPID
  5
9
100
AcDbSymbolTable
 70
1
  0
APPID
  5
21B
100
AcDbSymbolTableRecord
100
AcDbRegAppTableRecord
  2
ACAD
 70
0
  0
ENDTAB
  0
TABLE
  2
BLOCK_RECORD
  5
1
100
AcDbSymbolTable
 70
0
  0
BLOCK_RECORD
  5
21C
100
AcDbSymbolTableRecord
100
AcDbBlockTableRecord
  2
*Model_Space
  0
BLOCK_RECORD
  5
21D
100
AcDbSymbolTableRecord
100
AcDbBlockTableRecord
  2
*Paper_Space
  0
BLOCK_RECORD
  5
21E
100
AcDbSymbolTableRecord
100
AcDbBlockTableRecord
  2
_FILLED
  0
ENDTAB
  0
TABLE
  2
DIMSTYLE
  5
A
100
AcDbSymbolTable
 70
1
100
AcDbDimStyleTable
 71
0
  0
DIMSTYLE
105
21F
100
AcDbSymbolTableRecord
100
AcDbDimStyleTableRecord
  2
STANDARD
 70
0
  3

  4

 40
1.0
 41
3.0
 42
0.5
 43
0.38
 44
1.5
 45
0.0
 46
0.0
 47
0.01
 48
0.01
140
3.0
141
0.09
142
0.0
143
25.4
144
1.0
145
0.0
146
1.0
147
0.625
 71
1
 72
0
 73
0
 74
0
 75
0
 76
0
 77
1
 78
8
 79
2
170
0
171
1
172
0
173
0
174
0
175
0
176
0
177
0
178
0
270
2
179
2
271
2
272
2
273
2
274
2
275
0
280
0
281
0
282
0
283
1
284
8
285
0
286
0
287
3
288
0
340
11
278
44
341
21E
342
21E
343
21E
344
21E
  0
ENDTAB
  0
ENDSEC
  0
SECTION
  2
BLOCKS
  0
BLOCK
  5
20
100
AcDbEntity
  8
0
100
AcDbBlockBegin
  2
*Model_Space
 70
0
 10
0.0
 20
0.0
 30
0.0
  3
*Model_Space
  1

  0
ENDBLK
  5
21
100
AcDbEntity
  8
0
100
AcDbBlockEnd
  0
BLOCK
  5
1C
100
AcDbEntity
  8
0
100
AcDbBlockBegin
  2
*Paper_Space
 70
0
 10
0.0
 20
0.0
 30
0.0
  3
*Paper_Space
  1

  0
ENDBLK
  5
1D
100
AcDbEntity
  8
0
100
AcDbBlockEnd
  0
BLOCK
  5
220
100
AcDbEntity
  8
0
100
AcDbBlockBegin
  2
_FILLED
 70
64
 10
0.0
 20
0.0
  3
_FILLED
  1

  0
SOLID
  5
221
100
AcDbEntity
  8
0
  6
BYBLOCK
 62
0
100
AcDbTrace
 10
0.0
 20
0.0
 11
-1.0
 21
0.3166666667
 12
-1.0
 22
-0.3166666667
 13
-1.0
 23
-0.3166666667
  0
ENDBLK
  5
222
100
AcDbEntity
  8
0
  6
BYBLOCK
 62
0
100
AcDbBlockEnd
  0
ENDSEC
  0
SECTION
  2
ENTITIES
  0
LINE
  5
223
100
AcDbEntity
  8
SMUSSO
100
AcDbLine
 62
7
  6
CONTINUOUS
 10
-33.713712047
 20
52.8073741756
 11
-29.9258982598
 21
55.3109410669
  0
LINE
  5
224
100
AcDbEntity
  8
ASSI
100
AcDbLine
 62
7
  6
CONTINUOUS
 10
-33.713712047
 20
52.8073741756
 11
-29.9258982598
 21
55.3109410669
  0
LINE
  5
225
100
AcDbEntity
  8
SMUSSO
100
AcDbLine
 62
7
  6
CONTINUOUS
 10
-33.0061747777
 20
53.2158183695
 11
-29.2183609905
 21
55.7193852608
  0
LINE
  5
226
100
AcDbEntity
  8
ASSI
100
AcDbLine
 62
7
  6
CONTINUOUS
 10
-33.0061747777
 20
53.2158183695
 11
-29.2183609905
 21
55.7193852608
  0
LINE
  5
227
100
AcDbEntity
  8
SMUSSO
100
AcDbLine
 62
7
  6
CONTINUOUS
 10
-33.0269383918
 20
53.2029790185
 11
-33.0061747777
 21
53.2158183695
  0
LINE
  5
228
100
AcDbEntity
  8
ASSI
100
AcDbLine
 62
7
  6
CONTINUOUS
 10
-33.0269383918
 20
53.2029790185
 11
-33.0061747777
 21
53.2158183695
  0
LINE
  5
229
100
AcDbEntity
  8
SMUSSO
100
AcDbLine
 62
7
  6
CONTINUOUS
 10
-29.9258982598
 20
55.3109410669
 11
-29.2183609905
 21
55.7193852608
  0
LINE
  5
22A
100
AcDbEntity
  8
ASSI
100
AcDbLine
 62
7
  6
CONTINUOUS
 10
-29.9258982598
 20
55.3109410669
 11
-29.2183609905
 21
55.7193852608
  0
LINE
  5
22B
100
AcDbEntity
  8
SMUSSO
100
AcDbLine
 62
7
  6
CONTINUOUS
 10
-33.0269383918
 20
53.2029790185
 11
-33.7133367395
 21
52.8067378141
  0
LINE
  5
22C
100
AcDbEntity
  8
ASSI
100
AcDbLine
 62
7
  6
CONTINUOUS
 10
-33.0269383918
 20
53.2029790185
 11
-33.7133367395
 21
52.8067378141
  0
LINE
  5
22D
100
AcDbEntity
  8
SMUSSO
100
AcDbLine
 62
7
  6
CONTINUOUS
 10
-33.4096276917
 20
51.7877505801
 11
-33.6886036258
 21
51.6267045045
  0
LINE
  5
22E
100
AcDbEntity
  8
ASSI
100
AcDbLine
 62
7
  6
CONTINUOUS
 10
-33.4096276917
 20
51.7877505801
 11
-33.6886036258
 21
51.6267045045
  0
LINE
  5
22F
100
AcDbEntity
  8
CURVE
100
AcDbLine
 62
250
  6
CONTINUOUS
 10
32.0411322287
 20
-48.8463758992
 11
30.7827314074
 21
-49.1229986991
  0
LINE
  5
230
100
AcDbEntity
  8
CURVE
100
AcDbLine
 62
250
  6
CONTINUOUS
 10
30.7827314074
 20
-48.6972617039
 11
32.6109225841
 21
-48.3689685114
  0
LINE
  5
231
100
AcDbEntity
  8
CURVE
100
AcDbLine
 62
250
  6
CONTINUOUS
 10
31.2850719363
 20
-44.6382971314
 11
31.9635370636
 21
-44.4851225515
  0
LINE
  5
232
100
AcDbEntity
  8
CURVE
100
AcDbLine
 62
250
  6
CONTINUOUS
 10
32.2459507582
 20
-44.4202106124
 11
32.6109225841
 21
-44.3412594007
  0
LINE
  5
233
100
AcDbEntity
  8
CURVE
100
AcDbLine
 62
250
  6
CONTINUOUS
 10
32.6109225841
 20
-44.7626650212
 11
30.7827314074
 21
-45.1068295793
  0
LINE
  5
234
100
AcDbEntity
  8
CURVE
100
AcDbLine
 62
250
  6
CONTINUOUS
 10
31.7977486871
 20
-46.3057887178
 11
30.7827314074
 21
-46.4262684078
  0
LINE
  5
235
100
AcDbEntity
  8
CURVE
100
AcDbLine
 62
250
  6
CONTINUOUS
 10
31.4221246946
 20
-45.9739366547
 11
32.6109225841
 21
-45.8404082359
  0
LINE
  5
236
100
AcDbEntity
  8
SMUSSO
100
AcDbLine
 62
7
  6
CONTINUOUS
 10
-33.4096276917
 20
51.7877505801
 11
-33.0269383918
 21
53.2029790185
  0
LINE
  5
237
100
AcDbEntity
  8
ASSI
100
AcDbLine
 62
7
  6
CONTINUOUS
 10
-33.4096276917
 20
51.7877505801
 11
-33.0269383918
 21
53.2029790185
  0
LINE
  5
238
100
AcDbEntity
  8
SMUSSO
100
AcDbLine
 62
7
  6
CONTINUOUS
 10
28.2133185794
 20
-54.9463231628
 11
29.6302777103
 21
-55.3225026187
  0
LINE
  5
239
100
AcDbEntity
  8
ASSI
100
AcDbLine
 62
7
  6
CONTINUOUS
 10
28.2133185794
 20
-54.9463231628
 11
29.6302777103
 21
-55.3225026187
  0
LWPOLYLINE
  5
23A
100
AcDbEntity
  8
0
100
AcDbPolyline
 62
7
  6
CONTINUOUS
 90
13
 70
0
 10
-26.495146641
 20
30.6377698998
 10
-26.4944898087
 20
30.6380529943
 10
-26.4893837929
 20
30.6397858186
 10
-26.4824183441
 20
30.6411973405
 10
-26.4733795413
 20
30.6419583565
 10
-26.4621643649
 20
30.6417208859
 10
-26.4487951024
 20
30.6401626203
 10
-26.4333014035
 20
30.6369902102
 10
-26.4160185043
 20
30.6320119356
 10
-26.3975261359
 20
30.6252309207
 10
-26.3781841016
 20
30.6167053781
 10
-26.3581478843
 20
30.6064510232
 10
-26.3491054328
 20
30.6013710311
  0
LWPOLYLINE
  5
23B
100
AcDbEntity
  8
ASSI
100
AcDbPolyline
 62
7
  6
CONTINUOUS
 90
13
 70
0
 10
-26.495146641
 20
30.6377698998
 10
-26.4944898087
 20
30.6380529943
 10
-26.4893837929
 20
30.6397858186
 10
-26.4824183441
 20
30.6411973405
 10
-26.4733795413
 20
30.6419583565
 10
-26.4621643649
 20
30.6417208859
 10
-26.4487951024
 20
30.6401626203
 10
-26.4333014035
 20
30.6369902102
 10
-26.4160185043
 20
30.6320119356
 10
-26.3975261359
 20
30.6252309207
 10
-26.3781841016
 20
30.6167053781
 10
-26.3581478843
 20
30.6064510232
 10
-26.3491054328
 20
30.6013710311
  0
LINE
  5
23C
100
AcDbEntity
  8
SMUSSO
100
AcDbLine
 62
7
  6
CONTINUOUS
 10
-33.6886036258
 20
-19.2049290948
 11
-33.4096276917
 21
-19.6881295863
  0
LINE
  5
23D
100
AcDbEntity
  8
ASSI
100
AcDbLine
 62
7
  6
CONTINUOUS
 10
-33.6886036258
 20
-19.2049290948
 11
-33.4096276917
 21
-19.6881295863
  0
LINE
  5
23E
100
AcDbEntity
  8
SMUSSO
100
AcDbLine
 62
7
  6
CONTINUOUS
 10
-33.6886036258
 20
-19.2049290948
 11
-33.7133367395
 21
-18.7486935173
  0
LINE
  5
23F
100
AcDbEntity
  8
ASSI
100
AcDbLine
 62
7
  6
CONTINUOUS
 10
-33.6886036258
 20
-19.2049290948
 11
-33.7133367395
 21
-18.7486935173
  0
LINE
  5
240
100
AcDbEntity
  8
0
100
AcDbLine
 62
250
  6
CONTINUOUS
 10
-26.6115646092
 20
30.4023265016
 11
-26.2623198825
 21
30.5512620416
  0
LINE
  5
241
100
AcDbEntity
  8
ASSI
100
AcDbLine
 62
250
  6
CONTINUOUS
 10
-26.6115646092
 20
30.4023265016
 11
-26.2623198825
 21
30.5512620416
  0
LINE
  5
242
100
AcDbEntity
  8
SMUSSO
100
AcDbLine
 62
7
  6
CONTINUOUS
 10
-33.4096276917
 20
-19.6881295863
 11
-33.0269383918
 21
-19.9375703284
  0
LINE
  5
243
100
AcDbEntity
  8
ASSI
100
AcDbLine
 62
7
  6
CONTINUOUS
 10
-33.4096276917
 20
-19.6881295863
 11
-33.0269383918
 21
-19.9375703284
  0
LINE
  5
244
100
AcDbEntity
  8
SMUSSO
100
AcDbLine
 62
7
  6
CONTINUOUS
 10
-33.6886036258
 20
51.6267045045
 11
-33.7133367395
 21
52.8067378141
  0
LINE
  5
245
100
AcDbEntity
  8
ASSI
100
AcDbLine
 62
7
  6
CONTINUOUS
 10
-33.6886036258
 20
51.6267045045
 11
-33.7133367395
 21
52.8067378141
  0
LINE
  5
246
100
AcDbEntity
  8
SMUSSO
100
AcDbLine
 62
7
  6
CONTINUOUS
 10
-33.7133367395
 20
-18.7486935173
 11
-33.713712047
 21
-18.7245006566
  0
LINE
  5
247
100
AcDbEntity
  8
ASSI
100
AcDbLine
 62
7
  6
CONTINUOUS
 10
-33.7133367395
 20
-18.7486935173
 11
-33.713712047
 21
-18.7245006566
  0
LINE
  5
248
100
AcDbEntity
  8
SMUSSO
100
AcDbLine
 62
7
  6
CONTINUOUS
 10
-33.713712047
 20
52.8073741756
 11
-33.713712047
 21
-18.7245006566
  0
LINE
  5
249
100
AcDbEntity
  8
ASSI
100
AcDbLine
 62
7
  6
CONTINUOUS
 10
-33.713712047
 20
52.8073741756
 11
-33.713712047
 21
-18.7245006566
  0
LINE
  5
24A
100
AcDbEntity
  8
SMUSSO
100
AcDbLine
 62
7
  6
CONTINUOUS
 10
-33.6886036258
 20
51.6267045045
 11
-33.6886036258
 21
-19.2049290948
  0
LINE
  5
24B
100
AcDbEntity
  8
ASSI
100
AcDbLine
 62
7
  6
CONTINUOUS
 10
-33.6886036258
 20
51.6267045045
 11
-33.6886036258
 21
-19.2049290948
  0
LINE
  5
24C
100
AcDbEntity
  8
SMUSSO
100
AcDbLine
 62
7
  6
CONTINUOUS
 10
-33.0061747777
 20
-19.949991154
 11
28.9442417929
 21
-55.7193852608
  0
LINE
  5
24D
100
AcDbEntity
  8
ASSI
100
AcDbLine
 62
7
  6
CONTINUOUS
 10
-33.0061747777
 20
-19.949991154
 11
28.9442417929
 21
-55.7193852608
  0
LINE
  5
24E
100
AcDbEntity
  8
SMUSSO
100
AcDbLine
 62
7
  6
CONTINUOUS
 10
-33.4096276917
 20
-19.6881295863
 11
27.9343426453
 21
-55.1073692384
  0
LINE
  5
24F
100
AcDbEntity
  8
ASSI
100
AcDbLine
 62
7
  6
CONTINUOUS
 10
-33.4096276917
 20
-19.6881295863
 11
27.9343426453
 21
-55.1073692384
  0
LINE
  5
250
100
AcDbEntity
  8
SMUSSO
100
AcDbLine
 62
7
  6
CONTINUOUS
 10
-33.0061747777
 20
-19.949991154
 11
-33.0269383918
 21
-19.9375703284
  0
LINE
  5
251
100
AcDbEntity
  8
ASSI
100
AcDbLine
 62
7
  6
CONTINUOUS
 10
-33.0061747777
 20
-19.949991154
 11
-33.0269383918
 21
-19.9375703284
  0
LINE
  5
252
100
AcDbEntity
  8
SMUSSO
100
AcDbLine
 62
7
  6
CONTINUOUS
 10
27.9343426453
 20
-55.1073692384
 11
28.9438793627
 21
-55.7187438231
  0
LINE
  5
253
100
AcDbEntity
  8
ASSI
100
AcDbLine
 62
7
  6
CONTINUOUS
 10
27.9343426453
 20
-55.1073692384
 11
28.9438793627
 21
-55.7187438231
  0
LINE
  5
254
100
AcDbEntity
  8
0
100
AcDbLine
 62
250
  6
CONTINUOUS
 10
-26.8841977712
 20
-5.8436054662
 11
-26.8841977712
 21
30.4078235535
  0
LINE
  5
255
100
AcDbEntity
  8
ASSI
100
AcDbLine
 62
250
  6
CONTINUOUS
 10
-26.8841977712
 20
-5.8436054662
 11
-26.8841977712
 21
30.4078235535
  0
LINE
  5
256
100
AcDbEntity
  8
0
100
AcDbLine
 62
250
  6
CONTINUOUS
 10
-26.6115646092
 20
-5.8491025181
 11
-26.6115646092
 21
30.4023265016
  0
LINE
  5
257
100
AcDbEntity
  8
ASSI
100
AcDbLine
 62
250
  6
CONTINUOUS
 10
-26.6115646092
 20
-5.8491025181
 11
-26.6115646092
 21
30.4023265016
  0
LINE
  5
258
100
AcDbEntity
  8
RACCORDO
100
AcDbLine
 62
7
  6
CONTINUOUS
 10
-25.5418362165
 20
30.1352638027
 11
-25.5418362165
 21
-5.2314625531
  0
LINE
  5
259
100
AcDbEntity
  8
ASSI
100
AcDbLine
 62
7
  6
CONTINUOUS
 10
-25.5418362165
 20
30.1352638027
 11
-25.5418362165
 21
-5.2314625531
  0
LINE
  5
25A
100
AcDbEntity
  8
0
100
AcDbLine
 62
250
  6
CONTINUOUS
 10
-25.3314889854
 20
30.0138119477
 11
-25.3314889854
 21
-5.1099919647
  0
LINE
  5
25B
100
AcDbEntity
  8
ASSI
100
AcDbLine
 62
250
  6
CONTINUOUS
 10
-25.3314889854
 20
30.0138119477
 11
-25.3314889854
 21
-5.1099919647
  0
LINE
  5
25C
100
AcDbEntity
  8
0
100
AcDbLine
 62
7
  6
CONTINUOUS
 10
-25.2088437755
 20
29.9429981406
 11
-25.2088437755
 21
-4.9205918367
  0
LINE
  5
25D
100
AcDbEntity
  8
ASSI
100
AcDbLine
 62
7
  6
CONTINUOUS
 10
-25.2088437755
 20
29.9429981406
 11
-25.2088437755
 21
-4.9205918367
  0
LINE
  5
25E
100
AcDbEntity
  8
0
100
AcDbLine
 62
7
  6
CONTINUOUS
 10
-25.1175721478
 20
-5.273309394
 11
-25.1175721478
 21
29.8902990467
  0
LINE
  5
25F
100
AcDbEntity
  8
0
100
AcDbLine
 62
250
  6
CONTINUOUS
 10
-24.3850384253
 20
29.4673432561
 11
-24.3850384253
 21
-5.9220622796
  0
LINE
  5
260
100
AcDbEntity
  8
0
100
AcDbLine
 62
7
  6
CONTINUOUS
 10
-24.3148733754
 20
29.4268308357
 11
-24.3148733754
 21
-5.9625747001
  0
LINE
  5
261
100
AcDbEntity
  8
0
100
AcDbLine
 62
250
  6
CONTINUOUS
 10
20.9151437116
 20
-34.0124831493
 11
-26.390428758
 21
-6.6988384834
  0
LINE
  5
262
100
AcDbEntity
  8
ASSI
100
AcDbLine
 62
250
  6
CONTINUOUS
 10
20.9151437116
 20
-34.0124831493
 11
-26.390428758
 21
-6.6988384834
  0
LINE
  5
263
100
AcDbEntity
  8
0
100
AcDbLine
 62
250
  6
CONTINUOUS
 10
21.0467000127
 20
-33.7736279106
 11
-26.2588724569
 21
-6.4599832447
  0
LINE
  5
264
100
AcDbEntity
  8
ASSI
100
AcDbLine
 62
250
  6
CONTINUOUS
 10
21.0467000127
 20
-33.7736279106
 11
-26.2588724569
 21
-6.4599832447
  0
LINE
  5
265
100
AcDbEntity
  8
RACCORDO
100
AcDbLine
 62
7
  6
CONTINUOUS
 10
-25.1891440642
 20
-5.8423432797
 11
21.3503340811
 21
-32.7136546841
  0
LINE
  5
266
100
AcDbEntity
  8
ASSI
100
AcDbLine
 62
7
  6
CONTINUOUS
 10
-25.1891440642
 20
-5.8423432797
 11
21.3503340811
 21
-32.7136546841
  0
LINE
  5
267
100
AcDbEntity
  8
0
100
AcDbLine
 62
250
  6
CONTINUOUS
 10
-24.9787968331
 20
-5.7208726913
 11
21.3503340811
 21
-32.4707322408
  0
LINE
  5
268
100
AcDbEntity
  8
ASSI
100
AcDbLine
 62
250
  6
CONTINUOUS
 10
-24.9787968331
 20
-5.7208726913
 11
21.3503340811
 21
-32.4707322408
  0
LINE
  5
269
100
AcDbEntity
  8
0
100
AcDbLine
 62
7
  6
CONTINUOUS
 10
-24.7534473908
 20
-5.7093475602
 11
21.3503340811
 21
-32.329093166
  0
LINE
  5
26A
100
AcDbEntity
  8
ASSI
100
AcDbLine
 62
7
  6
CONTINUOUS
 10
-24.7534473908
 20
-5.7093475602
 11
21.3503340811
 21
-32.329093166
  0
LINE
  5
26B
100
AcDbEntity
  8
0
100
AcDbLine
 62
7
  6
CONTINUOUS
 10
18.3694948952
 20
-30.543260115
 11
14.4804075987
 21
-28.2977498517
  0
LINE
  5
26C
100
AcDbEntity
  8
0
100
AcDbLine
 62
7
  6
CONTINUOUS
 10
-13.4503102582
 20
-12.1709034153
 11
-17.3393975547
 21
-9.925393152
  0
LINE
  5
26D
100
AcDbEntity
  8
0
100
AcDbLine
 62
7
  6
CONTINUOUS
 10
18.6169822686
 20
-30.5228345489
 11
14.6218289549
 21
-28.2160949331
  0
LINE
  5
26E
100
AcDbEntity
  8
0
100
AcDbLine
 62
7
  6
CONTINUOUS
 10
-17.1979761985
 20
-9.8437382333
 11
-13.2028228848
 21
-12.1504778491
  0
LINE
  5
26F
100
AcDbEntity
  8
0
100
AcDbLine
 62
7
  6
CONTINUOUS
 10
18.7230482858
 20
-30.3391228184
 11
14.8339609893
 21
-28.0936125551
  0
LINE
  5
270
100
AcDbEntity
  8
0
100
AcDbLine
 62
7
  6
CONTINUOUS
 10
-13.0967568676
 20
-11.9667661186
 11
-16.9858441641
 21
-9.7212558553
  0
LWPOLYLINE
  5
271
100
AcDbEntity
  8
0
100
AcDbPolyline
 62
7
  6
CONTINUOUS
 90
27
 70
0
 10
-24.7534779751
 20
-5.7093299056
 10
-24.7723176984
 20
-5.6978529185
 10
-24.7937231863
 20
-5.6834327943
 10
-24.816831693
 20
-5.6663006929
 10
-24.8412195623
 20
-5.6465118579
 10
-24.8666346176
 20
-5.6240413189
 10
-24.8928316846
 20
-5.5988828184
 10
-24.9194108632
 20
-5.5712233507
 10
-24.9461223103
 20
-5.5411518253
 10
-24.972703425
 20
-5.5087988932
 10
-24.9987765039
 20
-5.4744926498
 10
-25.0241133111
 20
-5.4384348184
 10
-25.0484852809
 20
-5.4008596142
 10
-25.071575153
 20
-5.3622074261
 10
-25.0932122482
 20
-5.3227604446
 10
-25.1132424761
 20
-5.2828103875
 10
-25.1314502921
 20
-5.2428553162
 10
-25.1477534334
 20
-5.2032108144
 10
-25.1620979867
 20
-5.1641741524
 10
-25.174397237
 20
-5.126235542
 10
-25.1846765033
 20
-5.0896851341
 10
-25.192991073
 20
-5.0547784768
 10
-25.1993878737
 20
-5.0219494923
 10
-25.2040015432
 20
-4.9914004533
 10
-25.2069858029
 20
-4.9633321213
 10
-25.2085128518
 20
-4.9381339467
 10
-25.2088437781
 20
-4.9206214433
  0
LWPOLYLINE
  5
272
100
AcDbEntity
  8
ASSI
100
AcDbPolyline
 62
7
  6
CONTINUOUS
 90
27
 70
0
 10
-24.7534779751
 20
-5.7093299056
 10
-24.7723176984
 20
-5.6978529185
 10
-24.7937231863
 20
-5.6834327943
 10
-24.816831693
 20
-5.6663006929
 10
-24.8412195623
 20
-5.6465118579
 10
-24.8666346176
 20
-5.6240413189
 10
-24.8928316846
 20
-5.5988828184
 10
-24.9194108632
 20
-5.5712233507
 10
-24.9461223103
 20
-5.5411518253
 10
-24.972703425
 20
-5.5087988932
 10
-24.9987765039
 20
-5.4744926498
 10
-25.0241133111
 20
-5.4384348184
 10
-25.0484852809
 20
-5.4008596142
 10
-25.071575153
 20
-5.3622074261
 10
-25.0932122482
 20
-5.3227604446
 10
-25.1132424761
 20
-5.2828103875
 10
-25.1314502921
 20
-5.2428553162
 10
-25.1477534334
 20
-5.2032108144
 10
-25.1620979867
 20
-5.1641741524
 10
-25.174397237
 20
-5.126235542
 10
-25.1846765033
 20
-5.0896851341
 10
-25.192991073
 20
-5.0547784768
 10
-25.1993878737
 20
-5.0219494923
 10
-25.2040015432
 20
-4.9914004533
 10
-25.2069858029
 20
-4.9633321213
 10
-25.2085128518
 20
-4.9381339467
 10
-25.2088437781
 20
-4.9206214433
  0
LINE
  5
273
100
AcDbEntity
  8
0
100
AcDbLine
 62
7
  6
CONTINUOUS
 10
18.9705356592
 20
-30.3186972522
 11
14.9753823455
 21
-28.0119576364
  0
LINE
  5
274
100
AcDbEntity
  8
0
100
AcDbLine
 62
7
  6
CONTINUOUS
 10
-16.8444228079
 20
-9.6396009366
 11
-12.8492694942
 21
-11.9463405525
  0
LINE
  5
275
100
AcDbEntity
  8
0
100
AcDbLine
 62
7
  6
CONTINUOUS
 10
19.0766016764
 20
-30.1349855217
 11
15.1875143799
 21
-27.8894752584
  0
LINE
  5
276
100
AcDbEntity
  8
0
100
AcDbLine
 62
7
  6
CONTINUOUS
 10
-12.743203477
 20
-11.762628822
 11
-16.6322907735
 21
-9.5171185587
  0
LINE
  5
277
100
AcDbEntity
  8
0
100
AcDbLine
 62
7
  6
CONTINUOUS
 10
19.3240890498
 20
-30.1145599556
 11
15.3289357361
 21
-27.8078203397
  0
LINE
  5
278
100
AcDbEntity
  8
0
100
AcDbLine
 62
7
  6
CONTINUOUS
 10
-16.4908694173
 20
-9.43546364
 11
-12.4957161036
 21
-11.7422032558
  0
LINE
  5
279
100
AcDbEntity
  8
0
100
AcDbLine
 62
7
  6
CONTINUOUS
 10
19.430155067
 20
-29.930848225
 11
15.5410677705
 21
-27.6853379617
  0
LINE
  5
27A
100
AcDbEntity
  8
0
100
AcDbLine
 62
7
  6
CONTINUOUS
 10
-12.3896500864
 20
-11.5584915253
 11
-16.2787373829
 21
-9.312981262
  0
LINE
  5
27B
100
AcDbEntity
  8
0
100
AcDbLine
 62
7
  6
CONTINUOUS
 10
19.6776424404
 20
-29.9104226589
 11
15.6824891267
 21
-27.6036830431
  0
LINE
  5
27C
100
AcDbEntity
  8
0
100
AcDbLine
 62
7
  6
CONTINUOUS
 10
-16.1373160267
 20
-9.2313263433
 11
-12.142162713
 21
-11.5380659591
  0
LINE
  5
27D
100
AcDbEntity
  8
0
100
AcDbLine
 62
7
  6
CONTINUOUS
 10
19.7837084576
 20
-29.7267109284
 11
15.8946211611
 21
-27.4812006651
  0
LINE
  5
27E
100
AcDbEntity
  8
0
100
AcDbLine
 62
7
  6
CONTINUOUS
 10
-12.0360966958
 20
-11.3543542286
 11
-15.9251839923
 21
-9.1088439653
  0
LINE
  5
27F
100
AcDbEntity
  8
0
100
AcDbLine
 62
7
  6
CONTINUOUS
 10
20.031195831
 20
-29.7062853622
 11
16.0360425173
 21
-27.3995457464
  0
LINE
  5
280
100
AcDbEntity
  8
0
100
AcDbLine
 62
7
  6
CONTINUOUS
 10
-15.7837626361
 20
-9.0271890467
 11
-11.7886093224
 21
-11.3339286625
  0
LINE
  5
281
100
AcDbEntity
  8
0
100
AcDbLine
 62
7
  6
CONTINUOUS
 10
20.1372618482
 20
-29.5225736317
 11
16.2481745517
 21
-27.2770633684
  0
LINE
  5
282
100
AcDbEntity
  8
0
100
AcDbLine
 62
7
  6
CONTINUOUS
 10
-11.6825433052
 20
-11.150216932
 11
-15.5716306017
 21
-8.9047066687
  0
LINE
  5
283
100
AcDbEntity
  8
0
100
AcDbLine
 62
7
  6
CONTINUOUS
 10
20.3847492216
 20
-29.5021480656
 11
16.3895959079
 21
-27.1954084497
  0
LINE
  5
284
100
AcDbEntity
  8
0
100
AcDbLine
 62
7
  6
CONTINUOUS
 10
-15.4302092455
 20
-8.82305175
 11
-11.4350559318
 21
-11.1297913658
  0
LINE
  5
285
100
AcDbEntity
  8
0
100
AcDbLine
 62
7
  6
CONTINUOUS
 10
20.4908152388
 20
-29.318436335
 11
16.6017279422
 21
-27.0729260717
  0
LINE
  5
286
100
AcDbEntity
  8
0
100
AcDbLine
 62
7
  6
CONTINUOUS
 10
-11.3289899146
 20
-10.9460796353
 11
-15.2180772111
 21
-8.700569372
  0
LINE
  5
287
100
AcDbEntity
  8
0
100
AcDbLine
 62
7
  6
CONTINUOUS
 10
20.7383026122
 20
-29.2980107689
 11
16.7431492985
 21
-26.9912711531
  0
LINE
  5
288
100
AcDbEntity
  8
0
100
AcDbLine
 62
7
  6
CONTINUOUS
 10
-15.0766558549
 20
-8.6189144533
 11
-11.0815025412
 21
-10.9256540692
  0
LINE
  5
289
100
AcDbEntity
  8
0
100
AcDbLine
 62
250
  6
CONTINUOUS
 10
21.0230815594
 20
-29.3398546244
 11
16.7767443011
 21
-26.8880727106
  0
LINE
  5
28A
100
AcDbEntity
  8
0
100
AcDbLine
 62
250
  6
CONTINUOUS
 10
-10.796723594
 20
-10.9674979247
 11
-15.0430608523
 21
-8.5157160108
  0
LINE
  5
28B
100
AcDbEntity
  8
0
100
AcDbLine
 62
250
  6
CONTINUOUS
 10
21.0897539154
 20
-29.301152713
 11
16.8507914541
 21
-26.8536289145
  0
LINE
  5
28C
100
AcDbEntity
  8
0
100
AcDbLine
 62
250
  6
CONTINUOUS
 10
-10.730051238
 20
-10.9287960133
 11
-14.9690136993
 21
-8.4812722148
  0
LINE
  5
28D
100
AcDbEntity
  8
0
100
AcDbLine
 62
7
  6
CONTINUOUS
 10
-13.3834119661
 20
-7.9634462616
 11
-9.5574105756
 21
-10.1725315135
  0
LINE
  5
28E
100
AcDbEntity
  8
0
100
AcDbLine
 62
7
  6
CONTINUOUS
 10
18.4363931873
 20
-26.3358029614
 11
21.3503340811
 21
-28.0182759132
  0
LINE
  5
28F
100
AcDbEntity
  8
0
100
AcDbLine
 62
250
  6
CONTINUOUS
 10
-9.5502029667
 20
-10.3159811668
 11
-9.5502029667
 21
-10.7233508047
  0
LINE
  5
290
100
AcDbEntity
  8
0
100
AcDbLine
 62
7
  6
CONTINUOUS
 10
-9.4988319318
 20
-10.24940366
 11
-9.4988319318
 21
-10.6928055099
  0
LINE
  5
291
100
AcDbEntity
  8
0
100
AcDbLine
 62
7
  6
CONTINUOUS
 10
-17.3674276885
 20
-9.9739427678
 11
-17.3393975547
 21
-9.925393152
  0
LINE
  5
292
100
AcDbEntity
  8
0
100
AcDbLine
 62
7
  6
CONTINUOUS
 10
-17.0919101813
 20
-9.9049675858
 11
-16.9858441641
 21
-9.7212558553
  0
LINE
  5
293
100
AcDbEntity
  8
0
100
AcDbLine
 62
7
  6
CONTINUOUS
 10
-16.7383567907
 20
-9.7008302892
 11
-16.6322907735
 21
-9.5171185587
  0
LINE
  5
294
100
AcDbEntity
  8
0
100
AcDbLine
 62
7
  6
CONTINUOUS
 10
-16.3848034001
 20
-9.4966929925
 11
-16.2787373829
 21
-9.312981262
  0
LINE
  5
295
100
AcDbEntity
  8
0
100
AcDbLine
 62
7
  6
CONTINUOUS
 10
-16.0312500095
 20
-9.2925556958
 11
-15.9251839923
 21
-9.1088439653
  0
LINE
  5
296
100
AcDbEntity
  8
0
100
AcDbLine
 62
7
  6
CONTINUOUS
 10
-15.6776966189
 20
-9.0884183992
 11
-15.5716306017
 21
-8.9047066687
  0
LINE
  5
297
100
AcDbEntity
  8
0
100
AcDbLine
 62
7
  6
CONTINUOUS
 10
-15.3241432283
 20
-8.8842811025
 11
-15.2180772111
 21
-8.700569372
  0
LINE
  5
298
100
AcDbEntity
  8
0
100
AcDbLine
 62
250
  6
CONTINUOUS
 10
-26.6115646092
 20
-5.8491025181
 11
-25.3314889854
 21
-5.1099919647
  0
LINE
  5
299
100
AcDbEntity
  8
ASSI
100
AcDbLine
 62
250
  6
CONTINUOUS
 10
-26.6115646092
 20
-5.8491025181
 11
-25.3314889854
 21
-5.1099919647
  0
LINE
  5
29A
100
AcDbEntity
  8
0
100
AcDbLine
 62
7
  6
CONTINUOUS
 10
-13.478340392
 20
-12.2194530311
 11
-13.4503102582
 21
-12.1709034153
  0
LINE
  5
29B
100
AcDbEntity
  8
0
100
AcDbLine
 62
7
  6
CONTINUOUS
 10
-13.2028228848
 20
-12.1504778491
 11
-13.0967568676
 21
-11.9667661186
  0
LINE
  5
29C
100
AcDbEntity
  8
0
100
AcDbLine
 62
7
  6
CONTINUOUS
 10
-12.8492694942
 20
-11.9463405525
 11
-12.743203477
 21
-11.762628822
  0
LINE
  5
29D
100
AcDbEntity
  8
0
100
AcDbLine
 62
7
  6
CONTINUOUS
 10
-12.4957161036
 20
-11.7422032558
 11
-12.3896500864
 21
-11.5584915253
  0
LINE
  5
29E
100
AcDbEntity
  8
0
100
AcDbLine
 62
7
  6
CONTINUOUS
 10
-12.142162713
 20
-11.5380659591
 11
-12.0360966958
 21
-11.3543542286
  0
LINE
  5
29F
100
AcDbEntity
  8
0
100
AcDbLine
 62
7
  6
CONTINUOUS
 10
-11.7886093224
 20
-11.3339286625
 11
-11.6825433052
 21
-11.150216932
  0
LINE
  5
2A0
100
AcDbEntity
  8
0
100
AcDbLine
 62
7
  6
CONTINUOUS
 10
-11.4350559318
 20
-11.1297913658
 11
-11.3289899146
 21
-10.9460796353
  0
LINE
  5
2A1
100
AcDbEntity
  8
0
100
AcDbLine
 62
250
  6
CONTINUOUS
 10
-26.2588724569
 20
-6.4599832447
 11
-24.9787968331
 21
-5.7208726913
  0
LINE
  5
2A2
100
AcDbEntity
  8
ASSI
100
AcDbLine
 62
250
  6
CONTINUOUS
 10
-26.2588724569
 20
-6.4599832447
 11
-24.9787968331
 21
-5.7208726913
  0
LINE
  5
2A3
100
AcDbEntity
  8
SMUSSO
100
AcDbLine
 62
7
  6
CONTINUOUS
 10
28.9442417929
 20
17.4464242627
 11
33.0061747777
 21
19.7917181648
  0
LINE
  5
2A4
100
AcDbEntity
  8
ASSI
100
AcDbLine
 62
7
  6
CONTINUOUS
 10
28.9442417929
 20
17.4464242627
 11
33.0061747777
 21
19.7917181648
  0
LINE
  5
2A5
100
AcDbEntity
  8
0
100
AcDbLine
 62
7
  6
CONTINUOUS
 10
-17.3393975547
 20
-9.925393152
 11
-17.1979761985
 21
-9.8437382333
  0
LINE
  5
2A6
100
AcDbEntity
  8
0
100
AcDbLine
 62
7
  6
CONTINUOUS
 10
-16.9858441641
 20
-9.7212558553
 11
-16.8444228079
 21
-9.6396009366
  0
LINE
  5
2A7
100
AcDbEntity
  8
0
100
AcDbLine
 62
7
  6
CONTINUOUS
 10
-16.6322907735
 20
-9.5171185587
 11
-16.4908694173
 21
-9.43546364
  0
LINE
  5
2A8
100
AcDbEntity
  8
0
100
AcDbLine
 62
7
  6
CONTINUOUS
 10
-16.2787373829
 20
-9.312981262
 11
-16.1373160267
 21
-9.2313263433
  0
LINE
  5
2A9
100
AcDbEntity
  8
0
100
AcDbLine
 62
7
  6
CONTINUOUS
 10
-15.9251839923
 20
-9.1088439653
 11
-15.7837626361
 21
-9.0271890467
  0
LINE
  5
2AA
100
AcDbEntity
  8
0
100
AcDbLine
 62
7
  6
CONTINUOUS
 10
-15.5716306017
 20
-8.9047066687
 11
-15.4302092455
 21
-8.82305175
  0
LINE
  5
2AB
100
AcDbEntity
  8
0
100
AcDbLine
 62
7
  6
CONTINUOUS
 10
-15.2180772111
 20
-8.700569372
 11
-15.0766558549
 21
-8.6189144533
  0
LINE
  5
2AC
100
AcDbEntity
  8
SMUSSO
100
AcDbLine
 62
7
  6
CONTINUOUS
 10
-33.713712047
 20
52.8073741756
 11
-33.7133367395
 21
52.8067378141
  0
LINE
  5
2AD
100
AcDbEntity
  8
ASSI
100
AcDbLine
 62
7
  6
CONTINUOUS
 10
-33.713712047
 20
52.8073741756
 11
-33.7133367395
 21
52.8067378141
  0
LINE
  5
2AE
100
AcDbEntity
  8
SMUSSO
100
AcDbLine
 62
7
  6
CONTINUOUS
 10
28.9438793627
 20
-55.7187438231
 11
28.9442417929
 21
-55.7193852608
  0
LINE
  5
2AF
100
AcDbEntity
  8
ASSI
100
AcDbLine
 62
7
  6
CONTINUOUS
 10
28.9438793627
 20
-55.7187438231
 11
28.9442417929
 21
-55.7193852608
  0
LINE
  5
2B0
100
AcDbEntity
  8
0
100
AcDbLine
 62
250
  6
CONTINUOUS
 10
-11.4946823797
 20
-11.9949884583
 11
-11.1587374147
 21
-11.6682348685
  0
LINE
  5
2B1
100
AcDbEntity
  8
0
100
AcDbLine
 62
7
  6
CONTINUOUS
 10
-11.4907575222
 20
-12.028523659
 11
-11.0617731415
 21
-11.6112761899
  0
LINE
  5
2B2
100
AcDbEntity
  8
0
100
AcDbLine
 62
7
  6
CONTINUOUS
 10
-10.796723594
 20
-10.9674979247
 11
-13.0946001183
 21
-12.4410198556
  0
LINE
  5
2B3
100
AcDbEntity
  8
0
100
AcDbLine
 62
7
  6
CONTINUOUS
 10
-12.7817774076
 20
-12.6216397682
 11
-9.5502029667
 21
-10.7233508047
  0
LINE
  5
2B4
100
AcDbEntity
  8
0
100
AcDbLine
 62
7
  6
CONTINUOUS
 10
-11.5493718679
 20
-12.0729876671
 11
-12.6380004614
 21
-12.704654775
  0
LINE
  5
2B5
100
AcDbEntity
  8
0
100
AcDbLine
 62
250
  6
CONTINUOUS
 10
-11.4946823797
 20
-11.9949884583
 11
-12.6783564593
 21
-12.6813537276
  0
LINE
  5
2B6
100
AcDbEntity
  8
SMUSSO
100
AcDbLine
 62
7
  6
CONTINUOUS
 10
29.6517790622
 20
16.2209337653
 11
33.713712047
 21
18.5662276674
  0
LINE
  5
2B7
100
AcDbEntity
  8
ASSI
100
AcDbLine
 62
7
  6
CONTINUOUS
 10
29.6517790622
 20
16.2209337653
 11
33.713712047
 21
18.5662276674
  0
LINE
  5
2B8
100
AcDbEntity
  8
0
100
AcDbLine
 62
7
  6
CONTINUOUS
 10
-13.4503102582
 20
-12.1709034153
 11
-13.3088889019
 21
-12.0892484966
  0
LINE
  5
2B9
100
AcDbEntity
  8
0
100
AcDbLine
 62
7
  6
CONTINUOUS
 10
-13.0967568676
 20
-11.9667661186
 11
-12.9553355113
 21
-11.8851112
  0
LINE
  5
2BA
100
AcDbEntity
  8
0
100
AcDbLine
 62
7
  6
CONTINUOUS
 10
-12.743203477
 20
-11.762628822
 11
-12.6017821208
 21
-11.6809739033
  0
LINE
  5
2BB
100
AcDbEntity
  8
0
100
AcDbLine
 62
7
  6
CONTINUOUS
 10
-12.3896500864
 20
-11.5584915253
 11
-12.2482287302
 21
-11.4768366066
  0
LINE
  5
2BC
100
AcDbEntity
  8
0
100
AcDbLine
 62
7
  6
CONTINUOUS
 10
-12.0360966958
 20
-11.3543542286
 11
-11.8946753396
 21
-11.27269931
  0
LINE
  5
2BD
100
AcDbEntity
  8
0
100
AcDbLine
 62
7
  6
CONTINUOUS
 10
-11.6825433052
 20
-11.150216932
 11
-11.541121949
 21
-11.0685620133
  0
LINE
  5
2BE
100
AcDbEntity
  8
0
100
AcDbLine
 62
7
  6
CONTINUOUS
 10
-11.3289899146
 20
-10.9460796353
 11
-11.1875685584
 21
-10.8644247166
  0
LINE
  5
2BF
100
AcDbEntity
  8
0
100
AcDbLine
 62
7
  6
CONTINUOUS
 10
-11.0815025412
 20
-10.9256540692
 11
-13.4003120498
 21
-12.2645056179
  0
LINE
  5
2C0
100
AcDbEntity
  8
0
100
AcDbLine
 62
7
  6
CONTINUOUS
 10
-17.5951112778
 20
-9.8424811169
 11
-15.0430608523
 21
-8.5157160108
  0
LINE
  5
2C1
100
AcDbEntity
  8
0
100
AcDbLine
 62
7
  6
CONTINUOUS
 10
-9.5502029667
 20
-10.3159811668
 11
-10.730051238
 21
-10.9287960133
  0
LINE
  5
2C2
100
AcDbEntity
  8
0
100
AcDbLine
 62
7
  6
CONTINUOUS
 10
-14.9690136993
 20
-8.4812722148
 11
-13.6586594436
 21
-7.9438098881
  0
LINE
  5
2C3
100
AcDbEntity
  8
SMUSSO
100
AcDbLine
 62
7
  6
CONTINUOUS
 10
27.9343426453
 20
16.368510928
 11
28.9438793627
 21
17.4218055238
  0
LINE
  5
2C4
100
AcDbEntity
  8
ASSI
100
AcDbLine
 62
7
  6
CONTINUOUS
 10
27.9343426453
 20
16.368510928
 11
28.9438793627
 21
17.4218055238
  0
LINE
  5
2C5
100
AcDbEntity
  8
SMUSSO
100
AcDbLine
 62
7
  6
CONTINUOUS
 10
28.2133185794
 20
15.8853104365
 11
29.6302777103
 21
16.2329287127
  0
LINE
  5
2C6
100
AcDbEntity
  8
ASSI
100
AcDbLine
 62
7
  6
CONTINUOUS
 10
28.2133185794
 20
15.8853104365
 11
29.6302777103
 21
16.2329287127
  0
LINE
  5
2C7
100
AcDbEntity
  8
0
100
AcDbLine
 62
7
  6
CONTINUOUS
 10
-26.3490122338
 20
30.6013171188
 11
20.9565602365
 21
3.2876724525
  0
LINE
  5
2C8
100
AcDbEntity
  8
ASSI
100
AcDbLine
 62
7
  6
CONTINUOUS
 10
-26.3490122338
 20
30.6013171188
 11
20.9565602365
 21
3.2876724525
  0
LINE
  5
2C9
100
AcDbEntity
  8
0
100
AcDbLine
 62
250
  6
CONTINUOUS
 10
-26.390428758
 20
30.692864491
 11
20.9151437116
 21
3.3792198251
  0
LINE
  5
2CA
100
AcDbEntity
  8
ASSI
100
AcDbLine
 62
250
  6
CONTINUOUS
 10
-26.390428758
 20
30.692864491
 11
20.9151437116
 21
3.3792198251
  0
LWPOLYLINE
  5
2CB
100
AcDbEntity
  8
0
100
AcDbPolyline
 62
7
  6
CONTINUOUS
 90
24
 70
0
 10
20.9566045192
 20
3.2876469069
 10
20.9747249695
 20
3.2766372088
 10
20.9987030284
 20
3.2604307286
 10
21.0235794144
 20
3.2416719531
 10
21.0489549663
 20
3.2204816771
 10
21.0745988701
 20
3.1969049461
 10
21.1002973753
 20
3.1710020159
 10
21.1257132284
 20
3.1429947128
 10
21.1506323296
 20
3.1130240897
 10
21.1748486927
 20
3.0812533639
 10
21.1980781495
 20
3.0479902287
 10
21.220139077
 20
3.013452876
 10
21.240867622
 20
2.9778708503
 10
21.2600531667
 20
2.9416040795
 10
21.2775739287
 20
2.9049095031
 10
21.2933280384
 20
2.8680507934
 10
21.3071878931
 20
2.8314214155
 10
21.3191094115
 20
2.7952823568
 10
21.3290704527
 20
2.7598931387
 10
21.3370418378
 20
2.7256534518
 10
21.3430716896
 20
2.6927832722
 10
21.3472284774
 20
2.6615073447
 10
21.3495990181
 20
2.6322269593
 10
21.3503341078
 20
2.6057014074
  0
LWPOLYLINE
  5
2CC
100
AcDbEntity
  8
ASSI
100
AcDbPolyline
 62
7
  6
CONTINUOUS
 90
24
 70
0
 10
20.9566045192
 20
3.2876469069
 10
20.9747249695
 20
3.2766372088
 10
20.9987030284
 20
3.2604307286
 10
21.0235794144
 20
3.2416719531
 10
21.0489549663
 20
3.2204816771
 10
21.0745988701
 20
3.1969049461
 10
21.1002973753
 20
3.1710020159
 10
21.1257132284
 20
3.1429947128
 10
21.1506323296
 20
3.1130240897
 10
21.1748486927
 20
3.0812533639
 10
21.1980781495
 20
3.0479902287
 10
21.220139077
 20
3.013452876
 10
21.240867622
 20
2.9778708503
 10
21.2600531667
 20
2.9416040795
 10
21.2775739287
 20
2.9049095031
 10
21.2933280384
 20
2.8680507934
 10
21.3071878931
 20
2.8314214155
 10
21.3191094115
 20
2.7952823568
 10
21.3290704527
 20
2.7598931387
 10
21.3370418378
 20
2.7256534518
 10
21.3430716896
 20
2.6927832722
 10
21.3472284774
 20
2.6615073447
 10
21.3495990181
 20
2.6322269593
 10
21.3503341078
 20
2.6057014074
  0
LINE
  5
2CD
100
AcDbEntity
  8
0
100
AcDbLine
 62
7
  6
CONTINUOUS
 10
21.3503340811
 20
2.6056417266
 11
21.3503340811
 21
-33.6457872939
  0
LINE
  5
2CE
100
AcDbEntity
  8
ASSI
100
AcDbLine
 62
7
  6
CONTINUOUS
 10
21.3503340811
 20
2.6056417266
 11
21.3503340811
 21
-33.6457872939
  0
LINE
  5
2CF
100
AcDbEntity
  8
0
100
AcDbLine
 62
250
  6
CONTINUOUS
 10
21.4089127248
 20
2.5239868079
 11
21.4089127248
 21
-33.7274422118
  0
LINE
  5
2D0
100
AcDbEntity
  8
ASSI
100
AcDbLine
 62
250
  6
CONTINUOUS
 10
21.4089127248
 20
2.5239868079
 11
21.4089127248
 21
-33.7274422118
  0
LWPOLYLINE
  5
2D1
100
AcDbEntity
  8
0
100
AcDbPolyline
 62
7
  6
CONTINUOUS
 90
12
 70
0
 10
21.3503341802
 20
-33.645902277
 10
21.3502356154
 20
-33.655207439
 10
21.3491440883
 20
-33.6778391186
 10
21.3468897252
 20
-33.6990033278
 10
21.3435364302
 20
-33.7185553611
 10
21.3392134544
 20
-33.7361495814
 10
21.3342086203
 20
-33.7512749979
 10
21.3288576079
 20
-33.763734966
 10
21.3234324256
 20
-33.7736493023
 10
21.3182284332
 20
-33.7811568011
 10
21.3135001845
 20
-33.7865216824
 10
21.3094284395
 20
-33.7900981419
  0
LWPOLYLINE
  5
2D2
100
AcDbEntity
  8
ASSI
100
AcDbPolyline
 62
7
  6
CONTINUOUS
 90
12
 70
0
 10
21.3503341802
 20
-33.645902277
 10
21.3502356154
 20
-33.655207439
 10
21.3491440883
 20
-33.6778391186
 10
21.3468897252
 20
-33.6990033278
 10
21.3435364302
 20
-33.7185553611
 10
21.3392134544
 20
-33.7361495814
 10
21.3342086203
 20
-33.7512749979
 10
21.3288576079
 20
-33.763734966
 10
21.3234324256
 20
-33.7736493023
 10
21.3182284332
 20
-33.7811568011
 10
21.3135001845
 20
-33.7865216824
 10
21.3094284395
 20
-33.7900981419
  0
LINE
  5
2D3
100
AcDbEntity
  8
SMUSSO
100
AcDbLine
 62
7
  6
CONTINUOUS
 10
28.2133185794
 20
-54.9463231628
 11
28.2133185794
 21
15.8853104365
  0
LINE
  5
2D4
100
AcDbEntity
  8
ASSI
100
AcDbLine
 62
7
  6
CONTINUOUS
 10
28.2133185794
 20
-54.9463231628
 11
28.2133185794
 21
15.8853104365
  0
LINE
  5
2D5
100
AcDbEntity
  8
SMUSSO
100
AcDbLine
 62
7
  6
CONTINUOUS
 10
29.6517790622
 20
-55.3109410669
 11
29.6517790622
 21
16.2209337653
  0
LINE
  5
2D6
100
AcDbEntity
  8
ASSI
100
AcDbLine
 62
7
  6
CONTINUOUS
 10
29.6517790622
 20
-55.3109410669
 11
29.6517790622
 21
16.2209337653
  0
LINE
  5
2D7
100
AcDbEntity
  8
CURVE
100
AcDbLine
 62
250
  6
CONTINUOUS
 10
30.7826224357
 20
-48.1131914136
 11
30.7826224357
 21
-48.5392198888
  0
LINE
  5
2D8
100
AcDbEntity
  8
CURVE
100
AcDbLine
 62
250
  6
CONTINUOUS
 10
30.7827314074
 20
-50.3757694636
 11
30.7827314074
 21
-49.9129712496
  0
LINE
  5
2D9
100
AcDbEntity
  8
CURVE
100
AcDbLine
 62
250
  6
CONTINUOUS
 10
30.7827314074
 20
-49.1229986991
 11
30.7827314074
 21
-48.6972617039
  0
LINE
  5
2DA
100
AcDbEntity
  8
CURVE
100
AcDbLine
 62
250
  6
CONTINUOUS
 10
30.7827314074
 20
-47.6995015504
 11
30.7827314074
 21
-47.2738257904
  0
LINE
  5
2DB
100
AcDbEntity
  8
CURVE
100
AcDbLine
 62
250
  6
CONTINUOUS
 10
30.7827314074
 20
-46.4262684078
 11
30.7827314074
 21
-46.0047550133
  0
LINE
  5
2DC
100
AcDbEntity
  8
CURVE
100
AcDbLine
 62
250
  6
CONTINUOUS
 10
30.7827314074
 20
-45.1068295793
 11
30.7827314074
 21
-44.6946982448
  0
LINE
  5
2DD
100
AcDbEntity
  8
SMUSSO
100
AcDbLine
 62
7
  6
CONTINUOUS
 10
28.9442417929
 20
17.4464242627
 11
28.9438793627
 21
17.4218055238
  0
LINE
  5
2DE
100
AcDbEntity
  8
ASSI
100
AcDbLine
 62
7
  6
CONTINUOUS
 10
28.9442417929
 20
17.4464242627
 11
28.9438793627
 21
17.4218055238
  0
LINE
  5
2DF
100
AcDbEntity
  8
0
100
AcDbLine
 62
7
  6
CONTINUOUS
 10
14.4523774649
 20
-28.3462994675
 11
14.4804075987
 21
-28.2977498517
  0
LINE
  5
2E0
100
AcDbEntity
  8
0
100
AcDbLine
 62
7
  6
CONTINUOUS
 10
14.7278949721
 20
-28.2773242856
 11
14.8339609893
 21
-28.0936125551
  0
LINE
  5
2E1
100
AcDbEntity
  8
0
100
AcDbLine
 62
7
  6
CONTINUOUS
 10
15.0814483627
 20
-28.0731869889
 11
15.1875143799
 21
-27.8894752584
  0
LINE
  5
2E2
100
AcDbEntity
  8
0
100
AcDbLine
 62
7
  6
CONTINUOUS
 10
15.4350017533
 20
-27.8690496923
 11
15.5410677705
 21
-27.6853379617
  0
LINE
  5
2E3
100
AcDbEntity
  8
0
100
AcDbLine
 62
7
  6
CONTINUOUS
 10
15.7885551439
 20
-27.6649123956
 11
15.8946211611
 21
-27.4812006651
  0
LINE
  5
2E4
100
AcDbEntity
  8
0
100
AcDbLine
 62
7
  6
CONTINUOUS
 10
16.1421085345
 20
-27.4607750989
 11
16.2481745517
 21
-27.2770633684
  0
LINE
  5
2E5
100
AcDbEntity
  8
0
100
AcDbLine
 62
7
  6
CONTINUOUS
 10
16.4956619251
 20
-27.2566378023
 11
16.6017279422
 21
-27.0729260717
  0
LINE
  5
2E6
100
AcDbEntity
  8
SMUSSO
100
AcDbLine
 62
7
  6
CONTINUOUS
 10
29.6302777103
 20
16.2329287127
 11
29.6517790622
 21
16.2209337653
  0
LINE
  5
2E7
100
AcDbEntity
  8
ASSI
100
AcDbLine
 62
7
  6
CONTINUOUS
 10
29.6302777103
 20
16.2329287127
 11
29.6517790622
 21
16.2209337653
  0
LINE
  5
2E8
100
AcDbEntity
  8
SMUSSO
100
AcDbLine
 62
7
  6
CONTINUOUS
 10
27.9343426453
 20
16.368510928
 11
-33.4096276917
 21
51.7877505801
  0
LINE
  5
2E9
100
AcDbEntity
  8
ASSI
100
AcDbLine
 62
7
  6
CONTINUOUS
 10
27.9343426453
 20
16.368510928
 11
-33.4096276917
 21
51.7877505801
  0
LINE
  5
2EA
100
AcDbEntity
  8
SMUSSO
100
AcDbLine
 62
7
  6
CONTINUOUS
 10
28.9442417929
 20
17.4464242627
 11
-33.0061747777
 21
53.2158183695
  0
LINE
  5
2EB
100
AcDbEntity
  8
ASSI
100
AcDbLine
 62
7
  6
CONTINUOUS
 10
28.9442417929
 20
17.4464242627
 11
-33.0061747777
 21
53.2158183695
  0
LINE
  5
2EC
100
AcDbEntity
  8
CURVE
100
AcDbLine
 62
250
  6
CONTINUOUS
 10
31.5960561922
 20
-42.8518072462
 11
31.5960561922
 21
-43.0952782374
  0
LINE
  5
2ED
100
AcDbEntity
  8
CURVE
100
AcDbLine
 62
250
  6
CONTINUOUS
 10
31.89546968
 20
-42.9199408118
 11
31.89546968
 21
-42.691514577
  0
LINE
  5
2EE
100
AcDbEntity
  8
CURVE
100
AcDbLine
 62
250
  6
CONTINUOUS
 10
31.9635370636
 20
-44.4851225515
 11
31.9635370636
 21
-44.0772303306
  0
LINE
  5
2EF
100
AcDbEntity
  8
CURVE
100
AcDbLine
 62
250
  6
CONTINUOUS
 10
32.2459507582
 20
-43.840030916
 11
32.2459507582
 21
-44.4202106124
  0
LINE
  5
2F0
100
AcDbEntity
  8
CURVE
100
AcDbLine
 62
250
  6
CONTINUOUS
 10
32.6109225841
 20
-47.554821909
 11
32.6109225841
 21
-47.1287934339
  0
LINE
  5
2F1
100
AcDbEntity
  8
CURVE
100
AcDbLine
 62
250
  6
CONTINUOUS
 10
32.6109225961
 20
-42.9590390136
 11
32.6109225961
 21
-42.5347248472
  0
LINE
  5
2F2
100
AcDbEntity
  8
CURVE
100
AcDbLine
 62
250
  6
CONTINUOUS
 10
32.6109225961
 20
-41.8823211546
 11
32.6109225961
 21
-41.4725313766
  0
LINE
  5
2F3
100
AcDbEntity
  8
CURVE
100
AcDbLine
 62
250
  6
CONTINUOUS
 10
32.6109225841
 20
-43.0841417485
 11
32.6109225841
 21
-43.5331579443
  0
LINE
  5
2F4
100
AcDbEntity
  8
CURVE
100
AcDbLine
 62
250
  6
CONTINUOUS
 10
32.6109225841
 20
-44.3412594007
 11
32.6109225841
 21
-44.7626650212
  0
LINE
  5
2F5
100
AcDbEntity
  8
CURVE
100
AcDbLine
 62
250
  6
CONTINUOUS
 10
32.6109225841
 20
-44.8295633298
 11
32.6109225841
 21
-45.2463322155
  0
LINE
  5
2F6
100
AcDbEntity
  8
CURVE
100
AcDbLine
 62
250
  6
CONTINUOUS
 10
32.6109225841
 20
-45.8404082359
 11
32.6109225841
 21
-45.9001591637
  0
LINE
  5
2F7
100
AcDbEntity
  8
CURVE
100
AcDbLine
 62
250
  6
CONTINUOUS
 10
32.6109225841
 20
-46.491878851
 11
32.6109225841
 21
-46.8994493826
  0
LINE
  5
2F8
100
AcDbEntity
  8
CURVE
100
AcDbLine
 62
250
  6
CONTINUOUS
 10
32.6109225841
 20
-48.3689685114
 11
32.6109225841
 21
-48.7444060388
  0
LINE
  5
2F9
100
AcDbEntity
  8
SMUSSO
100
AcDbLine
 62
7
  6
CONTINUOUS
 10
33.713712047
 20
-53.2821625527
 11
33.713712047
 21
18.5662276674
  0
LINE
  5
2FA
100
AcDbEntity
  8
ASSI
100
AcDbLine
 62
7
  6
CONTINUOUS
 10
33.713712047
 20
-53.2821625527
 11
33.713712047
 21
18.5662276674
  0
LINE
  5
2FB
100
AcDbEntity
  8
0
100
AcDbLine
 62
7
  6
CONTINUOUS
 10
18.3414647614
 20
-30.5918097308
 11
18.3694948952
 21
-30.543260115
  0
LINE
  5
2FC
100
AcDbEntity
  8
0
100
AcDbLine
 62
7
  6
CONTINUOUS
 10
18.6169822686
 20
-30.5228345489
 11
18.7230482858
 21
-30.3391228184
  0
LINE
  5
2FD
100
AcDbEntity
  8
0
100
AcDbLine
 62
7
  6
CONTINUOUS
 10
18.9705356592
 20
-30.3186972522
 11
19.0766016764
 21
-30.1349855217
  0
LINE
  5
2FE
100
AcDbEntity
  8
0
100
AcDbLine
 62
7
  6
CONTINUOUS
 10
19.3240890498
 20
-30.1145599556
 11
19.430155067
 21
-29.930848225
  0
LINE
  5
2FF
100
AcDbEntity
  8
0
100
AcDbLine
 62
7
  6
CONTINUOUS
 10
19.6776424404
 20
-29.9104226589
 11
19.7837084576
 21
-29.7267109284
  0
LINE
  5
300
100
AcDbEntity
  8
0
100
AcDbLine
 62
7
  6
CONTINUOUS
 10
20.031195831
 20
-29.7062853622
 11
20.1372618482
 21
-29.5225736317
  0
LINE
  5
301
100
AcDbEntity
  8
0
100
AcDbLine
 62
7
  6
CONTINUOUS
 10
20.3847492216
 20
-29.5021480656
 11
20.4908152388
 21
-29.318436335
  0
LINE
  5
302
100
AcDbEntity
  8
0
100
AcDbLine
 62
7
  6
CONTINUOUS
 10
14.4804075987
 20
-28.2977498517
 11
14.6218289549
 21
-28.2160949331
  0
LINE
  5
303
100
AcDbEntity
  8
0
100
AcDbLine
 62
7
  6
CONTINUOUS
 10
14.8339609893
 20
-28.0936125551
 11
14.9753823455
 21
-28.0119576364
  0
LINE
  5
304
100
AcDbEntity
  8
0
100
AcDbLine
 62
7
  6
CONTINUOUS
 10
15.1875143799
 20
-27.8894752584
 11
15.3289357361
 21
-27.8078203397
  0
LINE
  5
305
100
AcDbEntity
  8
0
100
AcDbLine
 62
7
  6
CONTINUOUS
 10
15.5410677705
 20
-27.6853379617
 11
15.6824891267
 21
-27.6036830431
  0
LINE
  5
306
100
AcDbEntity
  8
0
100
AcDbLine
 62
7
  6
CONTINUOUS
 10
15.8946211611
 20
-27.4812006651
 11
16.0360425173
 21
-27.3995457464
  0
LINE
  5
307
100
AcDbEntity
  8
0
100
AcDbLine
 62
7
  6
CONTINUOUS
 10
16.2481745517
 20
-27.2770633684
 11
16.3895959079
 21
-27.1954084497
  0
LINE
  5
308
100
AcDbEntity
  8
0
100
AcDbLine
 62
7
  6
CONTINUOUS
 10
16.6017279422
 20
-27.0729260717
 11
16.7431492985
 21
-26.9912711531
  0
LINE
  5
309
100
AcDbEntity
  8
0
100
AcDbLine
 62
7
  6
CONTINUOUS
 10
14.2246938756
 20
-28.2148378166
 11
16.7767443011
 21
-26.8880727106
  0
LINE
  5
30A
100
AcDbEntity
  8
0
100
AcDbLine
 62
7
  6
CONTINUOUS
 10
16.8507914541
 20
-26.8536289145
 11
18.1611457098
 21
-26.3161665879
  0
LINE
  5
30B
100
AcDbEntity
  8
SMUSSO
100
AcDbLine
 62
7
  6
CONTINUOUS
 10
33.0061747777
 20
19.7917181648
 11
-29.2183609905
 21
55.7193852608
  0
LINE
  5
30C
100
AcDbEntity
  8
ASSI
100
AcDbLine
 62
7
  6
CONTINUOUS
 10
33.0061747777
 20
19.7917181648
 11
-29.2183609905
 21
55.7193852608
  0
LINE
  5
30D
100
AcDbEntity
  8
SMUSSO
100
AcDbLine
 62
7
  6
CONTINUOUS
 10
28.2133185794
 20
15.8853104365
 11
27.9343426453
 21
16.368510928
  0
LINE
  5
30E
100
AcDbEntity
  8
ASSI
100
AcDbLine
 62
7
  6
CONTINUOUS
 10
28.2133185794
 20
15.8853104365
 11
27.9343426453
 21
16.368510928
  0
LINE
  5
30F
100
AcDbEntity
  8
SMUSSO
100
AcDbLine
 62
7
  6
CONTINUOUS
 10
29.6302777103
 20
16.2329287127
 11
28.9438793627
 21
17.4218055238
  0
LINE
  5
310
100
AcDbEntity
  8
ASSI
100
AcDbLine
 62
7
  6
CONTINUOUS
 10
29.6302777103
 20
16.2329287127
 11
28.9438793627
 21
17.4218055238
  0
LINE
  5
311
100
AcDbEntity
  8
0
100
AcDbLine
 62
250
  6
CONTINUOUS
 10
20.3251227737
 20
-30.367345158
 11
20.6610677387
 21
-30.0405915682
  0
LINE
  5
312
100
AcDbEntity
  8
0
100
AcDbLine
 62
7
  6
CONTINUOUS
 10
20.3290476312
 20
-30.4008803587
 11
20.7580320119
 21
-29.9836328897
  0
LINE
  5
313
100
AcDbEntity
  8
0
100
AcDbLine
 62
250
  6
CONTINUOUS
 10
21.0467000127
 20
-33.7736279106
 11
21.3503340811
 21
-33.5455924266
  0
LINE
  5
314
100
AcDbEntity
  8
ASSI
100
AcDbLine
 62
250
  6
CONTINUOUS
 10
21.0467000127
 20
-33.7736279106
 11
21.3503340811
 21
-33.5455924266
  0
LINE
  5
315
100
AcDbEntity
  8
0
100
AcDbLine
 62
7
  6
CONTINUOUS
 10
21.0230815594
 20
-29.3398546244
 11
18.725205035
 21
-30.8133765554
  0
LINE
  5
316
100
AcDbEntity
  8
0
100
AcDbLine
 62
7
  6
CONTINUOUS
 10
19.0380277458
 20
-30.993996468
 11
21.3503340811
 21
-29.6357032655
  0
LINE
  5
317
100
AcDbEntity
  8
0
100
AcDbLine
 62
7
  6
CONTINUOUS
 10
20.2704332855
 20
-30.4453443669
 11
19.181804692
 21
-31.0770114748
  0
LINE
  5
318
100
AcDbEntity
  8
0
100
AcDbLine
 62
250
  6
CONTINUOUS
 10
20.3251227737
 20
-30.367345158
 11
19.1414486941
 21
-31.0537104274
  0
LINE
  5
319
100
AcDbEntity
  8
0
100
AcDbLine
 62
7
  6
CONTINUOUS
 10
18.3694948952
 20
-30.543260115
 11
18.5109162515
 21
-30.4616051964
  0
LINE
  5
31A
100
AcDbEntity
  8
0
100
AcDbLine
 62
7
  6
CONTINUOUS
 10
18.7230482858
 20
-30.3391228184
 11
18.864469642
 21
-30.2574678997
  0
LINE
  5
31B
100
AcDbEntity
  8
0
100
AcDbLine
 62
7
  6
CONTINUOUS
 10
19.0766016764
 20
-30.1349855217
 11
19.2180230326
 21
-30.053330603
  0
LINE
  5
31C
100
AcDbEntity
  8
0
100
AcDbLine
 62
7
  6
CONTINUOUS
 10
19.430155067
 20
-29.930848225
 11
19.5715764232
 21
-29.8491933064
  0
LINE
  5
31D
100
AcDbEntity
  8
0
100
AcDbLine
 62
7
  6
CONTINUOUS
 10
19.7837084576
 20
-29.7267109284
 11
19.9251298138
 21
-29.6450560097
  0
LINE
  5
31E
100
AcDbEntity
  8
0
100
AcDbLine
 62
7
  6
CONTINUOUS
 10
20.1372618482
 20
-29.5225736317
 11
20.2786832044
 21
-29.440918713
  0
LINE
  5
31F
100
AcDbEntity
  8
0
100
AcDbLine
 62
7
  6
CONTINUOUS
 10
20.4908152388
 20
-29.318436335
 11
20.632236595
 21
-29.2367814164
  0
LINE
  5
320
100
AcDbEntity
  8
0
100
AcDbLine
 62
7
  6
CONTINUOUS
 10
20.7383026122
 20
-29.2980107689
 11
18.4194931036
 21
-30.6368623177
  0
LINE
  5
321
100
AcDbEntity
  8
0
100
AcDbLine
 62
7
  6
CONTINUOUS
 10
21.3503340811
 20
-29.1658070096
 11
21.0897539154
 21
-29.301152713
  0
LINE
  5
322
100
AcDbEntity
  8
SMUSSO
100
AcDbLine
 62
7
  6
CONTINUOUS
 10
33.0061747777
 20
19.7917181648
 11
33.713712047
 21
18.5662276674
  0
LINE
  5
323
100
AcDbEntity
  8
ASSI
100
AcDbLine
 62
7
  6
CONTINUOUS
 10
33.0061747777
 20
19.7917181648
 11
33.713712047
 21
18.5662276674
  0
LINE
  5
324
100
AcDbEntity
  8
0
100
AcDbLine
 62
7
  6
CONTINUOUS
 10
21.3092175791
 20
-33.7902551763
 11
21.3088252576
 21
-33.7905489318
  0
LINE
  5
325
100
AcDbEntity
  8
ASSI
100
AcDbLine
 62
7
  6
CONTINUOUS
 10
21.3092175791
 20
-33.7902551763
 11
21.3088252576
 21
-33.7905489318
  0
LINE
  5
326
100
AcDbEntity
  8
CURVE
100
AcDbLine
 62
7
  6
CONTINUOUS
 10
30.9992861128
 20
-42.5378470246
 11
31.1755164726
 21
-42.3616166648
  0
LINE
  5
327
100
AcDbEntity
  8
CURVE
100
AcDbLine
 62
7
  6
CONTINUOUS
 10
30.8061111709
 20
-42.9410326805
 11
31.5333509942
 21
-42.2137928572
  0
LINE
  5
328
100
AcDbEntity
  8
CURVE
100
AcDbLine
 62
7
  6
CONTINUOUS
 10
30.7700681604
 20
-43.187086405
 11
31.692201175
 21
-42.2649533904
  0
LINE
  5
329
100
AcDbEntity
  8
CURVE
100
AcDbLine
 62
7
  6
CONTINUOUS
 10
30.7619719037
 20
-43.4051933757
 11
31.0794072722
 21
-43.0877580072
  0
LINE
  5
32A
100
AcDbEntity
  8
CURVE
100
AcDbLine
 62
7
  6
CONTINUOUS
 10
31.5210425481
 20
-42.6461227314
 11
32.6109225961
 21
-41.5562426833
  0
LINE
  5
32B
100
AcDbEntity
  8
CURVE
100
AcDbLine
 62
7
  6
CONTINUOUS
 10
30.7690242697
 20
-43.6081517238
 11
31.0840193731
 21
-43.2931566204
  0
LINE
  5
32C
100
AcDbEntity
  8
CURVE
100
AcDbLine
 62
7
  6
CONTINUOUS
 10
31.5911447616
 20
-42.7860312319
 11
32.6109225961
 21
-41.7662533973
  0
LINE
  5
32D
100
AcDbEntity
  8
CURVE
100
AcDbLine
 62
250
  6
CONTINUOUS
 10
31.7575393183
 20
-42.3232217351
 11
31.7467363042
 21
-42.3290383212
  0
LINE
  5
32E
100
AcDbEntity
  8
CURVE
100
AcDbLine
 62
7
  6
CONTINUOUS
 10
30.7870522368
 20
-43.8001344706
 11
31.3704218675
 21
-43.21676484
  0
LINE
  5
32F
100
AcDbEntity
  8
CURVE
100
AcDbLine
 62
7
  6
CONTINUOUS
 10
31.5960561922
 20
-42.9911305152
 11
31.89546968
 21
-42.6917170274
  0
LINE
  5
330
100
AcDbEntity
  8
CURVE
100
AcDbLine
 62
7
  6
CONTINUOUS
 10
30.9367417104
 20
-43.860455711
 11
31.89546968
 21
-42.9017277414
  0
LINE
  5
331
100
AcDbEntity
  8
CURVE
100
AcDbLine
 62
7
  6
CONTINUOUS
 10
31.3917264632
 20
-43.6154816722
 11
32.3109961159
 21
-42.6962120196
  0
LINE
  5
332
100
AcDbEntity
  8
CURVE
100
AcDbLine
 62
7
  6
CONTINUOUS
 10
31.846711216
 20
-43.3705076335
 11
32.6109225961
 21
-42.6062962534
  0
LINE
  5
333
100
AcDbEntity
  8
CURVE
100
AcDbLine
 62
7
  6
CONTINUOUS
 10
32.3016959689
 20
-43.1255335947
 11
32.6109225961
 21
-42.8163069674
  0
LINE
  5
334
100
AcDbEntity
  8
CURVE
100
AcDbLine
 62
7
  6
CONTINUOUS
 10
30.7827314074
 20
-44.8545088701
 11
32.125184617
 21
-43.5120556605
  0
LINE
  5
335
100
AcDbEntity
  8
CURVE
100
AcDbLine
 62
7
  6
CONTINUOUS
 10
30.7827314074
 20
-45.0645195842
 11
32.6109225841
 21
-43.2363284075
  0
LINE
  5
336
100
AcDbEntity
  8
CURVE
100
AcDbLine
 62
7
  6
CONTINUOUS
 10
30.9893240457
 20
-45.0679376598
 11
31.4580076307
 21
-44.5992540748
  0
LINE
  5
337
100
AcDbEntity
  8
CURVE
100
AcDbLine
 62
7
  6
CONTINUOUS
 10
31.9635370636
 20
-44.0937246419
 11
32.6109225841
 21
-43.4463391215
  0
LINE
  5
338
100
AcDbEntity
  8
CURVE
100
AcDbLine
 62
7
  6
CONTINUOUS
 10
31.2480389027
 20
-45.0192335169
 11
31.7292574114
 21
-44.5380150081
  0
LINE
  5
339
100
AcDbEntity
  8
CURVE
100
AcDbLine
 62
7
  6
CONTINUOUS
 10
31.9635370636
 20
-44.3037353559
 11
32.2459507582
 21
-44.0213216613
  0
LINE
  5
33A
100
AcDbEntity
  8
CURVE
100
AcDbLine
 62
7
  6
CONTINUOUS
 10
31.5067537597
 20
-44.9705293739
 11
32.2459507582
 21
-44.2313323754
  0
LINE
  5
33B
100
AcDbEntity
  8
CURVE
100
AcDbLine
 62
7
  6
CONTINUOUS
 10
31.7654686167
 20
-44.9218252309
 11
32.2729165024
 21
-44.4143773452
  0
LINE
  5
33C
100
AcDbEntity
  8
CURVE
100
AcDbLine
 62
7
  6
CONTINUOUS
 10
30.7827314074
 20
-46.1145731542
 11
31.0901873218
 21
-45.8071172398
  0
LINE
  5
33D
100
AcDbEntity
  8
CURVE
100
AcDbLine
 62
7
  6
CONTINUOUS
 10
32.0241834736
 20
-44.873121088
 11
32.5408971651
 21
-44.3564073965
  0
LINE
  5
33E
100
AcDbEntity
  8
CURVE
100
AcDbLine
 62
7
  6
CONTINUOUS
 10
30.7827314074
 20
-46.3245838682
 11
31.6781506179
 21
-45.4291646577
  0
LINE
  5
33F
100
AcDbEntity
  8
CURVE
100
AcDbLine
 62
7
  6
CONTINUOUS
 10
32.2828983306
 20
-44.824416945
 11
32.6109225841
 21
-44.4963926916
  0
LINE
  5
340
100
AcDbEntity
  8
CURVE
100
AcDbLine
 62
7
  6
CONTINUOUS
 10
30.9056473588
 20
-46.4116786308
 11
32.266113914
 21
-45.0512120756
  0
LINE
  5
341
100
AcDbEntity
  8
CURVE
100
AcDbLine
 62
7
  6
CONTINUOUS
 10
32.5416131876
 20
-44.775712802
 11
32.6109225841
 21
-44.7064034056
  0
LINE
  5
342
100
AcDbEntity
  8
CURVE
100
AcDbLine
 62
7
  6
CONTINUOUS
 10
31.1439431063
 20
-46.3833935973
 11
31.570010963
 21
-45.9573257407
  0
LINE
  5
343
100
AcDbEntity
  8
CURVE
100
AcDbLine
 62
7
  6
CONTINUOUS
 10
31.7605073496
 20
-45.7668293541
 11
32.6109225841
 21
-44.9164141196
  0
LINE
  5
344
100
AcDbEntity
  8
CURVE
100
AcDbLine
 62
7
  6
CONTINUOUS
 10
31.3822388539
 20
-46.3551085637
 11
31.806595362
 21
-45.9307520556
  0
LINE
  5
345
100
AcDbEntity
  8
CURVE
100
AcDbLine
 62
7
  6
CONTINUOUS
 10
32.3018426471
 20
-45.4355047706
 11
32.6109225841
 21
-45.1264248336
  0
LINE
  5
346
100
AcDbEntity
  8
CURVE
100
AcDbLine
 62
7
  6
CONTINUOUS
 10
31.6205346015
 20
-46.3268235302
 11
32.0431797611
 21
-45.9041783706
  0
LINE
  5
347
100
AcDbEntity
  8
CURVE
100
AcDbLine
 62
7
  6
CONTINUOUS
 10
30.7827314074
 20
-47.3746374383
 11
32.2797641602
 21
-45.8776046855
  0
LINE
  5
348
100
AcDbEntity
  8
CURVE
100
AcDbLine
 62
7
  6
CONTINUOUS
 10
30.7827314074
 20
-47.5846481523
 11
32.5163485593
 21
-45.8510310004
  0
LINE
  5
349
100
AcDbEntity
  8
CURVE
100
AcDbLine
 62
7
  6
CONTINUOUS
 10
30.9519359253
 20
-47.6254543483
 11
31.6353939366
 21
-46.941996337
  0
LINE
  5
34A
100
AcDbEntity
  8
CURVE
100
AcDbLine
 62
7
  6
CONTINUOUS
 10
31.3253676608
 20
-47.4620333269
 11
32.0253199277
 21
-46.76208106
  0
LINE
  5
34B
100
AcDbEntity
  8
CURVE
100
AcDbLine
 62
7
  6
CONTINUOUS
 10
30.7826224357
 20
-48.214789266
 11
31.0027325095
 21
-47.9946791923
  0
LINE
  5
34C
100
AcDbEntity
  8
CURVE
100
AcDbLine
 62
7
  6
CONTINUOUS
 10
31.6987993962
 20
-47.2986123055
 11
32.4152459187
 21
-46.582165783
  0
LINE
  5
34D
100
AcDbEntity
  8
CURVE
100
AcDbLine
 62
7
  6
CONTINUOUS
 10
30.7826224357
 20
-48.4247999801
 11
31.4577172623
 21
-47.7497051535
  0
LINE
  5
34E
100
AcDbEntity
  8
CURVE
100
AcDbLine
 62
7
  6
CONTINUOUS
 10
32.0722311317
 20
-47.135191284
 11
32.6109225841
 21
-46.5964998317
  0
LINE
  5
34F
100
AcDbEntity
  8
CURVE
100
AcDbLine
 62
7
  6
CONTINUOUS
 10
30.9897183408
 20
-48.4277147889
 11
31.9127020151
 21
-47.5047311147
  0
LINE
  5
350
100
AcDbEntity
  8
CURVE
100
AcDbLine
 62
7
  6
CONTINUOUS
 10
32.4456628671
 20
-46.9717702626
 11
32.6109225841
 21
-46.8065105457
  0
LINE
  5
351
100
AcDbEntity
  8
CURVE
100
AcDbLine
 62
7
  6
CONTINUOUS
 10
30.7827314074
 20
-48.8447124364
 11
30.9624557159
 21
-48.6649881278
  0
LINE
  5
352
100
AcDbEntity
  8
CURVE
100
AcDbLine
 62
7
  6
CONTINUOUS
 10
31.4447030936
 20
-48.1827407501
 11
32.3676867679
 21
-47.2597570759
  0
LINE
  5
353
100
AcDbEntity
  8
CURVE
100
AcDbLine
 62
7
  6
CONTINUOUS
 10
30.7827314074
 20
-49.0547231504
 11
31.218432948
 21
-48.6190216098
  0
LINE
  5
354
100
AcDbEntity
  8
CURVE
100
AcDbLine
 62
7
  6
CONTINUOUS
 10
31.8996878464
 20
-47.9377667113
 11
32.6109225841
 21
-47.2265319737
  0
LINE
  5
355
100
AcDbEntity
  8
CURVE
100
AcDbLine
 62
7
  6
CONTINUOUS
 10
30.9644014433
 20
-49.0830638285
 11
31.47441018
 21
-48.5730550917
  0
LINE
  5
356
100
AcDbEntity
  8
CURVE
100
AcDbLine
 62
7
  6
CONTINUOUS
 10
32.3546725993
 20
-47.6927926725
 11
32.6109225841
 21
-47.4365426877
  0
LINE
  5
357
100
AcDbEntity
  8
CURVE
100
AcDbLine
 62
7
  6
CONTINUOUS
 10
31.2335841396
 20
-49.0238918462
 11
31.7303874121
 21
-48.5270885737
  0
LINE
  5
358
100
AcDbEntity
  8
CURVE
100
AcDbLine
 62
7
  6
CONTINUOUS
 10
31.502766836
 20
-48.9647198638
 11
31.9863646442
 21
-48.4811220556
  0
LINE
  5
359
100
AcDbEntity
  8
CURVE
100
AcDbLine
 62
250
  6
CONTINUOUS
 10
32.6109225841
 20
-45.9001591637
 11
31.417148564
 21
-47.0426966689
  0
LINE
  5
35A
100
AcDbEntity
  8
CURVE
100
AcDbLine
 62
250
  6
CONTINUOUS
 10
30.7827314074
 20
-47.2738257904
 11
31.7977486871
 21
-46.3057887178
  0
LINE
  5
35B
100
AcDbEntity
  8
CURVE
100
AcDbLine
 62
250
  6
CONTINUOUS
 10
30.7827314074
 20
-44.6946982448
 11
32.6109225841
 21
-43.0841417485
  0
LINE
  5
35C
100
AcDbEntity
  8
CURVE
100
AcDbLine
 62
250
  6
CONTINUOUS
 10
32.6109225841
 20
-43.5331579443
 11
32.2459507582
 21
-43.840030916
  0
LINE
  5
35D
100
AcDbEntity
  8
CURVE
100
AcDbLine
 62
250
  6
CONTINUOUS
 10
31.9635370636
 20
-44.0772303306
 11
31.2850719363
 21
-44.6382971314
  0
LINE
  5
35E
100
AcDbEntity
  8
CURVE
100
AcDbLine
 62
250
  6
CONTINUOUS
 10
30.7827314074
 20
-46.0047550133
 11
32.6109225841
 21
-44.8295633298
  0
LINE
  5
35F
100
AcDbEntity
  8
CURVE
100
AcDbLine
 62
250
  6
CONTINUOUS
 10
32.6109225841
 20
-45.2463322155
 11
31.4221246946
 21
-45.9739366547
  0
LINE
  5
360
100
AcDbEntity
  8
CURVE
100
AcDbLine
 62
250
  6
CONTINUOUS
 10
32.6109225961
 20
-42.5347248472
 11
31.89546968
 21
-42.9199408118
  0
LINE
  5
361
100
AcDbEntity
  8
CURVE
100
AcDbLine
 62
250
  6
CONTINUOUS
 10
31.5960561922
 20
-43.0952782374
 11
31.0941821556
 21
-43.3654985228
  0
LINE
  5
362
100
AcDbEntity
  8
CURVE
100
AcDbLine
 62
250
  6
CONTINUOUS
 10
30.8040910657
 20
-43.9318778059
 11
32.6109225961
 21
-42.9590390136
  0
LINE
  5
363
100
AcDbEntity
  8
CURVE
100
AcDbLine
 62
250
  6
CONTINUOUS
 10
32.6109225841
 20
-47.1287934339
 11
30.7826224357
 21
-48.1131914136
  0
LINE
  5
364
100
AcDbEntity
  8
CURVE
100
AcDbLine
 62
250
  6
CONTINUOUS
 10
31.417148564
 20
-47.0426966689
 11
32.6109225841
 21
-46.491878851
  0
LINE
  5
365
100
AcDbEntity
  8
CURVE
100
AcDbLine
 62
250
  6
CONTINUOUS
 10
32.6109225841
 20
-46.8994493826
 11
30.7827314074
 21
-47.6995015504
  0
LINE
  5
366
100
AcDbEntity
  8
CURVE
100
AcDbLine
 62
7
  6
CONTINUOUS
 10
31.7719495323
 20
-48.9055478815
 11
32.2423418762
 21
-48.4351555376
  0
LINE
  5
367
100
AcDbEntity
  8
CURVE
100
AcDbLine
 62
7
  6
CONTINUOUS
 10
30.7827314074
 20
-50.1047767204
 11
32.4983191083
 21
-48.3891890196
  0
LINE
  5
368
100
AcDbEntity
  8
CURVE
100
AcDbLine
 62
7
  6
CONTINUOUS
 10
30.7827314074
 20
-50.3147874345
 11
32.6109225841
 21
-48.4865962578
  0
LINE
  5
369
100
AcDbEntity
  8
CURVE
100
AcDbLine
 62
7
  6
CONTINUOUS
 10
32.1669514889
 20
-49.140578067
 11
32.6109225841
 21
-48.6966069718
  0
LINE
  5
36A
100
AcDbEntity
  8
CURVE
100
AcDbLine
 62
250
  6
CONTINUOUS
 10
32.6109225841
 20
-48.7444060388
 11
30.7827314074
 21
-50.3757694636
  0
LINE
  5
36B
100
AcDbEntity
  8
CURVE
100
AcDbLine
 62
250
  6
CONTINUOUS
 10
30.7827314074
 20
-49.9129712496
 11
32.0411322287
 21
-48.8463758992
  0
LINE
  5
36C
100
AcDbEntity
  8
SMUSSO
100
AcDbLine
 62
7
  6
CONTINUOUS
 10
27.9343426453
 20
-55.1073692384
 11
28.2133185794
 21
-54.9463231628
  0
LINE
  5
36D
100
AcDbEntity
  8
ASSI
100
AcDbLine
 62
7
  6
CONTINUOUS
 10
27.9343426453
 20
-55.1073692384
 11
28.2133185794
 21
-54.9463231628
  0
LINE
  5
36E
100
AcDbEntity
  8
SMUSSO
100
AcDbLine
 62
7
  6
CONTINUOUS
 10
28.9438793627
 20
-55.7187438231
 11
29.6302777103
 21
-55.3225026187
  0
LINE
  5
36F
100
AcDbEntity
  8
ASSI
100
AcDbLine
 62
7
  6
CONTINUOUS
 10
28.9438793627
 20
-55.7187438231
 11
29.6302777103
 21
-55.3225026187
  0
LINE
  5
370
100
AcDbEntity
  8
SMUSSO
100
AcDbLine
 62
7
  6
CONTINUOUS
 10
33.713712047
 20
-53.2821625527
 11
33.0061747777
 21
-53.6906067465
  0
LINE
  5
371
100
AcDbEntity
  8
ASSI
100
AcDbLine
 62
7
  6
CONTINUOUS
 10
33.713712047
 20
-53.2821625527
 11
33.0061747777
 21
-53.6906067465
  0
LINE
  5
372
100
AcDbEntity
  8
CURVE
100
AcDbLine
 62
250
  6
CONTINUOUS
 10
30.7826224357
 20
-48.5392198888
 11
32.6109225841
 21
-47.554821909
  0
LINE
  5
373
100
AcDbEntity
  8
SMUSSO
100
AcDbLine
 62
7
  6
CONTINUOUS
 10
29.6517790622
 20
-55.3109410669
 11
29.6302777103
 21
-55.3225026187
  0
LINE
  5
374
100
AcDbEntity
  8
ASSI
100
AcDbLine
 62
7
  6
CONTINUOUS
 10
29.6517790622
 20
-55.3109410669
 11
29.6302777103
 21
-55.3225026187
  0
LINE
  5
375
100
AcDbEntity
  8
SMUSSO
100
AcDbLine
 62
7
  6
CONTINUOUS
 10
29.6517790622
 20
-55.3109410669
 11
33.713712047
 21
-53.2821625527
  0
LINE
  5
376
100
AcDbEntity
  8
ASSI
100
AcDbLine
 62
7
  6
CONTINUOUS
 10
29.6517790622
 20
-55.3109410669
 11
33.713712047
 21
-53.2821625527
  0
LINE
  5
377
100
AcDbEntity
  8
SMUSSO
100
AcDbLine
 62
7
  6
CONTINUOUS
 10
28.9442417929
 20
-55.7193852608
 11
33.0061747777
 21
-53.6906067465
  0
LINE
  5
378
100
AcDbEntity
  8
ASSI
100
AcDbLine
 62
7
  6
CONTINUOUS
 10
28.9442417929
 20
-55.7193852608
 11
33.0061747777
 21
-53.6906067465
  0
ARC
  5
379
100
AcDbEntity
  8
0
100
AcDbCircle
 62
7
  6
CONTINUOUS
 10
20.1197138831
 20
-30.1856964412
 40
0.3
100
AcDbArc
 50
300.1089963766
 51
314.2001405093
  0
ARC
  5
37A
100
AcDbEntity
  8
0
100
AcDbCircle
 62
7
  6
CONTINUOUS
 10
-11.7000912703
 20
-11.8133397414
 40
0.3
100
AcDbArc
 50
300.1089963766
 51
314.2001405093
  0
ARC
  5
37B
100
AcDbEntity
  8
0
100
AcDbCircle
 62
250
  6
CONTINUOUS
 10
-11.5997562256
 20
-11.9861801908
 40
0.1003701957
100
AcDbArc
 50
300.1329267327
 51
304.4970324154
  0
ARC
  5
37C
100
AcDbEntity
  8
0
100
AcDbCircle
 62
250
  6
CONTINUOUS
 10
20.2200489278
 20
-30.3585368905
 40
0.1003701957
100
AcDbArc
 50
300.1329267327
 51
304.4970324154
  0
SPLINE
  5
37D
100
AcDbEntity
  8
0
100
AcDbSpline
 62
250
  6
CONTINUOUS
 70
0
 71
3
 72
9
 73
5
 74
0
 42
0.0000001
 43
0.0000001
 44
0.0000000001
 40
0.0
 40
0.0
 40
0.0
 40
0.0
 40
0.4808339823
 40
1.0
 40
1.0
 40
1.0
 40
1.0
 10
-11.5429102051
 20
-12.068900842
 30
0.0
 10
-11.5336776007
 20
-12.0625566562
 30
0.0
 10
-11.5166429169
 20
-12.0459926596
 30
0.0
 10
-11.5054436268
 20
-12.0251996727
 30
0.0
 10
-11.5009561033
 20
-12.0139676925
 30
0.0
  0
SPLINE
  5
37E
100
AcDbEntity
  8
0
100
AcDbSpline
 62
250
  6
CONTINUOUS
 70
0
 71
3
 72
8
 73
4
 74
0
 42
0.0000001
 43
0.0000001
 44
0.0000000001
 40
0.0
 40
0.0
 40
0.0
 40
0.0
 40
1.0
 40
1.0
 40
1.0
 40
1.0
 10
-11.5009561033
 20
-12.0139676925
 30
0.0
 10
-11.498483996
 20
-12.0077801682
 30
0.0
 10
-11.4964044681
 20
-12.0014251642
 30
0.0
 10
-11.4946823797
 20
-11.9949884583
 30
0.0
  0
SPLINE
  5
37F
100
AcDbEntity
  8
0
100
AcDbSpline
 62
250
  6
CONTINUOUS
 70
0
 71
3
 72
9
 73
5
 74
0
 42
0.0000001
 43
0.0000001
 44
0.0000000001
 40
0.0
 40
0.0
 40
0.0
 40
0.0
 40
0.4808339823
 40
1.0
 40
1.0
 40
1.0
 40
1.0
 10
20.2768949483
 20
-30.4412575417
 30
0.0
 10
20.2861275527
 20
-30.434913356
 30
0.0
 10
20.3031622365
 20
-30.4183493594
 30
0.0
 10
20.3143615266
 20
-30.3975563725
 30
0.0
 10
20.3188490501
 20
-30.3863243923
 30
0.0
  0
SPLINE
  5
380
100
AcDbEntity
  8
0
100
AcDbSpline
 62
250
  6
CONTINUOUS
 70
0
 71
3
 72
8
 73
4
 74
0
 42
0.0000001
 43
0.0000001
 44
0.0000000001
 40
0.0
 40
0.0
 40
0.0
 40
0.0
 40
1.0
 40
1.0
 40
1.0
 40
1.0
 10
20.3188490501
 20
-30.3863243923
 30
0.0
 10
20.3213211574
 20
-30.380136868
 30
0.0
 10
20.3234006853
 20
-30.3737818639
 30
0.0
 10
20.3251227737
 20
-30.367345158
 30
0.0
  0
SPLINE
  5
381
100
AcDbEntity
  8
0
100
AcDbSpline
 62
250
  6
CONTINUOUS
 70
0
 71
3
 72
10
 73
6
 74
0
 42
0.0000001
 43
0.0000001
 44
0.0000000001
 40
0.0
 40
0.0
 40
0.0
 40
0.0
 40
0.3606046625
 40
0.6415408527
 40
1.0
 40
1.0
 40
1.0
 40
1.0
 10
-11.4946823797
 20
-11.9949884583
 30
0.0
 10
-11.4929674088
 20
-11.9988258499
 30
0.0
 10
-11.49017163
 20
-12.0058721259
 30
0.0
 10
-11.4872201371
 20
-12.0168181917
 30
0.0
 10
-11.4877643484
 20
-12.0256102888
 30
0.0
 10
-11.4907586452
 20
-12.0285242699
 30
0.0
  0
SPLINE
  5
382
100
AcDbEntity
  8
0
100
AcDbSpline
 62
250
  6
CONTINUOUS
 70
0
 71
3
 72
10
 73
6
 74
0
 42
0.0000001
 43
0.0000001
 44
0.0000000001
 40
0.0
 40
0.0
 40
0.0
 40
0.0
 40
0.3606046625
 40
0.6415408527
 40
1.0
 40
1.0
 40
1.0
 40
1.0
 10
20.3251227737
 20
-30.367345158
 30
0.0
 10
20.3268377446
 20
-30.3711825496
 30
0.0
 10
20.3296335234
 20
-30.3782288257
 30
0.0
 10
20.3325850163
 20
-30.3891748914
 30
0.0
 10
20.332040805
 20
-30.3979669886
 30
0.0
 10
20.3290465082
 20
-30.4008809697
 30
0.0
  0
SPLINE
  5
383
100
AcDbEntity
  8
0
100
AcDbSpline
 62
250
  6
CONTINUOUS
 70
0
 71
3
 72
11
 73
7
 74
0
 42
0.0000001
 43
0.0000001
 44
0.0000000001
 40
0.0
 40
0.0
 40
0.0
 40
0.0
 40
0.2216781853
 40
0.4565156297
 40
0.7144656787
 40
1.0
 40
1.0
 40
1.0
 40
1.0
 10
-24.7534786744
 20
-5.7093311172
 30
0.0
 10
-24.7684873744
 20
-5.7006742234
 30
0.0
 10
-24.8024440481
 20
-5.6877111392
 30
0.0
 10
-24.8588279012
 20
-5.6839103576
 30
0.0
 10
-24.9191541458
 20
-5.6949848117
 30
0.0
 10
-24.9588088333
 20
-5.7109457403
 30
0.0
 10
-24.9787968331
 20
-5.7208726913
 30
0.0
  0
SPLINE
  5
384
100
AcDbEntity
  8
0
100
AcDbSpline
 62
250
  6
CONTINUOUS
 70
0
 71
3
 72
11
 73
7
 74
0
 42
0.0000001
 43
0.0000001
 44
0.0000000001
 40
0.0
 40
0.0
 40
0.0
 40
0.0
 40
0.2372145508
 40
0.500004835
 40
0.7627951139
 40
1.0
 40
1.0
 40
1.0
 40
1.0
 10
-26.390428758
 20
-6.6988384834
 30
0.0
 10
-26.4605245381
 20
-6.6583599052
 30
0.0
 10
-26.5932681267
 20
-6.5468059987
 30
0.0
 10
-26.748183919
 20
-6.3352271343
 30
0.0
 10
-26.8539578351
 20
-6.0952798265
 30
0.0
 10
-26.8841922676
 20
-5.9245461839
 30
0.0
 10
-26.8841977712
 20
-5.8436054662
 30
0.0
  0
SPLINE
  5
385
100
AcDbEntity
  8
0
100
AcDbSpline
 62
250
  6
CONTINUOUS
 70
0
 71
3
 72
9
 73
5
 74
0
 42
0.0000001
 43
0.0000001
 44
0.0000000001
 40
0.0
 40
0.0
 40
0.0
 40
0.0
 40
0.2572359305
 40
1.0
 40
1.0
 40
1.0
 40
1.0
 10
21.4089127248
 20
-33.7274422118
 30
0.0
 10
21.4089123448
 20
-33.7345055222
 30
0.0
 10
21.4084676139
 20
-33.7619606678
 30
0.0
 10
21.4062141719
 20
-33.7893984169
 30
0.0
 10
21.4033638648
 20
-33.8095934441
 30
0.0
  0
SPLINE
  5
386
100
AcDbEntity
  8
0
100
AcDbSpline
 62
250
  6
CONTINUOUS
 70
0
 71
3
 72
15
 73
11
 74
0
 42
0.0000001
 43
0.0000001
 44
0.0000000001
 40
0.0
 40
0.0
 40
0.0
 40
0.0
 40
0.1363795884
 40
0.2596617118
 40
0.3733903855
 40
0.4832215192
 40
0.5959398641
 40
0.7174775164
 40
0.8517181004
 40
1.0
 40
1.0
 40
1.0
 40
1.0
 10
21.4033638648
 20
-33.8095934441
 30
0.0
 10
21.3992268628
 20
-33.838904977
 30
0.0
 10
21.3865840963
 20
-33.8942661497
 30
0.0
 10
21.3513956404
 20
-33.9681381564
 30
0.0
 10
21.3014311995
 20
-34.0258813802
 30
0.0
 10
21.2380874407
 20
-34.0645436911
 30
0.0
 10
21.1643816019
 20
-34.0822027346
 30
0.0
 10
21.0836209637
 20
-34.0788767033
 30
0.0
 10
20.9984888366
 20
-34.0554734765
 30
0.0
 10
20.9430178264
 20
-34.0285747869
 30
0.0
 10
20.9151437116
 20
-34.0124831493
 30
0.0
  0
SPLINE
  5
387
100
AcDbEntity
  8
0
100
AcDbSpline
 62
250
  6
CONTINUOUS
 70
0
 71
3
 72
9
 73
5
 74
0
 42
0.0000001
 43
0.0000001
 44
0.0000000001
 40
0.0
 40
0.0
 40
0.0
 40
0.0
 40
0.2404854647
 40
1.0
 40
1.0
 40
1.0
 40
1.0
 10
20.9151437116
 20
3.3792198251
 30
0.0
 10
20.924499483
 20
3.3738172489
 30
0.0
 10
20.9628461685
 20
3.3503926541
 30
0.0
 10
20.9989806167
 20
3.3234140836
 30
0.0
 10
21.0251058115
 20
3.3014666503
 30
0.0
  0
SPLINE
  5
388
100
AcDbEntity
  8
0
100
AcDbSpline
 62
250
  6
CONTINUOUS
 70
0
 71
3
 72
10
 73
6
 74
0
 42
0.0000001
 43
0.0000001
 44
0.0000000001
 40
0.0
 40
0.0
 40
0.0
 40
0.0
 40
0.2422951226
 40
0.4976012511
 40
1.0
 40
1.0
 40
1.0
 40
1.0
 10
21.0251058115
 20
3.3014666503
 30
0.0
 10
21.0688927774
 20
3.2646817949
 30
0.0
 10
21.1517287916
 20
3.1803622671
 30
0.0
 10
21.2888925779
 20
2.9877989695
 30
0.0
 10
21.3605865584
 20
2.8196337435
 30
0.0
 10
21.3871886333
 20
2.7040777516
 30
0.0
  0
SPLINE
  5
389
100
AcDbEntity
  8
0
100
AcDbSpline
 62
250
  6
CONTINUOUS
 70
0
 71
3
 72
9
 73
5
 74
0
 42
0.0000001
 43
0.0000001
 44
0.0000000001
 40
0.0
 40
0.0
 40
0.0
 40
0.0
 40
0.2615644173
 40
1.0
 40
1.0
 40
1.0
 40
1.0
 10
21.3871886333
 20
2.7040777516
 30
0.0
 10
21.3907408241
 20
2.6886474914
 30
0.0
 10
21.4028439941
 20
2.6293395231
 30
0.0
 10
21.40891027
 20
2.5686881578
 30
0.0
 10
21.4089127248
 20
2.5239868079
 30
0.0
  0
SPLINE
  5
38A
100
AcDbEntity
  8
0
100
AcDbSpline
 62
250
  6
CONTINUOUS
 70
0
 71
3
 72
11
 73
7
 74
0
 42
0.0000001
 43
0.0000001
 44
0.0000000001
 40
0.0
 40
0.0
 40
0.0
 40
0.0
 40
0.2204123995
 40
0.4516594944
 40
0.7091463183
 40
1.0
 40
1.0
 40
1.0
 40
1.0
 10
21.3088234165
 20
-33.7905492642
 30
0.0
 10
21.292436873
 20
-33.8027785982
 30
0.0
 10
21.2537392604
 20
-33.821704846
 30
0.0
 10
21.1869113961
 20
-33.8270495122
 30
0.0
 10
21.1156037671
 20
-33.8106116069
 30
0.0
 10
21.0697098141
 20
-33.7877186738
 30
0.0
 10
21.0467000127
 20
-33.7736279106
 30
0.0
  0
SPLINE
  5
38B
100
AcDbEntity
  8
0
100
AcDbSpline
 62
250
  6
CONTINUOUS
 70
0
 71
3
 72
15
 73
11
 74
0
 42
0.0000001
 43
0.0000001
 44
0.0000000001
 40
0.0
 40
0.0
 40
0.0
 40
0.0
 40
0.1448760975
 40
0.2745417134
 40
0.3911244663
 40
0.499987846
 40
0.6088536092
 40
0.7254442625
 40
0.8551191911
 40
1.0
 40
1.0
 40
1.0
 40
1.0
 10
-26.8841977712
 20
30.4078235535
 30
0.0
 10
-26.8841954402
 20
30.4432263002
 30
0.0
 10
-26.878865028
 20
30.5105462159
 30
0.0
 10
-26.8516888877
 20
30.6030463696
 30
0.0
 10
-26.8058212292
 20
30.6781787512
 30
0.0
 10
-26.7420993609
 20
30.731838998
 30
0.0
 10
-26.6637624338
 20
30.7601859174
 30
0.0
 10
-26.5757572465
 20
30.7623340084
 30
0.0
 10
-26.482057833
 20
30.7396132038
 30
0.0
 10
-26.4210899114
 20
30.7105656117
 30
0.0
 10
-26.390428758
 20
30.692864491
 30
0.0
  0
SPLINE
  5
38C
100
AcDbEntity
  8
0
100
AcDbSpline
 62
250
  6
CONTINUOUS
 70
0
 71
3
 72
11
 73
7
 74
0
 42
0.0000001
 43
0.0000001
 44
0.0000000001
 40
0.0
 40
0.0
 40
0.0
 40
0.0
 40
0.2352368085
 40
0.495762875
 40
0.7585768772
 40
1.0
 40
1.0
 40
1.0
 40
1.0
 10
20.9151437116
 20
-34.0124831493
 30
0.0
 10
20.9151437116
 20
-33.9903951614
 30
0.0
 10
20.9230600454
 20
-33.9438081079
 30
0.0
 10
20.9509939303
 20
-33.8777531268
 30
0.0
 10
20.9922837622
 20
-33.818401925
 30
0.0
 10
21.0277640977
 20
-33.7860901928
 30
0.0
 10
21.0467000127
 20
-33.7736279106
 30
0.0
  0
SPLINE
  5
38D
100
AcDbEntity
  8
0
100
AcDbSpline
 62
250
  6
CONTINUOUS
 70
0
 71
3
 72
9
 73
5
 74
0
 42
0.0000001
 43
0.0000001
 44
0.0000000001
 40
0.0
 40
0.0
 40
0.0
 40
0.0
 40
0.5507574967
 40
1.0
 40
1.0
 40
1.0
 40
1.0
 10
21.4089127248
 20
-33.7274422118
 30
0.0
 10
21.392389226
 20
-33.7179017509
 30
0.0
 10
21.3640034253
 20
-33.6961692594
 30
0.0
 10
21.3503565656
 20
-33.6614654579
 30
0.0
 10
21.3503349191
 20
-33.6459022766
 30
0.0
  0
SPLINE
  5
38E
100
AcDbEntity
  8
0
100
AcDbSpline
 62
250
  6
CONTINUOUS
 70
0
 71
3
 72
9
 73
5
 74
0
 42
0.0000001
 43
0.0000001
 44
0.0000000001
 40
0.0
 40
0.0
 40
0.0
 40
0.0
 40
0.5507892328
 40
1.0
 40
1.0
 40
1.0
 40
1.0
 10
21.4089127248
 20
2.5239868079
 30
0.0
 10
21.3923708396
 20
2.5335378851
 30
0.0
 10
21.3639528526
 20
2.5552981415
 30
0.0
 10
21.3503295674
 20
2.5900632114
 30
0.0
 10
21.3503348591
 20
2.6056417265
 30
0.0
  0
SPLINE
  5
38F
100
AcDbEntity
  8
0
100
AcDbSpline
 62
250
  6
CONTINUOUS
 70
0
 71
3
 72
9
 73
5
 74
0
 42
0.0000001
 43
0.0000001
 44
0.0000000001
 40
0.0
 40
0.0
 40
0.0
 40
0.0
 40
0.5507963236
 40
1.0
 40
1.0
 40
1.0
 40
1.0
 10
20.9151437116
 20
3.3792198251
 30
0.0
 10
20.9151437118
 20
3.3601209382
 30
0.0
 10
20.9197774803
 20
3.3246348293
 30
0.0
 10
20.9430688512
 20
3.2954570011
 30
0.0
 10
20.9565606243
 20
3.2876731243
 30
0.0
  0
SPLINE
  5
390
100
AcDbEntity
  8
0
100
AcDbSpline
 62
250
  6
CONTINUOUS
 70
0
 71
3
 72
9
 73
5
 74
0
 42
0.0000001
 43
0.0000001
 44
0.0000000001
 40
0.0
 40
0.0
 40
0.0
 40
0.0
 40
0.5507664996
 40
1.0
 40
1.0
 40
1.0
 40
1.0
 10
-26.390428758
 20
30.692864491
 30
0.0
 10
-26.390428758
 20
30.6737854886
 30
0.0
 10
-26.3858024346
 20
30.6383384826
 30
0.0
 10
-26.3625717924
 20
30.6091702172
 30
0.0
 10
-26.3491050626
 20
30.6013716717
 30
0.0
  0
SPLINE
  5
391
100
AcDbEntity
  8
0
100
AcDbSpline
 62
250
  6
CONTINUOUS
 70
0
 71
3
 72
11
 73
7
 74
0
 42
0.0000001
 43
0.0000001
 44
0.0000000001
 40
0.0
 40
0.0
 40
0.0
 40
0.0
 40
0.2352427605
 40
0.4957693383
 40
0.7585803421
 40
1.0
 40
1.0
 40
1.0
 40
1.0
 10
-26.8841977712
 20
30.4078235535
 30
0.0
 10
-26.8650687025
 20
30.3967786692
 30
0.0
 10
-26.8207645064
 20
30.3803392791
 30
0.0
 10
-26.7495914575
 20
30.3715022297
 30
0.0
 10
-26.6775468912
 20
30.3775852176
 30
0.0
 10
-26.6318245631
 20
30.3921577219
 30
0.0
 10
-26.6115646092
 20
30.4023265016
 30
0.0
  0
SPLINE
  5
392
100
AcDbEntity
  8
0
100
AcDbSpline
 62
250
  6
CONTINUOUS
 70
0
 71
3
 72
11
 73
7
 74
0
 42
0.0000001
 43
0.0000001
 44
0.0000000001
 40
0.0
 40
0.0
 40
0.0
 40
0.0
 40
0.2352426717
 40
0.4957692017
 40
0.7585802677
 40
1.0
 40
1.0
 40
1.0
 40
1.0
 10
-26.8841977712
 20
-5.8436054662
 30
0.0
 10
-26.8650687098
 20
-5.8546503465
 30
0.0
 10
-26.8207645278
 20
-5.8710897362
 30
0.0
 10
-26.7495914862
 20
-5.8799267903
 30
0.0
 10
-26.677546911
 20
-5.8738438075
 30
0.0
 10
-26.6318245691
 20
-5.8592713013
 30
0.0
 10
-26.6115646092
 20
-5.8491025181
 30
0.0
  0
SPLINE
  5
393
100
AcDbEntity
  8
0
100
AcDbSpline
 62
250
  6
CONTINUOUS
 70
0
 71
3
 72
11
 73
7
 74
0
 42
0.0000001
 43
0.0000001
 44
0.0000000001
 40
0.0
 40
0.0
 40
0.0
 40
0.0
 40
0.2352368979
 40
0.4957630114
 40
0.7585769504
 40
1.0
 40
1.0
 40
1.0
 40
1.0
 10
-26.390428758
 20
-6.6988384834
 30
0.0
 10
-26.3904287582
 20
-6.6767504871
 30
0.0
 10
-26.3825124185
 20
-6.6301634208
 30
0.0
 10
-26.354578526
 20
-6.5641084356
 30
0.0
 10
-26.3132886948
 20
-6.5047572433
 30
0.0
 10
-26.2778083665
 20
-6.4724455228
 30
0.0
 10
-26.2588724569
 20
-6.4599832447
 30
0.0
  0
SPLINE
  5
394
100
AcDbEntity
  8
0
100
AcDbSpline
 62
250
  6
CONTINUOUS
 70
0
 71
3
 72
11
 73
7
 74
0
 42
0.0000001
 43
0.0000001
 44
0.0000000001
 40
0.0
 40
0.0
 40
0.0
 40
0.0
 40
0.2349266851
 40
0.4999859806
 40
0.76504736
 40
1.0
 40
1.0
 40
1.0
 40
1.0
 10
-25.3314889854
 20
-5.1099919647
 30
0.0
 10
-25.3282364583
 20
-5.1666825625
 30
0.0
 10
-25.30149769
 20
-5.2861770849
 30
0.0
 10
-25.2241336684
 20
-5.4552527409
 30
0.0
 10
-25.1163895243
 20
-5.6067955168
 30
0.0
 10
-25.0262706299
 20
-5.6897061399
 30
0.0
 10
-24.9787968331
 20
-5.7208726913
 30
0.0
  0
SPLINE
  5
395
100
AcDbEntity
  8
0
100
AcDbSpline
 62
250
  6
CONTINUOUS
 70
0
 71
3
 72
11
 73
7
 74
0
 42
0.0000001
 43
0.0000001
 44
0.0000000001
 40
0.0
 40
0.0
 40
0.0
 40
0.0
 40
0.2216875365
 40
0.4565289827
 40
0.7144758747
 40
1.0
 40
1.0
 40
1.0
 40
1.0
 10
-25.2088451787
 20
-4.9206214432
 30
0.0
 10
-25.2088523293
 20
-4.9379486801
 30
0.0
 10
-25.2146034117
 20
-4.9738389205
 30
0.0
 10
-25.2395011871
 20
-5.0245717448
 30
0.0
 10
-25.2792516371
 20
-5.0712811897
 30
0.0
 10
-25.312899264
 20
-5.0976445179
 30
0.0
 10
-25.3314889854
 20
-5.1099919647
 30
0.0
  0
SPLINE
  5
396
100
AcDbEntity
  8
0
100
AcDbSpline
 62
250
  6
CONTINUOUS
 70
0
 71
3
 72
11
 73
7
 74
0
 42
0.0000001
 43
0.0000001
 44
0.0000000001
 40
0.0
 40
0.0
 40
0.0
 40
0.0
 40
0.2379396518
 40
0.5000046215
 40
0.7620696883
 40
1.0
 40
1.0
 40
1.0
 40
1.0
 10
-26.2588724569
 20
-6.4599832447
 30
0.0
 10
-26.3100223609
 20
-6.4321436657
 30
0.0
 10
-26.4069983409
 20
-6.3540135836
 30
0.0
 10
-26.5191338212
 20
-6.2029871798
 30
0.0
 10
-26.5938580942
 20
-6.0303640101
 30
0.0
 10
-26.6130314452
 20
-5.9073170952
 30
0.0
 10
-26.6115646092
 20
-5.8491025181
 30
0.0
  0
SPLINE
  5
397
100
AcDbEntity
  8
0
100
AcDbSpline
 62
250
  6
CONTINUOUS
 70
0
 71
3
 72
11
 73
7
 74
0
 42
0.0000001
 43
0.0000001
 44
0.0000000001
 40
0.0
 40
0.0
 40
0.0
 40
0.0
 40
0.2908552356
 40
0.5483350067
 40
0.7795813668
 40
1.0
 40
1.0
 40
1.0
 40
1.0
 10
-26.6115646092
 20
30.4023265016
 30
0.0
 10
-26.6122617865
 20
30.4292956071
 30
0.0
 10
-26.6091394074
 20
30.4804801216
 30
0.0
 10
-26.5877223517
 20
30.5504430024
 30
0.0
 10
-26.5496839407
 20
30.6056371629
 30
0.0
 10
-26.5139493534
 20
30.6296848196
 30
0.0
 10
-26.4951673732
 20
30.6377611662
 30
0.0
  0
SPLINE
  5
398
100
AcDbEntity
  8
ASSI
100
AcDbSpline
 62
250
  6
CONTINUOUS
 70
0
 71
3
 72
11
 73
7
 74
0
 42
0.0000001
 43
0.0000001
 44
0.0000000001
 40
0.0
 40
0.0
 40
0.0
 40
0.0
 40
0.2216875365
 40
0.4565289827
 40
0.7144758747
 40
1.0
 40
1.0
 40
1.0
 40
1.0
 10
-25.2088451787
 20
-4.9206214432
 30
0.0
 10
-25.2088523293
 20
-4.9379486801
 30
0.0
 10
-25.2146034117
 20
-4.9738389205
 30
0.0
 10
-25.2395011871
 20
-5.0245717448
 30
0.0
 10
-25.2792516371
 20
-5.0712811897
 30
0.0
 10
-25.312899264
 20
-5.0976445179
 30
0.0
 10
-25.3314889854
 20
-5.1099919647
 30
0.0
  0
SPLINE
  5
399
100
AcDbEntity
  8
ASSI
100
AcDbSpline
 62
250
  6
CONTINUOUS
 70
0
 71
3
 72
11
 73
7
 74
0
 42
0.0000001
 43
0.0000001
 44
0.0000000001
 40
0.0
 40
0.0
 40
0.0
 40
0.0
 40
0.2216781853
 40
0.4565156297
 40
0.7144656787
 40
1.0
 40
1.0
 40
1.0
 40
1.0
 10
-24.7534786744
 20
-5.7093311172
 30
0.0
 10
-24.7684873744
 20
-5.7006742234
 30
0.0
 10
-24.8024440481
 20
-5.6877111392
 30
0.0
 10
-24.8588279012
 20
-5.6839103576
 30
0.0
 10
-24.9191541458
 20
-5.6949848117
 30
0.0
 10
-24.9588088333
 20
-5.7109457403
 30
0.0
 10
-24.9787968331
 20
-5.7208726913
 30
0.0
  0
SPLINE
  5
39A
100
AcDbEntity
  8
ASSI
100
AcDbSpline
 62
250
  6
CONTINUOUS
 70
0
 71
3
 72
11
 73
7
 74
0
 42
0.0000001
 43
0.0000001
 44
0.0000000001
 40
0.0
 40
0.0
 40
0.0
 40
0.0
 40
0.2372145508
 40
0.500004835
 40
0.7627951139
 40
1.0
 40
1.0
 40
1.0
 40
1.0
 10
-26.390428758
 20
-6.6988384834
 30
0.0
 10
-26.4605245381
 20
-6.6583599052
 30
0.0
 10
-26.5932681267
 20
-6.5468059987
 30
0.0
 10
-26.748183919
 20
-6.3352271343
 30
0.0
 10
-26.8539578351
 20
-6.0952798265
 30
0.0
 10
-26.8841922676
 20
-5.9245461839
 30
0.0
 10
-26.8841977712
 20
-5.8436054662
 30
0.0
  0
SPLINE
  5
39B
100
AcDbEntity
  8
ASSI
100
AcDbSpline
 62
250
  6
CONTINUOUS
 70
0
 71
3
 72
9
 73
5
 74
0
 42
0.0000001
 43
0.0000001
 44
0.0000000001
 40
0.0
 40
0.0
 40
0.0
 40
0.0
 40
0.2572359305
 40
1.0
 40
1.0
 40
1.0
 40
1.0
 10
21.4089127248
 20
-33.7274422118
 30
0.0
 10
21.4089123448
 20
-33.7345055222
 30
0.0
 10
21.4084676139
 20
-33.7619606678
 30
0.0
 10
21.4062141719
 20
-33.7893984169
 30
0.0
 10
21.4033638648
 20
-33.8095934441
 30
0.0
  0
SPLINE
  5
39C
100
AcDbEntity
  8
ASSI
100
AcDbSpline
 62
250
  6
CONTINUOUS
 70
0
 71
3
 72
15
 73
11
 74
0
 42
0.0000001
 43
0.0000001
 44
0.0000000001
 40
0.0
 40
0.0
 40
0.0
 40
0.0
 40
0.1363795884
 40
0.2596617118
 40
0.3733903855
 40
0.4832215192
 40
0.5959398641
 40
0.7174775164
 40
0.8517181004
 40
1.0
 40
1.0
 40
1.0
 40
1.0
 10
21.4033638648
 20
-33.8095934441
 30
0.0
 10
21.3992268628
 20
-33.838904977
 30
0.0
 10
21.3865840963
 20
-33.8942661497
 30
0.0
 10
21.3513956404
 20
-33.9681381564
 30
0.0
 10
21.3014311995
 20
-34.0258813802
 30
0.0
 10
21.2380874407
 20
-34.0645436911
 30
0.0
 10
21.1643816019
 20
-34.0822027346
 30
0.0
 10
21.0836209637
 20
-34.0788767033
 30
0.0
 10
20.9984888366
 20
-34.0554734765
 30
0.0
 10
20.9430178264
 20
-34.0285747869
 30
0.0
 10
20.9151437116
 20
-34.0124831493
 30
0.0
  0
SPLINE
  5
39D
100
AcDbEntity
  8
ASSI
100
AcDbSpline
 62
250
  6
CONTINUOUS
 70
0
 71
3
 72
9
 73
5
 74
0
 42
0.0000001
 43
0.0000001
 44
0.0000000001
 40
0.0
 40
0.0
 40
0.0
 40
0.0
 40
0.2404854647
 40
1.0
 40
1.0
 40
1.0
 40
1.0
 10
20.9151437116
 20
3.3792198251
 30
0.0
 10
20.924499483
 20
3.3738172489
 30
0.0
 10
20.9628461685
 20
3.3503926541
 30
0.0
 10
20.9989806167
 20
3.3234140836
 30
0.0
 10
21.0251058115
 20
3.3014666503
 30
0.0
  0
SPLINE
  5
39E
100
AcDbEntity
  8
ASSI
100
AcDbSpline
 62
250
  6
CONTINUOUS
 70
0
 71
3
 72
10
 73
6
 74
0
 42
0.0000001
 43
0.0000001
 44
0.0000000001
 40
0.0
 40
0.0
 40
0.0
 40
0.0
 40
0.2422951226
 40
0.4976012511
 40
1.0
 40
1.0
 40
1.0
 40
1.0
 10
21.0251058115
 20
3.3014666503
 30
0.0
 10
21.0688927774
 20
3.2646817949
 30
0.0
 10
21.1517287916
 20
3.1803622671
 30
0.0
 10
21.2888925779
 20
2.9877989695
 30
0.0
 10
21.3605865584
 20
2.8196337435
 30
0.0
 10
21.3871886333
 20
2.7040777516
 30
0.0
  0
SPLINE
  5
39F
100
AcDbEntity
  8
ASSI
100
AcDbSpline
 62
250
  6
CONTINUOUS
 70
0
 71
3
 72
9
 73
5
 74
0
 42
0.0000001
 43
0.0000001
 44
0.0000000001
 40
0.0
 40
0.0
 40
0.0
 40
0.0
 40
0.2615644173
 40
1.0
 40
1.0
 40
1.0
 40
1.0
 10
21.3871886333
 20
2.7040777516
 30
0.0
 10
21.3907408241
 20
2.6886474914
 30
0.0
 10
21.4028439941
 20
2.6293395231
 30
0.0
 10
21.40891027
 20
2.5686881578
 30
0.0
 10
21.4089127248
 20
2.5239868079
 30
0.0
  0
SPLINE
  5
3A0
100
AcDbEntity
  8
ASSI
100
AcDbSpline
 62
250
  6
CONTINUOUS
 70
0
 71
3
 72
11
 73
7
 74
0
 42
0.0000001
 43
0.0000001
 44
0.0000000001
 40
0.0
 40
0.0
 40
0.0
 40
0.0
 40
0.2908552356
 40
0.5483350067
 40
0.7795813668
 40
1.0
 40
1.0
 40
1.0
 40
1.0
 10
-26.6115646092
 20
30.4023265016
 30
0.0
 10
-26.6122617865
 20
30.4292956071
 30
0.0
 10
-26.6091394074
 20
30.4804801216
 30
0.0
 10
-26.5877223517
 20
30.5504430024
 30
0.0
 10
-26.5496839407
 20
30.6056371629
 30
0.0
 10
-26.5139493534
 20
30.6296848196
 30
0.0
 10
-26.4951673732
 20
30.6377611662
 30
0.0
  0
SPLINE
  5
3A1
100
AcDbEntity
  8
ASSI
100
AcDbSpline
 62
250
  6
CONTINUOUS
 70
0
 71
3
 72
11
 73
7
 74
0
 42
0.0000001
 43
0.0000001
 44
0.0000000001
 40
0.0
 40
0.0
 40
0.0
 40
0.0
 40
0.2379396518
 40
0.5000046215
 40
0.7620696883
 40
1.0
 40
1.0
 40
1.0
 40
1.0
 10
-26.2588724569
 20
-6.4599832447
 30
0.0
 10
-26.3100223609
 20
-6.4321436657
 30
0.0
 10
-26.4069983409
 20
-6.3540135836
 30
0.0
 10
-26.5191338212
 20
-6.2029871798
 30
0.0
 10
-26.5938580942
 20
-6.0303640101
 30
0.0
 10
-26.6130314452
 20
-5.9073170952
 30
0.0
 10
-26.6115646092
 20
-5.8491025181
 30
0.0
  0
SPLINE
  5
3A2
100
AcDbEntity
  8
ASSI
100
AcDbSpline
 62
250
  6
CONTINUOUS
 70
0
 71
3
 72
11
 73
7
 74
0
 42
0.0000001
 43
0.0000001
 44
0.0000000001
 40
0.0
 40
0.0
 40
0.0
 40
0.0
 40
0.2349266851
 40
0.4999859806
 40
0.76504736
 40
1.0
 40
1.0
 40
1.0
 40
1.0
 10
-25.3314889854
 20
-5.1099919647
 30
0.0
 10
-25.3282364583
 20
-5.1666825625
 30
0.0
 10
-25.30149769
 20
-5.2861770849
 30
0.0
 10
-25.2241336684
 20
-5.4552527409
 30
0.0
 10
-25.1163895243
 20
-5.6067955168
 30
0.0
 10
-25.0262706299
 20
-5.6897061399
 30
0.0
 10
-24.9787968331
 20
-5.7208726913
 30
0.0
  0
SPLINE
  5
3A3
100
AcDbEntity
  8
ASSI
100
AcDbSpline
 62
250
  6
CONTINUOUS
 70
0
 71
3
 72
15
 73
11
 74
0
 42
0.0000001
 43
0.0000001
 44
0.0000000001
 40
0.0
 40
0.0
 40
0.0
 40
0.0
 40
0.1448760975
 40
0.2745417134
 40
0.3911244663
 40
0.499987846
 40
0.6088536092
 40
0.7254442625
 40
0.8551191911
 40
1.0
 40
1.0
 40
1.0
 40
1.0
 10
-26.8841977712
 20
30.4078235535
 30
0.0
 10
-26.8841954402
 20
30.4432263002
 30
0.0
 10
-26.878865028
 20
30.5105462159
 30
0.0
 10
-26.8516888877
 20
30.6030463696
 30
0.0
 10
-26.8058212292
 20
30.6781787512
 30
0.0
 10
-26.7420993609
 20
30.731838998
 30
0.0
 10
-26.6637624338
 20
30.7601859174
 30
0.0
 10
-26.5757572465
 20
30.7623340084
 30
0.0
 10
-26.482057833
 20
30.7396132038
 30
0.0
 10
-26.4210899114
 20
30.7105656117
 30
0.0
 10
-26.390428758
 20
30.692864491
 30
0.0
  0
SPLINE
  5
3A4
100
AcDbEntity
  8
ASSI
100
AcDbSpline
 62
250
  6
CONTINUOUS
 70
0
 71
3
 72
11
 73
7
 74
0
 42
0.0000001
 43
0.0000001
 44
0.0000000001
 40
0.0
 40
0.0
 40
0.0
 40
0.0
 40
0.2204123995
 40
0.4516594944
 40
0.7091463183
 40
1.0
 40
1.0
 40
1.0
 40
1.0
 10
21.3088234165
 20
-33.7905492642
 30
0.0
 10
21.292436873
 20
-33.8027785982
 30
0.0
 10
21.2537392604
 20
-33.821704846
 30
0.0
 10
21.1869113961
 20
-33.8270495122
 30
0.0
 10
21.1156037671
 20
-33.8106116069
 30
0.0
 10
21.0697098141
 20
-33.7877186738
 30
0.0
 10
21.0467000127
 20
-33.7736279106
 30
0.0
  0
SPLINE
  5
3A5
100
AcDbEntity
  8
ASSI
100
AcDbSpline
 62
250
  6
CONTINUOUS
 70
0
 71
3
 72
11
 73
7
 74
0
 42
0.0000001
 43
0.0000001
 44
0.0000000001
 40
0.0
 40
0.0
 40
0.0
 40
0.0
 40
0.2352368979
 40
0.4957630114
 40
0.7585769504
 40
1.0
 40
1.0
 40
1.0
 40
1.0
 10
-26.390428758
 20
-6.6988384834
 30
0.0
 10
-26.3904287582
 20
-6.6767504871
 30
0.0
 10
-26.3825124185
 20
-6.6301634208
 30
0.0
 10
-26.354578526
 20
-6.5641084356
 30
0.0
 10
-26.3132886948
 20
-6.5047572433
 30
0.0
 10
-26.2778083665
 20
-6.4724455228
 30
0.0
 10
-26.2588724569
 20
-6.4599832447
 30
0.0
  0
SPLINE
  5
3A6
100
AcDbEntity
  8
ASSI
100
AcDbSpline
 62
250
  6
CONTINUOUS
 70
0
 71
3
 72
11
 73
7
 74
0
 42
0.0000001
 43
0.0000001
 44
0.0000000001
 40
0.0
 40
0.0
 40
0.0
 40
0.0
 40
0.2352426717
 40
0.4957692017
 40
0.7585802677
 40
1.0
 40
1.0
 40
1.0
 40
1.0
 10
-26.8841977712
 20
-5.8436054662
 30
0.0
 10
-26.8650687098
 20
-5.8546503465
 30
0.0
 10
-26.8207645278
 20
-5.8710897362
 30
0.0
 10
-26.7495914862
 20
-5.8799267903
 30
0.0
 10
-26.677546911
 20
-5.8738438075
 30
0.0
 10
-26.6318245691
 20
-5.8592713013
 30
0.0
 10
-26.6115646092
 20
-5.8491025181
 30
0.0
  0
SPLINE
  5
3A7
100
AcDbEntity
  8
ASSI
100
AcDbSpline
 62
250
  6
CONTINUOUS
 70
0
 71
3
 72
11
 73
7
 74
0
 42
0.0000001
 43
0.0000001
 44
0.0000000001
 40
0.0
 40
0.0
 40
0.0
 40
0.0
 40
0.2352427605
 40
0.4957693383
 40
0.7585803421
 40
1.0
 40
1.0
 40
1.0
 40
1.0
 10
-26.8841977712
 20
30.4078235535
 30
0.0
 10
-26.8650687025
 20
30.3967786692
 30
0.0
 10
-26.8207645064
 20
30.3803392791
 30
0.0
 10
-26.7495914575
 20
30.3715022297
 30
0.0
 10
-26.6775468912
 20
30.3775852176
 30
0.0
 10
-26.6318245631
 20
30.3921577219
 30
0.0
 10
-26.6115646092
 20
30.4023265016
 30
0.0
  0
SPLINE
  5
3A8
100
AcDbEntity
  8
ASSI
100
AcDbSpline
 62
250
  6
CONTINUOUS
 70
0
 71
3
 72
9
 73
5
 74
0
 42
0.0000001
 43
0.0000001
 44
0.0000000001
 40
0.0
 40
0.0
 40
0.0
 40
0.0
 40
0.5507664996
 40
1.0
 40
1.0
 40
1.0
 40
1.0
 10
-26.390428758
 20
30.692864491
 30
0.0
 10
-26.390428758
 20
30.6737854886
 30
0.0
 10
-26.3858024346
 20
30.6383384826
 30
0.0
 10
-26.3625717924
 20
30.6091702172
 30
0.0
 10
-26.3491050626
 20
30.6013716717
 30
0.0
  0
SPLINE
  5
3A9
100
AcDbEntity
  8
ASSI
100
AcDbSpline
 62
250
  6
CONTINUOUS
 70
0
 71
3
 72
9
 73
5
 74
0
 42
0.0000001
 43
0.0000001
 44
0.0000000001
 40
0.0
 40
0.0
 40
0.0
 40
0.0
 40
0.5507963236
 40
1.0
 40
1.0
 40
1.0
 40
1.0
 10
20.9151437116
 20
3.3792198251
 30
0.0
 10
20.9151437118
 20
3.3601209382
 30
0.0
 10
20.9197774803
 20
3.3246348293
 30
0.0
 10
20.9430688512
 20
3.2954570011
 30
0.0
 10
20.9565606243
 20
3.2876731243
 30
0.0
  0
SPLINE
  5
3AA
100
AcDbEntity
  8
ASSI
100
AcDbSpline
 62
250
  6
CONTINUOUS
 70
0
 71
3
 72
9
 73
5
 74
0
 42
0.0000001
 43
0.0000001
 44
0.0000000001
 40
0.0
 40
0.0
 40
0.0
 40
0.0
 40
0.5507892328
 40
1.0
 40
1.0
 40
1.0
 40
1.0
 10
21.4089127248
 20
2.5239868079
 30
0.0
 10
21.3923708396
 20
2.5335378851
 30
0.0
 10
21.3639528526
 20
2.5552981415
 30
0.0
 10
21.3503295674
 20
2.5900632114
 30
0.0
 10
21.3503348591
 20
2.6056417265
 30
0.0
  0
SPLINE
  5
3AB
100
AcDbEntity
  8
ASSI
100
AcDbSpline
 62
250
  6
CONTINUOUS
 70
0
 71
3
 72
9
 73
5
 74
0
 42
0.0000001
 43
0.0000001
 44
0.0000000001
 40
0.0
 40
0.0
 40
0.0
 40
0.0
 40
0.5507574967
 40
1.0
 40
1.0
 40
1.0
 40
1.0
 10
21.4089127248
 20
-33.7274422118
 30
0.0
 10
21.392389226
 20
-33.7179017509
 30
0.0
 10
21.3640034253
 20
-33.6961692594
 30
0.0
 10
21.3503565656
 20
-33.6614654579
 30
0.0
 10
21.3503349191
 20
-33.6459022766
 30
0.0
  0
SPLINE
  5
3AC
100
AcDbEntity
  8
ASSI
100
AcDbSpline
 62
250
  6
CONTINUOUS
 70
0
 71
3
 72
11
 73
7
 74
0
 42
0.0000001
 43
0.0000001
 44
0.0000000001
 40
0.0
 40
0.0
 40
0.0
 40
0.0
 40
0.2352368085
 40
0.495762875
 40
0.7585768772
 40
1.0
 40
1.0
 40
1.0
 40
1.0
 10
20.9151437116
 20
-34.0124831493
 30
0.0
 10
20.9151437116
 20
-33.9903951614
 30
0.0
 10
20.9230600454
 20
-33.9438081079
 30
0.0
 10
20.9509939303
 20
-33.8777531268
 30
0.0
 10
20.9922837622
 20
-33.818401925
 30
0.0
 10
21.0277640977
 20
-33.7860901928
 30
0.0
 10
21.0467000127
 20
-33.7736279106
 30
0.0
  0
SPLINE
  5
3AD
100
AcDbEntity
  8
CURVE
100
AcDbSpline
 62
250
  6
CONTINUOUS
 70
0
 71
3
 72
9
 73
5
 74
0
 42
0.0000001
 43
0.0000001
 44
0.0000000001
 40
0.0
 40
0.0
 40
0.0
 40
0.0
 40
0.5206208722
 40
1.0
 40
1.0
 40
1.0
 40
1.0
 10
31.311956114
 20
-42.673834402
 30
0.0
 10
31.3909898517
 20
-42.6299194129
 30
0.0
 10
31.5636382742
 20
-42.5992931402
 30
0.0
 10
31.5944309669
 20
-42.7714504488
 30
0.0
 10
31.5960561922
 20
-42.8518072462
 30
0.0
  0
SPLINE
  5
3AE
100
AcDbEntity
  8
CURVE
100
AcDbSpline
 62
250
  6
CONTINUOUS
 70
0
 71
3
 72
9
 73
5
 74
0
 42
0.0000001
 43
0.0000001
 44
0.0000000001
 40
0.0
 40
0.0
 40
0.0
 40
0.0
 40
0.5013510385
 40
1.0
 40
1.0
 40
1.0
 40
1.0
 10
31.0834202697
 20
-43.0375381302
 30
0.0
 10
31.0899137386
 20
-42.9716025595
 30
0.0
 10
31.1391682954
 20
-42.818791936
 30
0.0
 10
31.2559606702
 20
-42.7049613334
 30
0.0
 10
31.311956114
 20
-42.673834402
 30
0.0
  0
SPLINE
  5
3AF
100
AcDbEntity
  8
CURVE
100
AcDbSpline
 62
250
  6
CONTINUOUS
 70
0
 71
3
 72
9
 73
5
 74
0
 42
0.0000001
 43
0.0000001
 44
0.0000000001
 40
0.0
 40
0.0
 40
0.0
 40
0.0
 40
0.2703953699
 40
1.0
 40
1.0
 40
1.0
 40
1.0
 10
31.0941821556
 20
-43.3654985228
 30
0.0
 10
31.0896372916
 20
-43.3382106368
 30
0.0
 10
31.0746895961
 20
-43.2359463649
 30
0.0
 10
31.0750140937
 20
-43.1229144926
 30
0.0
 10
31.0834202697
 20
-43.0375381302
 30
0.0
  0
SPLINE
  5
3B0
100
AcDbEntity
  8
CURVE
100
AcDbSpline
 62
250
  6
CONTINUOUS
 70
0
 71
3
 72
9
 73
5
 74
0
 42
0.0000001
 43
0.0000001
 44
0.0000000001
 40
0.0
 40
0.0
 40
0.0
 40
0.0
 40
0.2957417834
 40
1.0
 40
1.0
 40
1.0
 40
1.0
 10
30.8233390757
 20
-42.8701413661
 30
0.0
 10
30.791578571
 20
-42.9853850522
 30
0.0
 10
30.7398070553
 20
-43.3660250887
 30
0.0
 10
30.7716930226
 20
-43.7034724693
 30
0.0
 10
30.8040910657
 20
-43.9318778059
 30
0.0
  0
SPLINE
  5
3B1
100
AcDbEntity
  8
CURVE
100
AcDbSpline
 62
250
  6
CONTINUOUS
 70
0
 71
3
 72
17
 73
13
 74
0
 42
0.0000001
 43
0.0000001
 44
0.0000000001
 40
0.0
 40
0.0
 40
0.0
 40
0.0
 40
0.0559780952
 40
0.1687540387
 40
0.321006234
 40
0.4122750837
 40
0.516613223
 40
0.6013931059
 40
0.6776022439
 40
0.8103422694
 40
0.9200404832
 40
1.0
 40
1.0
 40
1.0
 40
1.0
 10
31.7467363042
 20
-42.3290383212
 30
0.0
 10
31.7440165647
 20
-42.3069716071
 30
0.0
 10
31.7018199754
 20
-42.2698782308
 30
0.0
 10
31.6213815043
 20
-42.2139952678
 30
0.0
 10
31.4975589668
 20
-42.2076265337
 30
0.0
 10
31.3683840331
 20
-42.2446406605
 30
0.0
 10
31.2611715346
 20
-42.2993095393
 30
0.0
 10
31.1610359307
 20
-42.3693341917
 30
0.0
 10
31.05463404
 20
-42.4656669913
 30
0.0
 10
30.9503578674
 20
-42.5951435492
 30
0.0
 10
30.8688111613
 20
-42.7425890946
 30
0.0
 10
30.8336408138
 20
-42.8327150808
 30
0.0
 10
30.8233390757
 20
-42.8701413661
 30
0.0
  0
SPLINE
  5
3B2
100
AcDbEntity
  8
CURVE
100
AcDbSpline
 62
250
  6
CONTINUOUS
 70
0
 71
3
 72
9
 73
5
 74
0
 42
0.0000001
 43
0.0000001
 44
0.0000000001
 40
0.0
 40
0.0
 40
0.0
 40
0.0
 40
0.2426586216
 40
1.0
 40
1.0
 40
1.0
 40
1.0
 10
32.116108905
 20
-41.8845920253
 30
0.0
 10
32.0828876024
 20
-41.9125829217
 30
0.0
 10
31.9487318869
 20
-42.0234103325
 30
0.0
 10
31.7973424778
 20
-42.1903537264
 30
0.0
 10
31.7575393183
 20
-42.3232217351
 30
0.0
  0
SPLINE
  5
3B3
100
AcDbEntity
  8
CURVE
100
AcDbSpline
 62
250
  6
CONTINUOUS
 70
0
 71
3
 72
9
 73
5
 74
0
 42
0.0000001
 43
0.0000001
 44
0.0000000001
 40
0.0
 40
0.0
 40
0.0
 40
0.0
 40
0.1980141723
 40
1.0
 40
1.0
 40
1.0
 40
1.0
 10
32.6109225961
 20
-41.4725313766
 30
0.0
 10
32.578327284
 20
-41.4999645292
 30
0.0
 10
32.4133462758
 20
-41.6371673779
 30
0.0
 10
32.2480962628
 20
-41.773382783
 30
0.0
 10
32.116108905
 20
-41.8845920253
 30
0.0
  0
SPLINE
  5
3B4
100
AcDbEntity
  8
CURVE
100
AcDbSpline
 62
250
  6
CONTINUOUS
 70
0
 71
3
 72
9
 73
5
 74
0
 42
0.0000001
 43
0.0000001
 44
0.0000000001
 40
0.0
 40
0.0
 40
0.0
 40
0.0
 40
0.5586214172
 40
1.0
 40
1.0
 40
1.0
 40
1.0
 10
32.0565552332
 20
-42.3670967632
 30
0.0
 10
32.1574741181
 20
-42.2704334397
 30
0.0
 10
32.3443474061
 20
-42.1141537748
 30
0.0
 10
32.5290591845
 20
-41.952673498
 30
0.0
 10
32.6109225961
 20
-41.8823211546
 30
0.0
  0
SPLINE
  5
3B5
100
AcDbEntity
  8
CURVE
100
AcDbSpline
 62
250
  6
CONTINUOUS
 70
0
 71
3
 72
9
 73
5
 74
0
 42
0.0000001
 43
0.0000001
 44
0.0000000001
 40
0.0
 40
0.0
 40
0.0
 40
0.0
 40
0.3559141631
 40
1.0
 40
1.0
 40
1.0
 40
1.0
 10
31.89546968
 20
-42.691514577
 30
0.0
 10
31.89546968
 20
-42.6543892781
 30
0.0
 10
31.9156066418
 20
-42.5367475552
 30
0.0
 10
32.0002118442
 20
-42.4210392042
 30
0.0
 10
32.0565552332
 20
-42.3670967632
 30
0.0
  0
ELLIPSE
  5
3B6
100
AcDbEntity
  8
0
100
AcDbEllipse
 62
7
  6
CONTINUOUS
 10
-9.6988319318
 20
-10.8092218608
 30
0.0
 11
0.1999995634
 21
0.1164181051
 31
0.0
 40
0.0035896273
 41
-0.7351277754
 42
-0.6748017824
  0
ELLIPSE
  5
3B7
100
AcDbEntity
  8
0
100
AcDbEllipse
 62
7
  6
CONTINUOUS
 10
18.294971831
 20
-26.4011284745
 30
0.0
 11
0.1998333781
 21
-0.0157785196
 31
0.0
 40
0.5172961965
 41
0.8262203412
 42
2.3446567905
  0
ELLIPSE
  5
3B8
100
AcDbEntity
  8
0
100
AcDbEllipse
 62
7
  6
CONTINUOUS
 10
-13.5248333224
 20
-8.0287717747
 30
0.0
 11
0.1998333781
 21
-0.0157785196
 31
0.0
 40
0.5172961965
 41
0.8262203412
 42
2.3446567905
  0
ELLIPSE
  5
3B9
100
AcDbEntity
  8
0
100
AcDbEllipse
 62
7
  6
CONTINUOUS
 10
16.7767443011
 20
-27.7045429874
 30
0.0
 11
0.5413005334
 21
0.8416911418
 31
0.0
 40
0.6067084637
 41
0.7148472392
 42
0.8145158917
  0
ELLIPSE
  5
3BA
100
AcDbEntity
  8
0
100
AcDbEllipse
 62
7
  6
CONTINUOUS
 10
-15.0430608523
 20
-9.3321862876
 30
0.0
 11
0.5413005334
 21
0.8416911418
 31
0.0
 40
0.6067084637
 41
0.7148472392
 42
0.8145158917
  0
ELLIPSE
  5
3BB
100
AcDbEntity
  8
0
100
AcDbEllipse
 62
7
  6
CONTINUOUS
 10
-9.6988319318
 20
-10.2378570266
 30
0.0
 11
0.1998333781
 21
-0.0157785196
 31
0.0
 40
0.5172961965
 41
-0.692216108
 42
0.8262203412
  0
ELLIPSE
  5
3BC
100
AcDbEntity
  8
0
100
AcDbEllipse
 62
7
  6
CONTINUOUS
 10
21.0230815594
 20
-30.1563249012
 30
0.0
 11
0.4625183445
 21
0.8873459255
 31
0.0
 40
0.5463614449
 41
0.662201126
 42
0.7618697785
  0
ELLIPSE
  5
3BD
100
AcDbEntity
  8
0
100
AcDbEllipse
 62
7
  6
CONTINUOUS
 10
-10.796723594
 20
-11.7839682015
 30
0.0
 11
0.4625183445
 21
0.8873459255
 31
0.0
 40
0.5463614449
 41
0.662201126
 42
0.7618697785
  0
ELLIPSE
  5
3BE
100
AcDbEntity
  8
RACCORDO
100
AcDbEllipse
 62
7
  6
CONTINUOUS
 10
-25.1874194845
 20
-5.4341070233
 30
0.0
 11
-0.2500122581
 21
0.4330056244
 31
0.0
 40
0.5801478137
 41
0.7877823601
 42
2.353712702
  0
ELLIPSE
  5
3BF
100
AcDbEntity
  8
ASSI
100
AcDbEllipse
 62
7
  6
CONTINUOUS
 10
-25.1874194845
 20
-5.4341070233
 30
0.0
 11
-0.2500122581
 21
0.4330056244
 31
0.0
 40
0.5801478137
 41
0.7877823601
 42
2.353712702
  0
ENDSEC
  0
SECTION
  2
OBJECTS
  0
DICTIONARY
  5
C
100
AcDbDictionary
280
0
281
1
  3
ACAD_GROUP
350
D
  3
ACAD_MLINESTYLE
350
17
  3
ACAD_LAYOUT
350
1A
  3
ACAD_PLOTSETTINGS
350
19
  3
ACAD_PLOTSTYLENAME
350
E
  0
DICTIONARY
  5
D
102
{ACAD_REACTORS
330
C
102
}
100
AcDbDictionary
280
0
281
1
  0
ACDBDICTIONARYWDFLT
  5
E
102
{ACAD_REACTORS
330
C
102
}
100
AcDbDictionary
281
1
  3
Normal
350
F
100
AcDbDictionaryWithDefault
340
F
  0
DICTIONARY
  5
17
102
{ACAD_REACTORS
330
C
102
}
100
AcDbDictionary
280
0
281
1
  3
Standard
350
18
  0
DICTIONARY
  5
19
102
{ACAD_REACTORS
330
C
102
}
100
AcDbDictionary
281
1
  0
DICTIONARY
  5
1A
102
{ACAD_REACTORS
330
C
102
}
100
AcDbDictionary
281
1
  3
Model
350
3C0
  3
Layout1
350
3C1
  0
ACDBPLACEHOLDER
  5
F
102
{ACAD_REACTORS
330
E
102
}
  0
MLINESTYLE
  5
18
102
{ACAD_REACTORS
330
17
102
}
100
AcDbMlineStyle
  2
STANDARD
 70
0
  3

 62
256
 51
90.0
 52
90.0
 71
2
 49
0.5
 62
256
  6
BYLAYER
 49
-0.5
 62
256
  6
BYLAYER
  0
LAYOUT
  5
3C0
102
{ACAD_REACTORS
330
1A
102
}
100
AcDbPlotSettings
  1

  2
none_device
  4
ISO_A4_(297.00_x_210.00_MM)
  6

 40
0.0
 41
0.0
 42
0.0
 43
0.0
 44
297.0
 45
210.0
 46
0.0
 47
0.0
 48
0.0
 49
0.0
140
0.0
141
0.0
142
1.0
143
1.0
 70
1024
 72
1
 73
0
 74
0
  7

 75
0
147
1.0
148
0.0
149
0.0
100
AcDbLayout
  1
Model
 70
0
 71
0
 10
0.0
 20
0.0
 11
297.0
 21
210.0
 12
0.0
 22
0.0
 32
0.0
 14
0.0
 24
0.0
 34
0.0
 15
0.0
 25
0.0
 35
0.0
146
0.0
 13
0.0
 23
0.0
 33
0.0
 16
1.0
 26
0.0
 36
0.0
 17
0.0
 27
1.0
 37
0.0
 76
0
330
21C
345
0
346
0
  0
LAYOUT
  5
3C1
102
{ACAD_REACTORS
330
1A
102
}
100
AcDbPlotSettings
  1

  2
none_device
  4
ISO_A4_(297.00_x_210.00_MM)
  6

 40
0.0
 41
0.0
 42
0.0
 43
0.0
 44
297.0
 45
210.0
 46
0.0
 47
0.0
 48
0.0
 49
0.0
140
0.0
141
0.0
142
1.0
143
1.0
 70
0
 72
1
 73
0
 74
0
  7

 75
0
147
1.0
148
0.0
149
0.0
100
AcDbLayout
  1
Layout1
 70
0
 71
1
 10
0.0
 20
0.0
 11
297.0
 21
210.0
 12
0.0
 22
0.0
 32
0.0
 14
0.0
 24
0.0
 34
0.0
 15
0.0
 25
0.0
 35
0.0
146
0.0
 13
0.0
 23
0.0
 33
0.0
 16
1.0
 26
0.0
 36
0.0
 17
0.0
 27
1.0
 37
0.0
 76
0
330
21D
345
0
346
0
  0
ENDSEC
  0
EOF
