  0
SECTION
  2
HEADER
  9
$ACADVER
  1
AC1024
  9
$DWGCODEPAGE
  3
ANSI_1252
  9
$EXTMAX
 10
297.0
 20
210.0
 30
0.0
  9
$EXTMIN
 10
0.0
 20
0.0
 30
0.0
  9
$LIMMIN
 10
0.0
 20
0.0
  9
$LIMMAX
 10
297.0
 20
210.0
  9
$VIEWCTR
 10
148.5
 20
105.0
  9
$VIEWSIZE
 40
210.0
  9
$CLAYER
  8
0
  9
$LTSCALE
 40
16.335
  9
$CELTYPE
  6
BYLAYER
  9
$DIMSCALE
 40
1.0
  9
$DIMASZ
 40
3.0
  9
$DIMEXO
 40
0.5
  9
$DIMDLI
 40
11.286
  9
$DIMEXE
 40
1.5
  9
$DIMCEN
 40
2.673
  9
$DIMLFAC
 40
1.0
  9
$DIMBLK
  1
_FILLED
  9
$DIMALT
 70
0
  9
$DIMALTF
 40
0.0393700787
  9
$DIMTXT
 40
3.0
  9
$DIMTOL
 70
1
  9
$DIMLIM
 70
0
  9
$DIMTFAC
 40
1.0
  9
$DIMTP
 40
0.01
  9
$DIMTM
 40
0.01
  9
$DIMGAP
 40
0.625
  9
$DIMDSEP
 70
44
  9
$AUNITS
 70
0
  9
$PDMODE
 70
3
  9
$PDSIZE
 40
3.0
  9
$HANDSEED
  5
3A8
  9
$TILEMODE
 70
1
  9
$MEASUREMENT
 70
1
  9
$INSUNITS
 70
4
  0
ENDSEC
  0
SECTION
  2
CLASSES
  0
CLASS
  1
ACDBDICTIONARYWDFLT
  2
AcDbDictionaryWithDefault
  3
AutoCAD 2000
 90
0
 91
1
280
0
281
0
  0
CLASS
  1
ACDBPLACEHOLDER
  2
AcDbPlaceHolder
  3
AutoCAD 2000
 90
0
 91
1
280
0
281
0
  0
CLASS
  1
LAYOUT
  2
AcDbLayout
  3
AutoCAD 2000
 90
0
 91
0
280
0
281
0
  0
ENDSEC
  0
SECTION
  2
TABLES
  0
TABLE
  2
VPORT
  5
8
100
AcDbSymbolTable
 70
2
  0
VPORT
  5
1F4
100
AcDbSymbolTableRecord
100
AcDbViewportTableRecord
  2
*ACTIVE
 70
0
 10
0.0
 20
0.0
 11
1.0
 21
1.0
 12
148.5
 22
105.0
 13
0.0
 23
0.0
 14
1.0
 24
1.0
 15
0.0
 25
0.0
 16
0.0
 26
0.0
 36
1.0
 17
0.0
 27
0.0
 37
0.0
 40
210.0
 41
1.4142857143
 42
50.0
 43
0.0
 44
0.0
 50
0.0
 51
0.0
 71
0
 72
100
 73
1
 74
1
 75
0
 76
0
 77
0
 78
0
  0
ENDTAB
  0
TABLE
  2
LTYPE
  5
5
100
AcDbSymbolTable
 70
6
  0
LTYPE
  5
14
100
AcDbSymbolTableRecord
100
AcDbLinetypeTableRecord
  2
BYBLOCK
 70
0
  3

 72
65
 73
0
 40
0.0
  0
LTYPE
  5
15
100
AcDbSymbolTableRecord
100
AcDbLinetypeTableRecord
  2
BYLAYER
 70
0
  3

 72
65
 73
0
 40
0.0
  0
LTYPE
  5
16
100
AcDbSymbolTableRecord
100
AcDbLinetypeTableRecord
  2
CONTINUOUS
 70
64
  3
Solid line
 72
65
 73
0
 40
0.0
  0
LTYPE
  5
1F5
100
AcDbSymbolTableRecord
100
AcDbLinetypeTableRecord
  2
CENTER
 70
64
  3
____ _ ____ _ ____ _ ____ _ ____ _ ____ _ ____
 72
65
 73
4
 40
0.6
 49
0.375
 74
0
 49
-0.075
 74
0
 49
0.075
 74
0
 49
-0.075
 74
0
  0
LTYPE
  5
1F6
100
AcDbSymbolTableRecord
100
AcDbLinetypeTableRecord
  2
HIDDEN
 70
64
  3
- - - - - - - - - - - - - - - - - - - -
 72
65
 73
2
 40
0.2
 49
0.1
 74
0
 49
-0.1
 74
0
  0
LTYPE
  5
1F7
100
AcDbSymbolTableRecord
100
AcDbLinetypeTableRecord
  2
PHANTOM
 70
64
  3
_____ _ _ _____ _ _ _____ _ _ _____
 72
65
 73
6
 40
0.8
 49
0.45
 74
0
 49
-0.05
 74
0
 49
0.1
 74
0
 49
-0.05
 74
0
 49
0.1
 74
0
 49
-0.05
 74
0
  0
LTYPE
  5
1F8
100
AcDbSymbolTableRecord
100
AcDbLinetypeTableRecord
  2
DOT
 70
64
  3
. . . . . . . . . . . . . . . . . . . .
 72
65
 73
2
 40
0.2
 49
0.1
 74
0
 49
-0.1
 74
0
  0
LTYPE
  5
1F9
100
AcDbSymbolTableRecord
100
AcDbLinetypeTableRecord
  2
DASHED
 70
64
  3
- - - - - - - - - - - - - - - - - - - -
 72
65
 73
2
 40
0.2
 49
0.1
 74
0
 49
-0.1
 74
0
  0
ENDTAB
  0
TABLE
  2
LAYER
  5
2
100
AcDbSymbolTable
 70
36
  0
LAYER
  5
10
100
AcDbSymbolTableRecord
100
AcDbLayerTableRecord
  2
0
 70
0
 62
7
  6
CONTINUOUS
370
-3
390
F
  0
LAYER
  5
1FA
100
AcDbSymbolTableRecord
100
AcDbLayerTableRecord
  2
DEFAULT_1
 70
0
 62
7
  6
CENTER
370
-3
390
F
  0
LAYER
  5
1FB
100
AcDbSymbolTableRecord
100
AcDbLayerTableRecord
  2
DEFAULT_2
 70
0
 62
7
  6
HIDDEN
370
-3
390
F
  0
LAYER
  5
1FC
100
AcDbSymbolTableRecord
100
AcDbLayerTableRecord
  2
DEFAULT_3
 70
0
 62
7
  6
PHANTOM
370
-3
390
F
  0
LAYER
  5
1FD
100
AcDbSymbolTableRecord
100
AcDbLayerTableRecord
  2
ASSI
 70
0
 62
7
  6
CONTINUOUS
370
-3
390
F
  0
LAYER
  5
1FE
100
AcDbSymbolTableRecord
100
AcDbLayerTableRecord
  2
COORDINATE
 70
0
 62
7
  6
CONTINUOUS
370
-3
390
F
  0
LAYER
  5
1FF
100
AcDbSymbolTableRecord
100
AcDbLayerTableRecord
  2
COORD_ORIGINE
 70
0
 62
7
  6
CONTINUOUS
370
-3
390
F
  0
LAYER
  5
200
100
AcDbSymbolTableRecord
100
AcDbLayerTableRecord
  2
COPY_PUBLISH
 70
0
 62
7
  6
CONTINUOUS
370
-3
390
F
  0
LAYER
  5
201
100
AcDbSymbolTableRecord
100
AcDbLayerTableRecord
  2
COSMETIC
 70
0
 62
7
  6
CONTINUOUS
370
-3
390
F
  0
LAYER
  5
202
100
AcDbSymbolTableRecord
100
AcDbLayerTableRecord
  2
COSMETICI
 70
0
 62
7
  6
CONTINUOUS
370
-3
390
F
  0
LAYER
  5
203
100
AcDbSymbolTableRecord
100
AcDbLayerTableRecord
  2
CURVE
 70
0
 62
7
  6
CONTINUOUS
370
-3
390
F
  0
LAYER
  5
204
100
AcDbSymbolTableRecord
100
AcDbLayerTableRecord
  2
CURVE_COSTRUZIONE
 70
0
 62
7
  6
CONTINUOUS
370
-3
390
F
  0
LAYER
  5
205
100
AcDbSymbolTableRecord
100
AcDbLayerTableRecord
  2
CURVE_TASSELLI
 70
0
 62
7
  6
CONTINUOUS
370
-3
390
F
  0
LAYER
  5
206
100
AcDbSymbolTableRecord
100
AcDbLayerTableRecord
  2
DRAFT
 70
0
 62
7
  6
CONTINUOUS
370
-3
390
F
  0
LAYER
  5
207
100
AcDbSymbolTableRecord
100
AcDbLayerTableRecord
  2
IMPORT_IGES
 70
0
 62
7
  6
CONTINUOUS
370
-3
390
F
  0
LAYER
  5
208
100
AcDbSymbolTableRecord
100
AcDbLayerTableRecord
  2
INTFCLR_2
 70
0
 62
7
  6
CONTINUOUS
370
-3
390
F
  0
LAYER
  5
209
100
AcDbSymbolTableRecord
100
AcDbLayerTableRecord
  2
INTF_1
 70
0
 62
7
  6
CONTINUOUS
370
-3
390
F
  0
LAYER
  5
20A
100
AcDbSymbolTableRecord
100
AcDbLayerTableRecord
  2
INTF_7
 70
0
 62
7
  6
CONTINUOUS
370
-3
390
F
  0
LAYER
  5
20B
100
AcDbSymbolTableRecord
100
AcDbLayerTableRecord
  2
INTF_CYAN
 70
0
 62
7
  6
CONTINUOUS
370
-3
390
F
  0
LAYER
  5
20C
100
AcDbSymbolTableRecord
100
AcDbLayerTableRecord
  2
NOTE
 70
0
 62
7
  6
CONTINUOUS
370
-3
390
F
  0
LAYER
  5
20D
100
AcDbSymbolTableRecord
100
AcDbLayerTableRecord
  2
PIANI
 70
0
 62
7
  6
CONTINUOUS
370
-3
390
F
  0
LAYER
  5
20E
100
AcDbSymbolTableRecord
100
AcDbLayerTableRecord
  2
PIANI_ORIGINE
 70
0
 62
7
  6
CONTINUOUS
370
-3
390
F
  0
LAYER
  5
20F
100
AcDbSymbolTableRecord
100
AcDbLayerTableRecord
  2
PIANI_RIFERIMENTO
 70
0
 62
7
  6
CONTINUOUS
370
-3
390
F
  0
LAYER
  5
210
100
AcDbSymbolTableRecord
100
AcDbLayerTableRecord
  2
PUNTI
 70
0
 62
7
  6
CONTINUOUS
370
-3
390
F
  0
LAYER
  5
211
100
AcDbSymbolTableRecord
100
AcDbLayerTableRecord
  2
RACCORDO
 70
0
 62
7
  6
CONTINUOUS
370
-3
390
F
  0
LAYER
  5
212
100
AcDbSymbolTableRecord
100
AcDbLayerTableRecord
  2
RGB__255__255__255__
 70
0
 62
7
  6
CONTINUOUS
370
-3
390
F
  0
LAYER
  5
213
100
AcDbSymbolTableRecord
100
AcDbLayerTableRecord
  2
RGB____0____0____0__
 70
0
 62
7
  6
CONTINUOUS
370
-3
390
F
  0
LAYER
  5
214
100
AcDbSymbolTableRecord
100
AcDbLayerTableRecord
  2
SIMBOLI
 70
0
 62
7
  6
CONTINUOUS
370
-3
390
F
  0
LAYER
  5
215
100
AcDbSymbolTableRecord
100
AcDbLayerTableRecord
  2
SMUSSO
 70
0
 62
7
  6
CONTINUOUS
370
-3
390
F
  0
LAYER
  5
216
100
AcDbSymbolTableRecord
100
AcDbLayerTableRecord
  2
SNAPLINE
 70
0
 62
7
  6
CONTINUOUS
370
-3
390
F
  0
LAYER
  5
217
100
AcDbSymbolTableRecord
100
AcDbLayerTableRecord
  2
SUPERFICI
 70
0
 62
7
  6
CONTINUOUS
370
-3
390
F
  0
LAYER
  5
218
100
AcDbSymbolTableRecord
100
AcDbLayerTableRecord
  2
TRASH
 70
0
 62
7
  6
CONTINUOUS
370
-3
390
F
  0
LAYER
  5
219
100
AcDbSymbolTableRecord
100
AcDbLayerTableRecord
  2
WHITE
 70
0
 62
7
  6
CONTINUOUS
370
-3
390
F
  0
LAYER
  5
21A
100
AcDbSymbolTableRecord
100
AcDbLayerTableRecord
  2
XSEC_DATUMS
 70
0
 62
7
  6
CONTINUOUS
370
-3
390
F
  0
ENDTAB
  0
TABLE
  2
STYLE
  5
3
100
AcDbSymbolTable
 70
1
  0
STYLE
  5
11
100
AcDbSymbolTableRecord
100
AcDbTextStyleTableRecord
  2
STANDARD
 70
0
 40
0.0
 41
0.8
 50
0.0
 71
0
 42
0.2
  3
txt
  4

  0
STYLE
  5
21B
100
AcDbSymbolTableRecord
100
AcDbTextStyleTableRecord
  2
TEXTSTYLE_1
 70
0
 40
0.0
 41
0.8
 50
0.0
 71
0
 42
0.2
  3
gdt
  4

  0
ENDTAB
  0
TABLE
  2
VIEW
  5
6
100
AcDbSymbolTable
 70
0
  0
ENDTAB
  0
TABLE
  2
UCS
  5
7
100
AcDbSymbolTable
 70
0
  0
ENDTAB
  0
TABLE
  2
APPID
  5
9
100
AcDbSymbolTable
 70
1
  0
APPID
  5
21C
100
AcDbSymbolTableRecord
100
AcDbRegAppTableRecord
  2
ACAD
 70
0
  0
ENDTAB
  0
TABLE
  2
BLOCK_RECORD
  5
1
100
AcDbSymbolTable
 70
0
  0
BLOCK_RECORD
  5
21D
100
AcDbSymbolTableRecord
100
AcDbBlockTableRecord
  2
*Model_Space
  0
BLOCK_RECORD
  5
21E
100
AcDbSymbolTableRecord
100
AcDbBlockTableRecord
  2
*Paper_Space
  0
BLOCK_RECORD
  5
21F
100
AcDbSymbolTableRecord
100
AcDbBlockTableRecord
  2
_FILLED
  0
ENDTAB
  0
TABLE
  2
DIMSTYLE
  5
A
100
AcDbSymbolTable
 70
1
100
AcDbDimStyleTable
 71
0
  0
DIMSTYLE
105
220
100
AcDbSymbolTableRecord
100
AcDbDimStyleTableRecord
  2
STANDARD
 70
0
  3

  4

 40
1.0
 41
3.0
 42
0.5
 43
0.38
 44
1.5
 45
0.0
 46
0.0
 47
0.01
 48
0.01
140
3.0
141
0.09
142
0.0
143
25.4
144
1.0
145
0.0
146
1.0
147
0.625
 71
1
 72
0
 73
0
 74
0
 75
0
 76
0
 77
1
 78
8
 79
2
170
0
171
1
172
0
173
0
174
0
175
0
176
0
177
0
178
0
270
2
179
2
271
2
272
2
273
2
274
2
275
0
280
0
281
0
282
0
283
1
284
8
285
0
286
0
287
3
288
0
340
11
278
44
341
21F
342
21F
343
21F
344
21F
  0
ENDTAB
  0
ENDSEC
  0
SECTION
  2
BLOCKS
  0
BLOCK
  5
20
100
AcDbEntity
  8
0
100
AcDbBlockBegin
  2
*Model_Space
 70
0
 10
0.0
 20
0.0
 30
0.0
  3
*Model_Space
  1

  0
ENDBLK
  5
21
100
AcDbEntity
  8
0
100
AcDbBlockEnd
  0
BLOCK
  5
1C
100
AcDbEntity
  8
0
100
AcDbBlockBegin
  2
*Paper_Space
 70
0
 10
0.0
 20
0.0
 30
0.0
  3
*Paper_Space
  1

  0
ENDBLK
  5
1D
100
AcDbEntity
  8
0
100
AcDbBlockEnd
  0
BLOCK
  5
221
100
AcDbEntity
  8
0
100
AcDbBlockBegin
  2
_FILLED
 70
64
 10
0.0
 20
0.0
  3
_FILLED
  1

  0
SOLID
  5
222
100
AcDbEntity
  8
0
  6
BYBLOCK
 62
0
100
AcDbTrace
 10
0.0
 20
0.0
 11
-1.0
 21
0.3166666667
 12
-1.0
 22
-0.3166666667
 13
-1.0
 23
-0.3166666667
  0
ENDBLK
  5
223
100
AcDbEntity
  8
0
  6
BYBLOCK
 62
0
100
AcDbBlockEnd
  0
ENDSEC
  0
SECTION
  2
ENTITIES
  0
LINE
  5
224
100
AcDbEntity
  8
SMUSSO
100
AcDbLine
 62
7
  6
CONTINUOUS
 10
-33.8239204267
 20
53.4389909435
 11
-31.3490466925
 21
54.8679125652
  0
LINE
  5
225
100
AcDbEntity
  8
0
100
AcDbLine
 62
250
  6
CONTINUOUS
 10
-28.3438428725
 20
55.4599659624
 11
-30.3944525379
 21
54.3172991127
  0
LINE
  5
226
100
AcDbEntity
  8
ASSI
100
AcDbLine
 62
250
  6
CONTINUOUS
 10
-28.3438428725
 20
55.4599659624
 11
-30.3944525379
 21
54.3172991127
  0
LINE
  5
227
100
AcDbEntity
  8
0
100
AcDbLine
 62
7
  6
CONTINUOUS
 10
-28.8221150259
 20
55.5215408444
 11
-30.6973299523
 21
54.4916194873
  0
LINE
  5
228
100
AcDbEntity
  8
ASSI
100
AcDbLine
 62
7
  6
CONTINUOUS
 10
-28.8221150259
 20
55.5215408444
 11
-30.6973299523
 21
54.4916194873
  0
LINE
  5
229
100
AcDbEntity
  8
0
100
AcDbLine
 62
250
  6
CONTINUOUS
 10
31.9442330746
 20
-47.4319617058
 11
32.8527921808
 21
-47.1934454338
  0
LINE
  5
22A
100
AcDbEntity
  8
0
100
AcDbLine
 62
250
  6
CONTINUOUS
 10
33.2641780351
 20
-46.8178026574
 11
31.9442330746
 21
-47.1083937186
  0
LINE
  5
22B
100
AcDbEntity
  8
0
100
AcDbLine
 62
250
  6
CONTINUOUS
 10
32.7967684811
 20
-43.8805554191
 11
32.3069201281
 21
-44.0122166184
  0
LINE
  5
22C
100
AcDbEntity
  8
0
100
AcDbLine
 62
250
  6
CONTINUOUS
 10
33.2641780351
 20
-43.756668618
 11
33.0006699588
 21
-43.8248751572
  0
LINE
  5
22D
100
AcDbEntity
  8
0
100
AcDbLine
 62
250
  6
CONTINUOUS
 10
31.9442330746
 20
-44.3795981901
 11
33.2641780351
 21
-44.0769454135
  0
LINE
  5
22E
100
AcDbEntity
  8
0
100
AcDbLine
 62
250
  6
CONTINUOUS
 10
31.9442330746
 20
-45.3823967817
 11
32.6770703385
 21
-45.2680210018
  0
LINE
  5
22F
100
AcDbEntity
  8
0
100
AcDbLine
 62
250
  6
CONTINUOUS
 10
33.2641780351
 20
-44.8960504399
 11
32.4058719174
 21
-45.0242474301
  0
LINE
  5
230
100
AcDbEntity
  8
0
100
AcDbLine
 62
250
  6
CONTINUOUS
 10
-26.293233207
 20
30.2304031306
 11
-25.4447460737
 21
30.7203089674
  0
LINE
  5
231
100
AcDbEntity
  8
SMUSSO
100
AcDbLine
 62
7
  6
CONTINUOUS
 10
-33.8239204267
 20
-19.226903146
 11
-33.8239204267
 21
53.4389909435
  0
LINE
  5
232
100
AcDbEntity
  8
SMUSSO
100
AcDbLine
 62
7
  6
CONTINUOUS
 10
-33.8239204267
 20
-19.226903146
 11
29.108583099
 21
-55.5633024973
  0
LINE
  5
233
100
AcDbEntity
  8
0
100
AcDbLine
 62
7
  6
CONTINUOUS
 10
-27.0003399882
 20
-4.7145247161
 11
-27.0003399882
 21
30.2304031306
  0
LINE
  5
234
100
AcDbEntity
  8
0
100
AcDbLine
 62
7
  6
CONTINUOUS
 10
-26.293233207
 20
-4.7145247161
 11
-26.293233207
 21
30.2304031306
  0
LINE
  5
235
100
AcDbEntity
  8
RACCORDO
100
AcDbLine
 62
7
  6
CONTINUOUS
 10
-23.8183594729
 20
29.7811669312
 11
-23.8183594729
 21
-3.2855636395
  0
LINE
  5
236
100
AcDbEntity
  8
0
100
AcDbLine
 62
250
  6
CONTINUOUS
 10
-23.1918917676
 20
29.4194523296
 11
-23.1918917676
 21
-4.5927702418
  0
LINE
  5
237
100
AcDbEntity
  8
ASSI
100
AcDbLine
 62
250
  6
CONTINUOUS
 10
-23.1918917676
 20
29.4194523296
 11
-23.1918917676
 21
-4.5927702418
  0
LINE
  5
238
100
AcDbEntity
  8
0
100
AcDbLine
 62
7
  6
CONTINUOUS
 10
-23.1217267177
 20
29.3789399092
 11
-23.1217267177
 21
-4.6513286595
  0
LINE
  5
239
100
AcDbEntity
  8
ASSI
100
AcDbLine
 62
7
  6
CONTINUOUS
 10
-23.1217267177
 20
29.3789399092
 11
-23.1217267177
 21
-4.6513286595
  0
LINE
  5
23A
100
AcDbEntity
  8
0
100
AcDbLine
 62
250
  6
CONTINUOUS
 10
-25.7982584602
 20
-6.7965909953
 11
-25.4447050696
 21
-6.1842185603
  0
LINE
  5
23B
100
AcDbEntity
  8
0
100
AcDbLine
 62
7
  6
CONTINUOUS
 10
20.3758143513
 20
-33.4569219396
 11
-25.7982584602
 21
-6.7965909953
  0
LINE
  5
23C
100
AcDbEntity
  8
0
100
AcDbLine
 62
7
  6
CONTINUOUS
 10
20.7293677419
 20
-32.8445495046
 11
-25.4447050696
 21
-6.1842185603
  0
LINE
  5
23D
100
AcDbEntity
  8
RACCORDO
100
AcDbLine
 62
7
  6
CONTINUOUS
 10
-22.9698313354
 20
-4.7552574836
 11
21.5778958793
 21
-30.4765568633
  0
LINE
  5
23E
100
AcDbEntity
  8
0
100
AcDbLine
 62
7
  6
CONTINUOUS
 10
19.7394182482
 20
-29.3740221321
 11
15.8503309517
 21
-27.1285118688
  0
LINE
  5
23F
100
AcDbEntity
  8
ASSI
100
AcDbLine
 62
7
  6
CONTINUOUS
 10
19.7394182482
 20
-29.3740221321
 11
15.8503309517
 21
-27.1285118688
  0
LINE
  5
240
100
AcDbEntity
  8
0
100
AcDbLine
 62
7
  6
CONTINUOUS
 10
-12.0803869052
 20
-11.0016654324
 11
-15.9694742017
 21
-8.7561551691
  0
LINE
  5
241
100
AcDbEntity
  8
ASSI
100
AcDbLine
 62
7
  6
CONTINUOUS
 10
-12.0803869052
 20
-11.0016654324
 11
-15.9694742017
 21
-8.7561551691
  0
LINE
  5
242
100
AcDbEntity
  8
0
100
AcDbLine
 62
7
  6
CONTINUOUS
 10
19.9869056216
 20
-29.353596566
 11
15.9917523079
 21
-27.0468569501
  0
LINE
  5
243
100
AcDbEntity
  8
ASSI
100
AcDbLine
 62
7
  6
CONTINUOUS
 10
19.9869056216
 20
-29.353596566
 11
15.9917523079
 21
-27.0468569501
  0
LINE
  5
244
100
AcDbEntity
  8
0
100
AcDbLine
 62
7
  6
CONTINUOUS
 10
-15.8280528455
 20
-8.6745002504
 11
-11.8328995318
 21
-10.9812398662
  0
LINE
  5
245
100
AcDbEntity
  8
ASSI
100
AcDbLine
 62
7
  6
CONTINUOUS
 10
-15.8280528455
 20
-8.6745002504
 11
-11.8328995318
 21
-10.9812398662
  0
LINE
  5
246
100
AcDbEntity
  8
0
100
AcDbLine
 62
7
  6
CONTINUOUS
 10
20.0929716388
 20
-29.1698848355
 11
16.2038843423
 21
-26.9243745721
  0
LINE
  5
247
100
AcDbEntity
  8
ASSI
100
AcDbLine
 62
7
  6
CONTINUOUS
 10
20.0929716388
 20
-29.1698848355
 11
16.2038843423
 21
-26.9243745721
  0
LINE
  5
248
100
AcDbEntity
  8
0
100
AcDbLine
 62
7
  6
CONTINUOUS
 10
-11.7268335146
 20
-10.7975281357
 11
-15.6159208111
 21
-8.5520178724
  0
LINE
  5
249
100
AcDbEntity
  8
ASSI
100
AcDbLine
 62
7
  6
CONTINUOUS
 10
-11.7268335146
 20
-10.7975281357
 11
-15.6159208111
 21
-8.5520178724
  0
LINE
  5
24A
100
AcDbEntity
  8
0
100
AcDbLine
 62
7
  6
CONTINUOUS
 10
20.3404590122
 20
-29.1494592693
 11
16.3453056985
 21
-26.8427196535
  0
LINE
  5
24B
100
AcDbEntity
  8
ASSI
100
AcDbLine
 62
7
  6
CONTINUOUS
 10
20.3404590122
 20
-29.1494592693
 11
16.3453056985
 21
-26.8427196535
  0
LINE
  5
24C
100
AcDbEntity
  8
0
100
AcDbLine
 62
7
  6
CONTINUOUS
 10
-15.4744994549
 20
-8.4703629537
 11
-11.4793461412
 21
-10.7771025696
  0
LINE
  5
24D
100
AcDbEntity
  8
ASSI
100
AcDbLine
 62
7
  6
CONTINUOUS
 10
-15.4744994549
 20
-8.4703629537
 11
-11.4793461412
 21
-10.7771025696
  0
LINE
  5
24E
100
AcDbEntity
  8
0
100
AcDbLine
 62
7
  6
CONTINUOUS
 10
20.4465250294
 20
-28.9657475388
 11
16.5574377329
 21
-26.7202372755
  0
LINE
  5
24F
100
AcDbEntity
  8
ASSI
100
AcDbLine
 62
7
  6
CONTINUOUS
 10
20.4465250294
 20
-28.9657475388
 11
16.5574377329
 21
-26.7202372755
  0
LINE
  5
250
100
AcDbEntity
  8
0
100
AcDbLine
 62
7
  6
CONTINUOUS
 10
-11.373280124
 20
-10.593390839
 11
-15.2623674205
 21
-8.3478805757
  0
LINE
  5
251
100
AcDbEntity
  8
ASSI
100
AcDbLine
 62
7
  6
CONTINUOUS
 10
-11.373280124
 20
-10.593390839
 11
-15.2623674205
 21
-8.3478805757
  0
LINE
  5
252
100
AcDbEntity
  8
0
100
AcDbLine
 62
7
  6
CONTINUOUS
 10
20.6940124028
 20
-28.9453219726
 11
16.6988590891
 21
-26.6385823568
  0
LINE
  5
253
100
AcDbEntity
  8
ASSI
100
AcDbLine
 62
7
  6
CONTINUOUS
 10
20.6940124028
 20
-28.9453219726
 11
16.6988590891
 21
-26.6385823568
  0
LINE
  5
254
100
AcDbEntity
  8
0
100
AcDbLine
 62
7
  6
CONTINUOUS
 10
-15.1209460643
 20
-8.2662256571
 11
-11.1257927506
 21
-10.5729652729
  0
LINE
  5
255
100
AcDbEntity
  8
ASSI
100
AcDbLine
 62
7
  6
CONTINUOUS
 10
-15.1209460643
 20
-8.2662256571
 11
-11.1257927506
 21
-10.5729652729
  0
LINE
  5
256
100
AcDbEntity
  8
0
100
AcDbLine
 62
7
  6
CONTINUOUS
 10
20.80007842
 20
-28.7616102421
 11
16.9109911235
 21
-26.5160999788
  0
LINE
  5
257
100
AcDbEntity
  8
ASSI
100
AcDbLine
 62
7
  6
CONTINUOUS
 10
20.80007842
 20
-28.7616102421
 11
16.9109911235
 21
-26.5160999788
  0
LINE
  5
258
100
AcDbEntity
  8
0
100
AcDbLine
 62
7
  6
CONTINUOUS
 10
-11.0197267334
 20
-10.3892535424
 11
-14.9088140299
 21
-8.1437432791
  0
LINE
  5
259
100
AcDbEntity
  8
ASSI
100
AcDbLine
 62
7
  6
CONTINUOUS
 10
-11.0197267334
 20
-10.3892535424
 11
-14.9088140299
 21
-8.1437432791
  0
LINE
  5
25A
100
AcDbEntity
  8
0
100
AcDbLine
 62
7
  6
CONTINUOUS
 10
21.0475657934
 20
-28.741184676
 11
17.0524124797
 21
-26.4344450602
  0
LINE
  5
25B
100
AcDbEntity
  8
ASSI
100
AcDbLine
 62
7
  6
CONTINUOUS
 10
21.0475657934
 20
-28.741184676
 11
17.0524124797
 21
-26.4344450602
  0
LINE
  5
25C
100
AcDbEntity
  8
0
100
AcDbLine
 62
7
  6
CONTINUOUS
 10
-14.7673926737
 20
-8.0620883604
 11
-10.77223936
 21
-10.3688279762
  0
LINE
  5
25D
100
AcDbEntity
  8
ASSI
100
AcDbLine
 62
7
  6
CONTINUOUS
 10
-14.7673926737
 20
-8.0620883604
 11
-10.77223936
 21
-10.3688279762
  0
LINE
  5
25E
100
AcDbEntity
  8
0
100
AcDbLine
 62
7
  6
CONTINUOUS
 10
21.1536318106
 20
-28.5574729455
 11
17.2645445141
 21
-26.3119626822
  0
LINE
  5
25F
100
AcDbEntity
  8
ASSI
100
AcDbLine
 62
7
  6
CONTINUOUS
 10
21.1536318106
 20
-28.5574729455
 11
17.2645445141
 21
-26.3119626822
  0
LINE
  5
260
100
AcDbEntity
  8
0
100
AcDbLine
 62
7
  6
CONTINUOUS
 10
-10.6661733428
 20
-10.1851162457
 11
-14.5552606393
 21
-7.9396059824
  0
LINE
  5
261
100
AcDbEntity
  8
ASSI
100
AcDbLine
 62
7
  6
CONTINUOUS
 10
-10.6661733428
 20
-10.1851162457
 11
-14.5552606393
 21
-7.9396059824
  0
LINE
  5
262
100
AcDbEntity
  8
0
100
AcDbLine
 62
7
  6
CONTINUOUS
 10
21.401119184
 20
-28.5370473793
 11
17.4059658703
 21
-26.2303077635
  0
LINE
  5
263
100
AcDbEntity
  8
ASSI
100
AcDbLine
 62
7
  6
CONTINUOUS
 10
21.401119184
 20
-28.5370473793
 11
17.4059658703
 21
-26.2303077635
  0
LINE
  5
264
100
AcDbEntity
  8
0
100
AcDbLine
 62
7
  6
CONTINUOUS
 10
-14.4138392831
 20
-7.8579510637
 11
-10.4186859694
 21
-10.1646906796
  0
LINE
  5
265
100
AcDbEntity
  8
ASSI
100
AcDbLine
 62
7
  6
CONTINUOUS
 10
-14.4138392831
 20
-7.8579510637
 11
-10.4186859694
 21
-10.1646906796
  0
LINE
  5
266
100
AcDbEntity
  8
0
100
AcDbLine
 62
7
  6
CONTINUOUS
 10
21.5071852012
 20
-28.3533356488
 11
17.6180979047
 21
-26.1078253855
  0
LINE
  5
267
100
AcDbEntity
  8
ASSI
100
AcDbLine
 62
7
  6
CONTINUOUS
 10
21.5071852012
 20
-28.3533356488
 11
17.6180979047
 21
-26.1078253855
  0
LINE
  5
268
100
AcDbEntity
  8
0
100
AcDbLine
 62
7
  6
CONTINUOUS
 10
-10.3126199522
 20
-9.980978949
 11
-14.2017072487
 21
-7.7354686857
  0
LINE
  5
269
100
AcDbEntity
  8
ASSI
100
AcDbLine
 62
7
  6
CONTINUOUS
 10
-10.3126199522
 20
-9.980978949
 11
-14.2017072487
 21
-7.7354686857
  0
LINE
  5
26A
100
AcDbEntity
  8
0
100
AcDbLine
 62
7
  6
CONTINUOUS
 10
21.5778958793
 20
-28.2308532708
 11
17.7595192609
 21
-26.0261704668
  0
LINE
  5
26B
100
AcDbEntity
  8
ASSI
100
AcDbLine
 62
7
  6
CONTINUOUS
 10
21.5778958793
 20
-28.2308532708
 11
17.7595192609
 21
-26.0261704668
  0
LINE
  5
26C
100
AcDbEntity
  8
0
100
AcDbLine
 62
7
  6
CONTINUOUS
 10
-14.0602858925
 20
-7.6538137671
 11
-10.0651325788
 21
-9.9605533829
  0
LINE
  5
26D
100
AcDbEntity
  8
ASSI
100
AcDbLine
 62
7
  6
CONTINUOUS
 10
-14.0602858925
 20
-7.6538137671
 11
-10.0651325788
 21
-9.9605533829
  0
LINE
  5
26E
100
AcDbEntity
  8
0
100
AcDbLine
 62
250
  6
CONTINUOUS
 10
21.5778958793
 20
-28.1082574948
 11
17.7931142635
 21
-25.9229720243
  0
LINE
  5
26F
100
AcDbEntity
  8
ASSI
100
AcDbLine
 62
250
  6
CONTINUOUS
 10
21.5778958793
 20
-28.1082574948
 11
17.7931142635
 21
-25.9229720243
  0
LINE
  5
270
100
AcDbEntity
  8
0
100
AcDbLine
 62
250
  6
CONTINUOUS
 10
-9.7803536316
 20
-10.0023972384
 11
-14.0266908899
 21
-7.5506153246
  0
LINE
  5
271
100
AcDbEntity
  8
ASSI
100
AcDbLine
 62
250
  6
CONTINUOUS
 10
-9.7803536316
 20
-10.0023972384
 11
-14.0266908899
 21
-7.5506153246
  0
LINE
  5
272
100
AcDbEntity
  8
0
100
AcDbLine
 62
250
  6
CONTINUOUS
 10
21.5778958793
 20
-28.0310598007
 11
17.8671614165
 21
-25.8885282283
  0
LINE
  5
273
100
AcDbEntity
  8
ASSI
100
AcDbLine
 62
250
  6
CONTINUOUS
 10
21.5778958793
 20
-28.0310598007
 11
17.8671614165
 21
-25.8885282283
  0
LINE
  5
274
100
AcDbEntity
  8
0
100
AcDbLine
 62
250
  6
CONTINUOUS
 10
-9.7136812756
 20
-9.963695327
 11
-13.9526437369
 21
-7.5161715285
  0
LINE
  5
275
100
AcDbEntity
  8
ASSI
100
AcDbLine
 62
250
  6
CONTINUOUS
 10
-9.7136812756
 20
-9.963695327
 11
-13.9526437369
 21
-7.5161715285
  0
LINE
  5
276
100
AcDbEntity
  8
0
100
AcDbLine
 62
250
  6
CONTINUOUS
 10
-8.5338330043
 20
-9.3508804806
 11
-8.5338330043
 21
-9.7582501185
  0
LINE
  5
277
100
AcDbEntity
  8
ASSI
100
AcDbLine
 62
250
  6
CONTINUOUS
 10
-8.5338330043
 20
-9.3508804806
 11
-8.5338330043
 21
-9.7582501185
  0
LINE
  5
278
100
AcDbEntity
  8
0
100
AcDbLine
 62
7
  6
CONTINUOUS
 10
-8.4824619694
 20
-9.2843029737
 11
-8.4824619694
 21
-9.7277048237
  0
LINE
  5
279
100
AcDbEntity
  8
ASSI
100
AcDbLine
 62
7
  6
CONTINUOUS
 10
-8.4824619694
 20
-9.2843029737
 11
-8.4824619694
 21
-9.7277048237
  0
LINE
  5
27A
100
AcDbEntity
  8
0
100
AcDbLine
 62
7
  6
CONTINUOUS
 10
-15.9872364381
 20
-8.7869202649
 11
-15.9694742017
 21
-8.7561551691
  0
LINE
  5
27B
100
AcDbEntity
  8
ASSI
100
AcDbLine
 62
7
  6
CONTINUOUS
 10
-15.9872364381
 20
-8.7869202649
 11
-15.9694742017
 21
-8.7561551691
  0
LINE
  5
27C
100
AcDbEntity
  8
0
100
AcDbLine
 62
7
  6
CONTINUOUS
 10
-15.7219868283
 20
-8.7357296029
 11
-15.6159208111
 21
-8.5520178724
  0
LINE
  5
27D
100
AcDbEntity
  8
ASSI
100
AcDbLine
 62
7
  6
CONTINUOUS
 10
-15.7219868283
 20
-8.7357296029
 11
-15.6159208111
 21
-8.5520178724
  0
LINE
  5
27E
100
AcDbEntity
  8
0
100
AcDbLine
 62
7
  6
CONTINUOUS
 10
-15.3684334377
 20
-8.5315923063
 11
-15.2623674205
 21
-8.3478805757
  0
LINE
  5
27F
100
AcDbEntity
  8
ASSI
100
AcDbLine
 62
7
  6
CONTINUOUS
 10
-15.3684334377
 20
-8.5315923063
 11
-15.2623674205
 21
-8.3478805757
  0
LINE
  5
280
100
AcDbEntity
  8
0
100
AcDbLine
 62
7
  6
CONTINUOUS
 10
-15.0148800471
 20
-8.3274550096
 11
-14.9088140299
 21
-8.1437432791
  0
LINE
  5
281
100
AcDbEntity
  8
ASSI
100
AcDbLine
 62
7
  6
CONTINUOUS
 10
-15.0148800471
 20
-8.3274550096
 11
-14.9088140299
 21
-8.1437432791
  0
LINE
  5
282
100
AcDbEntity
  8
0
100
AcDbLine
 62
7
  6
CONTINUOUS
 10
-14.6613266565
 20
-8.1233177129
 11
-14.5552606393
 21
-7.9396059824
  0
LINE
  5
283
100
AcDbEntity
  8
ASSI
100
AcDbLine
 62
7
  6
CONTINUOUS
 10
-14.6613266565
 20
-8.1233177129
 11
-14.5552606393
 21
-7.9396059824
  0
LINE
  5
284
100
AcDbEntity
  8
0
100
AcDbLine
 62
7
  6
CONTINUOUS
 10
-14.3077732659
 20
-7.9191804163
 11
-14.2017072487
 21
-7.7354686857
  0
LINE
  5
285
100
AcDbEntity
  8
ASSI
100
AcDbLine
 62
7
  6
CONTINUOUS
 10
-14.3077732659
 20
-7.9191804163
 11
-14.2017072487
 21
-7.7354686857
  0
LINE
  5
286
100
AcDbEntity
  8
0
100
AcDbLine
 62
250
  6
CONTINUOUS
 10
-26.293233207
 20
-4.7145247161
 11
-23.8183594729
 21
-3.2855636395
  0
LINE
  5
287
100
AcDbEntity
  8
0
100
AcDbLine
 62
7
  6
CONTINUOUS
 10
-12.3670420037
 20
-6.9983455754
 11
-8.5410406132
 21
-9.2074308272
  0
LINE
  5
288
100
AcDbEntity
  8
ASSI
100
AcDbLine
 62
7
  6
CONTINUOUS
 10
-12.3670420037
 20
-6.9983455754
 11
-8.5410406132
 21
-9.2074308272
  0
LINE
  5
289
100
AcDbEntity
  8
0
100
AcDbLine
 62
7
  6
CONTINUOUS
 10
19.4527631497
 20
-25.3707022751
 11
21.5778958793
 21
-26.597727279
  0
LINE
  5
28A
100
AcDbEntity
  8
ASSI
100
AcDbLine
 62
7
  6
CONTINUOUS
 10
19.4527631497
 20
-25.3707022751
 11
21.5778958793
 21
-26.597727279
  0
LINE
  5
28B
100
AcDbEntity
  8
0
100
AcDbLine
 62
7
  6
CONTINUOUS
 10
-12.0981491415
 20
-11.0324305282
 11
-12.0803869052
 21
-11.0016654324
  0
LINE
  5
28C
100
AcDbEntity
  8
ASSI
100
AcDbLine
 62
7
  6
CONTINUOUS
 10
-12.0981491415
 20
-11.0324305282
 11
-12.0803869052
 21
-11.0016654324
  0
LINE
  5
28D
100
AcDbEntity
  8
0
100
AcDbLine
 62
7
  6
CONTINUOUS
 10
-11.8328995318
 20
-10.9812398662
 11
-11.7268335146
 21
-10.7975281357
  0
LINE
  5
28E
100
AcDbEntity
  8
ASSI
100
AcDbLine
 62
7
  6
CONTINUOUS
 10
-11.8328995318
 20
-10.9812398662
 11
-11.7268335146
 21
-10.7975281357
  0
LINE
  5
28F
100
AcDbEntity
  8
0
100
AcDbLine
 62
7
  6
CONTINUOUS
 10
-11.4793461412
 20
-10.7771025696
 11
-11.373280124
 21
-10.593390839
  0
LINE
  5
290
100
AcDbEntity
  8
ASSI
100
AcDbLine
 62
7
  6
CONTINUOUS
 10
-11.4793461412
 20
-10.7771025696
 11
-11.373280124
 21
-10.593390839
  0
LINE
  5
291
100
AcDbEntity
  8
0
100
AcDbLine
 62
7
  6
CONTINUOUS
 10
-11.1257927506
 20
-10.5729652729
 11
-11.0197267334
 21
-10.3892535424
  0
LINE
  5
292
100
AcDbEntity
  8
ASSI
100
AcDbLine
 62
7
  6
CONTINUOUS
 10
-11.1257927506
 20
-10.5729652729
 11
-11.0197267334
 21
-10.3892535424
  0
LINE
  5
293
100
AcDbEntity
  8
0
100
AcDbLine
 62
7
  6
CONTINUOUS
 10
-10.77223936
 20
-10.3688279762
 11
-10.6661733428
 21
-10.1851162457
  0
LINE
  5
294
100
AcDbEntity
  8
ASSI
100
AcDbLine
 62
7
  6
CONTINUOUS
 10
-10.77223936
 20
-10.3688279762
 11
-10.6661733428
 21
-10.1851162457
  0
LINE
  5
295
100
AcDbEntity
  8
0
100
AcDbLine
 62
7
  6
CONTINUOUS
 10
-10.4186859694
 20
-10.1646906796
 11
-10.3126199522
 21
-9.980978949
  0
LINE
  5
296
100
AcDbEntity
  8
ASSI
100
AcDbLine
 62
7
  6
CONTINUOUS
 10
-10.4186859694
 20
-10.1646906796
 11
-10.3126199522
 21
-9.980978949
  0
LINE
  5
297
100
AcDbEntity
  8
0
100
AcDbLine
 62
250
  6
CONTINUOUS
 10
-25.4447050696
 20
-6.1842185603
 11
-22.9698313354
 21
-4.7552574836
  0
LINE
  5
298
100
AcDbEntity
  8
0
100
AcDbLine
 62
250
  6
CONTINUOUS
 10
-27.0003399882
 20
-4.7145247161
 11
-26.293233207
 21
-4.7145247161
  0
LINE
  5
299
100
AcDbEntity
  8
SMUSSO
100
AcDbLine
 62
7
  6
CONTINUOUS
 10
29.108583099
 20
17.919061869
 11
30.8763500519
 21
18.9397483523
  0
LINE
  5
29A
100
AcDbEntity
  8
0
100
AcDbLine
 62
7
  6
CONTINUOUS
 10
-15.9694742017
 20
-8.7561551691
 11
-15.8280528455
 21
-8.6745002504
  0
LINE
  5
29B
100
AcDbEntity
  8
ASSI
100
AcDbLine
 62
7
  6
CONTINUOUS
 10
-15.9694742017
 20
-8.7561551691
 11
-15.8280528455
 21
-8.6745002504
  0
LINE
  5
29C
100
AcDbEntity
  8
0
100
AcDbLine
 62
7
  6
CONTINUOUS
 10
-15.6159208111
 20
-8.5520178724
 11
-15.4744994549
 21
-8.4703629537
  0
LINE
  5
29D
100
AcDbEntity
  8
ASSI
100
AcDbLine
 62
7
  6
CONTINUOUS
 10
-15.6159208111
 20
-8.5520178724
 11
-15.4744994549
 21
-8.4703629537
  0
LINE
  5
29E
100
AcDbEntity
  8
0
100
AcDbLine
 62
7
  6
CONTINUOUS
 10
-15.2623674205
 20
-8.3478805757
 11
-15.1209460643
 21
-8.2662256571
  0
LINE
  5
29F
100
AcDbEntity
  8
ASSI
100
AcDbLine
 62
7
  6
CONTINUOUS
 10
-15.2623674205
 20
-8.3478805757
 11
-15.1209460643
 21
-8.2662256571
  0
LINE
  5
2A0
100
AcDbEntity
  8
0
100
AcDbLine
 62
7
  6
CONTINUOUS
 10
-14.9088140299
 20
-8.1437432791
 11
-14.7673926737
 21
-8.0620883604
  0
LINE
  5
2A1
100
AcDbEntity
  8
ASSI
100
AcDbLine
 62
7
  6
CONTINUOUS
 10
-14.9088140299
 20
-8.1437432791
 11
-14.7673926737
 21
-8.0620883604
  0
LINE
  5
2A2
100
AcDbEntity
  8
0
100
AcDbLine
 62
7
  6
CONTINUOUS
 10
-14.5552606393
 20
-7.9396059824
 11
-14.4138392831
 21
-7.8579510637
  0
LINE
  5
2A3
100
AcDbEntity
  8
ASSI
100
AcDbLine
 62
7
  6
CONTINUOUS
 10
-14.5552606393
 20
-7.9396059824
 11
-14.4138392831
 21
-7.8579510637
  0
LINE
  5
2A4
100
AcDbEntity
  8
0
100
AcDbLine
 62
7
  6
CONTINUOUS
 10
-14.2017072487
 20
-7.7354686857
 11
-14.0602858925
 21
-7.6538137671
  0
LINE
  5
2A5
100
AcDbEntity
  8
ASSI
100
AcDbLine
 62
7
  6
CONTINUOUS
 10
-14.2017072487
 20
-7.7354686857
 11
-14.0602858925
 21
-7.6538137671
  0
LINE
  5
2A6
100
AcDbEntity
  8
SMUSSO
100
AcDbLine
 62
7
  6
CONTINUOUS
 10
29.108583099
 20
17.1025521373
 11
28.4014763178
 21
16.6943169989
  0
LINE
  5
2A7
100
AcDbEntity
  8
SMUSSO
100
AcDbLine
 62
7
  6
CONTINUOUS
 10
29.8156898801
 20
16.6943169989
 11
31.5834568331
 21
17.7150034822
  0
LINE
  5
2A8
100
AcDbEntity
  8
0
100
AcDbLine
 62
250
  6
CONTINUOUS
 10
30.8409947129
 20
18.9607193305
 11
32.8916043783
 21
20.1033861802
  0
LINE
  5
2A9
100
AcDbEntity
  8
ASSI
100
AcDbLine
 62
250
  6
CONTINUOUS
 10
30.8409947129
 20
18.9607193305
 11
32.8916043783
 21
20.1033861802
  0
LINE
  5
2AA
100
AcDbEntity
  8
0
100
AcDbLine
 62
7
  6
CONTINUOUS
 10
-16.1850479908
 20
-8.6727063535
 11
-14.0266908899
 21
-7.5506153246
  0
LINE
  5
2AB
100
AcDbEntity
  8
ASSI
100
AcDbLine
 62
7
  6
CONTINUOUS
 10
-16.1850479908
 20
-8.6727063535
 11
-14.0266908899
 21
-7.5506153246
  0
LINE
  5
2AC
100
AcDbEntity
  8
0
100
AcDbLine
 62
250
  6
CONTINUOUS
 10
-10.4783124173
 20
-11.029887772
 11
-10.1423674523
 21
-10.7031341822
  0
LINE
  5
2AD
100
AcDbEntity
  8
ASSI
100
AcDbLine
 62
250
  6
CONTINUOUS
 10
-10.4783124173
 20
-11.029887772
 11
-10.1423674523
 21
-10.7031341822
  0
LINE
  5
2AE
100
AcDbEntity
  8
0
100
AcDbLine
 62
7
  6
CONTINUOUS
 10
-10.4743875524
 20
-11.0634229655
 11
-10.045403179
 21
-10.6461755037
  0
LINE
  5
2AF
100
AcDbEntity
  8
ASSI
100
AcDbLine
 62
7
  6
CONTINUOUS
 10
-10.4743875524
 20
-11.0634229655
 11
-10.045403179
 21
-10.6461755037
  0
LINE
  5
2B0
100
AcDbEntity
  8
0
100
AcDbLine
 62
7
  6
CONTINUOUS
 10
-9.7803536316
 20
-10.0023972384
 11
-11.7237470943
 21
-11.2486055779
  0
LINE
  5
2B1
100
AcDbEntity
  8
ASSI
100
AcDbLine
 62
7
  6
CONTINUOUS
 10
-9.7803536316
 20
-10.0023972384
 11
-11.7237470943
 21
-11.2486055779
  0
LINE
  5
2B2
100
AcDbEntity
  8
0
100
AcDbLine
 62
250
  6
CONTINUOUS
 10
31.5838950189
 20
17.6739782568
 11
33.5987111595
 21
18.8786413101
  0
LINE
  5
2B3
100
AcDbEntity
  8
ASSI
100
AcDbLine
 62
250
  6
CONTINUOUS
 10
31.5838950189
 20
17.6739782568
 11
33.5987111595
 21
18.8786413101
  0
LINE
  5
2B4
100
AcDbEntity
  8
0
100
AcDbLine
 62
7
  6
CONTINUOUS
 10
-11.3945410428
 20
-11.4386850262
 11
-8.5338330043
 21
-9.7582501185
  0
LINE
  5
2B5
100
AcDbEntity
  8
ASSI
100
AcDbLine
 62
7
  6
CONTINUOUS
 10
-11.3945410428
 20
-11.4386850262
 11
-8.5338330043
 21
-9.7582501185
  0
LINE
  5
2B6
100
AcDbEntity
  8
0
100
AcDbLine
 62
7
  6
CONTINUOUS
 10
-10.5330018989
 20
-11.107886977
 11
-11.248464475
 21
-11.5230278056
  0
LINE
  5
2B7
100
AcDbEntity
  8
ASSI
100
AcDbLine
 62
7
  6
CONTINUOUS
 10
-10.5330018989
 20
-11.107886977
 11
-11.248464475
 21
-11.5230278056
  0
LINE
  5
2B8
100
AcDbEntity
  8
0
100
AcDbLine
 62
250
  6
CONTINUOUS
 10
-10.4783124173
 20
-11.029887772
 11
-11.2886975718
 21
-11.4997977198
  0
LINE
  5
2B9
100
AcDbEntity
  8
ASSI
100
AcDbLine
 62
250
  6
CONTINUOUS
 10
-10.4783124173
 20
-11.029887772
 11
-11.2886975718
 21
-11.4997977198
  0
LINE
  5
2BA
100
AcDbEntity
  8
0
100
AcDbLine
 62
7
  6
CONTINUOUS
 10
-12.0803869052
 20
-11.0016654324
 11
-11.9389655489
 21
-10.9200105137
  0
LINE
  5
2BB
100
AcDbEntity
  8
ASSI
100
AcDbLine
 62
7
  6
CONTINUOUS
 10
-12.0803869052
 20
-11.0016654324
 11
-11.9389655489
 21
-10.9200105137
  0
LINE
  5
2BC
100
AcDbEntity
  8
0
100
AcDbLine
 62
7
  6
CONTINUOUS
 10
-11.7268335146
 20
-10.7975281357
 11
-11.5854121583
 21
-10.715873217
  0
LINE
  5
2BD
100
AcDbEntity
  8
ASSI
100
AcDbLine
 62
7
  6
CONTINUOUS
 10
-11.7268335146
 20
-10.7975281357
 11
-11.5854121583
 21
-10.715873217
  0
LINE
  5
2BE
100
AcDbEntity
  8
0
100
AcDbLine
 62
7
  6
CONTINUOUS
 10
-11.373280124
 20
-10.593390839
 11
-11.2318587677
 21
-10.5117359204
  0
LINE
  5
2BF
100
AcDbEntity
  8
ASSI
100
AcDbLine
 62
7
  6
CONTINUOUS
 10
-11.373280124
 20
-10.593390839
 11
-11.2318587677
 21
-10.5117359204
  0
LINE
  5
2C0
100
AcDbEntity
  8
0
100
AcDbLine
 62
7
  6
CONTINUOUS
 10
-11.0197267334
 20
-10.3892535424
 11
-10.8783053771
 21
-10.3075986237
  0
LINE
  5
2C1
100
AcDbEntity
  8
ASSI
100
AcDbLine
 62
7
  6
CONTINUOUS
 10
-11.0197267334
 20
-10.3892535424
 11
-10.8783053771
 21
-10.3075986237
  0
LINE
  5
2C2
100
AcDbEntity
  8
0
100
AcDbLine
 62
7
  6
CONTINUOUS
 10
-10.6661733428
 20
-10.1851162457
 11
-10.5247519866
 21
-10.103461327
  0
LINE
  5
2C3
100
AcDbEntity
  8
ASSI
100
AcDbLine
 62
7
  6
CONTINUOUS
 10
-10.6661733428
 20
-10.1851162457
 11
-10.5247519866
 21
-10.103461327
  0
LINE
  5
2C4
100
AcDbEntity
  8
0
100
AcDbLine
 62
7
  6
CONTINUOUS
 10
-10.3126199522
 20
-9.980978949
 11
-10.171198596
 21
-9.8993240304
  0
LINE
  5
2C5
100
AcDbEntity
  8
ASSI
100
AcDbLine
 62
7
  6
CONTINUOUS
 10
-10.3126199522
 20
-9.980978949
 11
-10.171198596
 21
-9.8993240304
  0
LINE
  5
2C6
100
AcDbEntity
  8
0
100
AcDbLine
 62
7
  6
CONTINUOUS
 10
-10.0651325788
 20
-9.9605533829
 11
-12.0098538943
 21
-11.0834110974
  0
LINE
  5
2C7
100
AcDbEntity
  8
ASSI
100
AcDbLine
 62
7
  6
CONTINUOUS
 10
-10.0651325788
 20
-9.9605533829
 11
-12.0098538943
 21
-11.0834110974
  0
LINE
  5
2C8
100
AcDbEntity
  8
0
100
AcDbLine
 62
7
  6
CONTINUOUS
 10
-8.5338330043
 20
-9.3508804806
 11
-9.7136812756
 21
-9.963695327
  0
LINE
  5
2C9
100
AcDbEntity
  8
ASSI
100
AcDbLine
 62
7
  6
CONTINUOUS
 10
-8.5338330043
 20
-9.3508804806
 11
-9.7136812756
 21
-9.963695327
  0
LINE
  5
2CA
100
AcDbEntity
  8
0
100
AcDbLine
 62
7
  6
CONTINUOUS
 10
-13.9526437369
 20
-7.5161715285
 11
-12.6422894812
 21
-6.9787092019
  0
LINE
  5
2CB
100
AcDbEntity
  8
ASSI
100
AcDbLine
 62
7
  6
CONTINUOUS
 10
-13.9526437369
 20
-7.5161715285
 11
-12.6422894812
 21
-6.9787092019
  0
LINE
  5
2CC
100
AcDbEntity
  8
0
100
AcDbLine
 62
7
  6
CONTINUOUS
 10
-25.7982584602
 20
30.9243357925
 11
20.3758143513
 21
4.2640048482
  0
LINE
  5
2CD
100
AcDbEntity
  8
0
100
AcDbLine
 62
7
  6
CONTINUOUS
 10
21.5778958793
 20
2.181938569
 11
21.5778958793
 21
-32.7629892777
  0
LINE
  5
2CE
100
AcDbEntity
  8
SMUSSO
100
AcDbLine
 62
7
  6
CONTINUOUS
 10
28.4014763178
 20
-55.1550673589
 11
28.4014763178
 21
16.6943169989
  0
LINE
  5
2CF
100
AcDbEntity
  8
SMUSSO
100
AcDbLine
 62
7
  6
CONTINUOUS
 10
29.108583099
 20
17.919061869
 11
29.108583099
 21
17.1025521373
  0
LINE
  5
2D0
100
AcDbEntity
  8
SMUSSO
100
AcDbLine
 62
7
  6
CONTINUOUS
 10
29.8156898801
 20
-55.1550673589
 11
29.8156898801
 21
16.6943169989
  0
LINE
  5
2D1
100
AcDbEntity
  8
0
100
AcDbLine
 62
250
  6
CONTINUOUS
 10
33.5988587532
 20
18.9123991541
 11
33.8108431938
 21
19.7673208733
  0
LINE
  5
2D2
100
AcDbEntity
  8
ASSI
100
AcDbLine
 62
250
  6
CONTINUOUS
 10
33.5988587532
 20
18.9123991541
 11
33.8108431938
 21
19.7673208733
  0
LINE
  5
2D3
100
AcDbEntity
  8
0
100
AcDbLine
 62
7
  6
CONTINUOUS
 10
15.8325687153
 20
-27.1592769646
 11
15.8503309517
 21
-27.1285118688
  0
LINE
  5
2D4
100
AcDbEntity
  8
ASSI
100
AcDbLine
 62
7
  6
CONTINUOUS
 10
15.8325687153
 20
-27.1592769646
 11
15.8503309517
 21
-27.1285118688
  0
LINE
  5
2D5
100
AcDbEntity
  8
0
100
AcDbLine
 62
7
  6
CONTINUOUS
 10
16.0978183251
 20
-27.1080863027
 11
16.2038843423
 21
-26.9243745721
  0
LINE
  5
2D6
100
AcDbEntity
  8
ASSI
100
AcDbLine
 62
7
  6
CONTINUOUS
 10
16.0978183251
 20
-27.1080863027
 11
16.2038843423
 21
-26.9243745721
  0
LINE
  5
2D7
100
AcDbEntity
  8
0
100
AcDbLine
 62
7
  6
CONTINUOUS
 10
16.4513717157
 20
-26.903949006
 11
16.5574377329
 21
-26.7202372755
  0
LINE
  5
2D8
100
AcDbEntity
  8
ASSI
100
AcDbLine
 62
7
  6
CONTINUOUS
 10
16.4513717157
 20
-26.903949006
 11
16.5574377329
 21
-26.7202372755
  0
LINE
  5
2D9
100
AcDbEntity
  8
0
100
AcDbLine
 62
7
  6
CONTINUOUS
 10
16.8049251063
 20
-26.6998117093
 11
16.9109911235
 21
-26.5160999788
  0
LINE
  5
2DA
100
AcDbEntity
  8
ASSI
100
AcDbLine
 62
7
  6
CONTINUOUS
 10
16.8049251063
 20
-26.6998117093
 11
16.9109911235
 21
-26.5160999788
  0
LINE
  5
2DB
100
AcDbEntity
  8
0
100
AcDbLine
 62
7
  6
CONTINUOUS
 10
17.1584784969
 20
-26.4956744127
 11
17.2645445141
 21
-26.3119626822
  0
LINE
  5
2DC
100
AcDbEntity
  8
ASSI
100
AcDbLine
 62
7
  6
CONTINUOUS
 10
17.1584784969
 20
-26.4956744127
 11
17.2645445141
 21
-26.3119626822
  0
LINE
  5
2DD
100
AcDbEntity
  8
0
100
AcDbLine
 62
7
  6
CONTINUOUS
 10
17.5120318875
 20
-26.291537116
 11
17.6180979047
 21
-26.1078253855
  0
LINE
  5
2DE
100
AcDbEntity
  8
ASSI
100
AcDbLine
 62
7
  6
CONTINUOUS
 10
17.5120318875
 20
-26.291537116
 11
17.6180979047
 21
-26.1078253855
  0
LINE
  5
2DF
100
AcDbEntity
  8
0
100
AcDbLine
 62
7
  6
CONTINUOUS
 10
17.8671614165
 20
-25.8885282283
 11
19.1775156722
 21
-25.3510659016
  0
LINE
  5
2E0
100
AcDbEntity
  8
ASSI
100
AcDbLine
 62
7
  6
CONTINUOUS
 10
17.8671614165
 20
-25.8885282283
 11
19.1775156722
 21
-25.3510659016
  0
LINE
  5
2E1
100
AcDbEntity
  8
0
100
AcDbLine
 62
250
  6
CONTINUOUS
 10
-27.0003399882
 20
30.2304031306
 11
-26.293233207
 21
30.2304031306
  0
LINE
  5
2E2
100
AcDbEntity
  8
0
100
AcDbLine
 62
250
  6
CONTINUOUS
 10
32.9209142033
 20
20.086633558
 11
33.7672220085
 21
19.8428749824
  0
LINE
  5
2E3
100
AcDbEntity
  8
ASSI
100
AcDbLine
 62
250
  6
CONTINUOUS
 10
32.9209142033
 20
20.086633558
 11
33.7672220085
 21
19.8428749824
  0
LINE
  5
2E4
100
AcDbEntity
  8
SMUSSO
100
AcDbLine
 62
7
  6
CONTINUOUS
 10
28.4014763178
 20
16.6943169989
 11
-33.8239204267
 21
52.6224812117
  0
LINE
  5
2E5
100
AcDbEntity
  8
SMUSSO
100
AcDbLine
 62
7
  6
CONTINUOUS
 10
29.108583099
 20
17.1025521373
 11
29.8156898801
 21
16.6943169989
  0
LINE
  5
2E6
100
AcDbEntity
  8
SMUSSO
100
AcDbLine
 62
7
  6
CONTINUOUS
 10
29.108583099
 20
17.919061869
 11
-33.1168136455
 21
53.8472260819
  0
LINE
  5
2E7
100
AcDbEntity
  8
SMUSSO
100
AcDbLine
 62
7
  6
CONTINUOUS
 10
31.5834568331
 20
-54.1343808755
 11
31.5834568331
 21
18.5315132139
  0
LINE
  5
2E8
100
AcDbEntity
  8
0
100
AcDbLine
 62
250
  6
CONTINUOUS
 10
31.9441538715
 20
-46.9882819602
 11
31.9441538715
 21
-46.6644927096
  0
LINE
  5
2E9
100
AcDbEntity
  8
0
100
AcDbLine
 62
250
  6
CONTINUOUS
 10
31.9442330746
 20
-44.066370799
 11
31.9442330746
 21
-44.3795981901
  0
LINE
  5
2EA
100
AcDbEntity
  8
0
100
AcDbLine
 62
250
  6
CONTINUOUS
 10
31.9442330746
 20
-45.0620383392
 11
31.9442330746
 21
-45.3823967817
  0
LINE
  5
2EB
100
AcDbEntity
  8
0
100
AcDbLine
 62
250
  6
CONTINUOUS
 10
31.9442330746
 20
-46.0265559054
 11
31.9442330746
 21
-46.3500773538
  0
LINE
  5
2EC
100
AcDbEntity
  8
0
100
AcDbLine
 62
250
  6
CONTINUOUS
 10
31.9442330746
 20
-47.1083937186
 11
31.9442330746
 21
-47.4319617058
  0
LINE
  5
2ED
100
AcDbEntity
  8
0
100
AcDbLine
 62
250
  6
CONTINUOUS
 10
31.9442330746
 20
-48.0323555732
 11
31.9442330746
 21
-48.3840909685
  0
LINE
  5
2EE
100
AcDbEntity
  8
0
100
AcDbLine
 62
250
  6
CONTINUOUS
 10
32.5314493381
 20
-42.832505631
 11
32.5314493381
 21
-42.6474631321
  0
LINE
  5
2EF
100
AcDbEntity
  8
0
100
AcDbLine
 62
250
  6
CONTINUOUS
 10
32.7476243944
 20
-42.5189095074
 11
32.7476243944
 21
-42.6925177106
  0
LINE
  5
2F0
100
AcDbEntity
  8
0
100
AcDbLine
 62
250
  6
CONTINUOUS
 10
32.7967684811
 20
-43.5705498197
 11
32.7967684811
 21
-43.8805554191
  0
LINE
  5
2F1
100
AcDbEntity
  8
0
100
AcDbLine
 62
250
  6
CONTINUOUS
 10
33.0006699588
 20
-43.8248751572
 11
33.0006699588
 21
-43.3839273207
  0
LINE
  5
2F2
100
AcDbEntity
  8
0
100
AcDbLine
 62
250
  6
CONTINUOUS
 10
33.2641778587
 20
-41.5763823764
 11
33.2641778587
 21
-41.8878302584
  0
LINE
  5
2F3
100
AcDbEntity
  8
0
100
AcDbLine
 62
250
  6
CONTINUOUS
 10
33.2641778587
 20
-42.383669245
 11
33.2641778587
 21
-42.7061559333
  0
LINE
  5
2F4
100
AcDbEntity
  8
0
100
AcDbLine
 62
250
  6
CONTINUOUS
 10
33.2641780351
 20
-47.1031426897
 11
33.2641780351
 21
-46.8178026574
  0
LINE
  5
2F5
100
AcDbEntity
  8
0
100
AcDbLine
 62
250
  6
CONTINUOUS
 10
33.2641780351
 20
-45.7009407187
 11
33.2641780351
 21
-45.3911800604
  0
LINE
  5
2F6
100
AcDbEntity
  8
0
100
AcDbLine
 62
250
  6
CONTINUOUS
 10
33.2641780351
 20
-44.9414617002
 11
33.2641780351
 21
-44.8960504399
  0
LINE
  5
2F7
100
AcDbEntity
  8
0
100
AcDbLine
 62
250
  6
CONTINUOUS
 10
33.2641780351
 20
-44.4445407439
 11
33.2641780351
 21
-44.1277886506
  0
LINE
  5
2F8
100
AcDbEntity
  8
0
100
AcDbLine
 62
250
  6
CONTINUOUS
 10
33.2641780351
 20
-44.0769454135
 11
33.2641780351
 21
-43.756668618
  0
LINE
  5
2F9
100
AcDbEntity
  8
0
100
AcDbLine
 62
250
  6
CONTINUOUS
 10
33.2641780351
 20
-43.1424968147
 11
33.2641780351
 21
-42.8012359166
  0
LINE
  5
2FA
100
AcDbEntity
  8
0
100
AcDbLine
 62
250
  6
CONTINUOUS
 10
33.2641780351
 20
-45.8752473252
 11
33.2641780351
 21
-46.1990365758
  0
LINE
  5
2FB
100
AcDbEntity
  8
0
100
AcDbLine
 62
7
  6
CONTINUOUS
 10
33.5987111595
 20
18.8786413101
 11
33.5987111595
 21
-51.8276846601
  0
LINE
  5
2FC
100
AcDbEntity
  8
ASSI
100
AcDbLine
 62
7
  6
CONTINUOUS
 10
33.5987111595
 20
18.8786413101
 11
33.5987111595
 21
-51.8276846601
  0
LINE
  5
2FD
100
AcDbEntity
  8
0
100
AcDbLine
 62
7
  6
CONTINUOUS
 10
33.8108431938
 20
19.7673208733
 11
33.8108431938
 21
-50.5116814194
  0
LINE
  5
2FE
100
AcDbEntity
  8
ASSI
100
AcDbLine
 62
7
  6
CONTINUOUS
 10
33.8108431938
 20
19.7673208733
 11
33.8108431938
 21
-50.5116814194
  0
LINE
  5
2FF
100
AcDbEntity
  8
0
100
AcDbLine
 62
7
  6
CONTINUOUS
 10
19.7216560119
 20
-29.4047872279
 11
19.7394182482
 21
-29.3740221321
  0
LINE
  5
300
100
AcDbEntity
  8
ASSI
100
AcDbLine
 62
7
  6
CONTINUOUS
 10
19.7216560119
 20
-29.4047872279
 11
19.7394182482
 21
-29.3740221321
  0
LINE
  5
301
100
AcDbEntity
  8
0
100
AcDbLine
 62
7
  6
CONTINUOUS
 10
19.9869056216
 20
-29.353596566
 11
20.0929716388
 21
-29.1698848355
  0
LINE
  5
302
100
AcDbEntity
  8
ASSI
100
AcDbLine
 62
7
  6
CONTINUOUS
 10
19.9869056216
 20
-29.353596566
 11
20.0929716388
 21
-29.1698848355
  0
LINE
  5
303
100
AcDbEntity
  8
0
100
AcDbLine
 62
7
  6
CONTINUOUS
 10
20.3404590122
 20
-29.1494592693
 11
20.4465250294
 21
-28.9657475388
  0
LINE
  5
304
100
AcDbEntity
  8
ASSI
100
AcDbLine
 62
7
  6
CONTINUOUS
 10
20.3404590122
 20
-29.1494592693
 11
20.4465250294
 21
-28.9657475388
  0
LINE
  5
305
100
AcDbEntity
  8
0
100
AcDbLine
 62
7
  6
CONTINUOUS
 10
20.6940124028
 20
-28.9453219726
 11
20.80007842
 21
-28.7616102421
  0
LINE
  5
306
100
AcDbEntity
  8
ASSI
100
AcDbLine
 62
7
  6
CONTINUOUS
 10
20.6940124028
 20
-28.9453219726
 11
20.80007842
 21
-28.7616102421
  0
LINE
  5
307
100
AcDbEntity
  8
0
100
AcDbLine
 62
7
  6
CONTINUOUS
 10
21.0475657934
 20
-28.741184676
 11
21.1536318106
 21
-28.5574729455
  0
LINE
  5
308
100
AcDbEntity
  8
ASSI
100
AcDbLine
 62
7
  6
CONTINUOUS
 10
21.0475657934
 20
-28.741184676
 11
21.1536318106
 21
-28.5574729455
  0
LINE
  5
309
100
AcDbEntity
  8
0
100
AcDbLine
 62
7
  6
CONTINUOUS
 10
21.401119184
 20
-28.5370473793
 11
21.5071852012
 21
-28.3533356488
  0
LINE
  5
30A
100
AcDbEntity
  8
ASSI
100
AcDbLine
 62
7
  6
CONTINUOUS
 10
21.401119184
 20
-28.5370473793
 11
21.5071852012
 21
-28.3533356488
  0
LINE
  5
30B
100
AcDbEntity
  8
0
100
AcDbLine
 62
250
  6
CONTINUOUS
 10
20.3758143513
 20
-33.4569219396
 11
20.7293677419
 21
-32.8445495046
  0
LINE
  5
30C
100
AcDbEntity
  8
0
100
AcDbLine
 62
7
  6
CONTINUOUS
 10
15.8503309517
 20
-27.1285118688
 11
15.9917523079
 21
-27.0468569501
  0
LINE
  5
30D
100
AcDbEntity
  8
ASSI
100
AcDbLine
 62
7
  6
CONTINUOUS
 10
15.8503309517
 20
-27.1285118688
 11
15.9917523079
 21
-27.0468569501
  0
LINE
  5
30E
100
AcDbEntity
  8
0
100
AcDbLine
 62
7
  6
CONTINUOUS
 10
16.2038843423
 20
-26.9243745721
 11
16.3453056985
 21
-26.8427196535
  0
LINE
  5
30F
100
AcDbEntity
  8
ASSI
100
AcDbLine
 62
7
  6
CONTINUOUS
 10
16.2038843423
 20
-26.9243745721
 11
16.3453056985
 21
-26.8427196535
  0
LINE
  5
310
100
AcDbEntity
  8
0
100
AcDbLine
 62
7
  6
CONTINUOUS
 10
16.5574377329
 20
-26.7202372755
 11
16.6988590891
 21
-26.6385823568
  0
LINE
  5
311
100
AcDbEntity
  8
ASSI
100
AcDbLine
 62
7
  6
CONTINUOUS
 10
16.5574377329
 20
-26.7202372755
 11
16.6988590891
 21
-26.6385823568
  0
LINE
  5
312
100
AcDbEntity
  8
0
100
AcDbLine
 62
7
  6
CONTINUOUS
 10
16.9109911235
 20
-26.5160999788
 11
17.0524124797
 21
-26.4344450602
  0
LINE
  5
313
100
AcDbEntity
  8
ASSI
100
AcDbLine
 62
7
  6
CONTINUOUS
 10
16.9109911235
 20
-26.5160999788
 11
17.0524124797
 21
-26.4344450602
  0
LINE
  5
314
100
AcDbEntity
  8
0
100
AcDbLine
 62
7
  6
CONTINUOUS
 10
17.2645445141
 20
-26.3119626822
 11
17.4059658703
 21
-26.2303077635
  0
LINE
  5
315
100
AcDbEntity
  8
ASSI
100
AcDbLine
 62
7
  6
CONTINUOUS
 10
17.2645445141
 20
-26.3119626822
 11
17.4059658703
 21
-26.2303077635
  0
LINE
  5
316
100
AcDbEntity
  8
0
100
AcDbLine
 62
7
  6
CONTINUOUS
 10
17.6180979047
 20
-26.1078253855
 11
17.7595192609
 21
-26.0261704668
  0
LINE
  5
317
100
AcDbEntity
  8
ASSI
100
AcDbLine
 62
7
  6
CONTINUOUS
 10
17.6180979047
 20
-26.1078253855
 11
17.7595192609
 21
-26.0261704668
  0
LINE
  5
318
100
AcDbEntity
  8
0
100
AcDbLine
 62
7
  6
CONTINUOUS
 10
15.6347571626
 20
-27.0450630533
 11
17.7931142635
 21
-25.9229720243
  0
LINE
  5
319
100
AcDbEntity
  8
ASSI
100
AcDbLine
 62
7
  6
CONTINUOUS
 10
15.6347571626
 20
-27.0450630533
 11
17.7931142635
 21
-25.9229720243
  0
LINE
  5
31A
100
AcDbEntity
  8
SMUSSO
100
AcDbLine
 62
7
  6
CONTINUOUS
 10
-31.3490466925
 20
54.8679125652
 11
31.5834568331
 21
18.5315132139
  0
LINE
  5
31B
100
AcDbEntity
  8
0
100
AcDbLine
 62
7
  6
CONTINUOUS
 10
-28.3438428725
 20
55.4599659624
 11
32.8916043783
 21
20.1033861802
  0
LINE
  5
31C
100
AcDbEntity
  8
ASSI
100
AcDbLine
 62
7
  6
CONTINUOUS
 10
-28.3438428725
 20
55.4599659624
 11
32.8916043783
 21
20.1033861802
  0
LINE
  5
31D
100
AcDbEntity
  8
0
100
AcDbLine
 62
7
  6
CONTINUOUS
 10
-27.0981401591
 20
54.9857722759
 11
33.7672220085
 21
19.8428749824
  0
LINE
  5
31E
100
AcDbEntity
  8
ASSI
100
AcDbLine
 62
7
  6
CONTINUOUS
 10
-27.0981401591
 20
54.9857722759
 11
33.7672220085
 21
19.8428749824
  0
LINE
  5
31F
100
AcDbEntity
  8
0
100
AcDbLine
 62
250
  6
CONTINUOUS
 10
21.3414927361
 20
-29.4022444718
 11
21.5778958793
 21
-29.1723092629
  0
LINE
  5
320
100
AcDbEntity
  8
ASSI
100
AcDbLine
 62
250
  6
CONTINUOUS
 10
21.3414927361
 20
-29.4022444718
 11
21.5778958793
 21
-29.1723092629
  0
LINE
  5
321
100
AcDbEntity
  8
0
100
AcDbLine
 62
7
  6
CONTINUOUS
 10
21.345417601
 20
-29.4357796652
 11
21.5778958793
 21
-29.209661938
  0
LINE
  5
322
100
AcDbEntity
  8
ASSI
100
AcDbLine
 62
7
  6
CONTINUOUS
 10
21.345417601
 20
-29.4357796652
 11
21.5778958793
 21
-29.209661938
  0
LINE
  5
323
100
AcDbEntity
  8
0
100
AcDbLine
 62
7
  6
CONTINUOUS
 10
21.5778958793
 20
-28.6707282233
 11
20.0960580591
 21
-29.6209622777
  0
LINE
  5
324
100
AcDbEntity
  8
ASSI
100
AcDbLine
 62
7
  6
CONTINUOUS
 10
21.5778958793
 20
-28.6707282233
 11
20.0960580591
 21
-29.6209622777
  0
LINE
  5
325
100
AcDbEntity
  8
0
100
AcDbLine
 62
7
  6
CONTINUOUS
 10
20.4252641106
 20
-29.8110417259
 11
21.5778958793
 21
-29.1339636621
  0
LINE
  5
326
100
AcDbEntity
  8
ASSI
100
AcDbLine
 62
7
  6
CONTINUOUS
 10
20.4252641106
 20
-29.8110417259
 11
21.5778958793
 21
-29.1339636621
  0
LINE
  5
327
100
AcDbEntity
  8
0
100
AcDbLine
 62
7
  6
CONTINUOUS
 10
21.2868032545
 20
-29.4802436768
 11
20.5713406784
 21
-29.8953845053
  0
LINE
  5
328
100
AcDbEntity
  8
ASSI
100
AcDbLine
 62
7
  6
CONTINUOUS
 10
21.2868032545
 20
-29.4802436768
 11
20.5713406784
 21
-29.8953845053
  0
LINE
  5
329
100
AcDbEntity
  8
0
100
AcDbLine
 62
250
  6
CONTINUOUS
 10
21.3414927361
 20
-29.4022444718
 11
20.5311075816
 21
-29.8721544195
  0
LINE
  5
32A
100
AcDbEntity
  8
ASSI
100
AcDbLine
 62
250
  6
CONTINUOUS
 10
21.3414927361
 20
-29.4022444718
 11
20.5311075816
 21
-29.8721544195
  0
LINE
  5
32B
100
AcDbEntity
  8
0
100
AcDbLine
 62
7
  6
CONTINUOUS
 10
19.7394182482
 20
-29.3740221321
 11
19.8808396045
 21
-29.2923672135
  0
LINE
  5
32C
100
AcDbEntity
  8
ASSI
100
AcDbLine
 62
7
  6
CONTINUOUS
 10
19.7394182482
 20
-29.3740221321
 11
19.8808396045
 21
-29.2923672135
  0
LINE
  5
32D
100
AcDbEntity
  8
0
100
AcDbLine
 62
7
  6
CONTINUOUS
 10
20.0929716388
 20
-29.1698848355
 11
20.2343929951
 21
-29.0882299168
  0
LINE
  5
32E
100
AcDbEntity
  8
ASSI
100
AcDbLine
 62
7
  6
CONTINUOUS
 10
20.0929716388
 20
-29.1698848355
 11
20.2343929951
 21
-29.0882299168
  0
LINE
  5
32F
100
AcDbEntity
  8
0
100
AcDbLine
 62
7
  6
CONTINUOUS
 10
20.4465250294
 20
-28.9657475388
 11
20.5879463857
 21
-28.8840926201
  0
LINE
  5
330
100
AcDbEntity
  8
ASSI
100
AcDbLine
 62
7
  6
CONTINUOUS
 10
20.4465250294
 20
-28.9657475388
 11
20.5879463857
 21
-28.8840926201
  0
LINE
  5
331
100
AcDbEntity
  8
0
100
AcDbLine
 62
7
  6
CONTINUOUS
 10
20.80007842
 20
-28.7616102421
 11
20.9414997762
 21
-28.6799553235
  0
LINE
  5
332
100
AcDbEntity
  8
ASSI
100
AcDbLine
 62
7
  6
CONTINUOUS
 10
20.80007842
 20
-28.7616102421
 11
20.9414997762
 21
-28.6799553235
  0
LINE
  5
333
100
AcDbEntity
  8
0
100
AcDbLine
 62
7
  6
CONTINUOUS
 10
21.1536318106
 20
-28.5574729455
 11
21.2950531668
 21
-28.4758180268
  0
LINE
  5
334
100
AcDbEntity
  8
ASSI
100
AcDbLine
 62
7
  6
CONTINUOUS
 10
21.1536318106
 20
-28.5574729455
 11
21.2950531668
 21
-28.4758180268
  0
LINE
  5
335
100
AcDbEntity
  8
0
100
AcDbLine
 62
7
  6
CONTINUOUS
 10
21.5071852012
 20
-28.3533356488
 11
21.5778958793
 21
-28.3125081895
  0
LINE
  5
336
100
AcDbEntity
  8
ASSI
100
AcDbLine
 62
7
  6
CONTINUOUS
 10
21.5071852012
 20
-28.3533356488
 11
21.5778958793
 21
-28.3125081895
  0
LINE
  5
337
100
AcDbEntity
  8
0
100
AcDbLine
 62
7
  6
CONTINUOUS
 10
21.5778958793
 20
-28.434978731
 11
19.8099512591
 21
-29.4557677971
  0
LINE
  5
338
100
AcDbEntity
  8
ASSI
100
AcDbLine
 62
7
  6
CONTINUOUS
 10
21.5778958793
 20
-28.434978731
 11
19.8099512591
 21
-29.4557677971
  0
LINE
  5
339
100
AcDbEntity
  8
0
100
AcDbLine
 62
250
  6
CONTINUOUS
 10
20.7293677419
 20
-32.8445495046
 11
21.5778958793
 21
-32.3546199926
  0
LINE
  5
33A
100
AcDbEntity
  8
0
100
AcDbLine
 62
7
  6
CONTINUOUS
 10
33.8102862708
 20
-50.5194661225
 11
33.5912748468
 21
-51.9737798514
  0
LINE
  5
33B
100
AcDbEntity
  8
ASSI
100
AcDbLine
 62
7
  6
CONTINUOUS
 10
33.8102862708
 20
-50.5194661225
 11
33.5912748468
 21
-51.9737798514
  0
LINE
  5
33C
100
AcDbEntity
  8
0
100
AcDbLine
 62
250
  6
CONTINUOUS
 10
33.5988587532
 20
-51.8599085662
 11
33.8108431938
 21
-50.5116814194
  0
LINE
  5
33D
100
AcDbEntity
  8
ASSI
100
AcDbLine
 62
250
  6
CONTINUOUS
 10
33.5988587532
 20
-51.8599085662
 11
33.8108431938
 21
-50.5116814194
  0
LINE
  5
33E
100
AcDbEntity
  8
0
100
AcDbLine
 62
250
  6
CONTINUOUS
 10
-28.3716767601
 20
55.4762074037
 11
-27.0981401591
 21
54.9857722759
  0
LINE
  5
33F
100
AcDbEntity
  8
ASSI
100
AcDbLine
 62
250
  6
CONTINUOUS
 10
-28.3716767601
 20
55.4762074037
 11
-27.0981401591
 21
54.9857722759
  0
LINE
  5
340
100
AcDbEntity
  8
0
100
AcDbLine
 62
7
  6
CONTINUOUS
 10
-27.1051642904
 20
54.9891841836
 11
-28.4741418227
 21
55.5266032529
  0
LINE
  5
341
100
AcDbEntity
  8
ASSI
100
AcDbLine
 62
7
  6
CONTINUOUS
 10
-27.1051642904
 20
54.9891841836
 11
-28.4741418227
 21
55.5266032529
  0
LINE
  5
342
100
AcDbEntity
  8
0
100
AcDbLine
 62
250
  6
CONTINUOUS
 10
32.402278597
 20
-45.8366373094
 11
33.2641780351
 21
-44.9414617002
  0
LINE
  5
343
100
AcDbEntity
  8
0
100
AcDbLine
 62
250
  6
CONTINUOUS
 10
32.6770703385
 20
-45.2680210018
 11
31.9442330746
 21
-46.0265559054
  0
LINE
  5
344
100
AcDbEntity
  8
0
100
AcDbLine
 62
250
  6
CONTINUOUS
 10
33.2641780351
 20
-42.8012359166
 11
31.9442330746
 21
-44.066370799
  0
LINE
  5
345
100
AcDbEntity
  8
0
100
AcDbLine
 62
250
  6
CONTINUOUS
 10
33.0006699588
 20
-43.3839273207
 11
33.2641780351
 21
-43.1424968147
  0
LINE
  5
346
100
AcDbEntity
  8
0
100
AcDbLine
 62
250
  6
CONTINUOUS
 10
32.3069201281
 20
-44.0122166184
 11
32.7967684811
 21
-43.5705498197
  0
LINE
  5
347
100
AcDbEntity
  8
0
100
AcDbLine
 62
250
  6
CONTINUOUS
 10
33.2641780351
 20
-44.1277886506
 11
31.9442330746
 21
-45.0620383392
  0
LINE
  5
348
100
AcDbEntity
  8
0
100
AcDbLine
 62
250
  6
CONTINUOUS
 10
32.4058719174
 20
-45.0242474301
 11
33.2641780351
 21
-44.4445407439
  0
LINE
  5
349
100
AcDbEntity
  8
0
100
AcDbLine
 62
250
  6
CONTINUOUS
 10
32.6402396331
 20
-42.2467630146
 11
32.6480393559
 21
-42.242099543
  0
LINE
  5
34A
100
AcDbEntity
  8
0
100
AcDbLine
 62
250
  6
CONTINUOUS
 10
32.7476243944
 20
-42.6925177106
 11
33.2641778587
 21
-42.383669245
  0
LINE
  5
34B
100
AcDbEntity
  8
0
100
AcDbLine
 62
250
  6
CONTINUOUS
 10
32.1690987676
 20
-43.0491558433
 11
32.5314493381
 21
-42.832505631
  0
LINE
  5
34C
100
AcDbEntity
  8
0
100
AcDbLine
 62
250
  6
CONTINUOUS
 10
33.2641778587
 20
-42.7061559333
 11
31.9596544366
 21
-43.4861333899
  0
LINE
  5
34D
100
AcDbEntity
  8
0
100
AcDbLine
 62
250
  6
CONTINUOUS
 10
31.9441538715
 20
-46.6644927096
 11
33.2641780351
 21
-45.8752473252
  0
LINE
  5
34E
100
AcDbEntity
  8
0
100
AcDbLine
 62
250
  6
CONTINUOUS
 10
33.2641780351
 20
-46.1990365758
 11
31.9441538715
 21
-46.9882819602
  0
LINE
  5
34F
100
AcDbEntity
  8
0
100
AcDbLine
 62
250
  6
CONTINUOUS
 10
33.2641780351
 20
-45.3911800604
 11
32.402278597
 21
-45.8366373094
  0
LINE
  5
350
100
AcDbEntity
  8
0
100
AcDbLine
 62
250
  6
CONTINUOUS
 10
31.9442330746
 20
-46.3500773538
 11
33.2641780351
 21
-45.7009407187
  0
LINE
  5
351
100
AcDbEntity
  8
0
100
AcDbLine
 62
250
  6
CONTINUOUS
 10
31.9442330746
 20
-48.3840909685
 11
33.2641780351
 21
-47.1031426897
  0
LINE
  5
352
100
AcDbEntity
  8
0
100
AcDbLine
 62
250
  6
CONTINUOUS
 10
32.8527921808
 20
-47.1934454338
 11
31.9442330746
 21
-48.0323555732
  0
LINE
  5
353
100
AcDbEntity
  8
0
100
AcDbLine
 62
7
  6
CONTINUOUS
 10
31.5834568331
 20
-53.3817153726
 11
33.4129252536
 21
-52.2725994351
  0
LINE
  5
354
100
AcDbEntity
  8
ASSI
100
AcDbLine
 62
7
  6
CONTINUOUS
 10
31.5834568331
 20
-53.3817153726
 11
33.4129252536
 21
-52.2725994351
  0
LINE
  5
355
100
AcDbEntity
  8
0
100
AcDbLine
 62
250
  6
CONTINUOUS
 10
31.5838950189
 20
-53.0323477135
 11
33.5987111595
 21
-51.8276846601
  0
LINE
  5
356
100
AcDbEntity
  8
ASSI
100
AcDbLine
 62
250
  6
CONTINUOUS
 10
31.5838950189
 20
-53.0323477135
 11
33.5987111595
 21
-51.8276846601
  0
LINE
  5
357
100
AcDbEntity
  8
SMUSSO
100
AcDbLine
 62
7
  6
CONTINUOUS
 10
31.5834568331
 20
-54.1343808755
 11
29.108583099
 21
-55.5633024973
  0
ARC
  5
358
100
AcDbEntity
  8
0
100
AcDbCircle
 62
7
  6
CONTINUOUS
 10
-10.6837213012
 20
-10.8482390473
 40
0.3
100
AcDbArc
 50
300.1089870924
 51
314.200140513
  0
ARC
  5
359
100
AcDbEntity
  8
ASSI
100
AcDbCircle
 62
7
  6
CONTINUOUS
 10
-10.6837213012
 20
-10.8482390473
 40
0.3
100
AcDbArc
 50
300.1089871957
 51
314.2001405179
  0
ARC
  5
35A
100
AcDbEntity
  8
0
100
AcDbCircle
 62
250
  6
CONTINUOUS
 10
-10.5833859764
 20
-11.0210799417
 40
0.1003696755
100
AcDbArc
 50
300.1329138855
 51
304.4945384273
  0
ARC
  5
35B
100
AcDbEntity
  8
ASSI
100
AcDbCircle
 62
250
  6
CONTINUOUS
 10
-10.5833859764
 20
-11.0210799417
 40
0.1003696755
100
AcDbArc
 50
300.1329138855
 51
304.4945384273
  0
ARC
  5
35C
100
AcDbEntity
  8
0
100
AcDbCircle
 62
7
  6
CONTINUOUS
 10
21.1360838522
 20
-29.2205957471
 40
0.3
100
AcDbArc
 50
300.1089870924
 51
314.200140513
  0
ARC
  5
35D
100
AcDbEntity
  8
ASSI
100
AcDbCircle
 62
7
  6
CONTINUOUS
 10
21.1360838522
 20
-29.2205957471
 40
0.3
100
AcDbArc
 50
300.1089871957
 51
314.2001405179
  0
ARC
  5
35E
100
AcDbEntity
  8
0
100
AcDbCircle
 62
250
  6
CONTINUOUS
 10
21.236419177
 20
-29.3934366414
 40
0.1003696755
100
AcDbArc
 50
300.1329138855
 51
304.4945384273
  0
ARC
  5
35F
100
AcDbEntity
  8
ASSI
100
AcDbCircle
 62
250
  6
CONTINUOUS
 10
21.236419177
 20
-29.3934366414
 40
0.1003696755
100
AcDbArc
 50
300.1329138855
 51
304.4945384273
  0
SPLINE
  5
360
100
AcDbEntity
  8
0
100
AcDbSpline
 62
7
  6
CONTINUOUS
 70
0
 71
3
 72
10
 73
6
 74
0
 42
0.0000001
 43
0.0000001
 44
0.0000000001
 40
0.0
 40
0.0
 40
0.0
 40
0.0
 40
0.5278685352
 40
0.7673006673
 40
1.0
 40
1.0
 40
1.0
 40
1.0
 10
-28.4741410642
 20
55.5265950086
 30
0.0
 10
-28.5327935446
 20
55.549630722
 30
0.0
 10
-28.6252175234
 20
55.5707738926
 30
0.0
 10
-28.7446445109
 20
55.5558256381
 30
0.0
 10
-28.7977660231
 20
55.534910188
 30
0.0
 10
-28.8221132632
 20
55.521536811
 30
0.0
  0
SPLINE
  5
361
100
AcDbEntity
  8
0
100
AcDbSpline
 62
7
  6
CONTINUOUS
 70
0
 71
3
 72
10
 73
6
 74
0
 42
0.0000001
 43
0.0000001
 44
0.0000000001
 40
0.0
 40
0.0
 40
0.0
 40
0.0
 40
0.2326995781
 40
0.4721317903
 40
1.0
 40
1.0
 40
1.0
 40
1.0
 10
33.4129226429
 20
-52.2725958937
 30
0.0
 10
33.4366762452
 20
-52.2581964823
 30
0.0
 10
33.4813466487
 20
-52.2226485806
 30
0.0
 10
33.5539981397
 20
-52.1266961092
 30
0.0
 10
33.5818943913
 20
-52.0360853912
 30
0.0
 10
33.5912680779
 20
-51.973775067
 30
0.0
  0
SPLINE
  5
362
100
AcDbEntity
  8
0
100
AcDbSpline
 62
7
  6
CONTINUOUS
 70
0
 71
3
 72
9
 73
5
 74
0
 42
0.0000001
 43
0.0000001
 44
0.0000000001
 40
0.0
 40
0.0
 40
0.0
 40
0.0
 40
0.2421136351
 40
1.0
 40
1.0
 40
1.0
 40
1.0
 10
33.5912680779
 20
-51.973775067
 30
0.0
 10
33.5926389873
 20
-51.9646621305
 30
0.0
 10
33.5974760049
 20
-51.9269007554
 30
0.0
 10
33.5991295599
 20
-51.8887544265
 30
0.0
 10
33.5988587532
 20
-51.8599085662
 30
0.0
  0
SPLINE
  5
363
100
AcDbEntity
  8
0
100
AcDbSpline
 62
250
  6
CONTINUOUS
 70
0
 71
3
 72
9
 73
5
 74
0
 42
0.0000001
 43
0.0000001
 44
0.0000000001
 40
0.0
 40
0.0
 40
0.0
 40
0.0
 40
0.4808334352
 40
1.0
 40
1.0
 40
1.0
 40
1.0
 10
-10.5265438513
 20
-11.1038026385
 30
0.0
 10
-10.5173103772
 20
-11.0974584463
 30
0.0
 10
-10.500274014
 20
-11.0808938405
 30
0.0
 10
-10.4890738503
 20
-11.0600995109
 30
0.0
 10
-10.4845860474
 20
-11.0488667762
 30
0.0
  0
SPLINE
  5
364
100
AcDbEntity
  8
0
100
AcDbSpline
 62
250
  6
CONTINUOUS
 70
0
 71
3
 72
8
 73
4
 74
0
 42
0.0000001
 43
0.0000001
 44
0.0000000001
 40
0.0
 40
0.0
 40
0.0
 40
0.0
 40
1.0
 40
1.0
 40
1.0
 40
1.0
 10
-10.4845860474
 20
-11.0488667762
 30
0.0
 10
-10.4821139811
 20
-11.0426793245
 30
0.0
 10
-10.480034484
 20
-11.0363243982
 30
0.0
 10
-10.4783124173
 20
-11.029887772
 30
0.0
  0
SPLINE
  5
365
100
AcDbEntity
  8
0
100
AcDbSpline
 62
250
  6
CONTINUOUS
 70
0
 71
3
 72
9
 73
5
 74
0
 42
0.0000001
 43
0.0000001
 44
0.0000000001
 40
0.0
 40
0.0
 40
0.0
 40
0.0
 40
0.4808334352
 40
1.0
 40
1.0
 40
1.0
 40
1.0
 10
21.2932613021
 20
-29.4761593383
 30
0.0
 10
21.3024947762
 20
-29.4698151461
 30
0.0
 10
21.3195311394
 20
-29.4532505403
 30
0.0
 10
21.3307313031
 20
-29.4324562107
 30
0.0
 10
21.335219106
 20
-29.4212234759
 30
0.0
  0
SPLINE
  5
366
100
AcDbEntity
  8
0
100
AcDbSpline
 62
250
  6
CONTINUOUS
 70
0
 71
3
 72
8
 73
4
 74
0
 42
0.0000001
 43
0.0000001
 44
0.0000000001
 40
0.0
 40
0.0
 40
0.0
 40
0.0
 40
1.0
 40
1.0
 40
1.0
 40
1.0
 10
21.335219106
 20
-29.4212234759
 30
0.0
 10
21.3376911723
 20
-29.4150360242
 30
0.0
 10
21.3397706693
 20
-29.4086810979
 30
0.0
 10
21.3414927361
 20
-29.4022444718
 30
0.0
  0
SPLINE
  5
367
100
AcDbEntity
  8
0
100
AcDbSpline
 62
7
  6
CONTINUOUS
 70
0
 71
3
 72
11
 73
7
 74
0
 42
0.0000001
 43
0.0000001
 44
0.0000000001
 40
0.0
 40
0.0
 40
0.0
 40
0.0
 40
0.2398961039
 40
0.4999946021
 40
0.7600960345
 40
1.0
 40
1.0
 40
1.0
 40
1.0
 10
33.5988587532
 20
18.9123991541
 30
0.0
 10
33.5998228419
 20
19.0251119556
 30
0.0
 10
33.5621154326
 20
19.2608248993
 30
0.0
 10
33.419031305
 20
19.5913909868
 30
0.0
 10
33.2042921261
 20
19.8805911485
 30
0.0
 10
33.0190102494
 20
20.0311078563
 30
0.0
 10
32.9209142033
 20
20.086633558
 30
0.0
  0
SPLINE
  5
368
100
AcDbEntity
  8
0
100
AcDbSpline
 62
7
  6
CONTINUOUS
 70
0
 71
3
 72
9
 73
5
 74
0
 42
0.0000001
 43
0.0000001
 44
0.0000000001
 40
0.0
 40
0.0
 40
0.0
 40
0.0
 40
0.2580518931
 40
1.0
 40
1.0
 40
1.0
 40
1.0
 10
-28.3716767601
 20
55.4762074037
 30
0.0
 10
-28.380140882
 20
55.4812010521
 30
0.0
 10
-28.4132854549
 20
55.4999563801
 30
0.0
 10
-28.4478411082
 20
55.5162657226
 30
0.0
 10
-28.4741410642
 20
55.5265950086
 30
0.0
  0
SPLINE
  5
369
100
AcDbEntity
  8
0
100
AcDbSpline
 62
250
  6
CONTINUOUS
 70
0
 71
3
 72
10
 73
6
 74
0
 42
0.0000001
 43
0.0000001
 44
0.0000000001
 40
0.0
 40
0.0
 40
0.0
 40
0.0
 40
0.3606042124
 40
0.6415407785
 40
1.0
 40
1.0
 40
1.0
 40
1.0
 10
-10.4783124173
 20
-11.029887772
 30
0.0
 10
-10.4765974484
 20
-11.0337251582
 30
0.0
 10
-10.4738015624
 20
-11.0407713965
 30
0.0
 10
-10.4708502078
 20
-11.0517174903
 30
0.0
 10
-10.4713943559
 20
-11.0605095948
 30
0.0
 10
-10.4743886564
 20
-11.0634235727
 30
0.0
  0
SPLINE
  5
36A
100
AcDbEntity
  8
0
100
AcDbSpline
 62
250
  6
CONTINUOUS
 70
0
 71
3
 72
10
 73
6
 74
0
 42
0.0000001
 43
0.0000001
 44
0.0000000001
 40
0.0
 40
0.0
 40
0.0
 40
0.0
 40
0.3606042124
 40
0.6415407785
 40
1.0
 40
1.0
 40
1.0
 40
1.0
 10
21.3414927361
 20
-29.4022444718
 30
0.0
 10
21.343207705
 20
-29.406081858
 30
0.0
 10
21.346003591
 20
-29.4131280962
 30
0.0
 10
21.3489549456
 20
-29.42407419
 30
0.0
 10
21.3484107974
 20
-29.4328662946
 30
0.0
 10
21.345416497
 20
-29.4357802725
 30
0.0
  0
SPLINE
  5
36B
100
AcDbEntity
  8
ASSI
100
AcDbSpline
 62
7
  6
CONTINUOUS
 70
0
 71
3
 72
10
 73
6
 74
0
 42
0.0000001
 43
0.0000001
 44
0.0000000001
 40
0.0
 40
0.0
 40
0.0
 40
0.0
 40
0.5278685352
 40
0.7673006673
 40
1.0
 40
1.0
 40
1.0
 40
1.0
 10
-28.4741410642
 20
55.5265950086
 30
0.0
 10
-28.5327935446
 20
55.549630722
 30
0.0
 10
-28.6252175234
 20
55.5707738926
 30
0.0
 10
-28.7446445109
 20
55.5558256381
 30
0.0
 10
-28.7977660231
 20
55.534910188
 30
0.0
 10
-28.8221132632
 20
55.521536811
 30
0.0
  0
SPLINE
  5
36C
100
AcDbEntity
  8
ASSI
100
AcDbSpline
 62
7
  6
CONTINUOUS
 70
0
 71
3
 72
10
 73
6
 74
0
 42
0.0000001
 43
0.0000001
 44
0.0000000001
 40
0.0
 40
0.0
 40
0.0
 40
0.0
 40
0.2326995781
 40
0.4721317903
 40
1.0
 40
1.0
 40
1.0
 40
1.0
 10
33.4129226429
 20
-52.2725958937
 30
0.0
 10
33.4366762452
 20
-52.2581964823
 30
0.0
 10
33.4813466487
 20
-52.2226485806
 30
0.0
 10
33.5539981397
 20
-52.1266961092
 30
0.0
 10
33.5818943913
 20
-52.0360853912
 30
0.0
 10
33.5912680779
 20
-51.973775067
 30
0.0
  0
SPLINE
  5
36D
100
AcDbEntity
  8
ASSI
100
AcDbSpline
 62
7
  6
CONTINUOUS
 70
0
 71
3
 72
9
 73
5
 74
0
 42
0.0000001
 43
0.0000001
 44
0.0000000001
 40
0.0
 40
0.0
 40
0.0
 40
0.0
 40
0.2421136351
 40
1.0
 40
1.0
 40
1.0
 40
1.0
 10
33.5912680779
 20
-51.973775067
 30
0.0
 10
33.5926389873
 20
-51.9646621305
 30
0.0
 10
33.5974760049
 20
-51.9269007554
 30
0.0
 10
33.5991295599
 20
-51.8887544265
 30
0.0
 10
33.5988587532
 20
-51.8599085662
 30
0.0
  0
SPLINE
  5
36E
100
AcDbEntity
  8
ASSI
100
AcDbSpline
 62
250
  6
CONTINUOUS
 70
0
 71
3
 72
9
 73
5
 74
0
 42
0.0000001
 43
0.0000001
 44
0.0000000001
 40
0.0
 40
0.0
 40
0.0
 40
0.0
 40
0.4808334352
 40
1.0
 40
1.0
 40
1.0
 40
1.0
 10
-10.5265438513
 20
-11.1038026385
 30
0.0
 10
-10.5173103772
 20
-11.0974584463
 30
0.0
 10
-10.500274014
 20
-11.0808938405
 30
0.0
 10
-10.4890738503
 20
-11.0600995109
 30
0.0
 10
-10.4845860474
 20
-11.0488667762
 30
0.0
  0
SPLINE
  5
36F
100
AcDbEntity
  8
ASSI
100
AcDbSpline
 62
250
  6
CONTINUOUS
 70
0
 71
3
 72
8
 73
4
 74
0
 42
0.0000001
 43
0.0000001
 44
0.0000000001
 40
0.0
 40
0.0
 40
0.0
 40
0.0
 40
1.0
 40
1.0
 40
1.0
 40
1.0
 10
-10.4845860474
 20
-11.0488667762
 30
0.0
 10
-10.4821139811
 20
-11.0426793245
 30
0.0
 10
-10.480034484
 20
-11.0363243982
 30
0.0
 10
-10.4783124173
 20
-11.029887772
 30
0.0
  0
SPLINE
  5
370
100
AcDbEntity
  8
ASSI
100
AcDbSpline
 62
250
  6
CONTINUOUS
 70
0
 71
3
 72
9
 73
5
 74
0
 42
0.0000001
 43
0.0000001
 44
0.0000000001
 40
0.0
 40
0.0
 40
0.0
 40
0.0
 40
0.4808334352
 40
1.0
 40
1.0
 40
1.0
 40
1.0
 10
21.2932613021
 20
-29.4761593383
 30
0.0
 10
21.3024947762
 20
-29.4698151461
 30
0.0
 10
21.3195311394
 20
-29.4532505403
 30
0.0
 10
21.3307313031
 20
-29.4324562107
 30
0.0
 10
21.335219106
 20
-29.4212234759
 30
0.0
  0
SPLINE
  5
371
100
AcDbEntity
  8
ASSI
100
AcDbSpline
 62
250
  6
CONTINUOUS
 70
0
 71
3
 72
8
 73
4
 74
0
 42
0.0000001
 43
0.0000001
 44
0.0000000001
 40
0.0
 40
0.0
 40
0.0
 40
0.0
 40
1.0
 40
1.0
 40
1.0
 40
1.0
 10
21.335219106
 20
-29.4212234759
 30
0.0
 10
21.3376911723
 20
-29.4150360242
 30
0.0
 10
21.3397706693
 20
-29.4086810979
 30
0.0
 10
21.3414927361
 20
-29.4022444718
 30
0.0
  0
SPLINE
  5
372
100
AcDbEntity
  8
ASSI
100
AcDbSpline
 62
7
  6
CONTINUOUS
 70
0
 71
3
 72
11
 73
7
 74
0
 42
0.0000001
 43
0.0000001
 44
0.0000000001
 40
0.0
 40
0.0
 40
0.0
 40
0.0
 40
0.2398961039
 40
0.4999946021
 40
0.7600960345
 40
1.0
 40
1.0
 40
1.0
 40
1.0
 10
33.5988587532
 20
18.9123991541
 30
0.0
 10
33.5998228419
 20
19.0251119556
 30
0.0
 10
33.5621154326
 20
19.2608248993
 30
0.0
 10
33.419031305
 20
19.5913909868
 30
0.0
 10
33.2042921261
 20
19.8805911485
 30
0.0
 10
33.0190102494
 20
20.0311078563
 30
0.0
 10
32.9209142033
 20
20.086633558
 30
0.0
  0
SPLINE
  5
373
100
AcDbEntity
  8
ASSI
100
AcDbSpline
 62
7
  6
CONTINUOUS
 70
0
 71
3
 72
9
 73
5
 74
0
 42
0.0000001
 43
0.0000001
 44
0.0000000001
 40
0.0
 40
0.0
 40
0.0
 40
0.0
 40
0.2580518931
 40
1.0
 40
1.0
 40
1.0
 40
1.0
 10
-28.3716767601
 20
55.4762074037
 30
0.0
 10
-28.380140882
 20
55.4812010521
 30
0.0
 10
-28.4132854549
 20
55.4999563801
 30
0.0
 10
-28.4478411082
 20
55.5162657226
 30
0.0
 10
-28.4741410642
 20
55.5265950086
 30
0.0
  0
SPLINE
  5
374
100
AcDbEntity
  8
ASSI
100
AcDbSpline
 62
250
  6
CONTINUOUS
 70
0
 71
3
 72
10
 73
6
 74
0
 42
0.0000001
 43
0.0000001
 44
0.0000000001
 40
0.0
 40
0.0
 40
0.0
 40
0.0
 40
0.3606042124
 40
0.6415407785
 40
1.0
 40
1.0
 40
1.0
 40
1.0
 10
-10.4783124173
 20
-11.029887772
 30
0.0
 10
-10.4765974484
 20
-11.0337251582
 30
0.0
 10
-10.4738015624
 20
-11.0407713965
 30
0.0
 10
-10.4708502078
 20
-11.0517174903
 30
0.0
 10
-10.4713943559
 20
-11.0605095948
 30
0.0
 10
-10.4743886564
 20
-11.0634235727
 30
0.0
  0
SPLINE
  5
375
100
AcDbEntity
  8
ASSI
100
AcDbSpline
 62
250
  6
CONTINUOUS
 70
0
 71
3
 72
10
 73
6
 74
0
 42
0.0000001
 43
0.0000001
 44
0.0000000001
 40
0.0
 40
0.0
 40
0.0
 40
0.0
 40
0.3606042124
 40
0.6415407785
 40
1.0
 40
1.0
 40
1.0
 40
1.0
 10
21.3414927361
 20
-29.4022444718
 30
0.0
 10
21.343207705
 20
-29.406081858
 30
0.0
 10
21.346003591
 20
-29.4131280962
 30
0.0
 10
21.3489549456
 20
-29.42407419
 30
0.0
 10
21.3484107974
 20
-29.4328662946
 30
0.0
 10
21.345416497
 20
-29.4357802725
 30
0.0
  0
SPLINE
  5
376
100
AcDbEntity
  8
0
100
AcDbSpline
 62
250
  6
CONTINUOUS
 70
0
 71
3
 72
16
 73
12
 74
0
 42
0.0000001
 43
0.0000001
 44
0.0000000001
 40
0.0
 40
0.0
 40
0.0
 40
0.0
 40
0.125
 40
0.25
 40
0.3125
 40
0.375
 40
0.5
 40
0.625
 40
0.75
 40
0.875
 40
1.0
 40
1.0
 40
1.0
 40
1.0
 10
32.8637889174
 20
-42.2688700188
 30
0.0
 10
32.8549368102
 20
-42.2780751428
 30
0.0
 10
32.8384622407
 20
-42.2967434806
 30
0.0
 10
32.819273085
 20
-42.3221048148
 30
0.0
 10
32.8052231041
 20
-42.3430931519
 30
0.0
 10
32.7920216981
 20
-42.3646118312
 30
0.0
 10
32.7775449422
 20
-42.3918786378
 30
0.0
 10
32.7635965087
 20
-42.4254522822
 30
0.0
 10
32.7541086788
 20
-42.4585996821
 30
0.0
 10
32.7487993466
 20
-42.4898124059
 30
0.0
 10
32.7476243944
 20
-42.5091831513
 30
0.0
 10
32.7476243944
 20
-42.5189095074
 30
0.0
  0
SPLINE
  5
377
100
AcDbEntity
  8
0
100
AcDbSpline
 62
250
  6
CONTINUOUS
 70
0
 71
3
 72
12
 73
8
 74
0
 42
0.0000001
 43
0.0000001
 44
0.0000000001
 40
0.0
 40
0.0
 40
0.0
 40
0.0
 40
0.1666666667
 40
0.3333333333
 40
0.5
 40
0.6666666667
 40
1.0
 40
1.0
 40
1.0
 40
1.0
 10
33.2641778587
 20
-41.8878302584
 30
0.0
 10
33.2400446857
 20
-41.9104133595
 30
0.0
 10
33.1924374328
 20
-41.9552573991
 30
0.0
 10
33.1228899433
 20
-42.0209313379
 30
0.0
 10
33.0549461786
 20
-42.0843204199
 30
0.0
 10
32.9667002892
 20
-42.1663254252
 30
0.0
 10
32.903796261
 20
-42.2272810442
 30
0.0
 10
32.8638166113
 20
-42.2688412404
 30
0.0
  0
SPLINE
  5
378
100
AcDbEntity
  8
0
100
AcDbSpline
 62
250
  6
CONTINUOUS
 70
0
 71
3
 72
10
 73
6
 74
0
 42
0.0000001
 43
0.0000001
 44
0.0000000001
 40
0.0
 40
0.0
 40
0.0
 40
0.0
 40
0.3333333333
 40
0.6666666667
 40
1.0
 40
1.0
 40
1.0
 40
1.0
 10
32.9069530647
 20
-41.9006493299
 30
0.0
 10
32.9479034104
 20
-41.86305409
 30
0.0
 10
33.0290536834
 20
-41.7892428219
 30
0.0
 10
33.1481792839
 20
-41.6816337173
 30
0.0
 10
33.2258846776
 20
-41.6115001616
 30
0.0
 10
33.2641778587
 20
-41.5763823764
 30
0.0
  0
SPLINE
  5
379
100
AcDbEntity
  8
0
100
AcDbSpline
 62
250
  6
CONTINUOUS
 70
0
 71
3
 72
16
 73
12
 74
0
 42
0.0000001
 43
0.0000001
 44
0.0000000001
 40
0.0
 40
0.0
 40
0.0
 40
0.0
 40
0.1111111111
 40
0.2222222222
 40
0.3333333333
 40
0.4444444444
 40
0.5555555556
 40
0.6666666667
 40
0.7777777778
 40
0.8888888889
 40
1.0
 40
1.0
 40
1.0
 40
1.0
 10
32.6480393559
 20
-42.242099543
 30
0.0
 10
32.6522160727
 20
-42.2272928633
 30
0.0
 10
32.6627742035
 20
-42.1979529465
 30
0.0
 10
32.6848019671
 20
-42.1539230999
 30
0.0
 10
32.7104008546
 20
-42.1128691554
 30
0.0
 10
32.7385201621
 20
-42.0742705345
 30
0.0
 10
32.7675879853
 20
-42.0388319376
 30
0.0
 10
32.7982487603
 20
-42.0048028183
 30
0.0
 10
32.831024353
 20
-41.9712510011
 30
0.0
 10
32.8667259776
 20
-41.937341447
 30
0.0
 10
32.8931973065
 20
-41.9132780643
 30
0.0
 10
32.9069530648
 20
-41.90064933
 30
0.0
  0
SPLINE
  5
37A
100
AcDbEntity
  8
0
100
AcDbSpline
 62
250
  6
CONTINUOUS
 70
0
 71
3
 72
34
 73
30
 74
0
 42
0.0000001
 43
0.0000001
 44
0.0000000001
 40
0.0
 40
0.0
 40
0.0
 40
0.0
 40
0.0277777778
 40
0.0555555556
 40
0.0833333333
 40
0.1111111111
 40
0.1388888889
 40
0.1666666667
 40
0.1944444444
 40
0.2222222222
 40
0.25
 40
0.2777777778
 40
0.3333333333
 40
0.3888888889
 40
0.4444444444
 40
0.5
 40
0.5555555556
 40
0.6111111111
 40
0.6666666667
 40
0.7222222222
 40
0.7777777778
 40
0.8055555556
 40
0.8333333333
 40
0.8611111111
 40
0.8888888889
 40
0.9166666667
 40
0.9444444444
 40
0.9722222222
 40
1.0
 40
1.0
 40
1.0
 40
1.0
 10
31.9735514045
 20
-42.6787613458
 30
0.0
 10
31.9770690977
 20
-42.665199014
 30
0.0
 10
31.9856300363
 20
-42.6375459118
 30
0.0
 10
32.0028993715
 20
-42.59353766
 30
0.0
 10
32.0247322661
 20
-42.5460859066
 30
0.0
 10
32.0503144654
 20
-42.4982926702
 30
0.0
 10
32.0791878679
 20
-42.4515780265
 30
0.0
 10
32.1108417045
 20
-42.406939912
 30
0.0
 10
32.1446069772
 20
-42.3652466179
 30
0.0
 10
32.1794207458
 20
-42.327774521
 30
0.0
 10
32.2130848747
 20
-42.2960220586
 30
0.0
 10
32.2570652389
 20
-42.2595220867
 30
0.0
 10
32.3077383662
 20
-42.2247086232
 30
0.0
 10
32.3620666334
 20
-42.1952743068
 30
0.0
 10
32.4106889539
 20
-42.176227134
 30
0.0
 10
32.4532163916
 20
-42.165957843
 30
0.0
 10
32.4901895158
 20
-42.1625446627
 30
0.0
 10
32.5220116324
 20
-42.1644790154
 30
0.0
 10
32.5490601155
 20
-42.1706286565
 30
0.0
 10
32.5717747997
 20
-42.1802466004
 30
0.0
 10
32.5877167253
 20
-42.1898225738
 30
0.0
 10
32.599159283
 20
-42.197788835
 30
0.0
 10
32.6071945933
 20
-42.2038316198
 30
0.0
 10
32.6146820541
 20
-42.2098227262
 30
0.0
 10
32.6218206523
 20
-42.2156880736
 30
0.0
 10
32.6286199451
 20
-42.2219569145
 30
0.0
 10
32.6342636192
 20
-42.2289886652
 30
0.0
 10
32.6383427011
 20
-42.237051069
 30
0.0
 10
32.6398409368
 20
-42.2433702232
 30
0.0
 10
32.6402396331
 20
-42.2467630146
 30
0.0
  0
SPLINE
  5
37B
100
AcDbEntity
  8
0
100
AcDbSpline
 62
250
  6
CONTINUOUS
 70
0
 71
3
 72
15
 73
11
 74
0
 42
0.0000001
 43
0.0000001
 44
0.0000000001
 40
0.0
 40
0.0
 40
0.0
 40
0.0
 40
0.125
 40
0.25
 40
0.375
 40
0.5
 40
0.625
 40
0.75
 40
0.875
 40
1.0
 40
1.0
 40
1.0
 40
1.0
 10
31.9596544366
 20
-43.4861333899
 30
0.0
 10
31.9546549488
 20
-43.4491865062
 30
0.0
 10
31.9453906461
 20
-43.3775649969
 30
0.0
 10
31.9349128861
 20
-43.2771372318
 30
0.0
 10
31.9281315579
 20
-43.1801201734
 30
0.0
 10
31.9254719857
 20
-43.0844399747
 30
0.0
 10
31.9275463353
 20
-42.987262534
 30
0.0
 10
31.9352675547
 20
-42.8875552999
 30
0.0
 10
31.9496823688
 20
-42.7849331155
 30
0.0
 10
31.9642507035
 20
-42.7145759328
 30
0.0
 10
31.9735514045
 20
-42.6787613458
 30
0.0
  0
SPLINE
  5
37C
100
AcDbEntity
  8
0
100
AcDbSpline
 62
250
  6
CONTINUOUS
 70
0
 71
3
 72
12
 73
8
 74
0
 42
0.0000001
 43
0.0000001
 44
0.0000000001
 40
0.0
 40
0.0
 40
0.0
 40
0.0
 40
0.3333333333
 40
0.5
 40
0.6666666667
 40
0.8333333333
 40
1.0
 40
1.0
 40
1.0
 40
1.0
 10
32.1613279273
 20
-42.8001503623
 30
0.0
 10
32.1585795872
 20
-42.8296215994
 30
0.0
 10
32.1562813156
 20
-42.872906727
 30
0.0
 10
32.1568073199
 20
-42.92861173
 30
0.0
 10
32.1589985991
 20
-42.9695127706
 30
0.0
 10
32.16315145
 20
-43.0097203196
 30
0.0
 10
32.1670073506
 20
-43.0360025119
 30
0.0
 10
32.1690987676
 20
-43.0491558433
 30
0.0
  0
SPLINE
  5
37D
100
AcDbEntity
  8
0
100
AcDbSpline
 62
250
  6
CONTINUOUS
 70
0
 71
3
 72
19
 73
15
 74
0
 42
0.0000001
 43
0.0000001
 44
0.0000000001
 40
0.0
 40
0.0
 40
0.0
 40
0.0
 40
0.1
 40
0.2
 40
0.25
 40
0.3
 40
0.4
 40
0.5
 40
0.6
 40
0.7
 40
0.75
 40
0.8
 40
0.9
 40
1.0
 40
1.0
 40
1.0
 40
1.0
 10
32.3264029509
 20
-42.5185399014
 30
0.0
 10
32.3184217036
 20
-42.5234542319
 30
0.0
 10
32.3029551265
 20
-42.5343707076
 30
0.0
 10
32.2836817573
 20
-42.5511782705
 30
0.0
 10
32.2686281676
 20
-42.5662834265
 30
0.0
 10
32.253800677
 20
-42.5825398966
 30
0.0
 10
32.236121217
 20
-42.6045979995
 30
0.0
 10
32.2162859662
 20
-42.6342814632
 30
0.0
 10
32.1990973717
 20
-42.6662263497
 30
0.0
 10
32.1873343315
 20
-42.6936682101
 30
0.0
 10
32.1793318433
 20
-42.7161529182
 30
0.0
 10
32.1723806549
 20
-42.7386500441
 30
0.0
 10
32.1656092517
 20
-42.7668921488
 30
0.0
 10
32.1623716885
 20
-42.7889578112
 30
0.0
 10
32.1613279272
 20
-42.8001503623
 30
0.0
  0
SPLINE
  5
37E
100
AcDbEntity
  8
0
100
AcDbSpline
 62
250
  6
CONTINUOUS
 70
0
 71
3
 72
15
 73
11
 74
0
 42
0.0000001
 43
0.0000001
 44
0.0000000001
 40
0.0
 40
0.0
 40
0.0
 40
0.0
 40
0.1666666667
 40
0.3333333333
 40
0.5
 40
0.5833333333
 40
0.6666666667
 40
0.75
 40
0.8333333333
 40
1.0
 40
1.0
 40
1.0
 40
1.0
 10
32.5314493381
 20
-42.6474631321
 30
0.0
 10
32.5309648978
 20
-42.6222643496
 30
0.0
 10
32.5268465345
 20
-42.5774079131
 30
0.0
 10
32.5120340705
 20
-42.5275716378
 30
0.0
 10
32.4904273246
 20
-42.4985401079
 30
0.0
 10
32.4650470046
 20
-42.4860343373
 30
0.0
 10
32.4425657507
 20
-42.4819705824
 30
0.0
 10
32.4177200452
 20
-42.4829319372
 30
0.0
 10
32.3807621712
 20
-42.4908563053
 30
0.0
 10
32.3492045742
 20
-42.5044976698
 30
0.0
 10
32.3263667198
 20
-42.5185622226
 30
0.0
  0
SPLINE
  5
37F
100
AcDbEntity
  8
0
100
AcDbSpline
 62
7
  6
CONTINUOUS
 70
0
 71
3
 72
11
 73
7
 74
0
 42
0.0000001
 43
0.0000001
 44
0.0000000001
 40
0.0
 40
0.0
 40
0.0
 40
0.0
 40
0.2177671718
 40
0.4509440387
 40
0.7101952376
 40
1.0
 40
1.0
 40
1.0
 40
1.0
 10
-26.0447340618
 20
30.779687364
 30
0.0
 10
-26.0051517244
 20
30.8025417228
 30
0.0
 10
-25.9141957419
 20
30.8355761733
 30
0.0
 10
-25.7631395503
 20
30.8393559518
 30
0.0
 10
-25.6021179754
 20
30.8005193666
 30
0.0
 10
-25.4973812906
 20
30.7506525392
 30
0.0
 10
-25.4447050696
 20
30.7202379508
 30
0.0
  0
SPLINE
  5
380
100
AcDbEntity
  8
0
100
AcDbSpline
 62
7
  6
CONTINUOUS
 70
0
 71
3
 72
13
 73
9
 74
0
 42
0.0000001
 43
0.0000001
 44
0.0000000001
 40
0.0
 40
0.0
 40
0.0
 40
0.0
 40
0.1142615975
 40
0.2375404836
 40
0.5000060625
 40
0.7624683192
 40
0.885743332
 40
1.0
 40
1.0
 40
1.0
 40
1.0
 10
20.3758143513
 20
4.2640048482
 30
0.0
 10
20.458108346
 20
4.2164893274
 30
0.0
 10
20.6206701082
 20
4.102548442
 30
0.0
 10
20.9249748933
 20
3.8176867952
 30
0.0
 10
21.24645402
 20
3.3786095085
 30
0.0
 10
21.4659661662
 20
2.8806647364
 30
0.0
 10
21.5605054608
 20
2.4747071463
 30
0.0
 10
21.5778958774
 20
2.2769609198
 30
0.0
 10
21.5778958793
 20
2.181938569
 30
0.0
  0
SPLINE
  5
381
100
AcDbEntity
  8
0
100
AcDbSpline
 62
7
  6
CONTINUOUS
 70
0
 71
3
 72
9
 73
5
 74
0
 42
0.0000001
 43
0.0000001
 44
0.0000000001
 40
0.0
 40
0.0
 40
0.0
 40
0.0
 40
0.2715325905
 40
1.0
 40
1.0
 40
1.0
 40
1.0
 10
21.5778958793
 20
-32.3547146844
 30
0.0
 10
21.5778958794
 20
-32.3859502403
 30
0.0
 10
21.5731587869
 20
-32.5007634701
 30
0.0
 10
21.5478590103
 20
-32.6159944897
 30
0.0
 10
21.5133141282
 20
-32.6923415734
 30
0.0
  0
SPLINE
  5
382
100
AcDbEntity
  8
0
100
AcDbSpline
 62
7
  6
CONTINUOUS
 70
0
 71
3
 72
9
 73
5
 74
0
 42
0.0000001
 43
0.0000001
 44
0.0000000001
 40
0.0
 40
0.0
 40
0.0
 40
0.0
 40
0.5170824752
 40
1.0
 40
1.0
 40
1.0
 40
1.0
 10
21.5133141282
 20
-32.6923415734
 30
0.0
 10
21.4931416476
 20
-32.7369244456
 30
0.0
 10
21.443019613
 20
-32.8189568982
 30
0.0
 10
21.3689743578
 20
-32.8811472806
 30
0.0
 10
21.3293967341
 20
-32.9039989178
 30
0.0
  0
SPLINE
  5
383
100
AcDbEntity
  8
RACCORDO
100
AcDbSpline
 62
7
  6
CONTINUOUS
 70
0
 71
3
 72
11
 73
7
 74
0
 42
0.0000001
 43
0.0000001
 44
0.0000000001
 40
0.0
 40
0.0
 40
0.0
 40
0.0
 40
0.2372134916
 40
0.4999938932
 40
0.7627776188
 40
1.0
 40
1.0
 40
1.0
 40
1.0
 10
-23.8183594729
 20
-3.2855636395
 30
0.0
 10
-23.8183594729
 20
-3.4246512056
 30
0.0
 10
-23.7661892091
 20
-3.7180063238
 30
0.0
 10
-23.5843387291
 20
-4.1302367937
 30
0.0
 10
-23.3182582456
 20
-4.4938429734
 30
0.0
 10
-23.0902872748
 20
-4.6857077339
 30
0.0
 10
-22.9698313354
 20
-4.7552574836
 30
0.0
  0
SPLINE
  5
384
100
AcDbEntity
  8
0
100
AcDbSpline
 62
7
  6
CONTINUOUS
 70
0
 71
3
 72
13
 73
9
 74
0
 42
0.0000001
 43
0.0000001
 44
0.0000000001
 40
0.0
 40
0.0
 40
0.0
 40
0.0
 40
0.1142615975
 40
0.2375404836
 40
0.5000060625
 40
0.7624683192
 40
0.885743332
 40
1.0
 40
1.0
 40
1.0
 40
1.0
 10
-25.7982584602
 20
-6.7965909953
 30
0.0
 10
-25.8805524549
 20
-6.7490754745
 30
0.0
 10
-26.0431142171
 20
-6.6351345891
 30
0.0
 10
-26.3474190022
 20
-6.3502729423
 30
0.0
 10
-26.6688981289
 20
-5.9111956556
 30
0.0
 10
-26.8884102751
 20
-5.4132508836
 30
0.0
 10
-26.9829495697
 20
-5.0072932934
 30
0.0
 10
-27.0003399863
 20
-4.8095470669
 30
0.0
 10
-27.0003399882
 20
-4.7145247161
 30
0.0
  0
SPLINE
  5
385
100
AcDbEntity
  8
0
100
AcDbSpline
 62
7
  6
CONTINUOUS
 70
0
 71
3
 72
15
 73
11
 74
0
 42
0.0000001
 43
0.0000001
 44
0.0000000001
 40
0.0
 40
0.0
 40
0.0
 40
0.0
 40
0.1449018606
 40
0.274517057
 40
0.3911053392
 40
0.4999889011
 40
0.6088744758
 40
0.7254681141
 40
0.8550905238
 40
1.0
 40
1.0
 40
1.0
 40
1.0
 10
21.5778958793
 20
-32.7629892777
 30
0.0
 10
21.5778958796
 20
-32.8491528058
 30
0.0
 10
21.5648754197
 20
-33.0129613494
 30
0.0
 10
21.4985006186
 20
-33.2379674055
 30
0.0
 10
21.3867296377
 20
-33.4206768663
 30
0.0
 10
21.2315801846
 20
-33.5511561918
 30
0.0
 10
21.0409963901
 20
-33.6202590745
 30
0.0
 10
20.826871232
 20
-33.6256820627
 30
0.0
 10
20.5988147923
 20
-33.5706452067
 30
0.0
 10
20.4504368762
 20
-33.5000080483
 30
0.0
 10
20.3758143513
 20
-33.4569219396
 30
0.0
  0
SPLINE
  5
386
100
AcDbEntity
  8
0
100
AcDbSpline
 62
7
  6
CONTINUOUS
 70
0
 71
3
 72
11
 73
7
 74
0
 42
0.0000001
 43
0.0000001
 44
0.0000000001
 40
0.0
 40
0.0
 40
0.0
 40
0.0
 40
0.2177671718
 40
0.4509440387
 40
0.7101952376
 40
1.0
 40
1.0
 40
1.0
 40
1.0
 10
21.3293967341
 20
-32.9039989178
 30
0.0
 10
21.2898143967
 20
-32.9268532765
 30
0.0
 10
21.1988584142
 20
-32.9598877271
 30
0.0
 10
21.0478022225
 20
-32.9636675058
 30
0.0
 10
20.8867806482
 20
-32.9248309195
 30
0.0
 10
20.7820439617
 20
-32.8749640951
 30
0.0
 10
20.7293677419
 20
-32.8445495046
 30
0.0
  0
SPLINE
  5
387
100
AcDbEntity
  8
0
100
AcDbSpline
 62
7
  6
CONTINUOUS
 70
0
 71
3
 72
11
 73
7
 74
0
 42
0.0000001
 43
0.0000001
 44
0.0000000001
 40
0.0
 40
0.0
 40
0.0
 40
0.0
 40
0.2372223247
 40
0.5000061052
 40
0.7627865602
 40
1.0
 40
1.0
 40
1.0
 40
1.0
 10
-25.4447050696
 20
-6.1842185603
 30
0.0
 10
-25.56516098
 20
-6.1146688267
 30
0.0
 10
-25.7931319549
 20
-5.9228040764
 30
0.0
 10
-26.0592124683
 20
-5.5591978774
 30
0.0
 10
-26.2410629508
 20
-5.1469673706
 30
0.0
 10
-26.2932332098
 20
-4.8536122519
 30
0.0
 10
-26.293233207
 20
-4.7145247161
 30
0.0
  0
SPLINE
  5
388
100
AcDbEntity
  8
0
100
AcDbSpline
 62
7
  6
CONTINUOUS
 70
0
 71
3
 72
11
 73
7
 74
0
 42
0.0000001
 43
0.0000001
 44
0.0000000001
 40
0.0
 40
0.0
 40
0.0
 40
0.0
 40
0.2897992053
 40
0.5490483741
 40
0.7822274786
 40
1.0
 40
1.0
 40
1.0
 40
1.0
 10
-26.293233207
 20
30.2304031306
 30
0.0
 10
-26.2932332068
 20
30.2912191109
 30
0.0
 10
-26.2840492615
 20
30.4068379862
 30
0.0
 10
-26.2371762883
 20
30.5656791958
 30
0.0
 10
-26.1583858676
 20
30.6945890667
 30
0.0
 10
-26.0843114539
 20
30.7568358605
 30
0.0
 10
-26.0447340618
 20
30.779687364
 30
0.0
  0
SPLINE
  5
389
100
AcDbEntity
  8
0
100
AcDbSpline
 62
7
  6
CONTINUOUS
 70
0
 71
3
 72
15
 73
11
 74
0
 42
0.0000001
 43
0.0000001
 44
0.0000000001
 40
0.0
 40
0.0
 40
0.0
 40
0.0
 40
0.1449018606
 40
0.274517057
 40
0.3911053392
 40
0.4999889011
 40
0.6088744758
 40
0.7254681141
 40
0.8550905238
 40
1.0
 40
1.0
 40
1.0
 40
1.0
 10
-27.0003399882
 20
30.2304031306
 30
0.0
 10
-27.0003399885
 20
30.3165666587
 30
0.0
 10
-26.9873195286
 20
30.4803752023
 30
0.0
 10
-26.9209447275
 20
30.7053812584
 30
0.0
 10
-26.8091737466
 20
30.8880907192
 30
0.0
 10
-26.6540242935
 20
31.0185700447
 30
0.0
 10
-26.463440499
 20
31.0876729274
 30
0.0
 10
-26.2493153409
 20
31.0930959156
 30
0.0
 10
-26.0212589012
 20
31.0380590595
 30
0.0
 10
-25.872880985
 20
30.9674219011
 30
0.0
 10
-25.7982584602
 20
30.9243357925
 30
0.0
  0
ELLIPSE
  5
38A
100
AcDbEntity
  8
0
100
AcDbEllipse
 62
7
  6
CONTINUOUS
 10
33.7661142167
 20
-50.4845763418
 30
0.0
 11
-0.0320188688
 21
0.0554549875
 31
0.0
 40
0.5632057935
 41
-2.5265952341
 42
-2.3686251639
  0
ELLIPSE
  5
38B
100
AcDbEntity
  8
0
100
AcDbEllipse
 62
7
  6
CONTINUOUS
 10
33.7661142167
 20
19.7918676974
 30
0.0
 11
-0.0312356712
 21
0.0540980115
 31
0.0
 40
0.5918118391
 41
-2.3438606673
 42
-0.7978336343
  0
ELLIPSE
  5
38C
100
AcDbEntity
  8
0
100
AcDbEllipse
 62
7
  6
CONTINUOUS
 10
-27.0970323673
 20
54.9334857406
 30
0.0
 11
-0.0320188688
 21
0.0554549875
 31
0.0
 40
0.5632057935
 41
-0.7730595434
 42
-0.6150059205
  0
ELLIPSE
  5
38D
100
AcDbEntity
  8
0
100
AcDbEllipse
 62
7
  6
CONTINUOUS
 10
-8.6824619694
 20
-9.8441211746
 30
0.0
 11
0.1999995634
 21
0.1164181051
 31
0.0
 40
0.0035896273
 41
-0.7351277754
 42
-0.6748017824
  0
ELLIPSE
  5
38E
100
AcDbEntity
  8
0
100
AcDbEllipse
 62
7
  6
CONTINUOUS
 10
19.3113417934
 20
-25.4360277882
 30
0.0
 11
0.1998333781
 21
-0.0157785196
 31
0.0
 40
0.5172961965
 41
0.8262203412
 42
2.3446567905
  0
ELLIPSE
  5
38F
100
AcDbEntity
  8
0
100
AcDbEllipse
 62
7
  6
CONTINUOUS
 10
-12.50846336
 20
-7.0636710885
 30
0.0
 11
0.1998333781
 21
-0.0157785196
 31
0.0
 40
0.5172961965
 41
0.8262203412
 42
2.3446567905
  0
ELLIPSE
  5
390
100
AcDbEntity
  8
0
100
AcDbEllipse
 62
7
  6
CONTINUOUS
 10
17.7931142635
 20
-26.7394423011
 30
0.0
 11
0.5413005334
 21
0.8416911418
 31
0.0
 40
0.6067084637
 41
0.7148472392
 42
0.8145158917
  0
ELLIPSE
  5
391
100
AcDbEntity
  8
0
100
AcDbEllipse
 62
7
  6
CONTINUOUS
 10
-14.0266908899
 20
-8.3670856014
 30
0.0
 11
0.5413005334
 21
0.8416911418
 31
0.0
 40
0.6067084637
 41
0.7148472392
 42
0.8145158917
  0
ELLIPSE
  5
392
100
AcDbEntity
  8
0
100
AcDbEllipse
 62
7
  6
CONTINUOUS
 10
-8.6824619694
 20
-9.2727563403
 30
0.0
 11
0.1998333781
 21
-0.0157785196
 31
0.0
 40
0.5172961965
 41
-0.692216108
 42
0.8262203412
  0
ELLIPSE
  5
393
100
AcDbEntity
  8
0
100
AcDbEllipse
 62
7
  6
CONTINUOUS
 10
-9.7803536316
 20
-10.8188675152
 30
0.0
 11
0.4625183445
 21
0.8873459255
 31
0.0
 40
0.5463614449
 41
0.662201126
 42
0.7618697785
  0
ELLIPSE
  5
394
100
AcDbEntity
  8
0
100
AcDbEllipse
 62
7
  6
CONTINUOUS
 10
33.7717131535
 20
-50.9286820122
 30
0.0
 11
0.1304932868
 21
1.2025842266
 31
0.0
 40
0.0944494463
 41
-3.8578203675
 42
-3.816510454
  0
ELLIPSE
  5
395
100
AcDbEntity
  8
0
100
AcDbEllipse
 62
7
  6
CONTINUOUS
 10
33.7717131535
 20
19.7776439581
 30
0.0
 11
0.1304932868
 21
1.2025842266
 31
0.0
 40
0.0944494463
 41
-3.899130281
 42
-3.8578203675
  0
ELLIPSE
  5
396
100
AcDbEntity
  8
0
100
AcDbEllipse
 62
7
  6
CONTINUOUS
 10
33.7566143483
 20
19.8037958558
 30
0.0
 11
1.1066889452
 21
-0.4882482052
 31
0.0
 40
0.0945009384
 41
-2.4253001261
 42
-2.3839902126
  0
ELLIPSE
  5
397
100
AcDbEntity
  8
0
100
AcDbEllipse
 62
7
  6
CONTINUOUS
 10
-27.4788329025
 20
55.160375638
 30
0.0
 11
1.1066889452
 21
-0.4882482052
 31
0.0
 40
0.0945009384
 41
-2.4666100396
 42
-2.4253001261
  0
ELLIPSE
  5
398
100
AcDbEntity
  8
ASSI
100
AcDbEllipse
 62
7
  6
CONTINUOUS
 10
33.7661142167
 20
-50.4845763418
 30
0.0
 11
-0.0320188688
 21
0.0554549875
 31
0.0
 40
0.5632057935
 41
-2.5265952341
 42
-2.3686251639
  0
ELLIPSE
  5
399
100
AcDbEntity
  8
ASSI
100
AcDbEllipse
 62
7
  6
CONTINUOUS
 10
33.7661142167
 20
19.7918676974
 30
0.0
 11
-0.0312356712
 21
0.0540980115
 31
0.0
 40
0.5918118391
 41
-2.3438606673
 42
-0.7978336343
  0
ELLIPSE
  5
39A
100
AcDbEntity
  8
ASSI
100
AcDbEllipse
 62
7
  6
CONTINUOUS
 10
-27.0970323673
 20
54.9334857406
 30
0.0
 11
-0.0320188688
 21
0.0554549875
 31
0.0
 40
0.5632057935
 41
-0.7730595434
 42
-0.6150059205
  0
ELLIPSE
  5
39B
100
AcDbEntity
  8
ASSI
100
AcDbEllipse
 62
7
  6
CONTINUOUS
 10
-8.6824619694
 20
-9.8441211746
 30
0.0
 11
0.1999995634
 21
0.1164181051
 31
0.0
 40
0.0035896273
 41
-0.7351277754
 42
-0.6748017824
  0
ELLIPSE
  5
39C
100
AcDbEntity
  8
ASSI
100
AcDbEllipse
 62
7
  6
CONTINUOUS
 10
19.3113417934
 20
-25.4360277882
 30
0.0
 11
0.1998333781
 21
-0.0157785196
 31
0.0
 40
0.5172961965
 41
0.8262203412
 42
2.3446567905
  0
ELLIPSE
  5
39D
100
AcDbEntity
  8
ASSI
100
AcDbEllipse
 62
7
  6
CONTINUOUS
 10
-12.50846336
 20
-7.0636710885
 30
0.0
 11
0.1998333781
 21
-0.0157785196
 31
0.0
 40
0.5172961965
 41
0.8262203412
 42
2.3446567905
  0
ELLIPSE
  5
39E
100
AcDbEntity
  8
ASSI
100
AcDbEllipse
 62
7
  6
CONTINUOUS
 10
17.7931142635
 20
-26.7394423011
 30
0.0
 11
0.5413005334
 21
0.8416911418
 31
0.0
 40
0.6067084637
 41
0.7148472392
 42
0.8145158917
  0
ELLIPSE
  5
39F
100
AcDbEntity
  8
ASSI
100
AcDbEllipse
 62
7
  6
CONTINUOUS
 10
-14.0266908899
 20
-8.3670856014
 30
0.0
 11
0.5413005334
 21
0.8416911418
 31
0.0
 40
0.6067084637
 41
0.7148472392
 42
0.8145158917
  0
ELLIPSE
  5
3A0
100
AcDbEntity
  8
ASSI
100
AcDbEllipse
 62
7
  6
CONTINUOUS
 10
-8.6824619694
 20
-9.2727563403
 30
0.0
 11
0.1998333781
 21
-0.0157785196
 31
0.0
 40
0.5172961965
 41
-0.692216108
 42
0.8262203412
  0
ELLIPSE
  5
3A1
100
AcDbEntity
  8
ASSI
100
AcDbEllipse
 62
7
  6
CONTINUOUS
 10
-9.7803536316
 20
-10.8188675152
 30
0.0
 11
0.4625183445
 21
0.8873459255
 31
0.0
 40
0.5463614449
 41
0.662201126
 42
0.7618697785
  0
ELLIPSE
  5
3A2
100
AcDbEntity
  8
ASSI
100
AcDbEllipse
 62
7
  6
CONTINUOUS
 10
33.7717131535
 20
-50.9286820122
 30
0.0
 11
0.1304932868
 21
1.2025842266
 31
0.0
 40
0.0944494463
 41
-3.8578203675
 42
-3.816510454
  0
ELLIPSE
  5
3A3
100
AcDbEntity
  8
ASSI
100
AcDbEllipse
 62
7
  6
CONTINUOUS
 10
33.7717131535
 20
19.7776439581
 30
0.0
 11
0.1304932868
 21
1.2025842266
 31
0.0
 40
0.0944494463
 41
-3.899130281
 42
-3.8578203675
  0
ELLIPSE
  5
3A4
100
AcDbEntity
  8
ASSI
100
AcDbEllipse
 62
7
  6
CONTINUOUS
 10
33.7566143483
 20
19.8037958558
 30
0.0
 11
1.1066889452
 21
-0.4882482052
 31
0.0
 40
0.0945009384
 41
-2.4253001261
 42
-2.3839902126
  0
ELLIPSE
  5
3A5
100
AcDbEntity
  8
ASSI
100
AcDbEllipse
 62
7
  6
CONTINUOUS
 10
-27.4788329025
 20
55.160375638
 30
0.0
 11
1.1066889452
 21
-0.4882482052
 31
0.0
 40
0.0945009384
 41
-2.4666100396
 42
-2.4253001261
  0
ENDSEC
  0
SECTION
  2
OBJECTS
  0
DICTIONARY
  5
C
100
AcDbDictionary
280
0
281
1
  3
ACAD_GROUP
350
D
  3
ACAD_MLINESTYLE
350
17
  3
ACAD_LAYOUT
350
1A
  3
ACAD_PLOTSETTINGS
350
19
  3
ACAD_PLOTSTYLENAME
350
E
  0
DICTIONARY
  5
D
102
{ACAD_REACTORS
330
C
102
}
100
AcDbDictionary
280
0
281
1
  0
ACDBDICTIONARYWDFLT
  5
E
102
{ACAD_REACTORS
330
C
102
}
100
AcDbDictionary
281
1
  3
Normal
350
F
100
AcDbDictionaryWithDefault
340
F
  0
DICTIONARY
  5
17
102
{ACAD_REACTORS
330
C
102
}
100
AcDbDictionary
280
0
281
1
  3
Standard
350
18
  0
DICTIONARY
  5
19
102
{ACAD_REACTORS
330
C
102
}
100
AcDbDictionary
281
1
  0
DICTIONARY
  5
1A
102
{ACAD_REACTORS
330
C
102
}
100
AcDbDictionary
281
1
  3
Model
350
3A6
  3
Layout1
350
3A7
  0
ACDBPLACEHOLDER
  5
F
102
{ACAD_REACTORS
330
E
102
}
  0
MLINESTYLE
  5
18
102
{ACAD_REACTORS
330
17
102
}
100
AcDbMlineStyle
  2
STANDARD
 70
0
  3

 62
256
 51
90.0
 52
90.0
 71
2
 49
0.5
 62
256
  6
BYLAYER
 49
-0.5
 62
256
  6
BYLAYER
  0
LAYOUT
  5
3A6
102
{ACAD_REACTORS
330
1A
102
}
100
AcDbPlotSettings
  1

  2
none_device
  4
ISO_A4_(297.00_x_210.00_MM)
  6

 40
0.0
 41
0.0
 42
0.0
 43
0.0
 44
297.0
 45
210.0
 46
0.0
 47
0.0
 48
0.0
 49
0.0
140
0.0
141
0.0
142
1.0
143
1.0
 70
1024
 72
1
 73
0
 74
0
  7

 75
0
147
1.0
148
0.0
149
0.0
100
AcDbLayout
  1
Model
 70
0
 71
0
 10
0.0
 20
0.0
 11
297.0
 21
210.0
 12
0.0
 22
0.0
 32
0.0
 14
0.0
 24
0.0
 34
0.0
 15
0.0
 25
0.0
 35
0.0
146
0.0
 13
0.0
 23
0.0
 33
0.0
 16
1.0
 26
0.0
 36
0.0
 17
0.0
 27
1.0
 37
0.0
 76
0
330
21D
345
0
346
0
  0
LAYOUT
  5
3A7
102
{ACAD_REACTORS
330
1A
102
}
100
AcDbPlotSettings
  1

  2
none_device
  4
ISO_A4_(297.00_x_210.00_MM)
  6

 40
0.0
 41
0.0
 42
0.0
 43
0.0
 44
297.0
 45
210.0
 46
0.0
 47
0.0
 48
0.0
 49
0.0
140
0.0
141
0.0
142
1.0
143
1.0
 70
0
 72
1
 73
0
 74
0
  7

 75
0
147
1.0
148
0.0
149
0.0
100
AcDbLayout
  1
Layout1
 70
0
 71
1
 10
0.0
 20
0.0
 11
297.0
 21
210.0
 12
0.0
 22
0.0
 32
0.0
 14
0.0
 24
0.0
 34
0.0
 15
0.0
 25
0.0
 35
0.0
146
0.0
 13
0.0
 23
0.0
 33
0.0
 16
1.0
 26
0.0
 36
0.0
 17
0.0
 27
1.0
 37
0.0
 76
0
330
21E
345
0
346
0
  0
ENDSEC
  0
EOF
