  0
SECTION
  2
HEADER
  9
$ACADVER
  1
AC1024
  9
$DWGCODEPAGE
  3
ANSI_1252
  9
$EXTMAX
 10
297.0
 20
210.0
 30
0.0
  9
$EXTMIN
 10
0.0
 20
0.0
 30
0.0
  9
$LIMMIN
 10
0.0
 20
0.0
  9
$LIMMAX
 10
297.0
 20
210.0
  9
$VIEWCTR
 10
148.5
 20
105.0
  9
$VIEWSIZE
 40
210.0
  9
$CLAYER
  8
0
  9
$LTSCALE
 40
16.335
  9
$CELTYPE
  6
BYLAYER
  9
$DIMSCALE
 40
1.0
  9
$DIMASZ
 40
3.0
  9
$DIMEXO
 40
0.5
  9
$DIMDLI
 40
11.286
  9
$DIMEXE
 40
1.5
  9
$DIMCEN
 40
2.673
  9
$DIMLFAC
 40
1.0
  9
$DIMBLK
  1
_FILLED
  9
$DIMALT
 70
0
  9
$DIMALTF
 40
0.0393700787
  9
$DIMTXT
 40
3.0
  9
$DIMTOL
 70
1
  9
$DIMLIM
 70
0
  9
$DIMTFAC
 40
1.0
  9
$DIMTP
 40
0.01
  9
$DIMTM
 40
0.01
  9
$DIMGAP
 40
0.625
  9
$DIMDSEP
 70
44
  9
$AUNITS
 70
0
  9
$PDMODE
 70
3
  9
$PDSIZE
 40
3.0
  9
$HANDSEED
  5
3AA
  9
$TILEMODE
 70
1
  9
$MEASUREMENT
 70
1
  9
$INSUNITS
 70
4
  0
ENDSEC
  0
SECTION
  2
CLASSES
  0
CLASS
  1
ACDBDICTIONARYWDFLT
  2
AcDbDictionaryWithDefault
  3
AutoCAD 2000
 90
0
 91
1
280
0
281
0
  0
CLASS
  1
ACDBPLACEHOLDER
  2
AcDbPlaceHolder
  3
AutoCAD 2000
 90
0
 91
1
280
0
281
0
  0
CLASS
  1
LAYOUT
  2
AcDbLayout
  3
AutoCAD 2000
 90
0
 91
0
280
0
281
0
  0
ENDSEC
  0
SECTION
  2
TABLES
  0
TABLE
  2
VPORT
  5
8
100
AcDbSymbolTable
 70
2
  0
VPORT
  5
1F4
100
AcDbSymbolTableRecord
100
AcDbViewportTableRecord
  2
*ACTIVE
 70
0
 10
0.0
 20
0.0
 11
1.0
 21
1.0
 12
148.5
 22
105.0
 13
0.0
 23
0.0
 14
1.0
 24
1.0
 15
0.0
 25
0.0
 16
0.0
 26
0.0
 36
1.0
 17
0.0
 27
0.0
 37
0.0
 40
210.0
 41
1.4142857143
 42
50.0
 43
0.0
 44
0.0
 50
0.0
 51
0.0
 71
0
 72
100
 73
1
 74
1
 75
0
 76
0
 77
0
 78
0
  0
ENDTAB
  0
TABLE
  2
LTYPE
  5
5
100
AcDbSymbolTable
 70
6
  0
LTYPE
  5
14
100
AcDbSymbolTableRecord
100
AcDbLinetypeTableRecord
  2
BYBLOCK
 70
0
  3

 72
65
 73
0
 40
0.0
  0
LTYPE
  5
15
100
AcDbSymbolTableRecord
100
AcDbLinetypeTableRecord
  2
BYLAYER
 70
0
  3

 72
65
 73
0
 40
0.0
  0
LTYPE
  5
16
100
AcDbSymbolTableRecord
100
AcDbLinetypeTableRecord
  2
CONTINUOUS
 70
64
  3
Solid line
 72
65
 73
0
 40
0.0
  0
LTYPE
  5
1F5
100
AcDbSymbolTableRecord
100
AcDbLinetypeTableRecord
  2
CENTER
 70
64
  3
____ _ ____ _ ____ _ ____ _ ____ _ ____ _ ____
 72
65
 73
4
 40
0.6
 49
0.375
 74
0
 49
-0.075
 74
0
 49
0.075
 74
0
 49
-0.075
 74
0
  0
LTYPE
  5
1F6
100
AcDbSymbolTableRecord
100
AcDbLinetypeTableRecord
  2
HIDDEN
 70
64
  3
- - - - - - - - - - - - - - - - - - - -
 72
65
 73
2
 40
0.2
 49
0.1
 74
0
 49
-0.1
 74
0
  0
LTYPE
  5
1F7
100
AcDbSymbolTableRecord
100
AcDbLinetypeTableRecord
  2
PHANTOM
 70
64
  3
_____ _ _ _____ _ _ _____ _ _ _____
 72
65
 73
6
 40
0.8
 49
0.45
 74
0
 49
-0.05
 74
0
 49
0.1
 74
0
 49
-0.05
 74
0
 49
0.1
 74
0
 49
-0.05
 74
0
  0
LTYPE
  5
1F8
100
AcDbSymbolTableRecord
100
AcDbLinetypeTableRecord
  2
DOT
 70
64
  3
. . . . . . . . . . . . . . . . . . . .
 72
65
 73
2
 40
0.2
 49
0.1
 74
0
 49
-0.1
 74
0
  0
LTYPE
  5
1F9
100
AcDbSymbolTableRecord
100
AcDbLinetypeTableRecord
  2
DASHED
 70
64
  3
- - - - - - - - - - - - - - - - - - - -
 72
65
 73
2
 40
0.2
 49
0.1
 74
0
 49
-0.1
 74
0
  0
ENDTAB
  0
TABLE
  2
LAYER
  5
2
100
AcDbSymbolTable
 70
36
  0
LAYER
  5
10
100
AcDbSymbolTableRecord
100
AcDbLayerTableRecord
  2
0
 70
0
 62
7
  6
CONTINUOUS
370
-3
390
F
  0
LAYER
  5
1FA
100
AcDbSymbolTableRecord
100
AcDbLayerTableRecord
  2
DEFAULT_1
 70
0
 62
7
  6
CENTER
370
-3
390
F
  0
LAYER
  5
1FB
100
AcDbSymbolTableRecord
100
AcDbLayerTableRecord
  2
DEFAULT_2
 70
0
 62
7
  6
HIDDEN
370
-3
390
F
  0
LAYER
  5
1FC
100
AcDbSymbolTableRecord
100
AcDbLayerTableRecord
  2
DEFAULT_3
 70
0
 62
7
  6
PHANTOM
370
-3
390
F
  0
LAYER
  5
1FD
100
AcDbSymbolTableRecord
100
AcDbLayerTableRecord
  2
ASSI
 70
0
 62
7
  6
CONTINUOUS
370
-3
390
F
  0
LAYER
  5
1FE
100
AcDbSymbolTableRecord
100
AcDbLayerTableRecord
  2
COORDINATE
 70
0
 62
7
  6
CONTINUOUS
370
-3
390
F
  0
LAYER
  5
1FF
100
AcDbSymbolTableRecord
100
AcDbLayerTableRecord
  2
COORD_ORIGINE
 70
0
 62
7
  6
CONTINUOUS
370
-3
390
F
  0
LAYER
  5
200
100
AcDbSymbolTableRecord
100
AcDbLayerTableRecord
  2
COPY_PUBLISH
 70
0
 62
7
  6
CONTINUOUS
370
-3
390
F
  0
LAYER
  5
201
100
AcDbSymbolTableRecord
100
AcDbLayerTableRecord
  2
COSMETIC
 70
0
 62
7
  6
CONTINUOUS
370
-3
390
F
  0
LAYER
  5
202
100
AcDbSymbolTableRecord
100
AcDbLayerTableRecord
  2
COSMETICI
 70
0
 62
7
  6
CONTINUOUS
370
-3
390
F
  0
LAYER
  5
203
100
AcDbSymbolTableRecord
100
AcDbLayerTableRecord
  2
CURVE
 70
0
 62
7
  6
CONTINUOUS
370
-3
390
F
  0
LAYER
  5
204
100
AcDbSymbolTableRecord
100
AcDbLayerTableRecord
  2
CURVE_COSTRUZIONE
 70
0
 62
7
  6
CONTINUOUS
370
-3
390
F
  0
LAYER
  5
205
100
AcDbSymbolTableRecord
100
AcDbLayerTableRecord
  2
CURVE_TASSELLI
 70
0
 62
7
  6
CONTINUOUS
370
-3
390
F
  0
LAYER
  5
206
100
AcDbSymbolTableRecord
100
AcDbLayerTableRecord
  2
DRAFT
 70
0
 62
7
  6
CONTINUOUS
370
-3
390
F
  0
LAYER
  5
207
100
AcDbSymbolTableRecord
100
AcDbLayerTableRecord
  2
IMPORT_IGES
 70
0
 62
7
  6
CONTINUOUS
370
-3
390
F
  0
LAYER
  5
208
100
AcDbSymbolTableRecord
100
AcDbLayerTableRecord
  2
INTFCLR_2
 70
0
 62
7
  6
CONTINUOUS
370
-3
390
F
  0
LAYER
  5
209
100
AcDbSymbolTableRecord
100
AcDbLayerTableRecord
  2
INTF_1
 70
0
 62
7
  6
CONTINUOUS
370
-3
390
F
  0
LAYER
  5
20A
100
AcDbSymbolTableRecord
100
AcDbLayerTableRecord
  2
INTF_7
 70
0
 62
7
  6
CONTINUOUS
370
-3
390
F
  0
LAYER
  5
20B
100
AcDbSymbolTableRecord
100
AcDbLayerTableRecord
  2
INTF_CYAN
 70
0
 62
7
  6
CONTINUOUS
370
-3
390
F
  0
LAYER
  5
20C
100
AcDbSymbolTableRecord
100
AcDbLayerTableRecord
  2
NOTE
 70
0
 62
7
  6
CONTINUOUS
370
-3
390
F
  0
LAYER
  5
20D
100
AcDbSymbolTableRecord
100
AcDbLayerTableRecord
  2
PIANI
 70
0
 62
7
  6
CONTINUOUS
370
-3
390
F
  0
LAYER
  5
20E
100
AcDbSymbolTableRecord
100
AcDbLayerTableRecord
  2
PIANI_ORIGINE
 70
0
 62
7
  6
CONTINUOUS
370
-3
390
F
  0
LAYER
  5
20F
100
AcDbSymbolTableRecord
100
AcDbLayerTableRecord
  2
PIANI_RIFERIMENTO
 70
0
 62
7
  6
CONTINUOUS
370
-3
390
F
  0
LAYER
  5
210
100
AcDbSymbolTableRecord
100
AcDbLayerTableRecord
  2
PUNTI
 70
0
 62
7
  6
CONTINUOUS
370
-3
390
F
  0
LAYER
  5
211
100
AcDbSymbolTableRecord
100
AcDbLayerTableRecord
  2
RACCORDO
 70
0
 62
7
  6
CONTINUOUS
370
-3
390
F
  0
LAYER
  5
212
100
AcDbSymbolTableRecord
100
AcDbLayerTableRecord
  2
RGB__255__255__255__
 70
0
 62
7
  6
CONTINUOUS
370
-3
390
F
  0
LAYER
  5
213
100
AcDbSymbolTableRecord
100
AcDbLayerTableRecord
  2
RGB____0____0____0__
 70
0
 62
7
  6
CONTINUOUS
370
-3
390
F
  0
LAYER
  5
214
100
AcDbSymbolTableRecord
100
AcDbLayerTableRecord
  2
SIMBOLI
 70
0
 62
7
  6
CONTINUOUS
370
-3
390
F
  0
LAYER
  5
215
100
AcDbSymbolTableRecord
100
AcDbLayerTableRecord
  2
SMUSSO
 70
0
 62
7
  6
CONTINUOUS
370
-3
390
F
  0
LAYER
  5
216
100
AcDbSymbolTableRecord
100
AcDbLayerTableRecord
  2
SNAPLINE
 70
0
 62
7
  6
CONTINUOUS
370
-3
390
F
  0
LAYER
  5
217
100
AcDbSymbolTableRecord
100
AcDbLayerTableRecord
  2
SUPERFICI
 70
0
 62
7
  6
CONTINUOUS
370
-3
390
F
  0
LAYER
  5
218
100
AcDbSymbolTableRecord
100
AcDbLayerTableRecord
  2
TRASH
 70
0
 62
7
  6
CONTINUOUS
370
-3
390
F
  0
LAYER
  5
219
100
AcDbSymbolTableRecord
100
AcDbLayerTableRecord
  2
WHITE
 70
0
 62
7
  6
CONTINUOUS
370
-3
390
F
  0
LAYER
  5
21A
100
AcDbSymbolTableRecord
100
AcDbLayerTableRecord
  2
XSEC_DATUMS
 70
0
 62
7
  6
CONTINUOUS
370
-3
390
F
  0
ENDTAB
  0
TABLE
  2
STYLE
  5
3
100
AcDbSymbolTable
 70
1
  0
STYLE
  5
11
100
AcDbSymbolTableRecord
100
AcDbTextStyleTableRecord
  2
STANDARD
 70
0
 40
0.0
 41
0.8
 50
0.0
 71
0
 42
0.2
  3
txt
  4

  0
STYLE
  5
21B
100
AcDbSymbolTableRecord
100
AcDbTextStyleTableRecord
  2
TEXTSTYLE_1
 70
0
 40
0.0
 41
0.8
 50
0.0
 71
0
 42
0.2
  3
gdt
  4

  0
ENDTAB
  0
TABLE
  2
VIEW
  5
6
100
AcDbSymbolTable
 70
0
  0
ENDTAB
  0
TABLE
  2
UCS
  5
7
100
AcDbSymbolTable
 70
0
  0
ENDTAB
  0
TABLE
  2
APPID
  5
9
100
AcDbSymbolTable
 70
1
  0
APPID
  5
21C
100
AcDbSymbolTableRecord
100
AcDbRegAppTableRecord
  2
ACAD
 70
0
  0
ENDTAB
  0
TABLE
  2
BLOCK_RECORD
  5
1
100
AcDbSymbolTable
 70
0
  0
BLOCK_RECORD
  5
21D
100
AcDbSymbolTableRecord
100
AcDbBlockTableRecord
  2
*Model_Space
  0
BLOCK_RECORD
  5
21E
100
AcDbSymbolTableRecord
100
AcDbBlockTableRecord
  2
*Paper_Space
  0
BLOCK_RECORD
  5
21F
100
AcDbSymbolTableRecord
100
AcDbBlockTableRecord
  2
_FILLED
  0
ENDTAB
  0
TABLE
  2
DIMSTYLE
  5
A
100
AcDbSymbolTable
 70
1
100
AcDbDimStyleTable
 71
0
  0
DIMSTYLE
105
220
100
AcDbSymbolTableRecord
100
AcDbDimStyleTableRecord
  2
STANDARD
 70
0
  3

  4

 40
1.0
 41
3.0
 42
0.5
 43
0.38
 44
1.5
 45
0.0
 46
0.0
 47
0.01
 48
0.01
140
3.0
141
0.09
142
0.0
143
25.4
144
1.0
145
0.0
146
1.0
147
0.625
 71
1
 72
0
 73
0
 74
0
 75
0
 76
0
 77
1
 78
8
 79
2
170
0
171
1
172
0
173
0
174
0
175
0
176
0
177
0
178
0
270
2
179
2
271
2
272
2
273
2
274
2
275
0
280
0
281
0
282
0
283
1
284
8
285
0
286
0
287
3
288
0
340
11
278
44
341
21F
342
21F
343
21F
344
21F
  0
ENDTAB
  0
ENDSEC
  0
SECTION
  2
BLOCKS
  0
BLOCK
  5
20
100
AcDbEntity
  8
0
100
AcDbBlockBegin
  2
*Model_Space
 70
0
 10
0.0
 20
0.0
 30
0.0
  3
*Model_Space
  1

  0
ENDBLK
  5
21
100
AcDbEntity
  8
0
100
AcDbBlockEnd
  0
BLOCK
  5
1C
100
AcDbEntity
  8
0
100
AcDbBlockBegin
  2
*Paper_Space
 70
0
 10
0.0
 20
0.0
 30
0.0
  3
*Paper_Space
  1

  0
ENDBLK
  5
1D
100
AcDbEntity
  8
0
100
AcDbBlockEnd
  0
BLOCK
  5
221
100
AcDbEntity
  8
0
100
AcDbBlockBegin
  2
_FILLED
 70
64
 10
0.0
 20
0.0
  3
_FILLED
  1

  0
SOLID
  5
222
100
AcDbEntity
  8
0
  6
BYBLOCK
 62
0
100
AcDbTrace
 10
0.0
 20
0.0
 11
-1.0
 21
0.3166666667
 12
-1.0
 22
-0.3166666667
 13
-1.0
 23
-0.3166666667
  0
ENDBLK
  5
223
100
AcDbEntity
  8
0
  6
BYBLOCK
 62
0
100
AcDbBlockEnd
  0
ENDSEC
  0
SECTION
  2
ENTITIES
  0
LINE
  5
224
100
AcDbEntity
  8
RACCORDO
100
AcDbLine
 62
7
  6
CONTINUOUS
 10
-33.263284415
 20
54.1479298505
 11
-32.2026242432
 21
54.7603417405
  0
LINE
  5
225
100
AcDbEntity
  8
SMUSSO
100
AcDbLine
 62
250
  6
CONTINUOUS
 10
-32.7632602549
 20
54.0983886729
 11
-31.7026000831
 21
54.7108005629
  0
LINE
  5
226
100
AcDbEntity
  8
0
100
AcDbLine
 62
250
  6
CONTINUOUS
 10
-28.697396263
 20
55.3028539601
 11
-30.7480059285
 21
54.1601871103
  0
LINE
  5
227
100
AcDbEntity
  8
ASSI
100
AcDbLine
 62
250
  6
CONTINUOUS
 10
-28.697396263
 20
55.3028539601
 11
-30.7480059285
 21
54.1601871103
  0
LINE
  5
228
100
AcDbEntity
  8
0
100
AcDbLine
 62
7
  6
CONTINUOUS
 10
-29.1756684165
 20
55.3644288421
 11
-31.0508833429
 21
54.334507485
  0
LINE
  5
229
100
AcDbEntity
  8
ASSI
100
AcDbLine
 62
7
  6
CONTINUOUS
 10
-29.1756684165
 20
55.3644288421
 11
-31.0508833429
 21
54.334507485
  0
LINE
  5
22A
100
AcDbEntity
  8
SMUSSO
100
AcDbLine
 62
250
  6
CONTINUOUS
 10
-33.4703670361
 20
52.8736438027
 11
-32.7632602549
 21
54.0983886729
  0
LINE
  5
22B
100
AcDbEntity
  8
0
100
AcDbLine
 62
250
  6
CONTINUOUS
 10
31.5906796841
 20
-47.5890737081
 11
32.4992387902
 21
-47.3505574361
  0
LINE
  5
22C
100
AcDbEntity
  8
0
100
AcDbLine
 62
250
  6
CONTINUOUS
 10
32.9106246446
 20
-46.9749146597
 11
31.5906796841
 21
-47.265505721
  0
LINE
  5
22D
100
AcDbEntity
  8
SMUSSO
100
AcDbLine
 62
250
  6
CONTINUOUS
 10
28.7550297084
 20
-54.9039047679
 11
30.1692432707
 21
-54.9039047679
  0
LINE
  5
22E
100
AcDbEntity
  8
0
100
AcDbLine
 62
250
  6
CONTINUOUS
 10
32.4432150905
 20
-44.0376674214
 11
31.9533667375
 21
-44.1693286207
  0
LINE
  5
22F
100
AcDbEntity
  8
0
100
AcDbLine
 62
250
  6
CONTINUOUS
 10
32.9106246446
 20
-43.9137806203
 11
32.6471165682
 21
-43.9819871596
  0
LINE
  5
230
100
AcDbEntity
  8
0
100
AcDbLine
 62
250
  6
CONTINUOUS
 10
31.5906796841
 20
-44.5367101924
 11
32.9106246446
 21
-44.2340574158
  0
LINE
  5
231
100
AcDbEntity
  8
0
100
AcDbLine
 62
250
  6
CONTINUOUS
 10
31.5906796841
 20
-45.539508784
 11
32.3235169479
 21
-45.4251330041
  0
LINE
  5
232
100
AcDbEntity
  8
0
100
AcDbLine
 62
250
  6
CONTINUOUS
 10
32.9106246446
 20
-45.0531624422
 11
32.0523185268
 21
-45.1813594324
  0
LINE
  5
233
100
AcDbEntity
  8
RACCORDO
100
AcDbLine
 62
250
  6
CONTINUOUS
 10
-26.3992992242
 20
30.4611401555
 11
-25.5508120909
 21
30.9510459922
  0
LINE
  5
234
100
AcDbEntity
  8
SMUSSO
100
AcDbLine
 62
7
  6
CONTINUOUS
 10
-33.4703670361
 20
-18.975740555
 11
-33.4703670361
 21
53.6901929894
  0
LINE
  5
235
100
AcDbEntity
  8
SMUSSO
100
AcDbLine
 62
7
  6
CONTINUOUS
 10
-33.4703670361
 20
-18.975740555
 11
29.4621364895
 21
-55.3121004513
  0
LINE
  5
236
100
AcDbEntity
  8
RACCORDO
100
AcDbLine
 62
7
  6
CONTINUOUS
 10
-26.3992992242
 20
30.4611401555
 11
-26.3992992242
 21
-4.7287287743
  0
LINE
  5
237
100
AcDbEntity
  8
RACCORDO
100
AcDbLine
 62
7
  6
CONTINUOUS
 10
-24.2779788806
 20
30.2160807076
 11
-24.2779788806
 21
-3.5039049943
  0
LINE
  5
238
100
AcDbEntity
  8
0
100
AcDbLine
 62
250
  6
CONTINUOUS
 10
-23.5454451582
 20
29.7931249171
 11
-23.5454451582
 21
-4.8972387961
  0
LINE
  5
239
100
AcDbEntity
  8
ASSI
100
AcDbLine
 62
250
  6
CONTINUOUS
 10
-23.5454451582
 20
29.7931249171
 11
-23.5454451582
 21
-4.8972387961
  0
LINE
  5
23A
100
AcDbEntity
  8
0
100
AcDbLine
 62
7
  6
CONTINUOUS
 10
-23.4752801082
 20
29.7526124966
 11
-23.4752801082
 21
-4.9453562854
  0
LINE
  5
23B
100
AcDbEntity
  8
ASSI
100
AcDbLine
 62
7
  6
CONTINUOUS
 10
-23.4752801082
 20
29.7526124966
 11
-23.4752801082
 21
-4.9453562854
  0
LINE
  5
23C
100
AcDbEntity
  8
RACCORDO
100
AcDbLine
 62
7
  6
CONTINUOUS
 10
-25.5507710868
 20
-6.1984226184
 11
20.8354337591
 21
-32.9812359407
  0
LINE
  5
23D
100
AcDbEntity
  8
RACCORDO
100
AcDbLine
 62
7
  6
CONTINUOUS
 10
-23.4294507432
 20
-4.9735988385
 11
21.6839618965
 21
-31.0215178928
  0
LINE
  5
23E
100
AcDbEntity
  8
0
100
AcDbLine
 62
7
  6
CONTINUOUS
 10
19.3858648576
 20
-29.5311341344
 11
15.4967775611
 21
-27.2856238711
  0
LINE
  5
23F
100
AcDbEntity
  8
ASSI
100
AcDbLine
 62
7
  6
CONTINUOUS
 10
19.3858648576
 20
-29.5311341344
 11
15.4967775611
 21
-27.2856238711
  0
LINE
  5
240
100
AcDbEntity
  8
0
100
AcDbLine
 62
7
  6
CONTINUOUS
 10
-12.4339402958
 20
-11.1587774347
 11
-16.3230275923
 21
-8.9132671714
  0
LINE
  5
241
100
AcDbEntity
  8
ASSI
100
AcDbLine
 62
7
  6
CONTINUOUS
 10
-12.4339402958
 20
-11.1587774347
 11
-16.3230275923
 21
-8.9132671714
  0
LINE
  5
242
100
AcDbEntity
  8
0
100
AcDbLine
 62
7
  6
CONTINUOUS
 10
19.6333522311
 20
-29.5107085683
 11
15.6381989173
 21
-27.2039689525
  0
LINE
  5
243
100
AcDbEntity
  8
ASSI
100
AcDbLine
 62
7
  6
CONTINUOUS
 10
19.6333522311
 20
-29.5107085683
 11
15.6381989173
 21
-27.2039689525
  0
LINE
  5
244
100
AcDbEntity
  8
0
100
AcDbLine
 62
7
  6
CONTINUOUS
 10
-16.181606236
 20
-8.8316122527
 11
-12.1864529223
 21
-11.1383518685
  0
LINE
  5
245
100
AcDbEntity
  8
ASSI
100
AcDbLine
 62
7
  6
CONTINUOUS
 10
-16.181606236
 20
-8.8316122527
 11
-12.1864529223
 21
-11.1383518685
  0
LINE
  5
246
100
AcDbEntity
  8
0
100
AcDbLine
 62
7
  6
CONTINUOUS
 10
19.7394182482
 20
-29.3269968378
 11
15.8503309517
 21
-27.0814865745
  0
LINE
  5
247
100
AcDbEntity
  8
ASSI
100
AcDbLine
 62
7
  6
CONTINUOUS
 10
19.7394182482
 20
-29.3269968378
 11
15.8503309517
 21
-27.0814865745
  0
LINE
  5
248
100
AcDbEntity
  8
0
100
AcDbLine
 62
7
  6
CONTINUOUS
 10
-12.0803869052
 20
-10.954640138
 11
-15.9694742017
 21
-8.7091298747
  0
LINE
  5
249
100
AcDbEntity
  8
ASSI
100
AcDbLine
 62
7
  6
CONTINUOUS
 10
-12.0803869052
 20
-10.954640138
 11
-15.9694742017
 21
-8.7091298747
  0
LINE
  5
24A
100
AcDbEntity
  8
0
100
AcDbLine
 62
7
  6
CONTINUOUS
 10
19.9869056216
 20
-29.3065712716
 11
15.9917523079
 21
-26.9998316558
  0
LINE
  5
24B
100
AcDbEntity
  8
ASSI
100
AcDbLine
 62
7
  6
CONTINUOUS
 10
19.9869056216
 20
-29.3065712716
 11
15.9917523079
 21
-26.9998316558
  0
LINE
  5
24C
100
AcDbEntity
  8
0
100
AcDbLine
 62
7
  6
CONTINUOUS
 10
-15.8280528455
 20
-8.6274749561
 11
-11.8328995318
 21
-10.9342145719
  0
LINE
  5
24D
100
AcDbEntity
  8
ASSI
100
AcDbLine
 62
7
  6
CONTINUOUS
 10
-15.8280528455
 20
-8.6274749561
 11
-11.8328995318
 21
-10.9342145719
  0
LINE
  5
24E
100
AcDbEntity
  8
0
100
AcDbLine
 62
7
  6
CONTINUOUS
 10
20.0929716388
 20
-29.1228595411
 11
16.2038843423
 21
-26.8773492778
  0
LINE
  5
24F
100
AcDbEntity
  8
ASSI
100
AcDbLine
 62
7
  6
CONTINUOUS
 10
20.0929716388
 20
-29.1228595411
 11
16.2038843423
 21
-26.8773492778
  0
LINE
  5
250
100
AcDbEntity
  8
0
100
AcDbLine
 62
7
  6
CONTINUOUS
 10
-11.7268335146
 20
-10.7505028414
 11
-15.6159208111
 21
-8.5049925781
  0
LINE
  5
251
100
AcDbEntity
  8
ASSI
100
AcDbLine
 62
7
  6
CONTINUOUS
 10
-11.7268335146
 20
-10.7505028414
 11
-15.6159208111
 21
-8.5049925781
  0
LINE
  5
252
100
AcDbEntity
  8
0
100
AcDbLine
 62
7
  6
CONTINUOUS
 10
20.3404590122
 20
-29.102433975
 11
16.3453056985
 21
-26.7956943591
  0
LINE
  5
253
100
AcDbEntity
  8
ASSI
100
AcDbLine
 62
7
  6
CONTINUOUS
 10
20.3404590122
 20
-29.102433975
 11
16.3453056985
 21
-26.7956943591
  0
LINE
  5
254
100
AcDbEntity
  8
0
100
AcDbLine
 62
7
  6
CONTINUOUS
 10
-15.4744994549
 20
-8.4233376594
 11
-11.4793461412
 21
-10.7300772752
  0
LINE
  5
255
100
AcDbEntity
  8
ASSI
100
AcDbLine
 62
7
  6
CONTINUOUS
 10
-15.4744994549
 20
-8.4233376594
 11
-11.4793461412
 21
-10.7300772752
  0
LINE
  5
256
100
AcDbEntity
  8
0
100
AcDbLine
 62
7
  6
CONTINUOUS
 10
20.4465250294
 20
-28.9187222445
 11
16.5574377329
 21
-26.6732119811
  0
LINE
  5
257
100
AcDbEntity
  8
ASSI
100
AcDbLine
 62
7
  6
CONTINUOUS
 10
20.4465250294
 20
-28.9187222445
 11
16.5574377329
 21
-26.6732119811
  0
LINE
  5
258
100
AcDbEntity
  8
0
100
AcDbLine
 62
7
  6
CONTINUOUS
 10
-11.373280124
 20
-10.5463655447
 11
-15.2623674205
 21
-8.3008552814
  0
LINE
  5
259
100
AcDbEntity
  8
ASSI
100
AcDbLine
 62
7
  6
CONTINUOUS
 10
-11.373280124
 20
-10.5463655447
 11
-15.2623674205
 21
-8.3008552814
  0
LINE
  5
25A
100
AcDbEntity
  8
0
100
AcDbLine
 62
7
  6
CONTINUOUS
 10
20.6940124028
 20
-28.8982966783
 11
16.6988590891
 21
-26.5915570625
  0
LINE
  5
25B
100
AcDbEntity
  8
ASSI
100
AcDbLine
 62
7
  6
CONTINUOUS
 10
20.6940124028
 20
-28.8982966783
 11
16.6988590891
 21
-26.5915570625
  0
LINE
  5
25C
100
AcDbEntity
  8
0
100
AcDbLine
 62
7
  6
CONTINUOUS
 10
-15.1209460643
 20
-8.2192003627
 11
-11.1257927506
 21
-10.5259399786
  0
LINE
  5
25D
100
AcDbEntity
  8
ASSI
100
AcDbLine
 62
7
  6
CONTINUOUS
 10
-15.1209460643
 20
-8.2192003627
 11
-11.1257927506
 21
-10.5259399786
  0
LINE
  5
25E
100
AcDbEntity
  8
0
100
AcDbLine
 62
7
  6
CONTINUOUS
 10
20.80007842
 20
-28.7145849478
 11
16.9109911235
 21
-26.4690746845
  0
LINE
  5
25F
100
AcDbEntity
  8
ASSI
100
AcDbLine
 62
7
  6
CONTINUOUS
 10
20.80007842
 20
-28.7145849478
 11
16.9109911235
 21
-26.4690746845
  0
LINE
  5
260
100
AcDbEntity
  8
0
100
AcDbLine
 62
7
  6
CONTINUOUS
 10
-11.0197267334
 20
-10.342228248
 11
-14.9088140299
 21
-8.0967179847
  0
LINE
  5
261
100
AcDbEntity
  8
ASSI
100
AcDbLine
 62
7
  6
CONTINUOUS
 10
-11.0197267334
 20
-10.342228248
 11
-14.9088140299
 21
-8.0967179847
  0
LINE
  5
262
100
AcDbEntity
  8
0
100
AcDbLine
 62
7
  6
CONTINUOUS
 10
21.0475657934
 20
-28.6941593816
 11
17.0524124797
 21
-26.3874197658
  0
LINE
  5
263
100
AcDbEntity
  8
ASSI
100
AcDbLine
 62
7
  6
CONTINUOUS
 10
21.0475657934
 20
-28.6941593816
 11
17.0524124797
 21
-26.3874197658
  0
LINE
  5
264
100
AcDbEntity
  8
0
100
AcDbLine
 62
7
  6
CONTINUOUS
 10
-14.7673926737
 20
-8.0150630661
 11
-10.77223936
 21
-10.3218026819
  0
LINE
  5
265
100
AcDbEntity
  8
ASSI
100
AcDbLine
 62
7
  6
CONTINUOUS
 10
-14.7673926737
 20
-8.0150630661
 11
-10.77223936
 21
-10.3218026819
  0
LINE
  5
266
100
AcDbEntity
  8
0
100
AcDbLine
 62
7
  6
CONTINUOUS
 10
21.1536318106
 20
-28.5104476511
 11
17.2645445141
 21
-26.2649373878
  0
LINE
  5
267
100
AcDbEntity
  8
ASSI
100
AcDbLine
 62
7
  6
CONTINUOUS
 10
21.1536318106
 20
-28.5104476511
 11
17.2645445141
 21
-26.2649373878
  0
LINE
  5
268
100
AcDbEntity
  8
0
100
AcDbLine
 62
7
  6
CONTINUOUS
 10
-10.6661733428
 20
-10.1380909514
 11
-14.5552606393
 21
-7.8925806881
  0
LINE
  5
269
100
AcDbEntity
  8
ASSI
100
AcDbLine
 62
7
  6
CONTINUOUS
 10
-10.6661733428
 20
-10.1380909514
 11
-14.5552606393
 21
-7.8925806881
  0
LINE
  5
26A
100
AcDbEntity
  8
0
100
AcDbLine
 62
7
  6
CONTINUOUS
 10
21.401119184
 20
-28.490022085
 11
17.4059658703
 21
-26.1832824692
  0
LINE
  5
26B
100
AcDbEntity
  8
ASSI
100
AcDbLine
 62
7
  6
CONTINUOUS
 10
21.401119184
 20
-28.490022085
 11
17.4059658703
 21
-26.1832824692
  0
LINE
  5
26C
100
AcDbEntity
  8
0
100
AcDbLine
 62
7
  6
CONTINUOUS
 10
-14.4138392831
 20
-7.8109257694
 11
-10.4186859694
 21
-10.1176653852
  0
LINE
  5
26D
100
AcDbEntity
  8
ASSI
100
AcDbLine
 62
7
  6
CONTINUOUS
 10
-14.4138392831
 20
-7.8109257694
 11
-10.4186859694
 21
-10.1176653852
  0
LINE
  5
26E
100
AcDbEntity
  8
0
100
AcDbLine
 62
250
  6
CONTINUOUS
 10
21.6858981312
 20
-28.5318659405
 11
17.4395608729
 21
-26.0800840267
  0
LINE
  5
26F
100
AcDbEntity
  8
ASSI
100
AcDbLine
 62
250
  6
CONTINUOUS
 10
21.6858981312
 20
-28.5318659405
 11
17.4395608729
 21
-26.0800840267
  0
LINE
  5
270
100
AcDbEntity
  8
0
100
AcDbLine
 62
250
  6
CONTINUOUS
 10
-10.1339070222
 20
-10.1595092408
 11
-14.3802442805
 21
-7.7077273269
  0
LINE
  5
271
100
AcDbEntity
  8
ASSI
100
AcDbLine
 62
250
  6
CONTINUOUS
 10
-10.1339070222
 20
-10.1595092408
 11
-14.3802442805
 21
-7.7077273269
  0
LINE
  5
272
100
AcDbEntity
  8
0
100
AcDbLine
 62
250
  6
CONTINUOUS
 10
21.6839618965
 20
-28.4535502887
 11
17.5136080259
 21
-26.0456402306
  0
LINE
  5
273
100
AcDbEntity
  8
ASSI
100
AcDbLine
 62
250
  6
CONTINUOUS
 10
21.6839618965
 20
-28.4535502887
 11
17.5136080259
 21
-26.0456402306
  0
LINE
  5
274
100
AcDbEntity
  8
0
100
AcDbLine
 62
250
  6
CONTINUOUS
 10
-10.0672346662
 20
-10.1208073294
 11
-14.3061971275
 21
-7.6732835309
  0
LINE
  5
275
100
AcDbEntity
  8
ASSI
100
AcDbLine
 62
250
  6
CONTINUOUS
 10
-10.0672346662
 20
-10.1208073294
 11
-14.3061971275
 21
-7.6732835309
  0
LINE
  5
276
100
AcDbEntity
  8
0
100
AcDbLine
 62
7
  6
CONTINUOUS
 10
-12.7205953943
 20
-7.1554575777
 11
-8.8945940038
 21
-9.3645428295
  0
LINE
  5
277
100
AcDbEntity
  8
ASSI
100
AcDbLine
 62
7
  6
CONTINUOUS
 10
-12.7205953943
 20
-7.1554575777
 11
-8.8945940038
 21
-9.3645428295
  0
LINE
  5
278
100
AcDbEntity
  8
0
100
AcDbLine
 62
7
  6
CONTINUOUS
 10
19.0992097591
 20
-25.5278142774
 11
21.6839618965
 21
-27.020217767
  0
LINE
  5
279
100
AcDbEntity
  8
ASSI
100
AcDbLine
 62
7
  6
CONTINUOUS
 10
19.0992097591
 20
-25.5278142774
 11
21.6839618965
 21
-27.020217767
  0
LINE
  5
27A
100
AcDbEntity
  8
0
100
AcDbLine
 62
250
  6
CONTINUOUS
 10
-8.8873863949
 20
-9.5079924829
 11
-8.8873863949
 21
-9.9153621208
  0
LINE
  5
27B
100
AcDbEntity
  8
ASSI
100
AcDbLine
 62
250
  6
CONTINUOUS
 10
-8.8873863949
 20
-9.5079924829
 11
-8.8873863949
 21
-9.9153621208
  0
LINE
  5
27C
100
AcDbEntity
  8
0
100
AcDbLine
 62
7
  6
CONTINUOUS
 10
-8.83601536
 20
-9.4414149761
 11
-8.83601536
 21
-9.884816826
  0
LINE
  5
27D
100
AcDbEntity
  8
ASSI
100
AcDbLine
 62
7
  6
CONTINUOUS
 10
-8.83601536
 20
-9.4414149761
 11
-8.83601536
 21
-9.884816826
  0
LINE
  5
27E
100
AcDbEntity
  8
0
100
AcDbLine
 62
7
  6
CONTINUOUS
 10
-16.3938202746
 20
-9.0358836939
 11
-16.3230275923
 21
-8.9132671714
  0
LINE
  5
27F
100
AcDbEntity
  8
ASSI
100
AcDbLine
 62
7
  6
CONTINUOUS
 10
-16.3938202746
 20
-9.0358836939
 11
-16.3230275923
 21
-8.9132671714
  0
LINE
  5
280
100
AcDbEntity
  8
0
100
AcDbLine
 62
7
  6
CONTINUOUS
 10
-16.0755402189
 20
-8.8928416052
 11
-15.9694742017
 21
-8.7091298747
  0
LINE
  5
281
100
AcDbEntity
  8
ASSI
100
AcDbLine
 62
7
  6
CONTINUOUS
 10
-16.0755402189
 20
-8.8928416052
 11
-15.9694742017
 21
-8.7091298747
  0
LINE
  5
282
100
AcDbEntity
  8
0
100
AcDbLine
 62
7
  6
CONTINUOUS
 10
-15.7219868283
 20
-8.6887043086
 11
-15.6159208111
 21
-8.5049925781
  0
LINE
  5
283
100
AcDbEntity
  8
ASSI
100
AcDbLine
 62
7
  6
CONTINUOUS
 10
-15.7219868283
 20
-8.6887043086
 11
-15.6159208111
 21
-8.5049925781
  0
LINE
  5
284
100
AcDbEntity
  8
0
100
AcDbLine
 62
7
  6
CONTINUOUS
 10
-15.3684334377
 20
-8.4845670119
 11
-15.2623674205
 21
-8.3008552814
  0
LINE
  5
285
100
AcDbEntity
  8
ASSI
100
AcDbLine
 62
7
  6
CONTINUOUS
 10
-15.3684334377
 20
-8.4845670119
 11
-15.2623674205
 21
-8.3008552814
  0
LINE
  5
286
100
AcDbEntity
  8
0
100
AcDbLine
 62
7
  6
CONTINUOUS
 10
-15.0148800471
 20
-8.2804297153
 11
-14.9088140299
 21
-8.0967179847
  0
LINE
  5
287
100
AcDbEntity
  8
ASSI
100
AcDbLine
 62
7
  6
CONTINUOUS
 10
-15.0148800471
 20
-8.2804297153
 11
-14.9088140299
 21
-8.0967179847
  0
LINE
  5
288
100
AcDbEntity
  8
0
100
AcDbLine
 62
7
  6
CONTINUOUS
 10
-14.6613266565
 20
-8.0762924186
 11
-14.5552606393
 21
-7.8925806881
  0
LINE
  5
289
100
AcDbEntity
  8
ASSI
100
AcDbLine
 62
7
  6
CONTINUOUS
 10
-14.6613266565
 20
-8.0762924186
 11
-14.5552606393
 21
-7.8925806881
  0
LINE
  5
28A
100
AcDbEntity
  8
RACCORDO
100
AcDbLine
 62
250
  6
CONTINUOUS
 10
-26.3992992242
 20
-4.7287287743
 11
-24.2779788806
 21
-3.5039049943
  0
LINE
  5
28B
100
AcDbEntity
  8
0
100
AcDbLine
 62
7
  6
CONTINUOUS
 10
-12.5047329781
 20
-11.2813939572
 11
-12.4339402958
 21
-11.1587774347
  0
LINE
  5
28C
100
AcDbEntity
  8
ASSI
100
AcDbLine
 62
7
  6
CONTINUOUS
 10
-12.5047329781
 20
-11.2813939572
 11
-12.4339402958
 21
-11.1587774347
  0
LINE
  5
28D
100
AcDbEntity
  8
0
100
AcDbLine
 62
7
  6
CONTINUOUS
 10
-12.1864529223
 20
-11.1383518685
 11
-12.0803869052
 21
-10.954640138
  0
LINE
  5
28E
100
AcDbEntity
  8
ASSI
100
AcDbLine
 62
7
  6
CONTINUOUS
 10
-12.1864529223
 20
-11.1383518685
 11
-12.0803869052
 21
-10.954640138
  0
LINE
  5
28F
100
AcDbEntity
  8
0
100
AcDbLine
 62
7
  6
CONTINUOUS
 10
-11.8328995318
 20
-10.9342145719
 11
-11.7268335146
 21
-10.7505028414
  0
LINE
  5
290
100
AcDbEntity
  8
ASSI
100
AcDbLine
 62
7
  6
CONTINUOUS
 10
-11.8328995318
 20
-10.9342145719
 11
-11.7268335146
 21
-10.7505028414
  0
LINE
  5
291
100
AcDbEntity
  8
0
100
AcDbLine
 62
7
  6
CONTINUOUS
 10
-11.4793461412
 20
-10.7300772752
 11
-11.373280124
 21
-10.5463655447
  0
LINE
  5
292
100
AcDbEntity
  8
ASSI
100
AcDbLine
 62
7
  6
CONTINUOUS
 10
-11.4793461412
 20
-10.7300772752
 11
-11.373280124
 21
-10.5463655447
  0
LINE
  5
293
100
AcDbEntity
  8
0
100
AcDbLine
 62
7
  6
CONTINUOUS
 10
-11.1257927506
 20
-10.5259399786
 11
-11.0197267334
 21
-10.342228248
  0
LINE
  5
294
100
AcDbEntity
  8
ASSI
100
AcDbLine
 62
7
  6
CONTINUOUS
 10
-11.1257927506
 20
-10.5259399786
 11
-11.0197267334
 21
-10.342228248
  0
LINE
  5
295
100
AcDbEntity
  8
0
100
AcDbLine
 62
7
  6
CONTINUOUS
 10
-10.77223936
 20
-10.3218026819
 11
-10.6661733428
 21
-10.1380909514
  0
LINE
  5
296
100
AcDbEntity
  8
ASSI
100
AcDbLine
 62
7
  6
CONTINUOUS
 10
-10.77223936
 20
-10.3218026819
 11
-10.6661733428
 21
-10.1380909514
  0
LINE
  5
297
100
AcDbEntity
  8
RACCORDO
100
AcDbLine
 62
250
  6
CONTINUOUS
 10
-25.5507710868
 20
-6.1984226184
 11
-23.4294507432
 21
-4.9735988385
  0
LINE
  5
298
100
AcDbEntity
  8
0
100
AcDbLine
 62
250
  6
CONTINUOUS
 10
-10.8318658079
 20
-11.1869997744
 11
-10.4959208429
 21
-10.8602461846
  0
LINE
  5
299
100
AcDbEntity
  8
ASSI
100
AcDbLine
 62
250
  6
CONTINUOUS
 10
-10.8318658079
 20
-11.1869997744
 11
-10.4959208429
 21
-10.8602461846
  0
LINE
  5
29A
100
AcDbEntity
  8
0
100
AcDbLine
 62
7
  6
CONTINUOUS
 10
-10.8279409429
 20
-11.2205349678
 11
-10.3989565696
 21
-10.803287506
  0
LINE
  5
29B
100
AcDbEntity
  8
ASSI
100
AcDbLine
 62
7
  6
CONTINUOUS
 10
-10.8279409429
 20
-11.2205349678
 11
-10.3989565696
 21
-10.803287506
  0
LINE
  5
29C
100
AcDbEntity
  8
SMUSSO
100
AcDbLine
 62
250
  6
CONTINUOUS
 10
29.4621364895
 20
18.17022446
 11
30.5227966613
 21
18.78263635
  0
LINE
  5
29D
100
AcDbEntity
  8
0
100
AcDbLine
 62
7
  6
CONTINUOUS
 10
-16.3230275923
 20
-8.9132671714
 11
-16.181606236
 21
-8.8316122527
  0
LINE
  5
29E
100
AcDbEntity
  8
ASSI
100
AcDbLine
 62
7
  6
CONTINUOUS
 10
-16.3230275923
 20
-8.9132671714
 11
-16.181606236
 21
-8.8316122527
  0
LINE
  5
29F
100
AcDbEntity
  8
0
100
AcDbLine
 62
7
  6
CONTINUOUS
 10
-15.9694742017
 20
-8.7091298747
 11
-15.8280528455
 21
-8.6274749561
  0
LINE
  5
2A0
100
AcDbEntity
  8
ASSI
100
AcDbLine
 62
7
  6
CONTINUOUS
 10
-15.9694742017
 20
-8.7091298747
 11
-15.8280528455
 21
-8.6274749561
  0
LINE
  5
2A1
100
AcDbEntity
  8
0
100
AcDbLine
 62
7
  6
CONTINUOUS
 10
-15.6159208111
 20
-8.5049925781
 11
-15.4744994549
 21
-8.4233376594
  0
LINE
  5
2A2
100
AcDbEntity
  8
ASSI
100
AcDbLine
 62
7
  6
CONTINUOUS
 10
-15.6159208111
 20
-8.5049925781
 11
-15.4744994549
 21
-8.4233376594
  0
LINE
  5
2A3
100
AcDbEntity
  8
0
100
AcDbLine
 62
7
  6
CONTINUOUS
 10
-15.2623674205
 20
-8.3008552814
 11
-15.1209460643
 21
-8.2192003627
  0
LINE
  5
2A4
100
AcDbEntity
  8
ASSI
100
AcDbLine
 62
7
  6
CONTINUOUS
 10
-15.2623674205
 20
-8.3008552814
 11
-15.1209460643
 21
-8.2192003627
  0
LINE
  5
2A5
100
AcDbEntity
  8
0
100
AcDbLine
 62
7
  6
CONTINUOUS
 10
-14.9088140299
 20
-8.0967179847
 11
-14.7673926737
 21
-8.0150630661
  0
LINE
  5
2A6
100
AcDbEntity
  8
ASSI
100
AcDbLine
 62
7
  6
CONTINUOUS
 10
-14.9088140299
 20
-8.0967179847
 11
-14.7673926737
 21
-8.0150630661
  0
LINE
  5
2A7
100
AcDbEntity
  8
0
100
AcDbLine
 62
7
  6
CONTINUOUS
 10
-14.5552606393
 20
-7.8925806881
 11
-14.4138392831
 21
-7.8109257694
  0
LINE
  5
2A8
100
AcDbEntity
  8
ASSI
100
AcDbLine
 62
7
  6
CONTINUOUS
 10
-14.5552606393
 20
-7.8925806881
 11
-14.4138392831
 21
-7.8109257694
  0
LINE
  5
2A9
100
AcDbEntity
  8
SMUSSO
100
AcDbLine
 62
250
  6
CONTINUOUS
 10
30.1692432707
 20
16.9454795899
 11
31.2299034425
 21
17.5578914799
  0
LINE
  5
2AA
100
AcDbEntity
  8
0
100
AcDbLine
 62
250
  6
CONTINUOUS
 10
30.4874413223
 20
18.8036073282
 11
32.5380509877
 21
19.9462741779
  0
LINE
  5
2AB
100
AcDbEntity
  8
ASSI
100
AcDbLine
 62
250
  6
CONTINUOUS
 10
30.4874413223
 20
18.8036073282
 11
32.5380509877
 21
19.9462741779
  0
LINE
  5
2AC
100
AcDbEntity
  8
0
100
AcDbLine
 62
7
  6
CONTINUOUS
 10
-16.6502152957
 20
-8.8878444221
 11
-14.3802442805
 21
-7.7077273269
  0
LINE
  5
2AD
100
AcDbEntity
  8
ASSI
100
AcDbLine
 62
7
  6
CONTINUOUS
 10
-16.6502152957
 20
-8.8878444221
 11
-14.3802442805
 21
-7.7077273269
  0
LINE
  5
2AE
100
AcDbEntity
  8
0
100
AcDbLine
 62
7
  6
CONTINUOUS
 10
-10.1339070222
 20
-10.1595092408
 11
-12.1777981048
 21
-11.4701620556
  0
LINE
  5
2AF
100
AcDbEntity
  8
ASSI
100
AcDbLine
 62
7
  6
CONTINUOUS
 10
-10.1339070222
 20
-10.1595092408
 11
-12.1777981048
 21
-11.4701620556
  0
LINE
  5
2B0
100
AcDbEntity
  8
0
100
AcDbLine
 62
250
  6
CONTINUOUS
 10
31.2303416283
 20
17.5168662545
 11
33.2451577689
 21
18.7215293078
  0
LINE
  5
2B1
100
AcDbEntity
  8
ASSI
100
AcDbLine
 62
250
  6
CONTINUOUS
 10
31.2303416283
 20
17.5168662545
 11
33.2451577689
 21
18.7215293078
  0
LINE
  5
2B2
100
AcDbEntity
  8
0
100
AcDbLine
 62
7
  6
CONTINUOUS
 10
-11.8532368076
 20
-11.6575596808
 11
-8.8873863949
 21
-9.9153621208
  0
LINE
  5
2B3
100
AcDbEntity
  8
ASSI
100
AcDbLine
 62
7
  6
CONTINUOUS
 10
-11.8532368076
 20
-11.6575596808
 11
-8.8873863949
 21
-9.9153621208
  0
LINE
  5
2B4
100
AcDbEntity
  8
0
100
AcDbLine
 62
7
  6
CONTINUOUS
 10
-10.8865552894
 20
-11.2649989794
 11
-11.7078121935
 21
-11.7415260304
  0
LINE
  5
2B5
100
AcDbEntity
  8
ASSI
100
AcDbLine
 62
7
  6
CONTINUOUS
 10
-10.8865552894
 20
-11.2649989794
 11
-11.7078121935
 21
-11.7415260304
  0
LINE
  5
2B6
100
AcDbEntity
  8
0
100
AcDbLine
 62
250
  6
CONTINUOUS
 10
-10.8318658079
 20
-11.1869997744
 11
-11.7480801333
 21
-11.7182758267
  0
LINE
  5
2B7
100
AcDbEntity
  8
ASSI
100
AcDbLine
 62
250
  6
CONTINUOUS
 10
-10.8318658079
 20
-11.1869997744
 11
-11.7480801333
 21
-11.7182758267
  0
LINE
  5
2B8
100
AcDbEntity
  8
0
100
AcDbLine
 62
7
  6
CONTINUOUS
 10
-12.4339402958
 20
-11.1587774347
 11
-12.2925189395
 21
-11.077122516
  0
LINE
  5
2B9
100
AcDbEntity
  8
ASSI
100
AcDbLine
 62
7
  6
CONTINUOUS
 10
-12.4339402958
 20
-11.1587774347
 11
-12.2925189395
 21
-11.077122516
  0
LINE
  5
2BA
100
AcDbEntity
  8
0
100
AcDbLine
 62
7
  6
CONTINUOUS
 10
-12.0803869052
 20
-10.954640138
 11
-11.9389655489
 21
-10.8729852194
  0
LINE
  5
2BB
100
AcDbEntity
  8
ASSI
100
AcDbLine
 62
7
  6
CONTINUOUS
 10
-12.0803869052
 20
-10.954640138
 11
-11.9389655489
 21
-10.8729852194
  0
LINE
  5
2BC
100
AcDbEntity
  8
0
100
AcDbLine
 62
7
  6
CONTINUOUS
 10
-11.7268335146
 20
-10.7505028414
 11
-11.5854121583
 21
-10.6688479227
  0
LINE
  5
2BD
100
AcDbEntity
  8
ASSI
100
AcDbLine
 62
7
  6
CONTINUOUS
 10
-11.7268335146
 20
-10.7505028414
 11
-11.5854121583
 21
-10.6688479227
  0
LINE
  5
2BE
100
AcDbEntity
  8
0
100
AcDbLine
 62
7
  6
CONTINUOUS
 10
-11.373280124
 20
-10.5463655447
 11
-11.2318587677
 21
-10.464710626
  0
LINE
  5
2BF
100
AcDbEntity
  8
ASSI
100
AcDbLine
 62
7
  6
CONTINUOUS
 10
-11.373280124
 20
-10.5463655447
 11
-11.2318587677
 21
-10.464710626
  0
LINE
  5
2C0
100
AcDbEntity
  8
0
100
AcDbLine
 62
7
  6
CONTINUOUS
 10
-11.0197267334
 20
-10.342228248
 11
-10.8783053771
 21
-10.2605733294
  0
LINE
  5
2C1
100
AcDbEntity
  8
ASSI
100
AcDbLine
 62
7
  6
CONTINUOUS
 10
-11.0197267334
 20
-10.342228248
 11
-10.8783053771
 21
-10.2605733294
  0
LINE
  5
2C2
100
AcDbEntity
  8
0
100
AcDbLine
 62
7
  6
CONTINUOUS
 10
-10.6661733428
 20
-10.1380909514
 11
-10.5247519866
 21
-10.0564360327
  0
LINE
  5
2C3
100
AcDbEntity
  8
ASSI
100
AcDbLine
 62
7
  6
CONTINUOUS
 10
-10.6661733428
 20
-10.1380909514
 11
-10.5247519866
 21
-10.0564360327
  0
LINE
  5
2C4
100
AcDbEntity
  8
0
100
AcDbLine
 62
7
  6
CONTINUOUS
 10
-10.4186859694
 20
-10.1176653852
 11
-12.469463052
 21
-11.3017583705
  0
LINE
  5
2C5
100
AcDbEntity
  8
ASSI
100
AcDbLine
 62
7
  6
CONTINUOUS
 10
-10.4186859694
 20
-10.1176653852
 11
-12.469463052
 21
-11.3017583705
  0
LINE
  5
2C6
100
AcDbEntity
  8
0
100
AcDbLine
 62
7
  6
CONTINUOUS
 10
-8.8873863949
 20
-9.5079924829
 11
-10.0672346662
 21
-10.1208073294
  0
LINE
  5
2C7
100
AcDbEntity
  8
ASSI
100
AcDbLine
 62
7
  6
CONTINUOUS
 10
-8.8873863949
 20
-9.5079924829
 11
-10.0672346662
 21
-10.1208073294
  0
LINE
  5
2C8
100
AcDbEntity
  8
0
100
AcDbLine
 62
7
  6
CONTINUOUS
 10
-14.3061971275
 20
-7.6732835309
 11
-12.9958428718
 21
-7.1358212042
  0
LINE
  5
2C9
100
AcDbEntity
  8
ASSI
100
AcDbLine
 62
7
  6
CONTINUOUS
 10
-14.3061971275
 20
-7.6732835309
 11
-12.9958428718
 21
-7.1358212042
  0
LINE
  5
2CA
100
AcDbEntity
  8
SMUSSO
100
AcDbLine
 62
250
  6
CONTINUOUS
 10
28.7550297084
 20
16.9454795899
 11
29.4621364895
 21
18.17022446
  0
LINE
  5
2CB
100
AcDbEntity
  8
SMUSSO
100
AcDbLine
 62
250
  6
CONTINUOUS
 10
28.7550297084
 20
16.9454795899
 11
30.1692432707
 21
16.9454795899
  0
LINE
  5
2CC
100
AcDbEntity
  8
RACCORDO
100
AcDbLine
 62
7
  6
CONTINUOUS
 10
20.8354337591
 20
4.1681616533
 11
-25.5507710868
 21
30.9509749756
  0
LINE
  5
2CD
100
AcDbEntity
  8
RACCORDO
100
AcDbLine
 62
7
  6
CONTINUOUS
 10
21.6839618965
 20
-32.4914011206
 11
21.6839618965
 21
2.6984678092
  0
LINE
  5
2CE
100
AcDbEntity
  8
SMUSSO
100
AcDbLine
 62
7
  6
CONTINUOUS
 10
28.7550297084
 20
-54.9039047679
 11
28.7550297084
 21
16.9454795899
  0
LINE
  5
2CF
100
AcDbEntity
  8
SMUSSO
100
AcDbLine
 62
7
  6
CONTINUOUS
 10
30.1692432707
 20
-54.9039047679
 11
30.1692432707
 21
16.9454795899
  0
LINE
  5
2D0
100
AcDbEntity
  8
0
100
AcDbLine
 62
250
  6
CONTINUOUS
 10
33.2453053626
 20
18.7552871517
 11
33.4572898032
 21
19.610208871
  0
LINE
  5
2D1
100
AcDbEntity
  8
ASSI
100
AcDbLine
 62
250
  6
CONTINUOUS
 10
33.2453053626
 20
18.7552871517
 11
33.4572898032
 21
19.610208871
  0
LINE
  5
2D2
100
AcDbEntity
  8
0
100
AcDbLine
 62
7
  6
CONTINUOUS
 10
15.4259848788
 20
-27.4082403936
 11
15.4967775611
 21
-27.2856238711
  0
LINE
  5
2D3
100
AcDbEntity
  8
ASSI
100
AcDbLine
 62
7
  6
CONTINUOUS
 10
15.4259848788
 20
-27.4082403936
 11
15.4967775611
 21
-27.2856238711
  0
LINE
  5
2D4
100
AcDbEntity
  8
0
100
AcDbLine
 62
7
  6
CONTINUOUS
 10
15.7442649345
 20
-27.265198305
 11
15.8503309517
 21
-27.0814865745
  0
LINE
  5
2D5
100
AcDbEntity
  8
ASSI
100
AcDbLine
 62
7
  6
CONTINUOUS
 10
15.7442649345
 20
-27.265198305
 11
15.8503309517
 21
-27.0814865745
  0
LINE
  5
2D6
100
AcDbEntity
  8
0
100
AcDbLine
 62
7
  6
CONTINUOUS
 10
16.0978183251
 20
-27.0610610083
 11
16.2038843423
 21
-26.8773492778
  0
LINE
  5
2D7
100
AcDbEntity
  8
ASSI
100
AcDbLine
 62
7
  6
CONTINUOUS
 10
16.0978183251
 20
-27.0610610083
 11
16.2038843423
 21
-26.8773492778
  0
LINE
  5
2D8
100
AcDbEntity
  8
0
100
AcDbLine
 62
7
  6
CONTINUOUS
 10
16.4513717157
 20
-26.8569237117
 11
16.5574377329
 21
-26.6732119811
  0
LINE
  5
2D9
100
AcDbEntity
  8
ASSI
100
AcDbLine
 62
7
  6
CONTINUOUS
 10
16.4513717157
 20
-26.8569237117
 11
16.5574377329
 21
-26.6732119811
  0
LINE
  5
2DA
100
AcDbEntity
  8
0
100
AcDbLine
 62
7
  6
CONTINUOUS
 10
16.8049251063
 20
-26.652786415
 11
16.9109911235
 21
-26.4690746845
  0
LINE
  5
2DB
100
AcDbEntity
  8
ASSI
100
AcDbLine
 62
7
  6
CONTINUOUS
 10
16.8049251063
 20
-26.652786415
 11
16.9109911235
 21
-26.4690746845
  0
LINE
  5
2DC
100
AcDbEntity
  8
0
100
AcDbLine
 62
7
  6
CONTINUOUS
 10
17.1584784969
 20
-26.4486491183
 11
17.2645445141
 21
-26.2649373878
  0
LINE
  5
2DD
100
AcDbEntity
  8
ASSI
100
AcDbLine
 62
7
  6
CONTINUOUS
 10
17.1584784969
 20
-26.4486491183
 11
17.2645445141
 21
-26.2649373878
  0
LINE
  5
2DE
100
AcDbEntity
  8
0
100
AcDbLine
 62
7
  6
CONTINUOUS
 10
17.5136080259
 20
-26.0456402306
 11
18.8239622816
 21
-25.5081779039
  0
LINE
  5
2DF
100
AcDbEntity
  8
ASSI
100
AcDbLine
 62
7
  6
CONTINUOUS
 10
17.5136080259
 20
-26.0456402306
 11
18.8239622816
 21
-25.5081779039
  0
LINE
  5
2E0
100
AcDbEntity
  8
0
100
AcDbLine
 62
250
  6
CONTINUOUS
 10
32.5673608127
 20
19.9295215557
 11
33.413668618
 21
19.6857629801
  0
LINE
  5
2E1
100
AcDbEntity
  8
ASSI
100
AcDbLine
 62
250
  6
CONTINUOUS
 10
32.5673608127
 20
19.9295215557
 11
33.413668618
 21
19.6857629801
  0
LINE
  5
2E2
100
AcDbEntity
  8
SMUSSO
100
AcDbLine
 62
7
  6
CONTINUOUS
 10
28.7550297084
 20
16.9454795899
 11
-33.4703670361
 21
52.8736438027
  0
LINE
  5
2E3
100
AcDbEntity
  8
SMUSSO
100
AcDbLine
 62
7
  6
CONTINUOUS
 10
29.4621364895
 20
18.17022446
 11
-32.7632602549
 21
54.0983886729
  0
LINE
  5
2E4
100
AcDbEntity
  8
SMUSSO
100
AcDbLine
 62
7
  6
CONTINUOUS
 10
31.2299034425
 20
17.9661660732
 11
31.2299034425
 21
-54.2914928779
  0
LINE
  5
2E5
100
AcDbEntity
  8
0
100
AcDbLine
 62
250
  6
CONTINUOUS
 10
31.5906004809
 20
-47.1453939625
 11
31.5906004809
 21
-46.8216047119
  0
LINE
  5
2E6
100
AcDbEntity
  8
0
100
AcDbLine
 62
250
  6
CONTINUOUS
 10
31.5906796841
 20
-44.2234828013
 11
31.5906796841
 21
-44.5367101924
  0
LINE
  5
2E7
100
AcDbEntity
  8
0
100
AcDbLine
 62
250
  6
CONTINUOUS
 10
31.5906796841
 20
-45.2191503415
 11
31.5906796841
 21
-45.539508784
  0
LINE
  5
2E8
100
AcDbEntity
  8
0
100
AcDbLine
 62
250
  6
CONTINUOUS
 10
31.5906796841
 20
-46.1836679077
 11
31.5906796841
 21
-46.5071893561
  0
LINE
  5
2E9
100
AcDbEntity
  8
0
100
AcDbLine
 62
250
  6
CONTINUOUS
 10
31.5906796841
 20
-47.265505721
 11
31.5906796841
 21
-47.5890737081
  0
LINE
  5
2EA
100
AcDbEntity
  8
0
100
AcDbLine
 62
250
  6
CONTINUOUS
 10
31.5906796841
 20
-48.1894675756
 11
31.5906796841
 21
-48.5412029708
  0
LINE
  5
2EB
100
AcDbEntity
  8
0
100
AcDbLine
 62
250
  6
CONTINUOUS
 10
32.1778959475
 20
-42.9896176333
 11
32.1778959475
 21
-42.8045751345
  0
LINE
  5
2EC
100
AcDbEntity
  8
0
100
AcDbLine
 62
250
  6
CONTINUOUS
 10
32.3940710038
 20
-42.6760215098
 11
32.3940710038
 21
-42.8496297129
  0
LINE
  5
2ED
100
AcDbEntity
  8
0
100
AcDbLine
 62
250
  6
CONTINUOUS
 10
32.4432150905
 20
-43.727661822
 11
32.4432150905
 21
-44.0376674214
  0
LINE
  5
2EE
100
AcDbEntity
  8
0
100
AcDbLine
 62
250
  6
CONTINUOUS
 10
32.6471165682
 20
-43.9819871596
 11
32.6471165682
 21
-43.5410393231
  0
LINE
  5
2EF
100
AcDbEntity
  8
0
100
AcDbLine
 62
250
  6
CONTINUOUS
 10
32.9106246446
 20
-47.2602546921
 11
32.9106246446
 21
-46.9749146597
  0
LINE
  5
2F0
100
AcDbEntity
  8
0
100
AcDbLine
 62
250
  6
CONTINUOUS
 10
32.9106246446
 20
-45.8580527211
 11
32.9106246446
 21
-45.5482920627
  0
LINE
  5
2F1
100
AcDbEntity
  8
0
100
AcDbLine
 62
250
  6
CONTINUOUS
 10
32.9106246446
 20
-45.0985737025
 11
32.9106246446
 21
-45.0531624422
  0
LINE
  5
2F2
100
AcDbEntity
  8
0
100
AcDbLine
 62
250
  6
CONTINUOUS
 10
32.9106246446
 20
-44.6016527462
 11
32.9106246446
 21
-44.2849006529
  0
LINE
  5
2F3
100
AcDbEntity
  8
0
100
AcDbLine
 62
250
  6
CONTINUOUS
 10
32.9106246446
 20
-44.2340574158
 11
32.9106246446
 21
-43.9137806203
  0
LINE
  5
2F4
100
AcDbEntity
  8
0
100
AcDbLine
 62
250
  6
CONTINUOUS
 10
32.9106246446
 20
-43.299608817
 11
32.9106246446
 21
-42.9583479189
  0
LINE
  5
2F5
100
AcDbEntity
  8
0
100
AcDbLine
 62
250
  6
CONTINUOUS
 10
32.9106244681
 20
-41.7334943787
 11
32.9106244681
 21
-42.0449422607
  0
LINE
  5
2F6
100
AcDbEntity
  8
0
100
AcDbLine
 62
250
  6
CONTINUOUS
 10
32.9106244681
 20
-42.5407812473
 11
32.9106244681
 21
-42.8632679356
  0
LINE
  5
2F7
100
AcDbEntity
  8
0
100
AcDbLine
 62
250
  6
CONTINUOUS
 10
32.9106246446
 20
-46.0323593275
 11
32.9106246446
 21
-46.3561485781
  0
LINE
  5
2F8
100
AcDbEntity
  8
0
100
AcDbLine
 62
7
  6
CONTINUOUS
 10
33.2451577689
 20
18.7215293078
 11
33.2451577689
 21
-51.9847966625
  0
LINE
  5
2F9
100
AcDbEntity
  8
ASSI
100
AcDbLine
 62
7
  6
CONTINUOUS
 10
33.2451577689
 20
18.7215293078
 11
33.2451577689
 21
-51.9847966625
  0
LINE
  5
2FA
100
AcDbEntity
  8
0
100
AcDbLine
 62
7
  6
CONTINUOUS
 10
33.4572898032
 20
19.610208871
 11
33.4572898032
 21
-50.6687934217
  0
LINE
  5
2FB
100
AcDbEntity
  8
ASSI
100
AcDbLine
 62
7
  6
CONTINUOUS
 10
33.4572898032
 20
19.610208871
 11
33.4572898032
 21
-50.6687934217
  0
LINE
  5
2FC
100
AcDbEntity
  8
0
100
AcDbLine
 62
7
  6
CONTINUOUS
 10
19.3150721753
 20
-29.6537506569
 11
19.3858648576
 21
-29.5311341344
  0
LINE
  5
2FD
100
AcDbEntity
  8
ASSI
100
AcDbLine
 62
7
  6
CONTINUOUS
 10
19.3150721753
 20
-29.6537506569
 11
19.3858648576
 21
-29.5311341344
  0
LINE
  5
2FE
100
AcDbEntity
  8
0
100
AcDbLine
 62
7
  6
CONTINUOUS
 10
19.6333522311
 20
-29.5107085683
 11
19.7394182482
 21
-29.3269968378
  0
LINE
  5
2FF
100
AcDbEntity
  8
ASSI
100
AcDbLine
 62
7
  6
CONTINUOUS
 10
19.6333522311
 20
-29.5107085683
 11
19.7394182482
 21
-29.3269968378
  0
LINE
  5
300
100
AcDbEntity
  8
0
100
AcDbLine
 62
7
  6
CONTINUOUS
 10
19.9869056216
 20
-29.3065712716
 11
20.0929716388
 21
-29.1228595411
  0
LINE
  5
301
100
AcDbEntity
  8
ASSI
100
AcDbLine
 62
7
  6
CONTINUOUS
 10
19.9869056216
 20
-29.3065712716
 11
20.0929716388
 21
-29.1228595411
  0
LINE
  5
302
100
AcDbEntity
  8
0
100
AcDbLine
 62
7
  6
CONTINUOUS
 10
20.3404590122
 20
-29.102433975
 11
20.4465250294
 21
-28.9187222445
  0
LINE
  5
303
100
AcDbEntity
  8
ASSI
100
AcDbLine
 62
7
  6
CONTINUOUS
 10
20.3404590122
 20
-29.102433975
 11
20.4465250294
 21
-28.9187222445
  0
LINE
  5
304
100
AcDbEntity
  8
0
100
AcDbLine
 62
7
  6
CONTINUOUS
 10
20.6940124028
 20
-28.8982966783
 11
20.80007842
 21
-28.7145849478
  0
LINE
  5
305
100
AcDbEntity
  8
ASSI
100
AcDbLine
 62
7
  6
CONTINUOUS
 10
20.6940124028
 20
-28.8982966783
 11
20.80007842
 21
-28.7145849478
  0
LINE
  5
306
100
AcDbEntity
  8
0
100
AcDbLine
 62
7
  6
CONTINUOUS
 10
21.0475657934
 20
-28.6941593816
 11
21.1536318106
 21
-28.5104476511
  0
LINE
  5
307
100
AcDbEntity
  8
ASSI
100
AcDbLine
 62
7
  6
CONTINUOUS
 10
21.0475657934
 20
-28.6941593816
 11
21.1536318106
 21
-28.5104476511
  0
LINE
  5
308
100
AcDbEntity
  8
0
100
AcDbLine
 62
7
  6
CONTINUOUS
 10
15.4967775611
 20
-27.2856238711
 11
15.6381989173
 21
-27.2039689525
  0
LINE
  5
309
100
AcDbEntity
  8
ASSI
100
AcDbLine
 62
7
  6
CONTINUOUS
 10
15.4967775611
 20
-27.2856238711
 11
15.6381989173
 21
-27.2039689525
  0
LINE
  5
30A
100
AcDbEntity
  8
0
100
AcDbLine
 62
7
  6
CONTINUOUS
 10
15.8503309517
 20
-27.0814865745
 11
15.9917523079
 21
-26.9998316558
  0
LINE
  5
30B
100
AcDbEntity
  8
ASSI
100
AcDbLine
 62
7
  6
CONTINUOUS
 10
15.8503309517
 20
-27.0814865745
 11
15.9917523079
 21
-26.9998316558
  0
LINE
  5
30C
100
AcDbEntity
  8
0
100
AcDbLine
 62
7
  6
CONTINUOUS
 10
16.2038843423
 20
-26.8773492778
 11
16.3453056985
 21
-26.7956943591
  0
LINE
  5
30D
100
AcDbEntity
  8
ASSI
100
AcDbLine
 62
7
  6
CONTINUOUS
 10
16.2038843423
 20
-26.8773492778
 11
16.3453056985
 21
-26.7956943591
  0
LINE
  5
30E
100
AcDbEntity
  8
0
100
AcDbLine
 62
7
  6
CONTINUOUS
 10
16.5574377329
 20
-26.6732119811
 11
16.6988590891
 21
-26.5915570625
  0
LINE
  5
30F
100
AcDbEntity
  8
ASSI
100
AcDbLine
 62
7
  6
CONTINUOUS
 10
16.5574377329
 20
-26.6732119811
 11
16.6988590891
 21
-26.5915570625
  0
LINE
  5
310
100
AcDbEntity
  8
0
100
AcDbLine
 62
7
  6
CONTINUOUS
 10
16.9109911235
 20
-26.4690746845
 11
17.0524124797
 21
-26.3874197658
  0
LINE
  5
311
100
AcDbEntity
  8
ASSI
100
AcDbLine
 62
7
  6
CONTINUOUS
 10
16.9109911235
 20
-26.4690746845
 11
17.0524124797
 21
-26.3874197658
  0
LINE
  5
312
100
AcDbEntity
  8
0
100
AcDbLine
 62
7
  6
CONTINUOUS
 10
17.2645445141
 20
-26.2649373878
 11
17.4059658703
 21
-26.1832824692
  0
LINE
  5
313
100
AcDbEntity
  8
ASSI
100
AcDbLine
 62
7
  6
CONTINUOUS
 10
17.2645445141
 20
-26.2649373878
 11
17.4059658703
 21
-26.1832824692
  0
LINE
  5
314
100
AcDbEntity
  8
0
100
AcDbLine
 62
7
  6
CONTINUOUS
 10
15.1695898576
 20
-27.2602011218
 11
17.4395608729
 21
-26.0800840267
  0
LINE
  5
315
100
AcDbEntity
  8
ASSI
100
AcDbLine
 62
7
  6
CONTINUOUS
 10
15.1695898576
 20
-27.2602011218
 11
17.4395608729
 21
-26.0800840267
  0
LINE
  5
316
100
AcDbEntity
  8
SMUSSO
100
AcDbLine
 62
7
  6
CONTINUOUS
 10
-31.7026000831
 20
54.7108005629
 11
30.8763500519
 21
18.5785385083
  0
LINE
  5
317
100
AcDbEntity
  8
0
100
AcDbLine
 62
7
  6
CONTINUOUS
 10
-28.697396263
 20
55.3028539601
 11
32.5380509877
 21
19.9462741779
  0
LINE
  5
318
100
AcDbEntity
  8
ASSI
100
AcDbLine
 62
7
  6
CONTINUOUS
 10
-28.697396263
 20
55.3028539601
 11
32.5380509877
 21
19.9462741779
  0
LINE
  5
319
100
AcDbEntity
  8
0
100
AcDbLine
 62
7
  6
CONTINUOUS
 10
-27.4516935497
 20
54.8286602736
 11
33.413668618
 21
19.6857629801
  0
LINE
  5
31A
100
AcDbEntity
  8
ASSI
100
AcDbLine
 62
7
  6
CONTINUOUS
 10
-27.4516935497
 20
54.8286602736
 11
33.413668618
 21
19.6857629801
  0
LINE
  5
31B
100
AcDbEntity
  8
0
100
AcDbLine
 62
250
  6
CONTINUOUS
 10
20.9879393455
 20
-29.5593564741
 11
21.3238843105
 21
-29.2326028843
  0
LINE
  5
31C
100
AcDbEntity
  8
ASSI
100
AcDbLine
 62
250
  6
CONTINUOUS
 10
20.9879393455
 20
-29.5593564741
 11
21.3238843105
 21
-29.2326028843
  0
LINE
  5
31D
100
AcDbEntity
  8
0
100
AcDbLine
 62
7
  6
CONTINUOUS
 10
20.9918642104
 20
-29.5928916676
 11
21.4208485838
 21
-29.1756442058
  0
LINE
  5
31E
100
AcDbEntity
  8
ASSI
100
AcDbLine
 62
7
  6
CONTINUOUS
 10
20.9918642104
 20
-29.5928916676
 11
21.4208485838
 21
-29.1756442058
  0
LINE
  5
31F
100
AcDbEntity
  8
0
100
AcDbLine
 62
7
  6
CONTINUOUS
 10
21.6858981312
 20
-28.5318659405
 11
19.6420070486
 21
-29.8425187553
  0
LINE
  5
320
100
AcDbEntity
  8
ASSI
100
AcDbLine
 62
7
  6
CONTINUOUS
 10
21.6858981312
 20
-28.5318659405
 11
19.6420070486
 21
-29.8425187553
  0
LINE
  5
321
100
AcDbEntity
  8
0
100
AcDbLine
 62
7
  6
CONTINUOUS
 10
19.9665683458
 20
-30.0299163806
 11
21.6839618965
 21
-29.0210863867
  0
LINE
  5
322
100
AcDbEntity
  8
ASSI
100
AcDbLine
 62
7
  6
CONTINUOUS
 10
19.9665683458
 20
-30.0299163806
 11
21.6839618965
 21
-29.0210863867
  0
LINE
  5
323
100
AcDbEntity
  8
0
100
AcDbLine
 62
7
  6
CONTINUOUS
 10
20.9332498639
 20
-29.6373556791
 11
20.1119929599
 21
-30.1138827302
  0
LINE
  5
324
100
AcDbEntity
  8
ASSI
100
AcDbLine
 62
7
  6
CONTINUOUS
 10
20.9332498639
 20
-29.6373556791
 11
20.1119929599
 21
-30.1138827302
  0
LINE
  5
325
100
AcDbEntity
  8
0
100
AcDbLine
 62
250
  6
CONTINUOUS
 10
20.9879393455
 20
-29.5593564741
 11
20.0717250201
 21
-30.0906325264
  0
LINE
  5
326
100
AcDbEntity
  8
ASSI
100
AcDbLine
 62
250
  6
CONTINUOUS
 10
20.9879393455
 20
-29.5593564741
 11
20.0717250201
 21
-30.0906325264
  0
LINE
  5
327
100
AcDbEntity
  8
0
100
AcDbLine
 62
7
  6
CONTINUOUS
 10
19.3858648576
 20
-29.5311341344
 11
19.5272862139
 21
-29.4494792158
  0
LINE
  5
328
100
AcDbEntity
  8
ASSI
100
AcDbLine
 62
7
  6
CONTINUOUS
 10
19.3858648576
 20
-29.5311341344
 11
19.5272862139
 21
-29.4494792158
  0
LINE
  5
329
100
AcDbEntity
  8
0
100
AcDbLine
 62
7
  6
CONTINUOUS
 10
19.7394182482
 20
-29.3269968378
 11
19.8808396045
 21
-29.2453419191
  0
LINE
  5
32A
100
AcDbEntity
  8
ASSI
100
AcDbLine
 62
7
  6
CONTINUOUS
 10
19.7394182482
 20
-29.3269968378
 11
19.8808396045
 21
-29.2453419191
  0
LINE
  5
32B
100
AcDbEntity
  8
0
100
AcDbLine
 62
7
  6
CONTINUOUS
 10
20.0929716388
 20
-29.1228595411
 11
20.2343929951
 21
-29.0412046224
  0
LINE
  5
32C
100
AcDbEntity
  8
ASSI
100
AcDbLine
 62
7
  6
CONTINUOUS
 10
20.0929716388
 20
-29.1228595411
 11
20.2343929951
 21
-29.0412046224
  0
LINE
  5
32D
100
AcDbEntity
  8
0
100
AcDbLine
 62
7
  6
CONTINUOUS
 10
20.4465250294
 20
-28.9187222445
 11
20.5879463857
 21
-28.8370673258
  0
LINE
  5
32E
100
AcDbEntity
  8
ASSI
100
AcDbLine
 62
7
  6
CONTINUOUS
 10
20.4465250294
 20
-28.9187222445
 11
20.5879463857
 21
-28.8370673258
  0
LINE
  5
32F
100
AcDbEntity
  8
0
100
AcDbLine
 62
7
  6
CONTINUOUS
 10
20.80007842
 20
-28.7145849478
 11
20.9414997762
 21
-28.6329300291
  0
LINE
  5
330
100
AcDbEntity
  8
ASSI
100
AcDbLine
 62
7
  6
CONTINUOUS
 10
20.80007842
 20
-28.7145849478
 11
20.9414997762
 21
-28.6329300291
  0
LINE
  5
331
100
AcDbEntity
  8
0
100
AcDbLine
 62
7
  6
CONTINUOUS
 10
21.1536318106
 20
-28.5104476511
 11
21.2950531668
 21
-28.4287927325
  0
LINE
  5
332
100
AcDbEntity
  8
ASSI
100
AcDbLine
 62
7
  6
CONTINUOUS
 10
21.1536318106
 20
-28.5104476511
 11
21.2950531668
 21
-28.4287927325
  0
LINE
  5
333
100
AcDbEntity
  8
0
100
AcDbLine
 62
7
  6
CONTINUOUS
 10
21.401119184
 20
-28.490022085
 11
19.3503421014
 21
-29.6741150702
  0
LINE
  5
334
100
AcDbEntity
  8
ASSI
100
AcDbLine
 62
7
  6
CONTINUOUS
 10
21.401119184
 20
-28.490022085
 11
19.3503421014
 21
-29.6741150702
  0
LINE
  5
335
100
AcDbEntity
  8
RACCORDO
100
AcDbLine
 62
250
  6
CONTINUOUS
 10
20.8354337591
 20
-32.9812359407
 11
21.6839208924
 21
-32.491330104
  0
LINE
  5
336
100
AcDbEntity
  8
0
100
AcDbLine
 62
7
  6
CONTINUOUS
 10
33.4567328802
 20
-50.6765781249
 11
33.2377214562
 21
-52.1308918538
  0
LINE
  5
337
100
AcDbEntity
  8
ASSI
100
AcDbLine
 62
7
  6
CONTINUOUS
 10
33.4567328802
 20
-50.6765781249
 11
33.2377214562
 21
-52.1308918538
  0
LINE
  5
338
100
AcDbEntity
  8
0
100
AcDbLine
 62
250
  6
CONTINUOUS
 10
33.2453053626
 20
-52.0170205685
 11
33.4572898032
 21
-50.6687934217
  0
LINE
  5
339
100
AcDbEntity
  8
ASSI
100
AcDbLine
 62
250
  6
CONTINUOUS
 10
33.2453053626
 20
-52.0170205685
 11
33.4572898032
 21
-50.6687934217
  0
LINE
  5
33A
100
AcDbEntity
  8
0
100
AcDbLine
 62
250
  6
CONTINUOUS
 10
-28.7252301507
 20
55.3190954014
 11
-27.4516935497
 21
54.8286602736
  0
LINE
  5
33B
100
AcDbEntity
  8
ASSI
100
AcDbLine
 62
250
  6
CONTINUOUS
 10
-28.7252301507
 20
55.3190954014
 11
-27.4516935497
 21
54.8286602736
  0
LINE
  5
33C
100
AcDbEntity
  8
0
100
AcDbLine
 62
7
  6
CONTINUOUS
 10
-27.458717681
 20
54.8320721813
 11
-28.8276952133
 21
55.3694912506
  0
LINE
  5
33D
100
AcDbEntity
  8
ASSI
100
AcDbLine
 62
7
  6
CONTINUOUS
 10
-27.458717681
 20
54.8320721813
 11
-28.8276952133
 21
55.3694912506
  0
LINE
  5
33E
100
AcDbEntity
  8
0
100
AcDbLine
 62
250
  6
CONTINUOUS
 10
32.0487252064
 20
-45.9937493117
 11
32.9106246446
 21
-45.0985737025
  0
LINE
  5
33F
100
AcDbEntity
  8
0
100
AcDbLine
 62
250
  6
CONTINUOUS
 10
32.3235169479
 20
-45.4251330041
 11
31.5906796841
 21
-46.1836679077
  0
LINE
  5
340
100
AcDbEntity
  8
0
100
AcDbLine
 62
250
  6
CONTINUOUS
 10
32.9106246446
 20
-42.9583479189
 11
31.5906796841
 21
-44.2234828013
  0
LINE
  5
341
100
AcDbEntity
  8
0
100
AcDbLine
 62
250
  6
CONTINUOUS
 10
32.6471165682
 20
-43.5410393231
 11
32.9106246446
 21
-43.299608817
  0
LINE
  5
342
100
AcDbEntity
  8
0
100
AcDbLine
 62
250
  6
CONTINUOUS
 10
31.9533667375
 20
-44.1693286207
 11
32.4432150905
 21
-43.727661822
  0
LINE
  5
343
100
AcDbEntity
  8
0
100
AcDbLine
 62
250
  6
CONTINUOUS
 10
32.9106246446
 20
-44.2849006529
 11
31.5906796841
 21
-45.2191503415
  0
LINE
  5
344
100
AcDbEntity
  8
0
100
AcDbLine
 62
250
  6
CONTINUOUS
 10
32.0523185268
 20
-45.1813594324
 11
32.9106246446
 21
-44.6016527462
  0
LINE
  5
345
100
AcDbEntity
  8
0
100
AcDbLine
 62
250
  6
CONTINUOUS
 10
32.2866862425
 20
-42.4038750169
 11
32.2944859653
 21
-42.3992115453
  0
LINE
  5
346
100
AcDbEntity
  8
0
100
AcDbLine
 62
250
  6
CONTINUOUS
 10
32.3940710038
 20
-42.8496297129
 11
32.9106244681
 21
-42.5407812473
  0
LINE
  5
347
100
AcDbEntity
  8
0
100
AcDbLine
 62
250
  6
CONTINUOUS
 10
31.815545377
 20
-43.2062678456
 11
32.1778959475
 21
-42.9896176333
  0
LINE
  5
348
100
AcDbEntity
  8
0
100
AcDbLine
 62
250
  6
CONTINUOUS
 10
32.9106244681
 20
-42.8632679356
 11
31.606101046
 21
-43.6432453922
  0
LINE
  5
349
100
AcDbEntity
  8
0
100
AcDbLine
 62
250
  6
CONTINUOUS
 10
31.5906004809
 20
-46.8216047119
 11
32.9106246446
 21
-46.0323593275
  0
LINE
  5
34A
100
AcDbEntity
  8
0
100
AcDbLine
 62
250
  6
CONTINUOUS
 10
32.9106246446
 20
-46.3561485781
 11
31.5906004809
 21
-47.1453939625
  0
LINE
  5
34B
100
AcDbEntity
  8
0
100
AcDbLine
 62
250
  6
CONTINUOUS
 10
32.9106246446
 20
-45.5482920627
 11
32.0487252064
 21
-45.9937493117
  0
LINE
  5
34C
100
AcDbEntity
  8
0
100
AcDbLine
 62
250
  6
CONTINUOUS
 10
31.5906796841
 20
-46.5071893561
 11
32.9106246446
 21
-45.8580527211
  0
LINE
  5
34D
100
AcDbEntity
  8
0
100
AcDbLine
 62
250
  6
CONTINUOUS
 10
31.5906796841
 20
-48.5412029708
 11
32.9106246446
 21
-47.2602546921
  0
LINE
  5
34E
100
AcDbEntity
  8
0
100
AcDbLine
 62
250
  6
CONTINUOUS
 10
32.4992387902
 20
-47.3505574361
 11
31.5906796841
 21
-48.1894675756
  0
LINE
  5
34F
100
AcDbEntity
  8
0
100
AcDbLine
 62
7
  6
CONTINUOUS
 10
31.2299034425
 20
-53.5388273749
 11
33.059371863
 21
-52.4297114374
  0
LINE
  5
350
100
AcDbEntity
  8
ASSI
100
AcDbLine
 62
7
  6
CONTINUOUS
 10
31.2299034425
 20
-53.5388273749
 11
33.059371863
 21
-52.4297114374
  0
LINE
  5
351
100
AcDbEntity
  8
0
100
AcDbLine
 62
250
  6
CONTINUOUS
 10
31.2303416283
 20
-53.1894597158
 11
33.2451577689
 21
-51.9847966625
  0
LINE
  5
352
100
AcDbEntity
  8
ASSI
100
AcDbLine
 62
250
  6
CONTINUOUS
 10
31.2303416283
 20
-53.1894597158
 11
33.2451577689
 21
-51.9847966625
  0
LINE
  5
353
100
AcDbEntity
  8
SMUSSO
100
AcDbLine
 62
250
  6
CONTINUOUS
 10
30.1692432707
 20
-54.9039047679
 11
31.2299034425
 21
-54.2914928779
  0
LINE
  5
354
100
AcDbEntity
  8
RACCORDO
100
AcDbLine
 62
7
  6
CONTINUOUS
 10
29.9621606497
 20
-55.361641629
 11
31.0228208215
 21
-54.749229739
  0
ARC
  5
355
100
AcDbEntity
  8
0
100
AcDbCircle
 62
7
  6
CONTINUOUS
 10
-11.0372746918
 20
-11.0053510496
 40
0.3
100
AcDbArc
 50
300.1089870924
 51
314.200140513
  0
ARC
  5
356
100
AcDbEntity
  8
ASSI
100
AcDbCircle
 62
7
  6
CONTINUOUS
 10
-11.0372746918
 20
-11.0053510496
 40
0.3
100
AcDbArc
 50
300.1089871957
 51
314.2001405179
  0
ARC
  5
357
100
AcDbEntity
  8
0
100
AcDbCircle
 62
250
  6
CONTINUOUS
 10
-10.936939367
 20
-11.178191944
 40
0.1003696755
100
AcDbArc
 50
300.1329138855
 51
304.4945384273
  0
ARC
  5
358
100
AcDbEntity
  8
ASSI
100
AcDbCircle
 62
250
  6
CONTINUOUS
 10
-10.936939367
 20
-11.178191944
 40
0.1003696755
100
AcDbArc
 50
300.1329138855
 51
304.4945384273
  0
ARC
  5
359
100
AcDbEntity
  8
0
100
AcDbCircle
 62
7
  6
CONTINUOUS
 10
20.7825304616
 20
-29.3777077494
 40
0.3
100
AcDbArc
 50
300.1089870924
 51
314.200140513
  0
ARC
  5
35A
100
AcDbEntity
  8
ASSI
100
AcDbCircle
 62
7
  6
CONTINUOUS
 10
20.7825304616
 20
-29.3777077494
 40
0.3
100
AcDbArc
 50
300.1089871957
 51
314.2001405179
  0
ARC
  5
35B
100
AcDbEntity
  8
0
100
AcDbCircle
 62
250
  6
CONTINUOUS
 10
20.8828657864
 20
-29.5505486438
 40
0.1003696755
100
AcDbArc
 50
300.1329138855
 51
304.4945384273
  0
ARC
  5
35C
100
AcDbEntity
  8
ASSI
100
AcDbCircle
 62
250
  6
CONTINUOUS
 10
20.8828657864
 20
-29.5505486438
 40
0.1003696755
100
AcDbArc
 50
300.1329138855
 51
304.4945384273
  0
SPLINE
  5
35D
100
AcDbEntity
  8
0
100
AcDbSpline
 62
7
  6
CONTINUOUS
 70
0
 71
3
 72
10
 73
6
 74
0
 42
0.0000001
 43
0.0000001
 44
0.0000000001
 40
0.0
 40
0.0
 40
0.0
 40
0.0
 40
0.5278685352
 40
0.7673006673
 40
1.0
 40
1.0
 40
1.0
 40
1.0
 10
-28.8276944548
 20
55.3694830063
 30
0.0
 10
-28.8863469351
 20
55.3925187197
 30
0.0
 10
-28.978770914
 20
55.4136618903
 30
0.0
 10
-29.0981979015
 20
55.3987136358
 30
0.0
 10
-29.1513194137
 20
55.3777981857
 30
0.0
 10
-29.1756666538
 20
55.3644248086
 30
0.0
  0
SPLINE
  5
35E
100
AcDbEntity
  8
0
100
AcDbSpline
 62
7
  6
CONTINUOUS
 70
0
 71
3
 72
10
 73
6
 74
0
 42
0.0000001
 43
0.0000001
 44
0.0000000001
 40
0.0
 40
0.0
 40
0.0
 40
0.0
 40
0.2326995781
 40
0.4721317903
 40
1.0
 40
1.0
 40
1.0
 40
1.0
 10
33.0593692523
 20
-52.429707896
 30
0.0
 10
33.0831228546
 20
-52.4153084846
 30
0.0
 10
33.1277932581
 20
-52.3797605829
 30
0.0
 10
33.2004447491
 20
-52.2838081115
 30
0.0
 10
33.2283410007
 20
-52.1931973936
 30
0.0
 10
33.2377146873
 20
-52.1308870693
 30
0.0
  0
SPLINE
  5
35F
100
AcDbEntity
  8
0
100
AcDbSpline
 62
7
  6
CONTINUOUS
 70
0
 71
3
 72
9
 73
5
 74
0
 42
0.0000001
 43
0.0000001
 44
0.0000000001
 40
0.0
 40
0.0
 40
0.0
 40
0.0
 40
0.2421136351
 40
1.0
 40
1.0
 40
1.0
 40
1.0
 10
33.2377146873
 20
-52.1308870693
 30
0.0
 10
33.2390855967
 20
-52.1217741328
 30
0.0
 10
33.2439226143
 20
-52.0840127577
 30
0.0
 10
33.2455761693
 20
-52.0458664289
 30
0.0
 10
33.2453053626
 20
-52.0170205685
 30
0.0
  0
SPLINE
  5
360
100
AcDbEntity
  8
0
100
AcDbSpline
 62
250
  6
CONTINUOUS
 70
0
 71
3
 72
9
 73
5
 74
0
 42
0.0000001
 43
0.0000001
 44
0.0000000001
 40
0.0
 40
0.0
 40
0.0
 40
0.0
 40
0.4808334352
 40
1.0
 40
1.0
 40
1.0
 40
1.0
 10
-10.8800972419
 20
-11.2609146409
 30
0.0
 10
-10.8708637678
 20
-11.2545704486
 30
0.0
 10
-10.8538274046
 20
-11.2380058429
 30
0.0
 10
-10.8426272409
 20
-11.2172115132
 30
0.0
 10
-10.838139438
 20
-11.2059787785
 30
0.0
  0
SPLINE
  5
361
100
AcDbEntity
  8
0
100
AcDbSpline
 62
250
  6
CONTINUOUS
 70
0
 71
3
 72
8
 73
4
 74
0
 42
0.0000001
 43
0.0000001
 44
0.0000000001
 40
0.0
 40
0.0
 40
0.0
 40
0.0
 40
1.0
 40
1.0
 40
1.0
 40
1.0
 10
-10.838139438
 20
-11.2059787785
 30
0.0
 10
-10.8356673717
 20
-11.1997913268
 30
0.0
 10
-10.8335878746
 20
-11.1934364005
 30
0.0
 10
-10.8318658079
 20
-11.1869997744
 30
0.0
  0
SPLINE
  5
362
100
AcDbEntity
  8
0
100
AcDbSpline
 62
250
  6
CONTINUOUS
 70
0
 71
3
 72
9
 73
5
 74
0
 42
0.0000001
 43
0.0000001
 44
0.0000000001
 40
0.0
 40
0.0
 40
0.0
 40
0.0
 40
0.4808334352
 40
1.0
 40
1.0
 40
1.0
 40
1.0
 10
20.9397079115
 20
-29.6332713406
 30
0.0
 10
20.9489413856
 20
-29.6269271484
 30
0.0
 10
20.9659777488
 20
-29.6103625426
 30
0.0
 10
20.9771779125
 20
-29.589568213
 30
0.0
 10
20.9816657154
 20
-29.5783354783
 30
0.0
  0
SPLINE
  5
363
100
AcDbEntity
  8
0
100
AcDbSpline
 62
250
  6
CONTINUOUS
 70
0
 71
3
 72
8
 73
4
 74
0
 42
0.0000001
 43
0.0000001
 44
0.0000000001
 40
0.0
 40
0.0
 40
0.0
 40
0.0
 40
1.0
 40
1.0
 40
1.0
 40
1.0
 10
20.9816657154
 20
-29.5783354783
 30
0.0
 10
20.9841377817
 20
-29.5721480265
 30
0.0
 10
20.9862172788
 20
-29.5657931003
 30
0.0
 10
20.9879393455
 20
-29.5593564741
 30
0.0
  0
SPLINE
  5
364
100
AcDbEntity
  8
0
100
AcDbSpline
 62
7
  6
CONTINUOUS
 70
0
 71
3
 72
11
 73
7
 74
0
 42
0.0000001
 43
0.0000001
 44
0.0000000001
 40
0.0
 40
0.0
 40
0.0
 40
0.0
 40
0.2398961039
 40
0.4999946021
 40
0.7600960345
 40
1.0
 40
1.0
 40
1.0
 40
1.0
 10
33.2453053626
 20
18.7552871517
 30
0.0
 10
33.2462694513
 20
18.8679999533
 30
0.0
 10
33.208562042
 20
19.103712897
 30
0.0
 10
33.0654779144
 20
19.4342789845
 30
0.0
 10
32.8507387355
 20
19.7234791462
 30
0.0
 10
32.6654568588
 20
19.8739958539
 30
0.0
 10
32.5673608127
 20
19.9295215557
 30
0.0
  0
SPLINE
  5
365
100
AcDbEntity
  8
0
100
AcDbSpline
 62
7
  6
CONTINUOUS
 70
0
 71
3
 72
9
 73
5
 74
0
 42
0.0000001
 43
0.0000001
 44
0.0000000001
 40
0.0
 40
0.0
 40
0.0
 40
0.0
 40
0.2580518931
 40
1.0
 40
1.0
 40
1.0
 40
1.0
 10
-28.7252301507
 20
55.3190954014
 30
0.0
 10
-28.7336942726
 20
55.3240890497
 30
0.0
 10
-28.7668388455
 20
55.3428443778
 30
0.0
 10
-28.8013944988
 20
55.3591537202
 30
0.0
 10
-28.8276944548
 20
55.3694830063
 30
0.0
  0
SPLINE
  5
366
100
AcDbEntity
  8
0
100
AcDbSpline
 62
250
  6
CONTINUOUS
 70
0
 71
3
 72
10
 73
6
 74
0
 42
0.0000001
 43
0.0000001
 44
0.0000000001
 40
0.0
 40
0.0
 40
0.0
 40
0.0
 40
0.3606042124
 40
0.6415407785
 40
1.0
 40
1.0
 40
1.0
 40
1.0
 10
-10.8318658079
 20
-11.1869997744
 30
0.0
 10
-10.830150839
 20
-11.1908371605
 30
0.0
 10
-10.827354953
 20
-11.1978833988
 30
0.0
 10
-10.8244035984
 20
-11.2088294926
 30
0.0
 10
-10.8249477465
 20
-11.2176215972
 30
0.0
 10
-10.827942047
 20
-11.220535575
 30
0.0
  0
SPLINE
  5
367
100
AcDbEntity
  8
0
100
AcDbSpline
 62
250
  6
CONTINUOUS
 70
0
 71
3
 72
10
 73
6
 74
0
 42
0.0000001
 43
0.0000001
 44
0.0000000001
 40
0.0
 40
0.0
 40
0.0
 40
0.0
 40
0.3606042124
 40
0.6415407785
 40
1.0
 40
1.0
 40
1.0
 40
1.0
 10
20.9879393455
 20
-29.5593564741
 30
0.0
 10
20.9896543144
 20
-29.5631938603
 30
0.0
 10
20.9924502004
 20
-29.5702400986
 30
0.0
 10
20.995401555
 20
-29.5811861924
 30
0.0
 10
20.9948574069
 20
-29.5899782969
 30
0.0
 10
20.9918631064
 20
-29.5928922748
 30
0.0
  0
SPLINE
  5
368
100
AcDbEntity
  8
ASSI
100
AcDbSpline
 62
7
  6
CONTINUOUS
 70
0
 71
3
 72
10
 73
6
 74
0
 42
0.0000001
 43
0.0000001
 44
0.0000000001
 40
0.0
 40
0.0
 40
0.0
 40
0.0
 40
0.5278685352
 40
0.7673006673
 40
1.0
 40
1.0
 40
1.0
 40
1.0
 10
-28.8276944548
 20
55.3694830063
 30
0.0
 10
-28.8863469351
 20
55.3925187197
 30
0.0
 10
-28.978770914
 20
55.4136618903
 30
0.0
 10
-29.0981979015
 20
55.3987136358
 30
0.0
 10
-29.1513194137
 20
55.3777981857
 30
0.0
 10
-29.1756666538
 20
55.3644248086
 30
0.0
  0
SPLINE
  5
369
100
AcDbEntity
  8
ASSI
100
AcDbSpline
 62
7
  6
CONTINUOUS
 70
0
 71
3
 72
10
 73
6
 74
0
 42
0.0000001
 43
0.0000001
 44
0.0000000001
 40
0.0
 40
0.0
 40
0.0
 40
0.0
 40
0.2326995781
 40
0.4721317903
 40
1.0
 40
1.0
 40
1.0
 40
1.0
 10
33.0593692523
 20
-52.429707896
 30
0.0
 10
33.0831228546
 20
-52.4153084846
 30
0.0
 10
33.1277932581
 20
-52.3797605829
 30
0.0
 10
33.2004447491
 20
-52.2838081115
 30
0.0
 10
33.2283410007
 20
-52.1931973936
 30
0.0
 10
33.2377146873
 20
-52.1308870693
 30
0.0
  0
SPLINE
  5
36A
100
AcDbEntity
  8
ASSI
100
AcDbSpline
 62
7
  6
CONTINUOUS
 70
0
 71
3
 72
9
 73
5
 74
0
 42
0.0000001
 43
0.0000001
 44
0.0000000001
 40
0.0
 40
0.0
 40
0.0
 40
0.0
 40
0.2421136351
 40
1.0
 40
1.0
 40
1.0
 40
1.0
 10
33.2377146873
 20
-52.1308870693
 30
0.0
 10
33.2390855967
 20
-52.1217741328
 30
0.0
 10
33.2439226143
 20
-52.0840127577
 30
0.0
 10
33.2455761693
 20
-52.0458664289
 30
0.0
 10
33.2453053626
 20
-52.0170205685
 30
0.0
  0
SPLINE
  5
36B
100
AcDbEntity
  8
ASSI
100
AcDbSpline
 62
250
  6
CONTINUOUS
 70
0
 71
3
 72
9
 73
5
 74
0
 42
0.0000001
 43
0.0000001
 44
0.0000000001
 40
0.0
 40
0.0
 40
0.0
 40
0.0
 40
0.4808334352
 40
1.0
 40
1.0
 40
1.0
 40
1.0
 10
-10.8800972419
 20
-11.2609146409
 30
0.0
 10
-10.8708637678
 20
-11.2545704486
 30
0.0
 10
-10.8538274046
 20
-11.2380058429
 30
0.0
 10
-10.8426272409
 20
-11.2172115132
 30
0.0
 10
-10.838139438
 20
-11.2059787785
 30
0.0
  0
SPLINE
  5
36C
100
AcDbEntity
  8
ASSI
100
AcDbSpline
 62
250
  6
CONTINUOUS
 70
0
 71
3
 72
8
 73
4
 74
0
 42
0.0000001
 43
0.0000001
 44
0.0000000001
 40
0.0
 40
0.0
 40
0.0
 40
0.0
 40
1.0
 40
1.0
 40
1.0
 40
1.0
 10
-10.838139438
 20
-11.2059787785
 30
0.0
 10
-10.8356673717
 20
-11.1997913268
 30
0.0
 10
-10.8335878746
 20
-11.1934364005
 30
0.0
 10
-10.8318658079
 20
-11.1869997744
 30
0.0
  0
SPLINE
  5
36D
100
AcDbEntity
  8
ASSI
100
AcDbSpline
 62
250
  6
CONTINUOUS
 70
0
 71
3
 72
9
 73
5
 74
0
 42
0.0000001
 43
0.0000001
 44
0.0000000001
 40
0.0
 40
0.0
 40
0.0
 40
0.0
 40
0.4808334352
 40
1.0
 40
1.0
 40
1.0
 40
1.0
 10
20.9397079115
 20
-29.6332713406
 30
0.0
 10
20.9489413856
 20
-29.6269271484
 30
0.0
 10
20.9659777488
 20
-29.6103625426
 30
0.0
 10
20.9771779125
 20
-29.589568213
 30
0.0
 10
20.9816657154
 20
-29.5783354783
 30
0.0
  0
SPLINE
  5
36E
100
AcDbEntity
  8
ASSI
100
AcDbSpline
 62
250
  6
CONTINUOUS
 70
0
 71
3
 72
8
 73
4
 74
0
 42
0.0000001
 43
0.0000001
 44
0.0000000001
 40
0.0
 40
0.0
 40
0.0
 40
0.0
 40
1.0
 40
1.0
 40
1.0
 40
1.0
 10
20.9816657154
 20
-29.5783354783
 30
0.0
 10
20.9841377817
 20
-29.5721480265
 30
0.0
 10
20.9862172788
 20
-29.5657931003
 30
0.0
 10
20.9879393455
 20
-29.5593564741
 30
0.0
  0
SPLINE
  5
36F
100
AcDbEntity
  8
ASSI
100
AcDbSpline
 62
7
  6
CONTINUOUS
 70
0
 71
3
 72
11
 73
7
 74
0
 42
0.0000001
 43
0.0000001
 44
0.0000000001
 40
0.0
 40
0.0
 40
0.0
 40
0.0
 40
0.2398961039
 40
0.4999946021
 40
0.7600960345
 40
1.0
 40
1.0
 40
1.0
 40
1.0
 10
33.2453053626
 20
18.7552871517
 30
0.0
 10
33.2462694513
 20
18.8679999533
 30
0.0
 10
33.208562042
 20
19.103712897
 30
0.0
 10
33.0654779144
 20
19.4342789845
 30
0.0
 10
32.8507387355
 20
19.7234791462
 30
0.0
 10
32.6654568588
 20
19.8739958539
 30
0.0
 10
32.5673608127
 20
19.9295215557
 30
0.0
  0
SPLINE
  5
370
100
AcDbEntity
  8
ASSI
100
AcDbSpline
 62
7
  6
CONTINUOUS
 70
0
 71
3
 72
9
 73
5
 74
0
 42
0.0000001
 43
0.0000001
 44
0.0000000001
 40
0.0
 40
0.0
 40
0.0
 40
0.0
 40
0.2580518931
 40
1.0
 40
1.0
 40
1.0
 40
1.0
 10
-28.7252301507
 20
55.3190954014
 30
0.0
 10
-28.7336942726
 20
55.3240890497
 30
0.0
 10
-28.7668388455
 20
55.3428443778
 30
0.0
 10
-28.8013944988
 20
55.3591537202
 30
0.0
 10
-28.8276944548
 20
55.3694830063
 30
0.0
  0
SPLINE
  5
371
100
AcDbEntity
  8
ASSI
100
AcDbSpline
 62
250
  6
CONTINUOUS
 70
0
 71
3
 72
10
 73
6
 74
0
 42
0.0000001
 43
0.0000001
 44
0.0000000001
 40
0.0
 40
0.0
 40
0.0
 40
0.0
 40
0.3606042124
 40
0.6415407785
 40
1.0
 40
1.0
 40
1.0
 40
1.0
 10
-10.8318658079
 20
-11.1869997744
 30
0.0
 10
-10.830150839
 20
-11.1908371605
 30
0.0
 10
-10.827354953
 20
-11.1978833988
 30
0.0
 10
-10.8244035984
 20
-11.2088294926
 30
0.0
 10
-10.8249477465
 20
-11.2176215972
 30
0.0
 10
-10.827942047
 20
-11.220535575
 30
0.0
  0
SPLINE
  5
372
100
AcDbEntity
  8
ASSI
100
AcDbSpline
 62
250
  6
CONTINUOUS
 70
0
 71
3
 72
10
 73
6
 74
0
 42
0.0000001
 43
0.0000001
 44
0.0000000001
 40
0.0
 40
0.0
 40
0.0
 40
0.0
 40
0.3606042124
 40
0.6415407785
 40
1.0
 40
1.0
 40
1.0
 40
1.0
 10
20.9879393455
 20
-29.5593564741
 30
0.0
 10
20.9896543144
 20
-29.5631938603
 30
0.0
 10
20.9924502004
 20
-29.5702400986
 30
0.0
 10
20.995401555
 20
-29.5811861924
 30
0.0
 10
20.9948574069
 20
-29.5899782969
 30
0.0
 10
20.9918631064
 20
-29.5928922748
 30
0.0
  0
SPLINE
  5
373
100
AcDbEntity
  8
0
100
AcDbSpline
 62
250
  6
CONTINUOUS
 70
0
 71
3
 72
16
 73
12
 74
0
 42
0.0000001
 43
0.0000001
 44
0.0000000001
 40
0.0
 40
0.0
 40
0.0
 40
0.0
 40
0.125
 40
0.25
 40
0.3125
 40
0.375
 40
0.5
 40
0.625
 40
0.75
 40
0.875
 40
1.0
 40
1.0
 40
1.0
 40
1.0
 10
32.5102355268
 20
-42.4259820211
 30
0.0
 10
32.5013834196
 20
-42.4351871452
 30
0.0
 10
32.4849088501
 20
-42.4538554829
 30
0.0
 10
32.4657196944
 20
-42.4792168171
 30
0.0
 10
32.4516697135
 20
-42.5002051542
 30
0.0
 10
32.4384683075
 20
-42.5217238336
 30
0.0
 10
32.4239915516
 20
-42.5489906401
 30
0.0
 10
32.4100431181
 20
-42.5825642845
 30
0.0
 10
32.4005552882
 20
-42.6157116845
 30
0.0
 10
32.395245956
 20
-42.6469244082
 30
0.0
 10
32.3940710038
 20
-42.6662951536
 30
0.0
 10
32.3940710038
 20
-42.6760215098
 30
0.0
  0
SPLINE
  5
374
100
AcDbEntity
  8
0
100
AcDbSpline
 62
250
  6
CONTINUOUS
 70
0
 71
3
 72
12
 73
8
 74
0
 42
0.0000001
 43
0.0000001
 44
0.0000000001
 40
0.0
 40
0.0
 40
0.0
 40
0.0
 40
0.1666666667
 40
0.3333333333
 40
0.5
 40
0.6666666667
 40
1.0
 40
1.0
 40
1.0
 40
1.0
 10
32.9106244681
 20
-42.0449422607
 30
0.0
 10
32.8864912951
 20
-42.0675253619
 30
0.0
 10
32.8388840422
 20
-42.1123694014
 30
0.0
 10
32.7693365527
 20
-42.1780433402
 30
0.0
 10
32.701392788
 20
-42.2414324223
 30
0.0
 10
32.6131468986
 20
-42.3234374276
 30
0.0
 10
32.5502428704
 20
-42.3843930465
 30
0.0
 10
32.5102632207
 20
-42.4259532427
 30
0.0
  0
SPLINE
  5
375
100
AcDbEntity
  8
0
100
AcDbSpline
 62
250
  6
CONTINUOUS
 70
0
 71
3
 72
10
 73
6
 74
0
 42
0.0000001
 43
0.0000001
 44
0.0000000001
 40
0.0
 40
0.0
 40
0.0
 40
0.0
 40
0.3333333333
 40
0.6666666667
 40
1.0
 40
1.0
 40
1.0
 40
1.0
 10
32.5533996741
 20
-42.0577613322
 30
0.0
 10
32.5943500198
 20
-42.0201660924
 30
0.0
 10
32.6755002928
 20
-41.9463548242
 30
0.0
 10
32.7946258933
 20
-41.8387457196
 30
0.0
 10
32.872331287
 20
-41.768612164
 30
0.0
 10
32.9106244681
 20
-41.7334943787
 30
0.0
  0
SPLINE
  5
376
100
AcDbEntity
  8
0
100
AcDbSpline
 62
250
  6
CONTINUOUS
 70
0
 71
3
 72
16
 73
12
 74
0
 42
0.0000001
 43
0.0000001
 44
0.0000000001
 40
0.0
 40
0.0
 40
0.0
 40
0.0
 40
0.1111111111
 40
0.2222222222
 40
0.3333333333
 40
0.4444444444
 40
0.5555555556
 40
0.6666666667
 40
0.7777777778
 40
0.8888888889
 40
1.0
 40
1.0
 40
1.0
 40
1.0
 10
32.2944859653
 20
-42.3992115453
 30
0.0
 10
32.2986626821
 20
-42.3844048656
 30
0.0
 10
32.3092208129
 20
-42.3550649488
 30
0.0
 10
32.3312485765
 20
-42.3110351022
 30
0.0
 10
32.356847464
 20
-42.2699811578
 30
0.0
 10
32.3849667715
 20
-42.2313825368
 30
0.0
 10
32.4140345947
 20
-42.1959439399
 30
0.0
 10
32.4446953697
 20
-42.1619148206
 30
0.0
 10
32.4774709624
 20
-42.1283630034
 30
0.0
 10
32.513172587
 20
-42.0944534493
 30
0.0
 10
32.5396439159
 20
-42.0703900666
 30
0.0
 10
32.5533996742
 20
-42.0577613324
 30
0.0
  0
SPLINE
  5
377
100
AcDbEntity
  8
0
100
AcDbSpline
 62
250
  6
CONTINUOUS
 70
0
 71
3
 72
34
 73
30
 74
0
 42
0.0000001
 43
0.0000001
 44
0.0000000001
 40
0.0
 40
0.0
 40
0.0
 40
0.0
 40
0.0277777778
 40
0.0555555556
 40
0.0833333333
 40
0.1111111111
 40
0.1388888889
 40
0.1666666667
 40
0.1944444444
 40
0.2222222222
 40
0.25
 40
0.2777777778
 40
0.3333333333
 40
0.3888888889
 40
0.4444444444
 40
0.5
 40
0.5555555556
 40
0.6111111111
 40
0.6666666667
 40
0.7222222222
 40
0.7777777778
 40
0.8055555556
 40
0.8333333333
 40
0.8611111111
 40
0.8888888889
 40
0.9166666667
 40
0.9444444444
 40
0.9722222222
 40
1.0
 40
1.0
 40
1.0
 40
1.0
 10
31.6199980139
 20
-42.8358733481
 30
0.0
 10
31.6235157071
 20
-42.8223110163
 30
0.0
 10
31.6320766457
 20
-42.7946579141
 30
0.0
 10
31.6493459809
 20
-42.7506496623
 30
0.0
 10
31.6711788755
 20
-42.7031979089
 30
0.0
 10
31.6967610748
 20
-42.6554046726
 30
0.0
 10
31.7256344773
 20
-42.6086900288
 30
0.0
 10
31.7572883139
 20
-42.5640519144
 30
0.0
 10
31.7910535866
 20
-42.5223586202
 30
0.0
 10
31.8258673553
 20
-42.4848865234
 30
0.0
 10
31.8595314841
 20
-42.4531340609
 30
0.0
 10
31.9035118483
 20
-42.416634089
 30
0.0
 10
31.9541849756
 20
-42.3818206255
 30
0.0
 10
32.0085132429
 20
-42.3523863091
 30
0.0
 10
32.0571355633
 20
-42.3333391363
 30
0.0
 10
32.099663001
 20
-42.3230698453
 30
0.0
 10
32.1366361252
 20
-42.3196566651
 30
0.0
 10
32.1684582418
 20
-42.3215910177
 30
0.0
 10
32.1955067249
 20
-42.3277406588
 30
0.0
 10
32.2182214091
 20
-42.3373586028
 30
0.0
 10
32.2341633347
 20
-42.3469345761
 30
0.0
 10
32.2456058924
 20
-42.3549008373
 30
0.0
 10
32.2536412027
 20
-42.3609436221
 30
0.0
 10
32.2611286635
 20
-42.3669347285
 30
0.0
 10
32.2682672617
 20
-42.372800076
 30
0.0
 10
32.2750665545
 20
-42.3790689168
 30
0.0
 10
32.2807102286
 20
-42.3861006676
 30
0.0
 10
32.2847893105
 20
-42.3941630714
 30
0.0
 10
32.2862875462
 20
-42.4004822255
 30
0.0
 10
32.2866862425
 20
-42.4038750169
 30
0.0
  0
SPLINE
  5
378
100
AcDbEntity
  8
0
100
AcDbSpline
 62
250
  6
CONTINUOUS
 70
0
 71
3
 72
15
 73
11
 74
0
 42
0.0000001
 43
0.0000001
 44
0.0000000001
 40
0.0
 40
0.0
 40
0.0
 40
0.0
 40
0.125
 40
0.25
 40
0.375
 40
0.5
 40
0.625
 40
0.75
 40
0.875
 40
1.0
 40
1.0
 40
1.0
 40
1.0
 10
31.606101046
 20
-43.6432453922
 30
0.0
 10
31.6011015582
 20
-43.6062985085
 30
0.0
 10
31.5918372555
 20
-43.5346769993
 30
0.0
 10
31.5813594955
 20
-43.4342492341
 30
0.0
 10
31.5745781673
 20
-43.3372321757
 30
0.0
 10
31.5719185951
 20
-43.241551977
 30
0.0
 10
31.5739929447
 20
-43.1443745363
 30
0.0
 10
31.5817141641
 20
-43.0446673023
 30
0.0
 10
31.5961289782
 20
-42.9420451179
 30
0.0
 10
31.6106973129
 20
-42.8716879351
 30
0.0
 10
31.6199980139
 20
-42.8358733481
 30
0.0
  0
SPLINE
  5
379
100
AcDbEntity
  8
0
100
AcDbSpline
 62
250
  6
CONTINUOUS
 70
0
 71
3
 72
12
 73
8
 74
0
 42
0.0000001
 43
0.0000001
 44
0.0000000001
 40
0.0
 40
0.0
 40
0.0
 40
0.0
 40
0.3333333333
 40
0.5
 40
0.6666666667
 40
0.8333333333
 40
1.0
 40
1.0
 40
1.0
 40
1.0
 10
31.8077745367
 20
-42.9572623646
 30
0.0
 10
31.8050261966
 20
-42.9867336017
 30
0.0
 10
31.802727925
 20
-43.0300187293
 30
0.0
 10
31.8032539293
 20
-43.0857237323
 30
0.0
 10
31.8054452085
 20
-43.1266247729
 30
0.0
 10
31.8095980594
 20
-43.1668323219
 30
0.0
 10
31.81345396
 20
-43.1931145142
 30
0.0
 10
31.815545377
 20
-43.2062678456
 30
0.0
  0
SPLINE
  5
37A
100
AcDbEntity
  8
0
100
AcDbSpline
 62
250
  6
CONTINUOUS
 70
0
 71
3
 72
19
 73
15
 74
0
 42
0.0000001
 43
0.0000001
 44
0.0000000001
 40
0.0
 40
0.0
 40
0.0
 40
0.0
 40
0.1
 40
0.2
 40
0.25
 40
0.3
 40
0.4
 40
0.5
 40
0.6
 40
0.7
 40
0.75
 40
0.8
 40
0.9
 40
1.0
 40
1.0
 40
1.0
 40
1.0
 10
31.9728495603
 20
-42.6756519037
 30
0.0
 10
31.964868313
 20
-42.6805662342
 30
0.0
 10
31.9494017359
 20
-42.69148271
 30
0.0
 10
31.9301283667
 20
-42.7082902729
 30
0.0
 10
31.915074777
 20
-42.7233954288
 30
0.0
 10
31.9002472865
 20
-42.7396518989
 30
0.0
 10
31.8825678264
 20
-42.7617100018
 30
0.0
 10
31.8627325756
 20
-42.7913934655
 30
0.0
 10
31.8455439811
 20
-42.823338352
 30
0.0
 10
31.8337809409
 20
-42.8507802124
 30
0.0
 10
31.8257784527
 20
-42.8732649206
 30
0.0
 10
31.8188272643
 20
-42.8957620465
 30
0.0
 10
31.8120558611
 20
-42.9240041511
 30
0.0
 10
31.8088182979
 20
-42.9460698135
 30
0.0
 10
31.8077745366
 20
-42.9572623647
 30
0.0
  0
SPLINE
  5
37B
100
AcDbEntity
  8
0
100
AcDbSpline
 62
250
  6
CONTINUOUS
 70
0
 71
3
 72
15
 73
11
 74
0
 42
0.0000001
 43
0.0000001
 44
0.0000000001
 40
0.0
 40
0.0
 40
0.0
 40
0.0
 40
0.1666666667
 40
0.3333333333
 40
0.5
 40
0.5833333333
 40
0.6666666667
 40
0.75
 40
0.8333333333
 40
1.0
 40
1.0
 40
1.0
 40
1.0
 10
32.1778959475
 20
-42.8045751345
 30
0.0
 10
32.1774115072
 20
-42.779376352
 30
0.0
 10
32.1732931439
 20
-42.7345199154
 30
0.0
 10
32.1584806799
 20
-42.6846836401
 30
0.0
 10
32.136873934
 20
-42.6556521102
 30
0.0
 10
32.111493614
 20
-42.6431463396
 30
0.0
 10
32.0890123601
 20
-42.6390825847
 30
0.0
 10
32.0641666546
 20
-42.6400439395
 30
0.0
 10
32.0272087806
 20
-42.6479683077
 30
0.0
 10
31.9956511836
 20
-42.6616096721
 30
0.0
 10
31.9728133292
 20
-42.6756742249
 30
0.0
  0
SPLINE
  5
37C
100
AcDbEntity
  8
SMUSSO
100
AcDbSpline
 62
7
  6
CONTINUOUS
 70
0
 71
3
 72
11
 73
7
 74
0
 42
0.0000001
 43
0.0000001
 44
0.0000000001
 40
0.0
 40
0.0
 40
0.0
 40
0.0
 40
0.217767125
 40
0.4509439396
 40
0.7101951389
 40
1.0
 40
1.0
 40
1.0
 40
1.0
 10
-32.2026242432
 20
54.7603417405
 30
0.0
 10
-32.1696389693
 20
54.7793870357
 30
0.0
 10
-32.0938423354
 20
54.8069157399
 30
0.0
 10
-31.9679621939
 20
54.8100655705
 30
0.0
 10
-31.8337775383
 20
54.7777017531
 30
0.0
 10
-31.7464969484
 20
54.7361460627
 30
0.0
 10
-31.7026000831
 20
54.7108005629
 30
0.0
  0
SPLINE
  5
37D
100
AcDbEntity
  8
SMUSSO
100
AcDbSpline
 62
7
  6
CONTINUOUS
 70
0
 71
3
 72
11
 73
7
 74
0
 42
0.0000001
 43
0.0000001
 44
0.0000000001
 40
0.0
 40
0.0
 40
0.0
 40
0.0
 40
0.2177736023
 40
0.4509563259
 40
0.7101814113
 40
1.0
 40
1.0
 40
1.0
 40
1.0
 10
-33.2632840706
 20
54.1479300494
 30
0.0
 10
-33.2962652659
 20
54.1288871093
 30
0.0
 10
-33.3579927189
 20
54.0770139391
 30
0.0
 10
-33.4236573649
 20
53.9695948996
 30
0.0
 10
-33.462689974
 20
53.8372207608
 30
0.0
 10
-33.4703670361
 20
53.7408761654
 30
0.0
 10
-33.4703670361
 20
53.6901929894
 30
0.0
  0
SPLINE
  5
37E
100
AcDbEntity
  8
SMUSSO
100
AcDbSpline
 62
7
  6
CONTINUOUS
 70
0
 71
3
 72
11
 73
7
 74
0
 42
0.0000001
 43
0.0000001
 44
0.0000000001
 40
0.0
 40
0.0
 40
0.0
 40
0.0
 40
0.2372413534
 40
0.5000061118
 40
0.7627675415
 40
1.0
 40
1.0
 40
1.0
 40
1.0
 10
30.8763500519
 20
18.5785385083
 30
0.0
 10
30.926544027
 20
18.5495571362
 30
0.0
 10
31.0215306976
 20
18.4696116639
 30
0.0
 10
31.1323942144
 20
18.3181128802
 30
0.0
 10
31.2081636379
 20
18.146354983
 30
0.0
 10
31.2299034424
 20
18.0241238438
 30
0.0
 10
31.2299034425
 20
17.9661660732
 30
0.0
  0
SPLINE
  5
37F
100
AcDbEntity
  8
RACCORDO
100
AcDbSpline
 62
7
  6
CONTINUOUS
 70
0
 71
3
 72
11
 73
7
 74
0
 42
0.0000001
 43
0.0000001
 44
0.0000000001
 40
0.0
 40
0.0
 40
0.0
 40
0.0
 40
0.217767124
 40
0.4509439365
 40
0.7101951399
 40
1.0
 40
1.0
 40
1.0
 40
1.0
 10
-26.1508000789
 20
31.0104243888
 30
0.0
 10
-26.1112177504
 20
31.0332787427
 30
0.0
 10
-26.0202617904
 20
31.0663131879
 30
0.0
 10
-25.8692056203
 20
31.070092985
 30
0.0
 10
-25.7081840334
 20
31.0312564041
 30
0.0
 10
-25.6034473249
 20
30.9813895754
 30
0.0
 10
-25.5507710868
 20
30.9509749756
 30
0.0
  0
SPLINE
  5
380
100
AcDbEntity
  8
RACCORDO
100
AcDbSpline
 62
7
  6
CONTINUOUS
 70
0
 71
3
 72
11
 73
7
 74
0
 42
0.0000001
 43
0.0000001
 44
0.0000000001
 40
0.0
 40
0.0
 40
0.0
 40
0.0
 40
0.2372223812
 40
0.5000061068
 40
0.7627865084
 40
1.0
 40
1.0
 40
1.0
 40
1.0
 10
20.8354337591
 20
4.1681616533
 30
0.0
 10
20.9558896984
 20
4.0986119036
 30
0.0
 10
21.1838606692
 20
3.9067471431
 30
0.0
 10
21.4499411527
 20
3.5431409635
 30
0.0
 10
21.6317916327
 20
3.1309104935
 30
0.0
 10
21.6839618965
 20
2.8375553753
 30
0.0
 10
21.6839618965
 20
2.6984678092
 30
0.0
  0
SPLINE
  5
381
100
AcDbEntity
  8
RACCORDO
100
AcDbSpline
 62
7
  6
CONTINUOUS
 70
0
 71
3
 72
11
 73
7
 74
0
 42
0.0000001
 43
0.0000001
 44
0.0000000001
 40
0.0
 40
0.0
 40
0.0
 40
0.0
 40
0.2897993086
 40
0.5490484826
 40
0.7822275283
 40
1.0
 40
1.0
 40
1.0
 40
1.0
 10
21.6839618965
 20
-32.4914011206
 30
0.0
 10
21.6839618965
 20
-32.5522171225
 30
0.0
 10
21.6747779413
 20
-32.6678360203
 30
0.0
 10
21.6279049575
 20
-32.8266772385
 30
0.0
 10
21.5491145312
 20
-32.9555870799
 30
0.0
 10
21.4750401342
 20
-33.0178338556
 30
0.0
 10
21.4354627512
 20
-33.040685354
 30
0.0
  0
SPLINE
  5
382
100
AcDbEntity
  8
RACCORDO
100
AcDbSpline
 62
7
  6
CONTINUOUS
 70
0
 71
3
 72
11
 73
7
 74
0
 42
0.0000001
 43
0.0000001
 44
0.0000000001
 40
0.0
 40
0.0
 40
0.0
 40
0.0
 40
0.2372134916
 40
0.4999938932
 40
0.7627776188
 40
1.0
 40
1.0
 40
1.0
 40
1.0
 10
-24.2779788806
 20
-3.5039049943
 30
0.0
 10
-24.2779788806
 20
-3.6429925604
 30
0.0
 10
-24.2258086168
 20
-3.9363476787
 30
0.0
 10
-24.0439581369
 20
-4.3485781486
 30
0.0
 10
-23.7778776533
 20
-4.7121843282
 30
0.0
 10
-23.5499066826
 20
-4.9040490887
 30
0.0
 10
-23.4294507432
 20
-4.9735988385
 30
0.0
  0
SPLINE
  5
383
100
AcDbEntity
  8
SMUSSO
100
AcDbSpline
 62
7
  6
CONTINUOUS
 70
0
 71
3
 72
11
 73
7
 74
0
 42
0.0000001
 43
0.0000001
 44
0.0000000001
 40
0.0
 40
0.0
 40
0.0
 40
0.0
 40
0.2897993086
 40
0.5490484826
 40
0.7822275283
 40
1.0
 40
1.0
 40
1.0
 40
1.0
 10
31.2299034425
 20
-54.2914928779
 30
0.0
 10
31.2299034426
 20
-54.3421728795
 30
0.0
 10
31.2222501465
 20
-54.438521961
 30
0.0
 10
31.1831893267
 20
-54.5708896428
 30
0.0
 10
31.1175306381
 20
-54.6783145107
 30
0.0
 10
31.0558019739
 20
-54.7301868235
 30
0.0
 10
31.0228208215
 20
-54.749229739
 30
0.0
  0
SPLINE
  5
384
100
AcDbEntity
  8
SMUSSO
100
AcDbSpline
 62
7
  6
CONTINUOUS
 70
0
 71
3
 72
11
 73
7
 74
0
 42
0.0000001
 43
0.0000001
 44
0.0000000001
 40
0.0
 40
0.0
 40
0.0
 40
0.0
 40
0.2898284316
 40
0.5490524938
 40
0.7822354338
 40
1.0
 40
1.0
 40
1.0
 40
1.0
 10
29.4621364895
 20
-55.3121004513
 30
0.0
 10
29.5060366783
 20
-55.3374478696
 30
0.0
 10
29.5933271306
 20
-55.3789763777
 30
0.0
 10
29.7275024112
 20
-55.4113725594
 30
0.0
 10
29.8533797137
 20
-55.4082124699
 30
0.0
 10
29.9291762933
 20
-55.3806863942
 30
0.0
 10
29.9621609941
 20
-55.3616414301
 30
0.0
  0
SPLINE
  5
385
100
AcDbEntity
  8
RACCORDO
100
AcDbSpline
 62
7
  6
CONTINUOUS
 70
0
 71
3
 72
11
 73
7
 74
0
 42
0.0000001
 43
0.0000001
 44
0.0000000001
 40
0.0
 40
0.0
 40
0.0
 40
0.0
 40
0.217767124
 40
0.4509439365
 40
0.7101951399
 40
1.0
 40
1.0
 40
1.0
 40
1.0
 10
21.4354627512
 20
-33.040685354
 30
0.0
 10
21.3958804227
 20
-33.0635397079
 30
0.0
 10
21.3049244627
 20
-33.096574153
 30
0.0
 10
21.1538682926
 20
-33.1003539501
 30
0.0
 10
20.9928467057
 20
-33.0615173692
 30
0.0
 10
20.8881099972
 20
-33.0116505405
 30
0.0
 10
20.8354337591
 20
-32.9812359407
 30
0.0
  0
SPLINE
  5
386
100
AcDbEntity
  8
SMUSSO
100
AcDbSpline
 62
7
  6
CONTINUOUS
 70
0
 71
3
 72
11
 73
7
 74
0
 42
0.0000001
 43
0.0000001
 44
0.0000000001
 40
0.0
 40
0.0
 40
0.0
 40
0.0
 40
0.2177713414
 40
0.4509467097
 40
0.7102199717
 40
1.0
 40
1.0
 40
1.0
 40
1.0
 10
29.9621609941
 20
-55.3616414301
 30
0.0
 10
29.995142104
 20
-55.3425985394
 30
0.0
 10
30.0568719793
 20
-55.2907270832
 30
0.0
 10
30.1225247112
 20
-55.1832963862
 30
0.0
 10
30.1616137412
 20
-55.0509351616
 30
0.0
 10
30.1692432707
 20
-54.9545815953
 30
0.0
 10
30.1692432707
 20
-54.9039047679
 30
0.0
  0
SPLINE
  5
387
100
AcDbEntity
  8
SMUSSO
100
AcDbSpline
 62
7
  6
CONTINUOUS
 70
0
 71
3
 72
11
 73
7
 74
0
 42
0.0000001
 43
0.0000001
 44
0.0000000001
 40
0.0
 40
0.0
 40
0.0
 40
0.0
 40
0.2372134407
 40
0.499993973
 40
0.7627779037
 40
1.0
 40
1.0
 40
1.0
 40
1.0
 10
30.1692432707
 20
16.9454795899
 30
0.0
 10
30.1692432717
 20
17.0613858416
 30
0.0
 10
30.1257669946
 20
17.3058480632
 30
0.0
 10
29.9742273272
 20
17.6493748029
 30
0.0
 10
29.7524901778
 20
17.9523772267
 30
0.0
 10
29.5625162937
 20
18.1122664189
 30
0.0
 10
29.4621364895
 20
18.17022446
 30
0.0
  0
SPLINE
  5
388
100
AcDbEntity
  8
SMUSSO
100
AcDbSpline
 62
7
  6
CONTINUOUS
 70
0
 71
3
 72
11
 73
7
 74
0
 42
0.0000001
 43
0.0000001
 44
0.0000000001
 40
0.0
 40
0.0
 40
0.0
 40
0.0
 40
0.2372223818
 40
0.5000061081
 40
0.7627865106
 40
1.0
 40
1.0
 40
1.0
 40
1.0
 10
30.5227966613
 20
18.78263635
 30
0.0
 10
30.6231766111
 20
18.7246782253
 30
0.0
 10
30.8131524204
 20
18.5647909241
 30
0.0
 10
31.0348861571
 20
18.2617857735
 30
0.0
 10
31.1864282232
 20
17.9182603818
 30
0.0
 10
31.2299034424
 20
17.6737977839
 30
0.0
 10
31.2299034425
 20
17.5578914799
 30
0.0
  0
SPLINE
  5
389
100
AcDbEntity
  8
RACCORDO
100
AcDbSpline
 62
7
  6
CONTINUOUS
 70
0
 71
3
 72
11
 73
7
 74
0
 42
0.0000001
 43
0.0000001
 44
0.0000000001
 40
0.0
 40
0.0
 40
0.0
 40
0.0
 40
0.2372223812
 40
0.5000061068
 40
0.7627865084
 40
1.0
 40
1.0
 40
1.0
 40
1.0
 10
-25.5507710868
 20
-6.1984226184
 30
0.0
 10
-25.6712270261
 20
-6.1288728687
 30
0.0
 10
-25.8991979969
 20
-5.9370081082
 30
0.0
 10
-26.1652784804
 20
-5.5734019286
 30
0.0
 10
-26.3471289604
 20
-5.1611714586
 30
0.0
 10
-26.3992992242
 20
-4.8678163404
 30
0.0
 10
-26.3992992242
 20
-4.7287287743
 30
0.0
  0
SPLINE
  5
38A
100
AcDbEntity
  8
RACCORDO
100
AcDbSpline
 62
7
  6
CONTINUOUS
 70
0
 71
3
 72
11
 73
7
 74
0
 42
0.0000001
 43
0.0000001
 44
0.0000000001
 40
0.0
 40
0.0
 40
0.0
 40
0.0
 40
0.2897993086
 40
0.5490484826
 40
0.7822275283
 40
1.0
 40
1.0
 40
1.0
 40
1.0
 10
-26.3992992242
 20
30.4611401555
 30
0.0
 10
-26.3992992242
 20
30.5219561574
 30
0.0
 10
-26.390115269
 20
30.6375750552
 30
0.0
 10
-26.3432422852
 20
30.7964162734
 30
0.0
 10
-26.2644518589
 20
30.9253261148
 30
0.0
 10
-26.1903774619
 20
30.9875728904
 30
0.0
 10
-26.1508000789
 20
31.0104243888
 30
0.0
  0
SPLINE
  5
38B
100
AcDbEntity
  8
SMUSSO
100
AcDbSpline
 62
7
  6
CONTINUOUS
 70
0
 71
3
 72
11
 73
7
 74
0
 42
0.0000001
 43
0.0000001
 44
0.0000000001
 40
0.0
 40
0.0
 40
0.0
 40
0.0
 40
0.2897812883
 40
0.549059632
 40
0.7822303178
 40
1.0
 40
1.0
 40
1.0
 40
1.0
 10
-32.7632602549
 20
54.0983886729
 30
0.0
 10
-32.8071537966
 20
54.1237322542
 30
0.0
 10
-32.8944245232
 20
54.165315127
 30
0.0
 10
-33.0286185536
 20
54.1976465808
 30
0.0
 10
-33.1545015359
 20
54.1945070081
 30
0.0
 10
-33.2302982235
 20
54.1669756753
 30
0.0
 10
-33.2632840706
 20
54.1479300494
 30
0.0
  0
ELLIPSE
  5
38C
100
AcDbEntity
  8
0
100
AcDbEllipse
 62
7
  6
CONTINUOUS
 10
33.4125608261
 20
-50.6416883441
 30
0.0
 11
-0.0320188688
 21
0.0554549875
 31
0.0
 40
0.5632057935
 41
-2.5265952341
 42
-2.3686251639
  0
ELLIPSE
  5
38D
100
AcDbEntity
  8
0
100
AcDbEllipse
 62
7
  6
CONTINUOUS
 10
33.4125608261
 20
19.6347556951
 30
0.0
 11
-0.0312356712
 21
0.0540980115
 31
0.0
 40
0.5918118391
 41
-2.3438606673
 42
-0.7978336343
  0
ELLIPSE
  5
38E
100
AcDbEntity
  8
0
100
AcDbEllipse
 62
7
  6
CONTINUOUS
 10
-27.4505857578
 20
54.7763737383
 30
0.0
 11
-0.0320188688
 21
0.0554549875
 31
0.0
 40
0.5632057935
 41
-0.7730595434
 42
-0.6150059205
  0
ELLIPSE
  5
38F
100
AcDbEntity
  8
0
100
AcDbEllipse
 62
7
  6
CONTINUOUS
 10
-9.03601536
 20
-10.0012331769
 30
0.0
 11
0.1999995634
 21
0.1164181051
 31
0.0
 40
0.0035896273
 41
-0.7351277754
 42
-0.6748017824
  0
ELLIPSE
  5
390
100
AcDbEntity
  8
0
100
AcDbEllipse
 62
7
  6
CONTINUOUS
 10
18.9577884028
 20
-25.5931397906
 30
0.0
 11
0.1998333781
 21
-0.0157785196
 31
0.0
 40
0.5172961965
 41
0.8262203412
 42
2.3446567905
  0
ELLIPSE
  5
391
100
AcDbEntity
  8
0
100
AcDbEllipse
 62
7
  6
CONTINUOUS
 10
-12.8620167505
 20
-7.2207830908
 30
0.0
 11
0.1998333781
 21
-0.0157785196
 31
0.0
 40
0.5172961965
 41
0.8262203412
 42
2.3446567905
  0
ELLIPSE
  5
392
100
AcDbEntity
  8
0
100
AcDbEllipse
 62
7
  6
CONTINUOUS
 10
17.4395608729
 20
-26.8965543035
 30
0.0
 11
0.5413005334
 21
0.8416911418
 31
0.0
 40
0.6067084637
 41
0.7148472392
 42
0.8145158917
  0
ELLIPSE
  5
393
100
AcDbEntity
  8
0
100
AcDbEllipse
 62
7
  6
CONTINUOUS
 10
-14.3802442805
 20
-8.5241976037
 30
0.0
 11
0.5413005334
 21
0.8416911418
 31
0.0
 40
0.6067084637
 41
0.7148472392
 42
0.8145158917
  0
ELLIPSE
  5
394
100
AcDbEntity
  8
0
100
AcDbEllipse
 62
7
  6
CONTINUOUS
 10
-9.03601536
 20
-9.4298683427
 30
0.0
 11
0.1998333781
 21
-0.0157785196
 31
0.0
 40
0.5172961965
 41
-0.692216108
 42
0.8262203412
  0
ELLIPSE
  5
395
100
AcDbEntity
  8
0
100
AcDbEllipse
 62
7
  6
CONTINUOUS
 10
-10.1339070222
 20
-10.9759795176
 30
0.0
 11
0.4625183445
 21
0.8873459255
 31
0.0
 40
0.5463614449
 41
0.662201126
 42
0.7618697785
  0
ELLIPSE
  5
396
100
AcDbEntity
  8
0
100
AcDbEllipse
 62
7
  6
CONTINUOUS
 10
33.4181597629
 20
-51.0857940145
 30
0.0
 11
0.1304932868
 21
1.2025842266
 31
0.0
 40
0.0944494463
 41
-3.8578203675
 42
-3.816510454
  0
ELLIPSE
  5
397
100
AcDbEntity
  8
0
100
AcDbEllipse
 62
7
  6
CONTINUOUS
 10
33.4181597629
 20
19.6205319558
 30
0.0
 11
0.1304932868
 21
1.2025842266
 31
0.0
 40
0.0944494463
 41
-3.899130281
 42
-3.8578203675
  0
ELLIPSE
  5
398
100
AcDbEntity
  8
0
100
AcDbEllipse
 62
7
  6
CONTINUOUS
 10
33.4030609577
 20
19.6466838535
 30
0.0
 11
1.1066889452
 21
-0.4882482052
 31
0.0
 40
0.0945009384
 41
-2.4253001261
 42
-2.3839902126
  0
ELLIPSE
  5
399
100
AcDbEntity
  8
0
100
AcDbEllipse
 62
7
  6
CONTINUOUS
 10
-27.8323862931
 20
55.0032636357
 30
0.0
 11
1.1066889452
 21
-0.4882482052
 31
0.0
 40
0.0945009384
 41
-2.4666100396
 42
-2.4253001261
  0
ELLIPSE
  5
39A
100
AcDbEntity
  8
ASSI
100
AcDbEllipse
 62
7
  6
CONTINUOUS
 10
33.4125608261
 20
-50.6416883441
 30
0.0
 11
-0.0320188688
 21
0.0554549875
 31
0.0
 40
0.5632057935
 41
-2.5265952341
 42
-2.3686251639
  0
ELLIPSE
  5
39B
100
AcDbEntity
  8
ASSI
100
AcDbEllipse
 62
7
  6
CONTINUOUS
 10
33.4125608261
 20
19.6347556951
 30
0.0
 11
-0.0312356712
 21
0.0540980115
 31
0.0
 40
0.5918118391
 41
-2.3438606673
 42
-0.7978336343
  0
ELLIPSE
  5
39C
100
AcDbEntity
  8
ASSI
100
AcDbEllipse
 62
7
  6
CONTINUOUS
 10
-27.4505857578
 20
54.7763737383
 30
0.0
 11
-0.0320188688
 21
0.0554549875
 31
0.0
 40
0.5632057935
 41
-0.7730595434
 42
-0.6150059205
  0
ELLIPSE
  5
39D
100
AcDbEntity
  8
ASSI
100
AcDbEllipse
 62
7
  6
CONTINUOUS
 10
-9.03601536
 20
-10.0012331769
 30
0.0
 11
0.1999995634
 21
0.1164181051
 31
0.0
 40
0.0035896273
 41
-0.7351277754
 42
-0.6748017824
  0
ELLIPSE
  5
39E
100
AcDbEntity
  8
ASSI
100
AcDbEllipse
 62
7
  6
CONTINUOUS
 10
18.9577884028
 20
-25.5931397906
 30
0.0
 11
0.1998333781
 21
-0.0157785196
 31
0.0
 40
0.5172961965
 41
0.8262203412
 42
2.3446567905
  0
ELLIPSE
  5
39F
100
AcDbEntity
  8
ASSI
100
AcDbEllipse
 62
7
  6
CONTINUOUS
 10
-12.8620167505
 20
-7.2207830908
 30
0.0
 11
0.1998333781
 21
-0.0157785196
 31
0.0
 40
0.5172961965
 41
0.8262203412
 42
2.3446567905
  0
ELLIPSE
  5
3A0
100
AcDbEntity
  8
ASSI
100
AcDbEllipse
 62
7
  6
CONTINUOUS
 10
17.4395608729
 20
-26.8965543035
 30
0.0
 11
0.5413005334
 21
0.8416911418
 31
0.0
 40
0.6067084637
 41
0.7148472392
 42
0.8145158917
  0
ELLIPSE
  5
3A1
100
AcDbEntity
  8
ASSI
100
AcDbEllipse
 62
7
  6
CONTINUOUS
 10
-14.3802442805
 20
-8.5241976037
 30
0.0
 11
0.5413005334
 21
0.8416911418
 31
0.0
 40
0.6067084637
 41
0.7148472392
 42
0.8145158917
  0
ELLIPSE
  5
3A2
100
AcDbEntity
  8
ASSI
100
AcDbEllipse
 62
7
  6
CONTINUOUS
 10
-9.03601536
 20
-9.4298683427
 30
0.0
 11
0.1998333781
 21
-0.0157785196
 31
0.0
 40
0.5172961965
 41
-0.692216108
 42
0.8262203412
  0
ELLIPSE
  5
3A3
100
AcDbEntity
  8
ASSI
100
AcDbEllipse
 62
7
  6
CONTINUOUS
 10
-10.1339070222
 20
-10.9759795176
 30
0.0
 11
0.4625183445
 21
0.8873459255
 31
0.0
 40
0.5463614449
 41
0.662201126
 42
0.7618697785
  0
ELLIPSE
  5
3A4
100
AcDbEntity
  8
ASSI
100
AcDbEllipse
 62
7
  6
CONTINUOUS
 10
33.4181597629
 20
-51.0857940145
 30
0.0
 11
0.1304932868
 21
1.2025842266
 31
0.0
 40
0.0944494463
 41
-3.8578203675
 42
-3.816510454
  0
ELLIPSE
  5
3A5
100
AcDbEntity
  8
ASSI
100
AcDbEllipse
 62
7
  6
CONTINUOUS
 10
33.4181597629
 20
19.6205319558
 30
0.0
 11
0.1304932868
 21
1.2025842266
 31
0.0
 40
0.0944494463
 41
-3.899130281
 42
-3.8578203675
  0
ELLIPSE
  5
3A6
100
AcDbEntity
  8
ASSI
100
AcDbEllipse
 62
7
  6
CONTINUOUS
 10
33.4030609577
 20
19.6466838535
 30
0.0
 11
1.1066889452
 21
-0.4882482052
 31
0.0
 40
0.0945009384
 41
-2.4253001261
 42
-2.3839902126
  0
ELLIPSE
  5
3A7
100
AcDbEntity
  8
ASSI
100
AcDbEllipse
 62
7
  6
CONTINUOUS
 10
-27.8323862931
 20
55.0032636357
 30
0.0
 11
1.1066889452
 21
-0.4882482052
 31
0.0
 40
0.0945009384
 41
-2.4666100396
 42
-2.4253001261
  0
ENDSEC
  0
SECTION
  2
OBJECTS
  0
DICTIONARY
  5
C
100
AcDbDictionary
280
0
281
1
  3
ACAD_GROUP
350
D
  3
ACAD_MLINESTYLE
350
17
  3
ACAD_LAYOUT
350
1A
  3
ACAD_PLOTSETTINGS
350
19
  3
ACAD_PLOTSTYLENAME
350
E
  0
DICTIONARY
  5
D
102
{ACAD_REACTORS
330
C
102
}
100
AcDbDictionary
280
0
281
1
  0
ACDBDICTIONARYWDFLT
  5
E
102
{ACAD_REACTORS
330
C
102
}
100
AcDbDictionary
281
1
  3
Normal
350
F
100
AcDbDictionaryWithDefault
340
F
  0
DICTIONARY
  5
17
102
{ACAD_REACTORS
330
C
102
}
100
AcDbDictionary
280
0
281
1
  3
Standard
350
18
  0
DICTIONARY
  5
19
102
{ACAD_REACTORS
330
C
102
}
100
AcDbDictionary
281
1
  0
DICTIONARY
  5
1A
102
{ACAD_REACTORS
330
C
102
}
100
AcDbDictionary
281
1
  3
Model
350
3A8
  3
Layout1
350
3A9
  0
ACDBPLACEHOLDER
  5
F
102
{ACAD_REACTORS
330
E
102
}
  0
MLINESTYLE
  5
18
102
{ACAD_REACTORS
330
17
102
}
100
AcDbMlineStyle
  2
STANDARD
 70
0
  3

 62
256
 51
90.0
 52
90.0
 71
2
 49
0.5
 62
256
  6
BYLAYER
 49
-0.5
 62
256
  6
BYLAYER
  0
LAYOUT
  5
3A8
102
{ACAD_REACTORS
330
1A
102
}
100
AcDbPlotSettings
  1

  2
none_device
  4
ISO_A4_(297.00_x_210.00_MM)
  6

 40
0.0
 41
0.0
 42
0.0
 43
0.0
 44
297.0
 45
210.0
 46
0.0
 47
0.0
 48
0.0
 49
0.0
140
0.0
141
0.0
142
1.0
143
1.0
 70
1024
 72
1
 73
0
 74
0
  7

 75
0
147
1.0
148
0.0
149
0.0
100
AcDbLayout
  1
Model
 70
0
 71
0
 10
0.0
 20
0.0
 11
297.0
 21
210.0
 12
0.0
 22
0.0
 32
0.0
 14
0.0
 24
0.0
 34
0.0
 15
0.0
 25
0.0
 35
0.0
146
0.0
 13
0.0
 23
0.0
 33
0.0
 16
1.0
 26
0.0
 36
0.0
 17
0.0
 27
1.0
 37
0.0
 76
0
330
21D
345
0
346
0
  0
LAYOUT
  5
3A9
102
{ACAD_REACTORS
330
1A
102
}
100
AcDbPlotSettings
  1

  2
none_device
  4
ISO_A4_(297.00_x_210.00_MM)
  6

 40
0.0
 41
0.0
 42
0.0
 43
0.0
 44
297.0
 45
210.0
 46
0.0
 47
0.0
 48
0.0
 49
0.0
140
0.0
141
0.0
142
1.0
143
1.0
 70
0
 72
1
 73
0
 74
0
  7

 75
0
147
1.0
148
0.0
149
0.0
100
AcDbLayout
  1
Layout1
 70
0
 71
1
 10
0.0
 20
0.0
 11
297.0
 21
210.0
 12
0.0
 22
0.0
 32
0.0
 14
0.0
 24
0.0
 34
0.0
 15
0.0
 25
0.0
 35
0.0
146
0.0
 13
0.0
 23
0.0
 33
0.0
 16
1.0
 26
0.0
 36
0.0
 17
0.0
 27
1.0
 37
0.0
 76
0
330
21E
345
0
346
0
  0
ENDSEC
  0
EOF
