  0
SECTION
  2
HEADER
  9
$ACADVER
  1
AC1024
  9
$DWGCODEPAGE
  3
ANSI_1252
  9
$EXTMAX
 10
297.0
 20
210.0
 30
0.0
  9
$EXTMIN
 10
0.0
 20
0.0
 30
0.0
  9
$LIMMIN
 10
0.0
 20
0.0
  9
$LIMMAX
 10
297.0
 20
210.0
  9
$VIEWCTR
 10
148.5
 20
105.0
  9
$VIEWSIZE
 40
210.0
  9
$CLAYER
  8
0
  9
$LTSCALE
 40
16.335
  9
$CELTYPE
  6
BYLAYER
  9
$DIMSCALE
 40
1.0
  9
$DIMASZ
 40
3.0
  9
$DIMEXO
 40
0.5
  9
$DIMDLI
 40
11.286
  9
$DIMEXE
 40
1.5
  9
$DIMCEN
 40
2.673
  9
$DIMLFAC
 40
1.0
  9
$DIMBLK
  1
_FILLED
  9
$DIMALT
 70
0
  9
$DIMALTF
 40
0.0393700787
  9
$DIMTXT
 40
3.0
  9
$DIMTOL
 70
1
  9
$DIMLIM
 70
0
  9
$DIMTFAC
 40
1.0
  9
$DIMTP
 40
0.01
  9
$DIMTM
 40
0.01
  9
$DIMGAP
 40
0.625
  9
$DIMDSEP
 70
44
  9
$AUNITS
 70
0
  9
$PDMODE
 70
3
  9
$PDSIZE
 40
3.0
  9
$HANDSEED
  5
39E
  9
$TILEMODE
 70
1
  9
$MEASUREMENT
 70
1
  9
$INSUNITS
 70
4
  0
ENDSEC
  0
SECTION
  2
CLASSES
  0
CLASS
  1
ACDBDICTIONARYWDFLT
  2
AcDbDictionaryWithDefault
  3
AutoCAD 2000
 90
0
 91
1
280
0
281
0
  0
CLASS
  1
ACDBPLACEHOLDER
  2
AcDbPlaceHolder
  3
AutoCAD 2000
 90
0
 91
1
280
0
281
0
  0
CLASS
  1
LAYOUT
  2
AcDbLayout
  3
AutoCAD 2000
 90
0
 91
0
280
0
281
0
  0
ENDSEC
  0
SECTION
  2
TABLES
  0
TABLE
  2
VPORT
  5
8
100
AcDbSymbolTable
 70
2
  0
VPORT
  5
1F4
100
AcDbSymbolTableRecord
100
AcDbViewportTableRecord
  2
*ACTIVE
 70
0
 10
0.0
 20
0.0
 11
1.0
 21
1.0
 12
148.5
 22
105.0
 13
0.0
 23
0.0
 14
1.0
 24
1.0
 15
0.0
 25
0.0
 16
0.0
 26
0.0
 36
1.0
 17
0.0
 27
0.0
 37
0.0
 40
210.0
 41
1.4142857143
 42
50.0
 43
0.0
 44
0.0
 50
0.0
 51
0.0
 71
0
 72
100
 73
1
 74
1
 75
0
 76
0
 77
0
 78
0
  0
ENDTAB
  0
TABLE
  2
LTYPE
  5
5
100
AcDbSymbolTable
 70
6
  0
LTYPE
  5
14
100
AcDbSymbolTableRecord
100
AcDbLinetypeTableRecord
  2
BYBLOCK
 70
0
  3

 72
65
 73
0
 40
0.0
  0
LTYPE
  5
15
100
AcDbSymbolTableRecord
100
AcDbLinetypeTableRecord
  2
BYLAYER
 70
0
  3

 72
65
 73
0
 40
0.0
  0
LTYPE
  5
16
100
AcDbSymbolTableRecord
100
AcDbLinetypeTableRecord
  2
CONTINUOUS
 70
64
  3
Solid line
 72
65
 73
0
 40
0.0
  0
LTYPE
  5
1F5
100
AcDbSymbolTableRecord
100
AcDbLinetypeTableRecord
  2
CENTER
 70
64
  3
____ _ ____ _ ____ _ ____ _ ____ _ ____ _ ____
 72
65
 73
4
 40
0.6
 49
0.375
 74
0
 49
-0.075
 74
0
 49
0.075
 74
0
 49
-0.075
 74
0
  0
LTYPE
  5
1F6
100
AcDbSymbolTableRecord
100
AcDbLinetypeTableRecord
  2
HIDDEN
 70
64
  3
- - - - - - - - - - - - - - - - - - - -
 72
65
 73
2
 40
0.2
 49
0.1
 74
0
 49
-0.1
 74
0
  0
LTYPE
  5
1F7
100
AcDbSymbolTableRecord
100
AcDbLinetypeTableRecord
  2
PHANTOM
 70
64
  3
_____ _ _ _____ _ _ _____ _ _ _____
 72
65
 73
6
 40
0.8
 49
0.45
 74
0
 49
-0.05
 74
0
 49
0.1
 74
0
 49
-0.05
 74
0
 49
0.1
 74
0
 49
-0.05
 74
0
  0
LTYPE
  5
1F8
100
AcDbSymbolTableRecord
100
AcDbLinetypeTableRecord
  2
DOT
 70
64
  3
. . . . . . . . . . . . . . . . . . . .
 72
65
 73
2
 40
0.2
 49
0.1
 74
0
 49
-0.1
 74
0
  0
LTYPE
  5
1F9
100
AcDbSymbolTableRecord
100
AcDbLinetypeTableRecord
  2
DASHED
 70
64
  3
- - - - - - - - - - - - - - - - - - - -
 72
65
 73
2
 40
0.2
 49
0.1
 74
0
 49
-0.1
 74
0
  0
ENDTAB
  0
TABLE
  2
LAYER
  5
2
100
AcDbSymbolTable
 70
36
  0
LAYER
  5
10
100
AcDbSymbolTableRecord
100
AcDbLayerTableRecord
  2
0
 70
0
 62
7
  6
CONTINUOUS
370
-3
390
F
  0
LAYER
  5
1FA
100
AcDbSymbolTableRecord
100
AcDbLayerTableRecord
  2
DEFAULT_1
 70
0
 62
7
  6
CENTER
370
-3
390
F
  0
LAYER
  5
1FB
100
AcDbSymbolTableRecord
100
AcDbLayerTableRecord
  2
DEFAULT_2
 70
0
 62
7
  6
HIDDEN
370
-3
390
F
  0
LAYER
  5
1FC
100
AcDbSymbolTableRecord
100
AcDbLayerTableRecord
  2
DEFAULT_3
 70
0
 62
7
  6
PHANTOM
370
-3
390
F
  0
LAYER
  5
1FD
100
AcDbSymbolTableRecord
100
AcDbLayerTableRecord
  2
ASSI
 70
0
 62
7
  6
CONTINUOUS
370
-3
390
F
  0
LAYER
  5
1FE
100
AcDbSymbolTableRecord
100
AcDbLayerTableRecord
  2
COORDINATE
 70
0
 62
7
  6
CONTINUOUS
370
-3
390
F
  0
LAYER
  5
1FF
100
AcDbSymbolTableRecord
100
AcDbLayerTableRecord
  2
COORD_ORIGINE
 70
0
 62
7
  6
CONTINUOUS
370
-3
390
F
  0
LAYER
  5
200
100
AcDbSymbolTableRecord
100
AcDbLayerTableRecord
  2
COPY_PUBLISH
 70
0
 62
7
  6
CONTINUOUS
370
-3
390
F
  0
LAYER
  5
201
100
AcDbSymbolTableRecord
100
AcDbLayerTableRecord
  2
COSMETIC
 70
0
 62
7
  6
CONTINUOUS
370
-3
390
F
  0
LAYER
  5
202
100
AcDbSymbolTableRecord
100
AcDbLayerTableRecord
  2
COSMETICI
 70
0
 62
7
  6
CONTINUOUS
370
-3
390
F
  0
LAYER
  5
203
100
AcDbSymbolTableRecord
100
AcDbLayerTableRecord
  2
CURVE
 70
0
 62
7
  6
CONTINUOUS
370
-3
390
F
  0
LAYER
  5
204
100
AcDbSymbolTableRecord
100
AcDbLayerTableRecord
  2
CURVE_COSTRUZIONE
 70
0
 62
7
  6
CONTINUOUS
370
-3
390
F
  0
LAYER
  5
205
100
AcDbSymbolTableRecord
100
AcDbLayerTableRecord
  2
CURVE_TASSELLI
 70
0
 62
7
  6
CONTINUOUS
370
-3
390
F
  0
LAYER
  5
206
100
AcDbSymbolTableRecord
100
AcDbLayerTableRecord
  2
DRAFT
 70
0
 62
7
  6
CONTINUOUS
370
-3
390
F
  0
LAYER
  5
207
100
AcDbSymbolTableRecord
100
AcDbLayerTableRecord
  2
IMPORT_IGES
 70
0
 62
7
  6
CONTINUOUS
370
-3
390
F
  0
LAYER
  5
208
100
AcDbSymbolTableRecord
100
AcDbLayerTableRecord
  2
INTFCLR_2
 70
0
 62
7
  6
CONTINUOUS
370
-3
390
F
  0
LAYER
  5
209
100
AcDbSymbolTableRecord
100
AcDbLayerTableRecord
  2
INTF_1
 70
0
 62
7
  6
CONTINUOUS
370
-3
390
F
  0
LAYER
  5
20A
100
AcDbSymbolTableRecord
100
AcDbLayerTableRecord
  2
INTF_7
 70
0
 62
7
  6
CONTINUOUS
370
-3
390
F
  0
LAYER
  5
20B
100
AcDbSymbolTableRecord
100
AcDbLayerTableRecord
  2
INTF_CYAN
 70
0
 62
7
  6
CONTINUOUS
370
-3
390
F
  0
LAYER
  5
20C
100
AcDbSymbolTableRecord
100
AcDbLayerTableRecord
  2
NOTE
 70
0
 62
7
  6
CONTINUOUS
370
-3
390
F
  0
LAYER
  5
20D
100
AcDbSymbolTableRecord
100
AcDbLayerTableRecord
  2
PIANI
 70
0
 62
7
  6
CONTINUOUS
370
-3
390
F
  0
LAYER
  5
20E
100
AcDbSymbolTableRecord
100
AcDbLayerTableRecord
  2
PIANI_ORIGINE
 70
0
 62
7
  6
CONTINUOUS
370
-3
390
F
  0
LAYER
  5
20F
100
AcDbSymbolTableRecord
100
AcDbLayerTableRecord
  2
PIANI_RIFERIMENTO
 70
0
 62
7
  6
CONTINUOUS
370
-3
390
F
  0
LAYER
  5
210
100
AcDbSymbolTableRecord
100
AcDbLayerTableRecord
  2
PUNTI
 70
0
 62
7
  6
CONTINUOUS
370
-3
390
F
  0
LAYER
  5
211
100
AcDbSymbolTableRecord
100
AcDbLayerTableRecord
  2
RACCORDO
 70
0
 62
7
  6
CONTINUOUS
370
-3
390
F
  0
LAYER
  5
212
100
AcDbSymbolTableRecord
100
AcDbLayerTableRecord
  2
RGB__255__255__255__
 70
0
 62
7
  6
CONTINUOUS
370
-3
390
F
  0
LAYER
  5
213
100
AcDbSymbolTableRecord
100
AcDbLayerTableRecord
  2
RGB____0____0____0__
 70
0
 62
7
  6
CONTINUOUS
370
-3
390
F
  0
LAYER
  5
214
100
AcDbSymbolTableRecord
100
AcDbLayerTableRecord
  2
SIMBOLI
 70
0
 62
7
  6
CONTINUOUS
370
-3
390
F
  0
LAYER
  5
215
100
AcDbSymbolTableRecord
100
AcDbLayerTableRecord
  2
SMUSSO
 70
0
 62
7
  6
CONTINUOUS
370
-3
390
F
  0
LAYER
  5
216
100
AcDbSymbolTableRecord
100
AcDbLayerTableRecord
  2
SNAPLINE
 70
0
 62
7
  6
CONTINUOUS
370
-3
390
F
  0
LAYER
  5
217
100
AcDbSymbolTableRecord
100
AcDbLayerTableRecord
  2
SUPERFICI
 70
0
 62
7
  6
CONTINUOUS
370
-3
390
F
  0
LAYER
  5
218
100
AcDbSymbolTableRecord
100
AcDbLayerTableRecord
  2
TRASH
 70
0
 62
7
  6
CONTINUOUS
370
-3
390
F
  0
LAYER
  5
219
100
AcDbSymbolTableRecord
100
AcDbLayerTableRecord
  2
WHITE
 70
0
 62
7
  6
CONTINUOUS
370
-3
390
F
  0
LAYER
  5
21A
100
AcDbSymbolTableRecord
100
AcDbLayerTableRecord
  2
XSEC_DATUMS
 70
0
 62
7
  6
CONTINUOUS
370
-3
390
F
  0
ENDTAB
  0
TABLE
  2
STYLE
  5
3
100
AcDbSymbolTable
 70
1
  0
STYLE
  5
11
100
AcDbSymbolTableRecord
100
AcDbTextStyleTableRecord
  2
STANDARD
 70
0
 40
0.0
 41
0.8
 50
0.0
 71
0
 42
0.2
  3
txt
  4

  0
STYLE
  5
21B
100
AcDbSymbolTableRecord
100
AcDbTextStyleTableRecord
  2
TEXTSTYLE_1
 70
0
 40
0.0
 41
0.8
 50
0.0
 71
0
 42
0.2
  3
gdt
  4

  0
ENDTAB
  0
TABLE
  2
VIEW
  5
6
100
AcDbSymbolTable
 70
0
  0
ENDTAB
  0
TABLE
  2
UCS
  5
7
100
AcDbSymbolTable
 70
0
  0
ENDTAB
  0
TABLE
  2
APPID
  5
9
100
AcDbSymbolTable
 70
1
  0
APPID
  5
21C
100
AcDbSymbolTableRecord
100
AcDbRegAppTableRecord
  2
ACAD
 70
0
  0
ENDTAB
  0
TABLE
  2
BLOCK_RECORD
  5
1
100
AcDbSymbolTable
 70
0
  0
BLOCK_RECORD
  5
21D
100
AcDbSymbolTableRecord
100
AcDbBlockTableRecord
  2
*Model_Space
  0
BLOCK_RECORD
  5
21E
100
AcDbSymbolTableRecord
100
AcDbBlockTableRecord
  2
*Paper_Space
  0
BLOCK_RECORD
  5
21F
100
AcDbSymbolTableRecord
100
AcDbBlockTableRecord
  2
_FILLED
  0
ENDTAB
  0
TABLE
  2
DIMSTYLE
  5
A
100
AcDbSymbolTable
 70
1
100
AcDbDimStyleTable
 71
0
  0
DIMSTYLE
105
220
100
AcDbSymbolTableRecord
100
AcDbDimStyleTableRecord
  2
STANDARD
 70
0
  3

  4

 40
1.0
 41
3.0
 42
0.5
 43
0.38
 44
1.5
 45
0.0
 46
0.0
 47
0.01
 48
0.01
140
3.0
141
0.09
142
0.0
143
25.4
144
1.0
145
0.0
146
1.0
147
0.625
 71
1
 72
0
 73
0
 74
0
 75
0
 76
0
 77
1
 78
8
 79
2
170
0
171
1
172
0
173
0
174
0
175
0
176
0
177
0
178
0
270
2
179
2
271
2
272
2
273
2
274
2
275
0
280
0
281
0
282
0
283
1
284
8
285
0
286
0
287
3
288
0
340
11
278
44
341
21F
342
21F
343
21F
344
21F
  0
ENDTAB
  0
ENDSEC
  0
SECTION
  2
BLOCKS
  0
BLOCK
  5
20
100
AcDbEntity
  8
0
100
AcDbBlockBegin
  2
*Model_Space
 70
0
 10
0.0
 20
0.0
 30
0.0
  3
*Model_Space
  1

  0
ENDBLK
  5
21
100
AcDbEntity
  8
0
100
AcDbBlockEnd
  0
BLOCK
  5
1C
100
AcDbEntity
  8
0
100
AcDbBlockBegin
  2
*Paper_Space
 70
0
 10
0.0
 20
0.0
 30
0.0
  3
*Paper_Space
  1

  0
ENDBLK
  5
1D
100
AcDbEntity
  8
0
100
AcDbBlockEnd
  0
BLOCK
  5
221
100
AcDbEntity
  8
0
100
AcDbBlockBegin
  2
_FILLED
 70
64
 10
0.0
 20
0.0
  3
_FILLED
  1

  0
SOLID
  5
222
100
AcDbEntity
  8
0
  6
BYBLOCK
 62
0
100
AcDbTrace
 10
0.0
 20
0.0
 11
-1.0
 21
0.3166666667
 12
-1.0
 22
-0.3166666667
 13
-1.0
 23
-0.3166666667
  0
ENDBLK
  5
223
100
AcDbEntity
  8
0
  6
BYBLOCK
 62
0
100
AcDbBlockEnd
  0
ENDSEC
  0
SECTION
  2
ENTITIES
  0
LINE
  5
224
100
AcDbEntity
  8
SMUSSO
100
AcDbLine
 62
7
  6
CONTINUOUS
 10
-33.4703670361
 20
53.6431282401
 11
-31.7026000831
 21
54.6637752685
  0
LINE
  5
225
100
AcDbEntity
  8
0
100
AcDbLine
 62
250
  6
CONTINUOUS
 10
-28.697396263
 20
55.2558286657
 11
-30.7480059285
 21
54.113161816
  0
LINE
  5
226
100
AcDbEntity
  8
ASSI
100
AcDbLine
 62
250
  6
CONTINUOUS
 10
-28.697396263
 20
55.2558286657
 11
-30.7480059285
 21
54.113161816
  0
LINE
  5
227
100
AcDbEntity
  8
0
100
AcDbLine
 62
7
  6
CONTINUOUS
 10
-29.1756684165
 20
55.3174035478
 11
-31.0508833429
 21
54.2874821906
  0
LINE
  5
228
100
AcDbEntity
  8
ASSI
100
AcDbLine
 62
7
  6
CONTINUOUS
 10
-29.1756684165
 20
55.3174035478
 11
-31.0508833429
 21
54.2874821906
  0
LINE
  5
229
100
AcDbEntity
  8
0
100
AcDbLine
 62
250
  6
CONTINUOUS
 10
31.5906796841
 20
-47.6360990025
 11
32.4992387902
 21
-47.3975827305
  0
LINE
  5
22A
100
AcDbEntity
  8
0
100
AcDbLine
 62
250
  6
CONTINUOUS
 10
32.9106246446
 20
-47.0219399541
 11
31.5906796841
 21
-47.3125310153
  0
LINE
  5
22B
100
AcDbEntity
  8
0
100
AcDbLine
 62
250
  6
CONTINUOUS
 10
32.4432150905
 20
-44.0846927158
 11
31.9533667375
 21
-44.216353915
  0
LINE
  5
22C
100
AcDbEntity
  8
0
100
AcDbLine
 62
250
  6
CONTINUOUS
 10
32.9106246446
 20
-43.9608059147
 11
32.6471165682
 21
-44.0290124539
  0
LINE
  5
22D
100
AcDbEntity
  8
0
100
AcDbLine
 62
250
  6
CONTINUOUS
 10
31.5906796841
 20
-44.5837354868
 11
32.9106246446
 21
-44.2810827102
  0
LINE
  5
22E
100
AcDbEntity
  8
0
100
AcDbLine
 62
250
  6
CONTINUOUS
 10
31.5906796841
 20
-45.5865340784
 11
32.3235169479
 21
-45.4721582984
  0
LINE
  5
22F
100
AcDbEntity
  8
0
100
AcDbLine
 62
250
  6
CONTINUOUS
 10
32.9106246446
 20
-45.1001877365
 11
32.0523185268
 21
-45.2283847268
  0
LINE
  5
230
100
AcDbEntity
  8
RACCORDO
100
AcDbLine
 62
250
  6
CONTINUOUS
 10
-26.3285885461
 20
30.3732874018
 11
-25.4801014127
 21
30.8631932385
  0
LINE
  5
231
100
AcDbEntity
  8
SMUSSO
100
AcDbLine
 62
7
  6
CONTINUOUS
 10
-33.4703670361
 20
-19.0227658494
 11
-33.4703670361
 21
53.6431282401
  0
LINE
  5
232
100
AcDbEntity
  8
SMUSSO
100
AcDbLine
 62
7
  6
CONTINUOUS
 10
-33.4703670361
 20
-19.0227658494
 11
29.4621364895
 21
-55.3591652006
  0
LINE
  5
233
100
AcDbEntity
  8
RACCORDO
100
AcDbLine
 62
7
  6
CONTINUOUS
 10
-26.3285885461
 20
30.3732874018
 11
-26.3285885461
 21
-4.816581528
  0
LINE
  5
234
100
AcDbEntity
  8
RACCORDO
100
AcDbLine
 62
7
  6
CONTINUOUS
 10
-24.2072682025
 20
30.128227954
 11
-24.2072682025
 21
-3.591757748
  0
LINE
  5
235
100
AcDbEntity
  8
0
100
AcDbLine
 62
250
  6
CONTINUOUS
 10
-23.5454451582
 20
29.7460996227
 11
-23.5454451582
 21
-4.9291165393
  0
LINE
  5
236
100
AcDbEntity
  8
ASSI
100
AcDbLine
 62
250
  6
CONTINUOUS
 10
-23.5454451582
 20
29.7460996227
 11
-23.5454451582
 21
-4.9291165393
  0
LINE
  5
237
100
AcDbEntity
  8
0
100
AcDbLine
 62
7
  6
CONTINUOUS
 10
-23.4752801082
 20
29.7055872023
 11
-23.4752801082
 21
-4.9846725553
  0
LINE
  5
238
100
AcDbEntity
  8
ASSI
100
AcDbLine
 62
7
  6
CONTINUOUS
 10
-23.4752801082
 20
29.7055872023
 11
-23.4752801082
 21
-4.9846725553
  0
LINE
  5
239
100
AcDbEntity
  8
RACCORDO
100
AcDbLine
 62
7
  6
CONTINUOUS
 10
-25.4800604087
 20
-6.2862753721
 11
20.7647230809
 21
-32.9874337758
  0
LINE
  5
23A
100
AcDbEntity
  8
RACCORDO
100
AcDbLine
 62
7
  6
CONTINUOUS
 10
-23.3587400651
 20
-5.0614515921
 11
21.6132512184
 21
-31.0277157278
  0
LINE
  5
23B
100
AcDbEntity
  8
0
100
AcDbLine
 62
7
  6
CONTINUOUS
 10
19.3858648576
 20
-29.5781594288
 11
15.4967775611
 21
-27.3326491655
  0
LINE
  5
23C
100
AcDbEntity
  8
ASSI
100
AcDbLine
 62
7
  6
CONTINUOUS
 10
19.3858648576
 20
-29.5781594288
 11
15.4967775611
 21
-27.3326491655
  0
LINE
  5
23D
100
AcDbEntity
  8
0
100
AcDbLine
 62
7
  6
CONTINUOUS
 10
-12.4339402958
 20
-11.205802729
 11
-16.3230275923
 21
-8.9602924657
  0
LINE
  5
23E
100
AcDbEntity
  8
ASSI
100
AcDbLine
 62
7
  6
CONTINUOUS
 10
-12.4339402958
 20
-11.205802729
 11
-16.3230275923
 21
-8.9602924657
  0
LINE
  5
23F
100
AcDbEntity
  8
0
100
AcDbLine
 62
7
  6
CONTINUOUS
 10
19.6333522311
 20
-29.5577338626
 11
15.6381989173
 21
-27.2509942468
  0
LINE
  5
240
100
AcDbEntity
  8
ASSI
100
AcDbLine
 62
7
  6
CONTINUOUS
 10
19.6333522311
 20
-29.5577338626
 11
15.6381989173
 21
-27.2509942468
  0
LINE
  5
241
100
AcDbEntity
  8
0
100
AcDbLine
 62
7
  6
CONTINUOUS
 10
-16.181606236
 20
-8.8786375471
 11
-12.1864529223
 21
-11.1853771629
  0
LINE
  5
242
100
AcDbEntity
  8
ASSI
100
AcDbLine
 62
7
  6
CONTINUOUS
 10
-16.181606236
 20
-8.8786375471
 11
-12.1864529223
 21
-11.1853771629
  0
LINE
  5
243
100
AcDbEntity
  8
0
100
AcDbLine
 62
7
  6
CONTINUOUS
 10
19.7394182482
 20
-29.3740221321
 11
15.8503309517
 21
-27.1285118688
  0
LINE
  5
244
100
AcDbEntity
  8
ASSI
100
AcDbLine
 62
7
  6
CONTINUOUS
 10
19.7394182482
 20
-29.3740221321
 11
15.8503309517
 21
-27.1285118688
  0
LINE
  5
245
100
AcDbEntity
  8
0
100
AcDbLine
 62
7
  6
CONTINUOUS
 10
-12.0803869052
 20
-11.0016654324
 11
-15.9694742017
 21
-8.7561551691
  0
LINE
  5
246
100
AcDbEntity
  8
ASSI
100
AcDbLine
 62
7
  6
CONTINUOUS
 10
-12.0803869052
 20
-11.0016654324
 11
-15.9694742017
 21
-8.7561551691
  0
LINE
  5
247
100
AcDbEntity
  8
0
100
AcDbLine
 62
7
  6
CONTINUOUS
 10
19.9869056216
 20
-29.353596566
 11
15.9917523079
 21
-27.0468569501
  0
LINE
  5
248
100
AcDbEntity
  8
ASSI
100
AcDbLine
 62
7
  6
CONTINUOUS
 10
19.9869056216
 20
-29.353596566
 11
15.9917523079
 21
-27.0468569501
  0
LINE
  5
249
100
AcDbEntity
  8
0
100
AcDbLine
 62
7
  6
CONTINUOUS
 10
-15.8280528455
 20
-8.6745002504
 11
-11.8328995318
 21
-10.9812398662
  0
LINE
  5
24A
100
AcDbEntity
  8
ASSI
100
AcDbLine
 62
7
  6
CONTINUOUS
 10
-15.8280528455
 20
-8.6745002504
 11
-11.8328995318
 21
-10.9812398662
  0
LINE
  5
24B
100
AcDbEntity
  8
0
100
AcDbLine
 62
7
  6
CONTINUOUS
 10
20.0929716388
 20
-29.1698848355
 11
16.2038843423
 21
-26.9243745721
  0
LINE
  5
24C
100
AcDbEntity
  8
ASSI
100
AcDbLine
 62
7
  6
CONTINUOUS
 10
20.0929716388
 20
-29.1698848355
 11
16.2038843423
 21
-26.9243745721
  0
LINE
  5
24D
100
AcDbEntity
  8
0
100
AcDbLine
 62
7
  6
CONTINUOUS
 10
-11.7268335146
 20
-10.7975281357
 11
-15.6159208111
 21
-8.5520178724
  0
LINE
  5
24E
100
AcDbEntity
  8
ASSI
100
AcDbLine
 62
7
  6
CONTINUOUS
 10
-11.7268335146
 20
-10.7975281357
 11
-15.6159208111
 21
-8.5520178724
  0
LINE
  5
24F
100
AcDbEntity
  8
0
100
AcDbLine
 62
7
  6
CONTINUOUS
 10
20.3404590122
 20
-29.1494592693
 11
16.3453056985
 21
-26.8427196535
  0
LINE
  5
250
100
AcDbEntity
  8
ASSI
100
AcDbLine
 62
7
  6
CONTINUOUS
 10
20.3404590122
 20
-29.1494592693
 11
16.3453056985
 21
-26.8427196535
  0
LINE
  5
251
100
AcDbEntity
  8
0
100
AcDbLine
 62
7
  6
CONTINUOUS
 10
-15.4744994549
 20
-8.4703629537
 11
-11.4793461412
 21
-10.7771025696
  0
LINE
  5
252
100
AcDbEntity
  8
ASSI
100
AcDbLine
 62
7
  6
CONTINUOUS
 10
-15.4744994549
 20
-8.4703629537
 11
-11.4793461412
 21
-10.7771025696
  0
LINE
  5
253
100
AcDbEntity
  8
0
100
AcDbLine
 62
7
  6
CONTINUOUS
 10
20.4465250294
 20
-28.9657475388
 11
16.5574377329
 21
-26.7202372755
  0
LINE
  5
254
100
AcDbEntity
  8
ASSI
100
AcDbLine
 62
7
  6
CONTINUOUS
 10
20.4465250294
 20
-28.9657475388
 11
16.5574377329
 21
-26.7202372755
  0
LINE
  5
255
100
AcDbEntity
  8
0
100
AcDbLine
 62
7
  6
CONTINUOUS
 10
-11.373280124
 20
-10.593390839
 11
-15.2623674205
 21
-8.3478805757
  0
LINE
  5
256
100
AcDbEntity
  8
ASSI
100
AcDbLine
 62
7
  6
CONTINUOUS
 10
-11.373280124
 20
-10.593390839
 11
-15.2623674205
 21
-8.3478805757
  0
LINE
  5
257
100
AcDbEntity
  8
0
100
AcDbLine
 62
7
  6
CONTINUOUS
 10
20.6940124028
 20
-28.9453219726
 11
16.6988590891
 21
-26.6385823568
  0
LINE
  5
258
100
AcDbEntity
  8
ASSI
100
AcDbLine
 62
7
  6
CONTINUOUS
 10
20.6940124028
 20
-28.9453219726
 11
16.6988590891
 21
-26.6385823568
  0
LINE
  5
259
100
AcDbEntity
  8
0
100
AcDbLine
 62
7
  6
CONTINUOUS
 10
-15.1209460643
 20
-8.2662256571
 11
-11.1257927506
 21
-10.5729652729
  0
LINE
  5
25A
100
AcDbEntity
  8
ASSI
100
AcDbLine
 62
7
  6
CONTINUOUS
 10
-15.1209460643
 20
-8.2662256571
 11
-11.1257927506
 21
-10.5729652729
  0
LINE
  5
25B
100
AcDbEntity
  8
0
100
AcDbLine
 62
7
  6
CONTINUOUS
 10
20.80007842
 20
-28.7616102421
 11
16.9109911235
 21
-26.5160999788
  0
LINE
  5
25C
100
AcDbEntity
  8
ASSI
100
AcDbLine
 62
7
  6
CONTINUOUS
 10
20.80007842
 20
-28.7616102421
 11
16.9109911235
 21
-26.5160999788
  0
LINE
  5
25D
100
AcDbEntity
  8
0
100
AcDbLine
 62
7
  6
CONTINUOUS
 10
-11.0197267334
 20
-10.3892535424
 11
-14.9088140299
 21
-8.1437432791
  0
LINE
  5
25E
100
AcDbEntity
  8
ASSI
100
AcDbLine
 62
7
  6
CONTINUOUS
 10
-11.0197267334
 20
-10.3892535424
 11
-14.9088140299
 21
-8.1437432791
  0
LINE
  5
25F
100
AcDbEntity
  8
0
100
AcDbLine
 62
7
  6
CONTINUOUS
 10
21.0475657934
 20
-28.741184676
 11
17.0524124797
 21
-26.4344450602
  0
LINE
  5
260
100
AcDbEntity
  8
ASSI
100
AcDbLine
 62
7
  6
CONTINUOUS
 10
21.0475657934
 20
-28.741184676
 11
17.0524124797
 21
-26.4344450602
  0
LINE
  5
261
100
AcDbEntity
  8
0
100
AcDbLine
 62
7
  6
CONTINUOUS
 10
-14.7673926737
 20
-8.0620883604
 11
-10.77223936
 21
-10.3688279762
  0
LINE
  5
262
100
AcDbEntity
  8
ASSI
100
AcDbLine
 62
7
  6
CONTINUOUS
 10
-14.7673926737
 20
-8.0620883604
 11
-10.77223936
 21
-10.3688279762
  0
LINE
  5
263
100
AcDbEntity
  8
0
100
AcDbLine
 62
7
  6
CONTINUOUS
 10
21.1536318106
 20
-28.5574729455
 11
17.2645445141
 21
-26.3119626822
  0
LINE
  5
264
100
AcDbEntity
  8
ASSI
100
AcDbLine
 62
7
  6
CONTINUOUS
 10
21.1536318106
 20
-28.5574729455
 11
17.2645445141
 21
-26.3119626822
  0
LINE
  5
265
100
AcDbEntity
  8
0
100
AcDbLine
 62
7
  6
CONTINUOUS
 10
-10.6661733428
 20
-10.1851162457
 11
-14.5552606393
 21
-7.9396059824
  0
LINE
  5
266
100
AcDbEntity
  8
ASSI
100
AcDbLine
 62
7
  6
CONTINUOUS
 10
-10.6661733428
 20
-10.1851162457
 11
-14.5552606393
 21
-7.9396059824
  0
LINE
  5
267
100
AcDbEntity
  8
0
100
AcDbLine
 62
7
  6
CONTINUOUS
 10
21.401119184
 20
-28.5370473793
 11
17.4059658703
 21
-26.2303077635
  0
LINE
  5
268
100
AcDbEntity
  8
ASSI
100
AcDbLine
 62
7
  6
CONTINUOUS
 10
21.401119184
 20
-28.5370473793
 11
17.4059658703
 21
-26.2303077635
  0
LINE
  5
269
100
AcDbEntity
  8
0
100
AcDbLine
 62
7
  6
CONTINUOUS
 10
-14.4138392831
 20
-7.8579510637
 11
-10.4186859694
 21
-10.1646906796
  0
LINE
  5
26A
100
AcDbEntity
  8
ASSI
100
AcDbLine
 62
7
  6
CONTINUOUS
 10
-14.4138392831
 20
-7.8579510637
 11
-10.4186859694
 21
-10.1646906796
  0
LINE
  5
26B
100
AcDbEntity
  8
0
100
AcDbLine
 62
250
  6
CONTINUOUS
 10
21.6132512184
 20
-28.5369458178
 11
17.4395608729
 21
-26.127109321
  0
LINE
  5
26C
100
AcDbEntity
  8
ASSI
100
AcDbLine
 62
250
  6
CONTINUOUS
 10
21.6132512184
 20
-28.5369458178
 11
17.4395608729
 21
-26.127109321
  0
LINE
  5
26D
100
AcDbEntity
  8
0
100
AcDbLine
 62
250
  6
CONTINUOUS
 10
-10.1339070222
 20
-10.2065345351
 11
-14.3802442805
 21
-7.7547526213
  0
LINE
  5
26E
100
AcDbEntity
  8
ASSI
100
AcDbLine
 62
250
  6
CONTINUOUS
 10
-10.1339070222
 20
-10.2065345351
 11
-14.3802442805
 21
-7.7547526213
  0
LINE
  5
26F
100
AcDbEntity
  8
0
100
AcDbLine
 62
250
  6
CONTINUOUS
 10
21.6132512184
 20
-28.4597481237
 11
17.5136080259
 21
-26.0926655249
  0
LINE
  5
270
100
AcDbEntity
  8
ASSI
100
AcDbLine
 62
250
  6
CONTINUOUS
 10
21.6132512184
 20
-28.4597481237
 11
17.5136080259
 21
-26.0926655249
  0
LINE
  5
271
100
AcDbEntity
  8
0
100
AcDbLine
 62
250
  6
CONTINUOUS
 10
-10.0672346662
 20
-10.1678326237
 11
-14.3061971275
 21
-7.7203088252
  0
LINE
  5
272
100
AcDbEntity
  8
ASSI
100
AcDbLine
 62
250
  6
CONTINUOUS
 10
-10.0672346662
 20
-10.1678326237
 11
-14.3061971275
 21
-7.7203088252
  0
LINE
  5
273
100
AcDbEntity
  8
0
100
AcDbLine
 62
7
  6
CONTINUOUS
 10
-12.7205953943
 20
-7.202482872
 11
-8.8945940038
 21
-9.4115681239
  0
LINE
  5
274
100
AcDbEntity
  8
ASSI
100
AcDbLine
 62
7
  6
CONTINUOUS
 10
-12.7205953943
 20
-7.202482872
 11
-8.8945940038
 21
-9.4115681239
  0
LINE
  5
275
100
AcDbEntity
  8
0
100
AcDbLine
 62
7
  6
CONTINUOUS
 10
19.0992097591
 20
-25.5748395718
 11
21.6132512184
 21
-27.026415602
  0
LINE
  5
276
100
AcDbEntity
  8
ASSI
100
AcDbLine
 62
7
  6
CONTINUOUS
 10
19.0992097591
 20
-25.5748395718
 11
21.6132512184
 21
-27.026415602
  0
LINE
  5
277
100
AcDbEntity
  8
0
100
AcDbLine
 62
250
  6
CONTINUOUS
 10
-8.8873863949
 20
-9.5550177772
 11
-8.8873863949
 21
-9.9623874151
  0
LINE
  5
278
100
AcDbEntity
  8
ASSI
100
AcDbLine
 62
250
  6
CONTINUOUS
 10
-8.8873863949
 20
-9.5550177772
 11
-8.8873863949
 21
-9.9623874151
  0
LINE
  5
279
100
AcDbEntity
  8
0
100
AcDbLine
 62
7
  6
CONTINUOUS
 10
-8.83601536
 20
-9.4884402704
 11
-8.83601536
 21
-9.9318421203
  0
LINE
  5
27A
100
AcDbEntity
  8
ASSI
100
AcDbLine
 62
7
  6
CONTINUOUS
 10
-8.83601536
 20
-9.4884402704
 11
-8.83601536
 21
-9.9318421203
  0
LINE
  5
27B
100
AcDbEntity
  8
0
100
AcDbLine
 62
7
  6
CONTINUOUS
 10
-16.3938202746
 20
-9.0829089882
 11
-16.3230275923
 21
-8.9602924657
  0
LINE
  5
27C
100
AcDbEntity
  8
ASSI
100
AcDbLine
 62
7
  6
CONTINUOUS
 10
-16.3938202746
 20
-9.0829089882
 11
-16.3230275923
 21
-8.9602924657
  0
LINE
  5
27D
100
AcDbEntity
  8
0
100
AcDbLine
 62
7
  6
CONTINUOUS
 10
-16.0755402189
 20
-8.9398668996
 11
-15.9694742017
 21
-8.7561551691
  0
LINE
  5
27E
100
AcDbEntity
  8
ASSI
100
AcDbLine
 62
7
  6
CONTINUOUS
 10
-16.0755402189
 20
-8.9398668996
 11
-15.9694742017
 21
-8.7561551691
  0
LINE
  5
27F
100
AcDbEntity
  8
0
100
AcDbLine
 62
7
  6
CONTINUOUS
 10
-15.7219868283
 20
-8.7357296029
 11
-15.6159208111
 21
-8.5520178724
  0
LINE
  5
280
100
AcDbEntity
  8
ASSI
100
AcDbLine
 62
7
  6
CONTINUOUS
 10
-15.7219868283
 20
-8.7357296029
 11
-15.6159208111
 21
-8.5520178724
  0
LINE
  5
281
100
AcDbEntity
  8
0
100
AcDbLine
 62
7
  6
CONTINUOUS
 10
-15.3684334377
 20
-8.5315923063
 11
-15.2623674205
 21
-8.3478805757
  0
LINE
  5
282
100
AcDbEntity
  8
ASSI
100
AcDbLine
 62
7
  6
CONTINUOUS
 10
-15.3684334377
 20
-8.5315923063
 11
-15.2623674205
 21
-8.3478805757
  0
LINE
  5
283
100
AcDbEntity
  8
0
100
AcDbLine
 62
7
  6
CONTINUOUS
 10
-15.0148800471
 20
-8.3274550096
 11
-14.9088140299
 21
-8.1437432791
  0
LINE
  5
284
100
AcDbEntity
  8
ASSI
100
AcDbLine
 62
7
  6
CONTINUOUS
 10
-15.0148800471
 20
-8.3274550096
 11
-14.9088140299
 21
-8.1437432791
  0
LINE
  5
285
100
AcDbEntity
  8
0
100
AcDbLine
 62
7
  6
CONTINUOUS
 10
-14.6613266565
 20
-8.1233177129
 11
-14.5552606393
 21
-7.9396059824
  0
LINE
  5
286
100
AcDbEntity
  8
ASSI
100
AcDbLine
 62
7
  6
CONTINUOUS
 10
-14.6613266565
 20
-8.1233177129
 11
-14.5552606393
 21
-7.9396059824
  0
LINE
  5
287
100
AcDbEntity
  8
RACCORDO
100
AcDbLine
 62
250
  6
CONTINUOUS
 10
-26.3285885461
 20
-4.816581528
 11
-24.2072682025
 21
-3.591757748
  0
LINE
  5
288
100
AcDbEntity
  8
0
100
AcDbLine
 62
7
  6
CONTINUOUS
 10
-12.5047329781
 20
-11.3284192515
 11
-12.4339402958
 21
-11.205802729
  0
LINE
  5
289
100
AcDbEntity
  8
ASSI
100
AcDbLine
 62
7
  6
CONTINUOUS
 10
-12.5047329781
 20
-11.3284192515
 11
-12.4339402958
 21
-11.205802729
  0
LINE
  5
28A
100
AcDbEntity
  8
0
100
AcDbLine
 62
7
  6
CONTINUOUS
 10
-12.1864529223
 20
-11.1853771629
 11
-12.0803869052
 21
-11.0016654324
  0
LINE
  5
28B
100
AcDbEntity
  8
ASSI
100
AcDbLine
 62
7
  6
CONTINUOUS
 10
-12.1864529223
 20
-11.1853771629
 11
-12.0803869052
 21
-11.0016654324
  0
LINE
  5
28C
100
AcDbEntity
  8
0
100
AcDbLine
 62
7
  6
CONTINUOUS
 10
-11.8328995318
 20
-10.9812398662
 11
-11.7268335146
 21
-10.7975281357
  0
LINE
  5
28D
100
AcDbEntity
  8
ASSI
100
AcDbLine
 62
7
  6
CONTINUOUS
 10
-11.8328995318
 20
-10.9812398662
 11
-11.7268335146
 21
-10.7975281357
  0
LINE
  5
28E
100
AcDbEntity
  8
0
100
AcDbLine
 62
7
  6
CONTINUOUS
 10
-11.4793461412
 20
-10.7771025696
 11
-11.373280124
 21
-10.593390839
  0
LINE
  5
28F
100
AcDbEntity
  8
ASSI
100
AcDbLine
 62
7
  6
CONTINUOUS
 10
-11.4793461412
 20
-10.7771025696
 11
-11.373280124
 21
-10.593390839
  0
LINE
  5
290
100
AcDbEntity
  8
0
100
AcDbLine
 62
7
  6
CONTINUOUS
 10
-11.1257927506
 20
-10.5729652729
 11
-11.0197267334
 21
-10.3892535424
  0
LINE
  5
291
100
AcDbEntity
  8
ASSI
100
AcDbLine
 62
7
  6
CONTINUOUS
 10
-11.1257927506
 20
-10.5729652729
 11
-11.0197267334
 21
-10.3892535424
  0
LINE
  5
292
100
AcDbEntity
  8
0
100
AcDbLine
 62
7
  6
CONTINUOUS
 10
-10.77223936
 20
-10.3688279762
 11
-10.6661733428
 21
-10.1851162457
  0
LINE
  5
293
100
AcDbEntity
  8
ASSI
100
AcDbLine
 62
7
  6
CONTINUOUS
 10
-10.77223936
 20
-10.3688279762
 11
-10.6661733428
 21
-10.1851162457
  0
LINE
  5
294
100
AcDbEntity
  8
RACCORDO
100
AcDbLine
 62
250
  6
CONTINUOUS
 10
-25.4800604087
 20
-6.2862753721
 11
-23.3587400651
 21
-5.0614515921
  0
LINE
  5
295
100
AcDbEntity
  8
0
100
AcDbLine
 62
250
  6
CONTINUOUS
 10
-10.8318658079
 20
-11.2340250687
 11
-10.4959208429
 21
-10.9072714789
  0
LINE
  5
296
100
AcDbEntity
  8
ASSI
100
AcDbLine
 62
250
  6
CONTINUOUS
 10
-10.8318658079
 20
-11.2340250687
 11
-10.4959208429
 21
-10.9072714789
  0
LINE
  5
297
100
AcDbEntity
  8
0
100
AcDbLine
 62
7
  6
CONTINUOUS
 10
-10.8279409429
 20
-11.2675602622
 11
-10.3989565696
 21
-10.8503128003
  0
LINE
  5
298
100
AcDbEntity
  8
ASSI
100
AcDbLine
 62
7
  6
CONTINUOUS
 10
-10.8279409429
 20
-11.2675602622
 11
-10.3989565696
 21
-10.8503128003
  0
LINE
  5
299
100
AcDbEntity
  8
SMUSSO
100
AcDbLine
 62
7
  6
CONTINUOUS
 10
29.4621364895
 20
18.1231991657
 11
30.5227966613
 21
18.7356110557
  0
LINE
  5
29A
100
AcDbEntity
  8
0
100
AcDbLine
 62
7
  6
CONTINUOUS
 10
-16.3230275923
 20
-8.9602924657
 11
-16.181606236
 21
-8.8786375471
  0
LINE
  5
29B
100
AcDbEntity
  8
ASSI
100
AcDbLine
 62
7
  6
CONTINUOUS
 10
-16.3230275923
 20
-8.9602924657
 11
-16.181606236
 21
-8.8786375471
  0
LINE
  5
29C
100
AcDbEntity
  8
0
100
AcDbLine
 62
7
  6
CONTINUOUS
 10
-15.9694742017
 20
-8.7561551691
 11
-15.8280528455
 21
-8.6745002504
  0
LINE
  5
29D
100
AcDbEntity
  8
ASSI
100
AcDbLine
 62
7
  6
CONTINUOUS
 10
-15.9694742017
 20
-8.7561551691
 11
-15.8280528455
 21
-8.6745002504
  0
LINE
  5
29E
100
AcDbEntity
  8
0
100
AcDbLine
 62
7
  6
CONTINUOUS
 10
-15.6159208111
 20
-8.5520178724
 11
-15.4744994549
 21
-8.4703629537
  0
LINE
  5
29F
100
AcDbEntity
  8
ASSI
100
AcDbLine
 62
7
  6
CONTINUOUS
 10
-15.6159208111
 20
-8.5520178724
 11
-15.4744994549
 21
-8.4703629537
  0
LINE
  5
2A0
100
AcDbEntity
  8
0
100
AcDbLine
 62
7
  6
CONTINUOUS
 10
-15.2623674205
 20
-8.3478805757
 11
-15.1209460643
 21
-8.2662256571
  0
LINE
  5
2A1
100
AcDbEntity
  8
ASSI
100
AcDbLine
 62
7
  6
CONTINUOUS
 10
-15.2623674205
 20
-8.3478805757
 11
-15.1209460643
 21
-8.2662256571
  0
LINE
  5
2A2
100
AcDbEntity
  8
0
100
AcDbLine
 62
7
  6
CONTINUOUS
 10
-14.9088140299
 20
-8.1437432791
 11
-14.7673926737
 21
-8.0620883604
  0
LINE
  5
2A3
100
AcDbEntity
  8
ASSI
100
AcDbLine
 62
7
  6
CONTINUOUS
 10
-14.9088140299
 20
-8.1437432791
 11
-14.7673926737
 21
-8.0620883604
  0
LINE
  5
2A4
100
AcDbEntity
  8
0
100
AcDbLine
 62
7
  6
CONTINUOUS
 10
-14.5552606393
 20
-7.9396059824
 11
-14.4138392831
 21
-7.8579510637
  0
LINE
  5
2A5
100
AcDbEntity
  8
ASSI
100
AcDbLine
 62
7
  6
CONTINUOUS
 10
-14.5552606393
 20
-7.9396059824
 11
-14.4138392831
 21
-7.8579510637
  0
LINE
  5
2A6
100
AcDbEntity
  8
SMUSSO
100
AcDbLine
 62
7
  6
CONTINUOUS
 10
29.4621364895
 20
17.306689434
 11
28.7550297084
 21
16.8984542956
  0
LINE
  5
2A7
100
AcDbEntity
  8
SMUSSO
100
AcDbLine
 62
7
  6
CONTINUOUS
 10
30.1692432707
 20
16.8984542956
 11
31.2299034425
 21
17.5108661856
  0
LINE
  5
2A8
100
AcDbEntity
  8
0
100
AcDbLine
 62
250
  6
CONTINUOUS
 10
30.4874413223
 20
18.7565820338
 11
32.5380509877
 21
19.8992488836
  0
LINE
  5
2A9
100
AcDbEntity
  8
ASSI
100
AcDbLine
 62
250
  6
CONTINUOUS
 10
30.4874413223
 20
18.7565820338
 11
32.5380509877
 21
19.8992488836
  0
LINE
  5
2AA
100
AcDbEntity
  8
0
100
AcDbLine
 62
7
  6
CONTINUOUS
 10
-16.6502152957
 20
-8.9348697164
 11
-14.3802442805
 21
-7.7547526213
  0
LINE
  5
2AB
100
AcDbEntity
  8
ASSI
100
AcDbLine
 62
7
  6
CONTINUOUS
 10
-16.6502152957
 20
-8.9348697164
 11
-14.3802442805
 21
-7.7547526213
  0
LINE
  5
2AC
100
AcDbEntity
  8
0
100
AcDbLine
 62
7
  6
CONTINUOUS
 10
-10.1339070222
 20
-10.2065345351
 11
-12.1777981048
 21
-11.5171873499
  0
LINE
  5
2AD
100
AcDbEntity
  8
ASSI
100
AcDbLine
 62
7
  6
CONTINUOUS
 10
-10.1339070222
 20
-10.2065345351
 11
-12.1777981048
 21
-11.5171873499
  0
LINE
  5
2AE
100
AcDbEntity
  8
0
100
AcDbLine
 62
250
  6
CONTINUOUS
 10
31.2303416283
 20
17.4698409601
 11
33.2451577689
 21
18.6745040134
  0
LINE
  5
2AF
100
AcDbEntity
  8
ASSI
100
AcDbLine
 62
250
  6
CONTINUOUS
 10
31.2303416283
 20
17.4698409601
 11
33.2451577689
 21
18.6745040134
  0
LINE
  5
2B0
100
AcDbEntity
  8
0
100
AcDbLine
 62
7
  6
CONTINUOUS
 10
-11.8532368076
 20
-11.7045849752
 11
-8.8873863949
 21
-9.9623874151
  0
LINE
  5
2B1
100
AcDbEntity
  8
ASSI
100
AcDbLine
 62
7
  6
CONTINUOUS
 10
-11.8532368076
 20
-11.7045849752
 11
-8.8873863949
 21
-9.9623874151
  0
LINE
  5
2B2
100
AcDbEntity
  8
0
100
AcDbLine
 62
7
  6
CONTINUOUS
 10
-10.8865552894
 20
-11.3120242737
 11
-11.7078121935
 21
-11.7885513248
  0
LINE
  5
2B3
100
AcDbEntity
  8
ASSI
100
AcDbLine
 62
7
  6
CONTINUOUS
 10
-10.8865552894
 20
-11.3120242737
 11
-11.7078121935
 21
-11.7885513248
  0
LINE
  5
2B4
100
AcDbEntity
  8
0
100
AcDbLine
 62
250
  6
CONTINUOUS
 10
-10.8318658079
 20
-11.2340250687
 11
-11.7480801333
 21
-11.765301121
  0
LINE
  5
2B5
100
AcDbEntity
  8
ASSI
100
AcDbLine
 62
250
  6
CONTINUOUS
 10
-10.8318658079
 20
-11.2340250687
 11
-11.7480801333
 21
-11.765301121
  0
LINE
  5
2B6
100
AcDbEntity
  8
0
100
AcDbLine
 62
7
  6
CONTINUOUS
 10
-12.4339402958
 20
-11.205802729
 11
-12.2925189395
 21
-11.1241478104
  0
LINE
  5
2B7
100
AcDbEntity
  8
ASSI
100
AcDbLine
 62
7
  6
CONTINUOUS
 10
-12.4339402958
 20
-11.205802729
 11
-12.2925189395
 21
-11.1241478104
  0
LINE
  5
2B8
100
AcDbEntity
  8
0
100
AcDbLine
 62
7
  6
CONTINUOUS
 10
-12.0803869052
 20
-11.0016654324
 11
-11.9389655489
 21
-10.9200105137
  0
LINE
  5
2B9
100
AcDbEntity
  8
ASSI
100
AcDbLine
 62
7
  6
CONTINUOUS
 10
-12.0803869052
 20
-11.0016654324
 11
-11.9389655489
 21
-10.9200105137
  0
LINE
  5
2BA
100
AcDbEntity
  8
0
100
AcDbLine
 62
7
  6
CONTINUOUS
 10
-11.7268335146
 20
-10.7975281357
 11
-11.5854121583
 21
-10.715873217
  0
LINE
  5
2BB
100
AcDbEntity
  8
ASSI
100
AcDbLine
 62
7
  6
CONTINUOUS
 10
-11.7268335146
 20
-10.7975281357
 11
-11.5854121583
 21
-10.715873217
  0
LINE
  5
2BC
100
AcDbEntity
  8
0
100
AcDbLine
 62
7
  6
CONTINUOUS
 10
-11.373280124
 20
-10.593390839
 11
-11.2318587677
 21
-10.5117359204
  0
LINE
  5
2BD
100
AcDbEntity
  8
ASSI
100
AcDbLine
 62
7
  6
CONTINUOUS
 10
-11.373280124
 20
-10.593390839
 11
-11.2318587677
 21
-10.5117359204
  0
LINE
  5
2BE
100
AcDbEntity
  8
0
100
AcDbLine
 62
7
  6
CONTINUOUS
 10
-11.0197267334
 20
-10.3892535424
 11
-10.8783053771
 21
-10.3075986237
  0
LINE
  5
2BF
100
AcDbEntity
  8
ASSI
100
AcDbLine
 62
7
  6
CONTINUOUS
 10
-11.0197267334
 20
-10.3892535424
 11
-10.8783053771
 21
-10.3075986237
  0
LINE
  5
2C0
100
AcDbEntity
  8
0
100
AcDbLine
 62
7
  6
CONTINUOUS
 10
-10.6661733428
 20
-10.1851162457
 11
-10.5247519866
 21
-10.103461327
  0
LINE
  5
2C1
100
AcDbEntity
  8
ASSI
100
AcDbLine
 62
7
  6
CONTINUOUS
 10
-10.6661733428
 20
-10.1851162457
 11
-10.5247519866
 21
-10.103461327
  0
LINE
  5
2C2
100
AcDbEntity
  8
0
100
AcDbLine
 62
7
  6
CONTINUOUS
 10
-10.4186859694
 20
-10.1646906796
 11
-12.469463052
 21
-11.3487836648
  0
LINE
  5
2C3
100
AcDbEntity
  8
ASSI
100
AcDbLine
 62
7
  6
CONTINUOUS
 10
-10.4186859694
 20
-10.1646906796
 11
-12.469463052
 21
-11.3487836648
  0
LINE
  5
2C4
100
AcDbEntity
  8
0
100
AcDbLine
 62
7
  6
CONTINUOUS
 10
-8.8873863949
 20
-9.5550177772
 11
-10.0672346662
 21
-10.1678326237
  0
LINE
  5
2C5
100
AcDbEntity
  8
ASSI
100
AcDbLine
 62
7
  6
CONTINUOUS
 10
-8.8873863949
 20
-9.5550177772
 11
-10.0672346662
 21
-10.1678326237
  0
LINE
  5
2C6
100
AcDbEntity
  8
0
100
AcDbLine
 62
7
  6
CONTINUOUS
 10
-14.3061971275
 20
-7.7203088252
 11
-12.9958428718
 21
-7.1828464985
  0
LINE
  5
2C7
100
AcDbEntity
  8
ASSI
100
AcDbLine
 62
7
  6
CONTINUOUS
 10
-14.3061971275
 20
-7.7203088252
 11
-12.9958428718
 21
-7.1828464985
  0
LINE
  5
2C8
100
AcDbEntity
  8
RACCORDO
100
AcDbLine
 62
7
  6
CONTINUOUS
 10
20.7647230809
 20
4.1619638183
 11
-25.4800604087
 21
30.863122222
  0
LINE
  5
2C9
100
AcDbEntity
  8
RACCORDO
100
AcDbLine
 62
7
  6
CONTINUOUS
 10
21.6132512184
 20
-32.4975989556
 11
21.6132512184
 21
2.6922699742
  0
LINE
  5
2CA
100
AcDbEntity
  8
SMUSSO
100
AcDbLine
 62
7
  6
CONTINUOUS
 10
28.7550297084
 20
-54.9509300622
 11
28.7550297084
 21
16.8984542956
  0
LINE
  5
2CB
100
AcDbEntity
  8
SMUSSO
100
AcDbLine
 62
7
  6
CONTINUOUS
 10
29.4621364895
 20
18.1231991657
 11
29.4621364895
 21
17.306689434
  0
LINE
  5
2CC
100
AcDbEntity
  8
SMUSSO
100
AcDbLine
 62
7
  6
CONTINUOUS
 10
30.1692432707
 20
-54.9509300622
 11
30.1692432707
 21
16.8984542956
  0
LINE
  5
2CD
100
AcDbEntity
  8
0
100
AcDbLine
 62
250
  6
CONTINUOUS
 10
33.2453053626
 20
18.7082618574
 11
33.4572898032
 21
19.5631835766
  0
LINE
  5
2CE
100
AcDbEntity
  8
ASSI
100
AcDbLine
 62
250
  6
CONTINUOUS
 10
33.2453053626
 20
18.7082618574
 11
33.4572898032
 21
19.5631835766
  0
LINE
  5
2CF
100
AcDbEntity
  8
0
100
AcDbLine
 62
7
  6
CONTINUOUS
 10
15.4259848788
 20
-27.455265688
 11
15.4967775611
 21
-27.3326491655
  0
LINE
  5
2D0
100
AcDbEntity
  8
ASSI
100
AcDbLine
 62
7
  6
CONTINUOUS
 10
15.4259848788
 20
-27.455265688
 11
15.4967775611
 21
-27.3326491655
  0
LINE
  5
2D1
100
AcDbEntity
  8
0
100
AcDbLine
 62
7
  6
CONTINUOUS
 10
15.7442649345
 20
-27.3122235993
 11
15.8503309517
 21
-27.1285118688
  0
LINE
  5
2D2
100
AcDbEntity
  8
ASSI
100
AcDbLine
 62
7
  6
CONTINUOUS
 10
15.7442649345
 20
-27.3122235993
 11
15.8503309517
 21
-27.1285118688
  0
LINE
  5
2D3
100
AcDbEntity
  8
0
100
AcDbLine
 62
7
  6
CONTINUOUS
 10
16.0978183251
 20
-27.1080863027
 11
16.2038843423
 21
-26.9243745721
  0
LINE
  5
2D4
100
AcDbEntity
  8
ASSI
100
AcDbLine
 62
7
  6
CONTINUOUS
 10
16.0978183251
 20
-27.1080863027
 11
16.2038843423
 21
-26.9243745721
  0
LINE
  5
2D5
100
AcDbEntity
  8
0
100
AcDbLine
 62
7
  6
CONTINUOUS
 10
16.4513717157
 20
-26.903949006
 11
16.5574377329
 21
-26.7202372755
  0
LINE
  5
2D6
100
AcDbEntity
  8
ASSI
100
AcDbLine
 62
7
  6
CONTINUOUS
 10
16.4513717157
 20
-26.903949006
 11
16.5574377329
 21
-26.7202372755
  0
LINE
  5
2D7
100
AcDbEntity
  8
0
100
AcDbLine
 62
7
  6
CONTINUOUS
 10
16.8049251063
 20
-26.6998117093
 11
16.9109911235
 21
-26.5160999788
  0
LINE
  5
2D8
100
AcDbEntity
  8
ASSI
100
AcDbLine
 62
7
  6
CONTINUOUS
 10
16.8049251063
 20
-26.6998117093
 11
16.9109911235
 21
-26.5160999788
  0
LINE
  5
2D9
100
AcDbEntity
  8
0
100
AcDbLine
 62
7
  6
CONTINUOUS
 10
17.1584784969
 20
-26.4956744127
 11
17.2645445141
 21
-26.3119626822
  0
LINE
  5
2DA
100
AcDbEntity
  8
ASSI
100
AcDbLine
 62
7
  6
CONTINUOUS
 10
17.1584784969
 20
-26.4956744127
 11
17.2645445141
 21
-26.3119626822
  0
LINE
  5
2DB
100
AcDbEntity
  8
0
100
AcDbLine
 62
250
  6
CONTINUOUS
 10
32.5673608127
 20
19.8824962614
 11
33.413668618
 21
19.6387376858
  0
LINE
  5
2DC
100
AcDbEntity
  8
ASSI
100
AcDbLine
 62
250
  6
CONTINUOUS
 10
32.5673608127
 20
19.8824962614
 11
33.413668618
 21
19.6387376858
  0
LINE
  5
2DD
100
AcDbEntity
  8
SMUSSO
100
AcDbLine
 62
7
  6
CONTINUOUS
 10
28.7550297084
 20
16.8984542956
 11
-33.4703670361
 21
52.8266185084
  0
LINE
  5
2DE
100
AcDbEntity
  8
SMUSSO
100
AcDbLine
 62
7
  6
CONTINUOUS
 10
29.4621364895
 20
17.306689434
 11
30.1692432707
 21
16.8984542956
  0
LINE
  5
2DF
100
AcDbEntity
  8
SMUSSO
100
AcDbLine
 62
7
  6
CONTINUOUS
 10
29.4621364895
 20
18.1231991657
 11
-32.7632602549
 21
54.0513633785
  0
LINE
  5
2E0
100
AcDbEntity
  8
SMUSSO
100
AcDbLine
 62
7
  6
CONTINUOUS
 10
31.2299034425
 20
-54.3385181722
 11
31.2299034425
 21
18.3273759173
  0
LINE
  5
2E1
100
AcDbEntity
  8
0
100
AcDbLine
 62
250
  6
CONTINUOUS
 10
31.5906004809
 20
-47.1924192569
 11
31.5906004809
 21
-46.8686300062
  0
LINE
  5
2E2
100
AcDbEntity
  8
0
100
AcDbLine
 62
250
  6
CONTINUOUS
 10
31.5906796841
 20
-44.2705080957
 11
31.5906796841
 21
-44.5837354868
  0
LINE
  5
2E3
100
AcDbEntity
  8
0
100
AcDbLine
 62
250
  6
CONTINUOUS
 10
31.5906796841
 20
-45.2661756359
 11
31.5906796841
 21
-45.5865340784
  0
LINE
  5
2E4
100
AcDbEntity
  8
0
100
AcDbLine
 62
250
  6
CONTINUOUS
 10
31.5906796841
 20
-46.2306932021
 11
31.5906796841
 21
-46.5542146504
  0
LINE
  5
2E5
100
AcDbEntity
  8
0
100
AcDbLine
 62
250
  6
CONTINUOUS
 10
31.5906796841
 20
-47.3125310153
 11
31.5906796841
 21
-47.6360990025
  0
LINE
  5
2E6
100
AcDbEntity
  8
0
100
AcDbLine
 62
250
  6
CONTINUOUS
 10
31.5906796841
 20
-48.2364928699
 11
31.5906796841
 21
-48.5882282652
  0
LINE
  5
2E7
100
AcDbEntity
  8
0
100
AcDbLine
 62
250
  6
CONTINUOUS
 10
32.1778959475
 20
-43.0366429276
 11
32.1778959475
 21
-42.8516004288
  0
LINE
  5
2E8
100
AcDbEntity
  8
0
100
AcDbLine
 62
250
  6
CONTINUOUS
 10
32.3940710038
 20
-42.7230468041
 11
32.3940710038
 21
-42.8966550072
  0
LINE
  5
2E9
100
AcDbEntity
  8
0
100
AcDbLine
 62
250
  6
CONTINUOUS
 10
32.4432150905
 20
-43.7746871164
 11
32.4432150905
 21
-44.0846927158
  0
LINE
  5
2EA
100
AcDbEntity
  8
0
100
AcDbLine
 62
250
  6
CONTINUOUS
 10
32.6471165682
 20
-44.0290124539
 11
32.6471165682
 21
-43.5880646174
  0
LINE
  5
2EB
100
AcDbEntity
  8
0
100
AcDbLine
 62
250
  6
CONTINUOUS
 10
32.9106246446
 20
-47.3072799864
 11
32.9106246446
 21
-47.0219399541
  0
LINE
  5
2EC
100
AcDbEntity
  8
0
100
AcDbLine
 62
250
  6
CONTINUOUS
 10
32.9106246446
 20
-45.9050780154
 11
32.9106246446
 21
-45.5953173571
  0
LINE
  5
2ED
100
AcDbEntity
  8
0
100
AcDbLine
 62
250
  6
CONTINUOUS
 10
32.9106246446
 20
-45.1455989969
 11
32.9106246446
 21
-45.1001877365
  0
LINE
  5
2EE
100
AcDbEntity
  8
0
100
AcDbLine
 62
250
  6
CONTINUOUS
 10
32.9106246446
 20
-44.6486780405
 11
32.9106246446
 21
-44.3319259472
  0
LINE
  5
2EF
100
AcDbEntity
  8
0
100
AcDbLine
 62
250
  6
CONTINUOUS
 10
32.9106246446
 20
-44.2810827102
 11
32.9106246446
 21
-43.9608059147
  0
LINE
  5
2F0
100
AcDbEntity
  8
0
100
AcDbLine
 62
250
  6
CONTINUOUS
 10
32.9106246446
 20
-43.3466341113
 11
32.9106246446
 21
-43.0053732133
  0
LINE
  5
2F1
100
AcDbEntity
  8
0
100
AcDbLine
 62
250
  6
CONTINUOUS
 10
32.9106244681
 20
-41.780519673
 11
32.9106244681
 21
-42.091967555
  0
LINE
  5
2F2
100
AcDbEntity
  8
0
100
AcDbLine
 62
250
  6
CONTINUOUS
 10
32.9106244681
 20
-42.5878065416
 11
32.9106244681
 21
-42.91029323
  0
LINE
  5
2F3
100
AcDbEntity
  8
0
100
AcDbLine
 62
250
  6
CONTINUOUS
 10
32.9106246446
 20
-46.0793846218
 11
32.9106246446
 21
-46.4031738725
  0
LINE
  5
2F4
100
AcDbEntity
  8
0
100
AcDbLine
 62
7
  6
CONTINUOUS
 10
33.2451577689
 20
18.6745040134
 11
33.2451577689
 21
-52.0318219568
  0
LINE
  5
2F5
100
AcDbEntity
  8
ASSI
100
AcDbLine
 62
7
  6
CONTINUOUS
 10
33.2451577689
 20
18.6745040134
 11
33.2451577689
 21
-52.0318219568
  0
LINE
  5
2F6
100
AcDbEntity
  8
0
100
AcDbLine
 62
7
  6
CONTINUOUS
 10
33.4572898032
 20
19.5631835766
 11
33.4572898032
 21
-50.715818716
  0
LINE
  5
2F7
100
AcDbEntity
  8
ASSI
100
AcDbLine
 62
7
  6
CONTINUOUS
 10
33.4572898032
 20
19.5631835766
 11
33.4572898032
 21
-50.715818716
  0
LINE
  5
2F8
100
AcDbEntity
  8
0
100
AcDbLine
 62
7
  6
CONTINUOUS
 10
19.3150721753
 20
-29.7007759513
 11
19.3858648576
 21
-29.5781594288
  0
LINE
  5
2F9
100
AcDbEntity
  8
ASSI
100
AcDbLine
 62
7
  6
CONTINUOUS
 10
19.3150721753
 20
-29.7007759513
 11
19.3858648576
 21
-29.5781594288
  0
LINE
  5
2FA
100
AcDbEntity
  8
0
100
AcDbLine
 62
7
  6
CONTINUOUS
 10
19.6333522311
 20
-29.5577338626
 11
19.7394182482
 21
-29.3740221321
  0
LINE
  5
2FB
100
AcDbEntity
  8
ASSI
100
AcDbLine
 62
7
  6
CONTINUOUS
 10
19.6333522311
 20
-29.5577338626
 11
19.7394182482
 21
-29.3740221321
  0
LINE
  5
2FC
100
AcDbEntity
  8
0
100
AcDbLine
 62
7
  6
CONTINUOUS
 10
19.9869056216
 20
-29.353596566
 11
20.0929716388
 21
-29.1698848355
  0
LINE
  5
2FD
100
AcDbEntity
  8
ASSI
100
AcDbLine
 62
7
  6
CONTINUOUS
 10
19.9869056216
 20
-29.353596566
 11
20.0929716388
 21
-29.1698848355
  0
LINE
  5
2FE
100
AcDbEntity
  8
0
100
AcDbLine
 62
7
  6
CONTINUOUS
 10
20.3404590122
 20
-29.1494592693
 11
20.4465250294
 21
-28.9657475388
  0
LINE
  5
2FF
100
AcDbEntity
  8
ASSI
100
AcDbLine
 62
7
  6
CONTINUOUS
 10
20.3404590122
 20
-29.1494592693
 11
20.4465250294
 21
-28.9657475388
  0
LINE
  5
300
100
AcDbEntity
  8
0
100
AcDbLine
 62
7
  6
CONTINUOUS
 10
20.6940124028
 20
-28.9453219726
 11
20.80007842
 21
-28.7616102421
  0
LINE
  5
301
100
AcDbEntity
  8
ASSI
100
AcDbLine
 62
7
  6
CONTINUOUS
 10
20.6940124028
 20
-28.9453219726
 11
20.80007842
 21
-28.7616102421
  0
LINE
  5
302
100
AcDbEntity
  8
0
100
AcDbLine
 62
7
  6
CONTINUOUS
 10
21.0475657934
 20
-28.741184676
 11
21.1536318106
 21
-28.5574729455
  0
LINE
  5
303
100
AcDbEntity
  8
ASSI
100
AcDbLine
 62
7
  6
CONTINUOUS
 10
21.0475657934
 20
-28.741184676
 11
21.1536318106
 21
-28.5574729455
  0
LINE
  5
304
100
AcDbEntity
  8
0
100
AcDbLine
 62
7
  6
CONTINUOUS
 10
15.4967775611
 20
-27.3326491655
 11
15.6381989173
 21
-27.2509942468
  0
LINE
  5
305
100
AcDbEntity
  8
ASSI
100
AcDbLine
 62
7
  6
CONTINUOUS
 10
15.4967775611
 20
-27.3326491655
 11
15.6381989173
 21
-27.2509942468
  0
LINE
  5
306
100
AcDbEntity
  8
0
100
AcDbLine
 62
7
  6
CONTINUOUS
 10
15.8503309517
 20
-27.1285118688
 11
15.9917523079
 21
-27.0468569501
  0
LINE
  5
307
100
AcDbEntity
  8
ASSI
100
AcDbLine
 62
7
  6
CONTINUOUS
 10
15.8503309517
 20
-27.1285118688
 11
15.9917523079
 21
-27.0468569501
  0
LINE
  5
308
100
AcDbEntity
  8
0
100
AcDbLine
 62
7
  6
CONTINUOUS
 10
16.2038843423
 20
-26.9243745721
 11
16.3453056985
 21
-26.8427196535
  0
LINE
  5
309
100
AcDbEntity
  8
ASSI
100
AcDbLine
 62
7
  6
CONTINUOUS
 10
16.2038843423
 20
-26.9243745721
 11
16.3453056985
 21
-26.8427196535
  0
LINE
  5
30A
100
AcDbEntity
  8
0
100
AcDbLine
 62
7
  6
CONTINUOUS
 10
16.5574377329
 20
-26.7202372755
 11
16.6988590891
 21
-26.6385823568
  0
LINE
  5
30B
100
AcDbEntity
  8
ASSI
100
AcDbLine
 62
7
  6
CONTINUOUS
 10
16.5574377329
 20
-26.7202372755
 11
16.6988590891
 21
-26.6385823568
  0
LINE
  5
30C
100
AcDbEntity
  8
0
100
AcDbLine
 62
7
  6
CONTINUOUS
 10
16.9109911235
 20
-26.5160999788
 11
17.0524124797
 21
-26.4344450602
  0
LINE
  5
30D
100
AcDbEntity
  8
ASSI
100
AcDbLine
 62
7
  6
CONTINUOUS
 10
16.9109911235
 20
-26.5160999788
 11
17.0524124797
 21
-26.4344450602
  0
LINE
  5
30E
100
AcDbEntity
  8
0
100
AcDbLine
 62
7
  6
CONTINUOUS
 10
17.2645445141
 20
-26.3119626822
 11
17.4059658703
 21
-26.2303077635
  0
LINE
  5
30F
100
AcDbEntity
  8
ASSI
100
AcDbLine
 62
7
  6
CONTINUOUS
 10
17.2645445141
 20
-26.3119626822
 11
17.4059658703
 21
-26.2303077635
  0
LINE
  5
310
100
AcDbEntity
  8
0
100
AcDbLine
 62
7
  6
CONTINUOUS
 10
15.1695898576
 20
-27.3072264161
 11
17.4395608729
 21
-26.127109321
  0
LINE
  5
311
100
AcDbEntity
  8
ASSI
100
AcDbLine
 62
7
  6
CONTINUOUS
 10
15.1695898576
 20
-27.3072264161
 11
17.4395608729
 21
-26.127109321
  0
LINE
  5
312
100
AcDbEntity
  8
0
100
AcDbLine
 62
7
  6
CONTINUOUS
 10
17.5136080259
 20
-26.0926655249
 11
18.8239622816
 21
-25.5552031983
  0
LINE
  5
313
100
AcDbEntity
  8
ASSI
100
AcDbLine
 62
7
  6
CONTINUOUS
 10
17.5136080259
 20
-26.0926655249
 11
18.8239622816
 21
-25.5552031983
  0
LINE
  5
314
100
AcDbEntity
  8
SMUSSO
100
AcDbLine
 62
7
  6
CONTINUOUS
 10
-31.7026000831
 20
54.6637752685
 11
31.2299034425
 21
18.3273759173
  0
LINE
  5
315
100
AcDbEntity
  8
0
100
AcDbLine
 62
7
  6
CONTINUOUS
 10
-28.697396263
 20
55.2558286657
 11
32.5380509877
 21
19.8992488836
  0
LINE
  5
316
100
AcDbEntity
  8
ASSI
100
AcDbLine
 62
7
  6
CONTINUOUS
 10
-28.697396263
 20
55.2558286657
 11
32.5380509877
 21
19.8992488836
  0
LINE
  5
317
100
AcDbEntity
  8
0
100
AcDbLine
 62
7
  6
CONTINUOUS
 10
-27.4516935497
 20
54.7816349792
 11
33.413668618
 21
19.6387376858
  0
LINE
  5
318
100
AcDbEntity
  8
ASSI
100
AcDbLine
 62
7
  6
CONTINUOUS
 10
-27.4516935497
 20
54.7816349792
 11
33.413668618
 21
19.6387376858
  0
LINE
  5
319
100
AcDbEntity
  8
0
100
AcDbLine
 62
250
  6
CONTINUOUS
 10
20.9879393455
 20
-29.6063817684
 11
21.3238843105
 21
-29.2796281787
  0
LINE
  5
31A
100
AcDbEntity
  8
ASSI
100
AcDbLine
 62
250
  6
CONTINUOUS
 10
20.9879393455
 20
-29.6063817684
 11
21.3238843105
 21
-29.2796281787
  0
LINE
  5
31B
100
AcDbEntity
  8
0
100
AcDbLine
 62
7
  6
CONTINUOUS
 10
20.9918642104
 20
-29.6399169619
 11
21.4208485838
 21
-29.2226695001
  0
LINE
  5
31C
100
AcDbEntity
  8
ASSI
100
AcDbLine
 62
7
  6
CONTINUOUS
 10
20.9918642104
 20
-29.6399169619
 11
21.4208485838
 21
-29.2226695001
  0
LINE
  5
31D
100
AcDbEntity
  8
0
100
AcDbLine
 62
7
  6
CONTINUOUS
 10
21.6132512184
 20
-28.6254763399
 11
19.6420070486
 21
-29.8895440497
  0
LINE
  5
31E
100
AcDbEntity
  8
ASSI
100
AcDbLine
 62
7
  6
CONTINUOUS
 10
21.6132512184
 20
-28.6254763399
 11
19.6420070486
 21
-29.8895440497
  0
LINE
  5
31F
100
AcDbEntity
  8
0
100
AcDbLine
 62
7
  6
CONTINUOUS
 10
19.9665683458
 20
-30.0769416749
 11
21.6132512184
 21
-29.109648493
  0
LINE
  5
320
100
AcDbEntity
  8
ASSI
100
AcDbLine
 62
7
  6
CONTINUOUS
 10
19.9665683458
 20
-30.0769416749
 11
21.6132512184
 21
-29.109648493
  0
LINE
  5
321
100
AcDbEntity
  8
0
100
AcDbLine
 62
7
  6
CONTINUOUS
 10
20.9332498639
 20
-29.6843809735
 11
20.1119929599
 21
-30.1609080245
  0
LINE
  5
322
100
AcDbEntity
  8
ASSI
100
AcDbLine
 62
7
  6
CONTINUOUS
 10
20.9332498639
 20
-29.6843809735
 11
20.1119929599
 21
-30.1609080245
  0
LINE
  5
323
100
AcDbEntity
  8
0
100
AcDbLine
 62
250
  6
CONTINUOUS
 10
20.9879393455
 20
-29.6063817684
 11
20.0717250201
 21
-30.1376578208
  0
LINE
  5
324
100
AcDbEntity
  8
ASSI
100
AcDbLine
 62
250
  6
CONTINUOUS
 10
20.9879393455
 20
-29.6063817684
 11
20.0717250201
 21
-30.1376578208
  0
LINE
  5
325
100
AcDbEntity
  8
0
100
AcDbLine
 62
7
  6
CONTINUOUS
 10
19.3858648576
 20
-29.5781594288
 11
19.5272862139
 21
-29.4965045101
  0
LINE
  5
326
100
AcDbEntity
  8
ASSI
100
AcDbLine
 62
7
  6
CONTINUOUS
 10
19.3858648576
 20
-29.5781594288
 11
19.5272862139
 21
-29.4965045101
  0
LINE
  5
327
100
AcDbEntity
  8
0
100
AcDbLine
 62
7
  6
CONTINUOUS
 10
19.7394182482
 20
-29.3740221321
 11
19.8808396045
 21
-29.2923672135
  0
LINE
  5
328
100
AcDbEntity
  8
ASSI
100
AcDbLine
 62
7
  6
CONTINUOUS
 10
19.7394182482
 20
-29.3740221321
 11
19.8808396045
 21
-29.2923672135
  0
LINE
  5
329
100
AcDbEntity
  8
0
100
AcDbLine
 62
7
  6
CONTINUOUS
 10
20.0929716388
 20
-29.1698848355
 11
20.2343929951
 21
-29.0882299168
  0
LINE
  5
32A
100
AcDbEntity
  8
ASSI
100
AcDbLine
 62
7
  6
CONTINUOUS
 10
20.0929716388
 20
-29.1698848355
 11
20.2343929951
 21
-29.0882299168
  0
LINE
  5
32B
100
AcDbEntity
  8
0
100
AcDbLine
 62
7
  6
CONTINUOUS
 10
20.4465250294
 20
-28.9657475388
 11
20.5879463857
 21
-28.8840926201
  0
LINE
  5
32C
100
AcDbEntity
  8
ASSI
100
AcDbLine
 62
7
  6
CONTINUOUS
 10
20.4465250294
 20
-28.9657475388
 11
20.5879463857
 21
-28.8840926201
  0
LINE
  5
32D
100
AcDbEntity
  8
0
100
AcDbLine
 62
7
  6
CONTINUOUS
 10
20.80007842
 20
-28.7616102421
 11
20.9414997762
 21
-28.6799553235
  0
LINE
  5
32E
100
AcDbEntity
  8
ASSI
100
AcDbLine
 62
7
  6
CONTINUOUS
 10
20.80007842
 20
-28.7616102421
 11
20.9414997762
 21
-28.6799553235
  0
LINE
  5
32F
100
AcDbEntity
  8
0
100
AcDbLine
 62
7
  6
CONTINUOUS
 10
21.1536318106
 20
-28.5574729455
 11
21.2950531668
 21
-28.4758180268
  0
LINE
  5
330
100
AcDbEntity
  8
ASSI
100
AcDbLine
 62
7
  6
CONTINUOUS
 10
21.1536318106
 20
-28.5574729455
 11
21.2950531668
 21
-28.4758180268
  0
LINE
  5
331
100
AcDbEntity
  8
0
100
AcDbLine
 62
7
  6
CONTINUOUS
 10
21.401119184
 20
-28.5370473793
 11
19.3503421014
 21
-29.7211403645
  0
LINE
  5
332
100
AcDbEntity
  8
ASSI
100
AcDbLine
 62
7
  6
CONTINUOUS
 10
21.401119184
 20
-28.5370473793
 11
19.3503421014
 21
-29.7211403645
  0
LINE
  5
333
100
AcDbEntity
  8
RACCORDO
100
AcDbLine
 62
250
  6
CONTINUOUS
 10
20.7647230809
 20
-32.9874337758
 11
21.6132102143
 21
-32.497527939
  0
LINE
  5
334
100
AcDbEntity
  8
0
100
AcDbLine
 62
7
  6
CONTINUOUS
 10
33.4567328802
 20
-50.7236034192
 11
33.2377214562
 21
-52.1779171481
  0
LINE
  5
335
100
AcDbEntity
  8
ASSI
100
AcDbLine
 62
7
  6
CONTINUOUS
 10
33.4567328802
 20
-50.7236034192
 11
33.2377214562
 21
-52.1779171481
  0
LINE
  5
336
100
AcDbEntity
  8
0
100
AcDbLine
 62
250
  6
CONTINUOUS
 10
33.2453053626
 20
-52.0640458629
 11
33.4572898032
 21
-50.715818716
  0
LINE
  5
337
100
AcDbEntity
  8
ASSI
100
AcDbLine
 62
250
  6
CONTINUOUS
 10
33.2453053626
 20
-52.0640458629
 11
33.4572898032
 21
-50.715818716
  0
LINE
  5
338
100
AcDbEntity
  8
0
100
AcDbLine
 62
250
  6
CONTINUOUS
 10
-28.7252301507
 20
55.2720701071
 11
-27.4516935497
 21
54.7816349792
  0
LINE
  5
339
100
AcDbEntity
  8
ASSI
100
AcDbLine
 62
250
  6
CONTINUOUS
 10
-28.7252301507
 20
55.2720701071
 11
-27.4516935497
 21
54.7816349792
  0
LINE
  5
33A
100
AcDbEntity
  8
0
100
AcDbLine
 62
7
  6
CONTINUOUS
 10
-27.458717681
 20
54.7850468869
 11
-28.8276952133
 21
55.3224659562
  0
LINE
  5
33B
100
AcDbEntity
  8
ASSI
100
AcDbLine
 62
7
  6
CONTINUOUS
 10
-27.458717681
 20
54.7850468869
 11
-28.8276952133
 21
55.3224659562
  0
LINE
  5
33C
100
AcDbEntity
  8
0
100
AcDbLine
 62
250
  6
CONTINUOUS
 10
32.0487252064
 20
-46.0407746061
 11
32.9106246446
 21
-45.1455989969
  0
LINE
  5
33D
100
AcDbEntity
  8
0
100
AcDbLine
 62
250
  6
CONTINUOUS
 10
32.3235169479
 20
-45.4721582984
 11
31.5906796841
 21
-46.2306932021
  0
LINE
  5
33E
100
AcDbEntity
  8
0
100
AcDbLine
 62
250
  6
CONTINUOUS
 10
32.9106246446
 20
-43.0053732133
 11
31.5906796841
 21
-44.2705080957
  0
LINE
  5
33F
100
AcDbEntity
  8
0
100
AcDbLine
 62
250
  6
CONTINUOUS
 10
32.6471165682
 20
-43.5880646174
 11
32.9106246446
 21
-43.3466341113
  0
LINE
  5
340
100
AcDbEntity
  8
0
100
AcDbLine
 62
250
  6
CONTINUOUS
 10
31.9533667375
 20
-44.216353915
 11
32.4432150905
 21
-43.7746871164
  0
LINE
  5
341
100
AcDbEntity
  8
0
100
AcDbLine
 62
250
  6
CONTINUOUS
 10
32.9106246446
 20
-44.3319259472
 11
31.5906796841
 21
-45.2661756359
  0
LINE
  5
342
100
AcDbEntity
  8
0
100
AcDbLine
 62
250
  6
CONTINUOUS
 10
32.0523185268
 20
-45.2283847268
 11
32.9106246446
 21
-44.6486780405
  0
LINE
  5
343
100
AcDbEntity
  8
0
100
AcDbLine
 62
250
  6
CONTINUOUS
 10
32.2866862425
 20
-42.4509003113
 11
32.2944859653
 21
-42.4462368397
  0
LINE
  5
344
100
AcDbEntity
  8
0
100
AcDbLine
 62
250
  6
CONTINUOUS
 10
32.3940710038
 20
-42.8966550072
 11
32.9106244681
 21
-42.5878065416
  0
LINE
  5
345
100
AcDbEntity
  8
0
100
AcDbLine
 62
250
  6
CONTINUOUS
 10
31.815545377
 20
-43.2532931399
 11
32.1778959475
 21
-43.0366429276
  0
LINE
  5
346
100
AcDbEntity
  8
0
100
AcDbLine
 62
250
  6
CONTINUOUS
 10
32.9106244681
 20
-42.91029323
 11
31.606101046
 21
-43.6902706865
  0
LINE
  5
347
100
AcDbEntity
  8
0
100
AcDbLine
 62
250
  6
CONTINUOUS
 10
31.5906004809
 20
-46.8686300062
 11
32.9106246446
 21
-46.0793846218
  0
LINE
  5
348
100
AcDbEntity
  8
0
100
AcDbLine
 62
250
  6
CONTINUOUS
 10
32.9106246446
 20
-45.5953173571
 11
32.0487252064
 21
-46.0407746061
  0
LINE
  5
349
100
AcDbEntity
  8
0
100
AcDbLine
 62
250
  6
CONTINUOUS
 10
31.5906796841
 20
-46.5542146504
 11
32.9106246446
 21
-45.9050780154
  0
LINE
  5
34A
100
AcDbEntity
  8
0
100
AcDbLine
 62
250
  6
CONTINUOUS
 10
31.5906796841
 20
-48.5882282652
 11
32.9106246446
 21
-47.3072799864
  0
LINE
  5
34B
100
AcDbEntity
  8
0
100
AcDbLine
 62
250
  6
CONTINUOUS
 10
32.4992387902
 20
-47.3975827305
 11
31.5906796841
 21
-48.2364928699
  0
LINE
  5
34C
100
AcDbEntity
  8
0
100
AcDbLine
 62
7
  6
CONTINUOUS
 10
31.2299034425
 20
-53.5858526692
 11
33.059371863
 21
-52.4767367318
  0
LINE
  5
34D
100
AcDbEntity
  8
ASSI
100
AcDbLine
 62
7
  6
CONTINUOUS
 10
31.2299034425
 20
-53.5858526692
 11
33.059371863
 21
-52.4767367318
  0
LINE
  5
34E
100
AcDbEntity
  8
0
100
AcDbLine
 62
250
  6
CONTINUOUS
 10
32.9106246446
 20
-46.4031738725
 11
31.5906004809
 21
-47.1924192569
  0
LINE
  5
34F
100
AcDbEntity
  8
0
100
AcDbLine
 62
250
  6
CONTINUOUS
 10
31.2303416283
 20
-53.2364850101
 11
33.2451577689
 21
-52.0318219568
  0
LINE
  5
350
100
AcDbEntity
  8
ASSI
100
AcDbLine
 62
250
  6
CONTINUOUS
 10
31.2303416283
 20
-53.2364850101
 11
33.2451577689
 21
-52.0318219568
  0
LINE
  5
351
100
AcDbEntity
  8
SMUSSO
100
AcDbLine
 62
7
  6
CONTINUOUS
 10
31.2299034425
 20
-54.3385181722
 11
29.4621364895
 21
-55.3591652006
  0
ARC
  5
352
100
AcDbEntity
  8
0
100
AcDbCircle
 62
7
  6
CONTINUOUS
 10
-11.0372746918
 20
-11.052376344
 40
0.3
100
AcDbArc
 50
300.1089870924
 51
314.200140513
  0
ARC
  5
353
100
AcDbEntity
  8
ASSI
100
AcDbCircle
 62
7
  6
CONTINUOUS
 10
-11.0372746918
 20
-11.052376344
 40
0.3
100
AcDbArc
 50
300.1089871957
 51
314.2001405179
  0
ARC
  5
354
100
AcDbEntity
  8
0
100
AcDbCircle
 62
250
  6
CONTINUOUS
 10
-10.936939367
 20
-11.2252172384
 40
0.1003696755
100
AcDbArc
 50
300.1329138855
 51
304.4945384273
  0
ARC
  5
355
100
AcDbEntity
  8
ASSI
100
AcDbCircle
 62
250
  6
CONTINUOUS
 10
-10.936939367
 20
-11.2252172384
 40
0.1003696755
100
AcDbArc
 50
300.1329138855
 51
304.4945384273
  0
ARC
  5
356
100
AcDbEntity
  8
0
100
AcDbCircle
 62
7
  6
CONTINUOUS
 10
20.7825304616
 20
-29.4247330437
 40
0.3
100
AcDbArc
 50
300.1089870924
 51
314.200140513
  0
ARC
  5
357
100
AcDbEntity
  8
ASSI
100
AcDbCircle
 62
7
  6
CONTINUOUS
 10
20.7825304616
 20
-29.4247330437
 40
0.3
100
AcDbArc
 50
300.1089871957
 51
314.2001405179
  0
ARC
  5
358
100
AcDbEntity
  8
0
100
AcDbCircle
 62
250
  6
CONTINUOUS
 10
20.8828657864
 20
-29.5975739381
 40
0.1003696755
100
AcDbArc
 50
300.1329138854
 51
304.4945384274
  0
ARC
  5
359
100
AcDbEntity
  8
ASSI
100
AcDbCircle
 62
250
  6
CONTINUOUS
 10
20.8828657864
 20
-29.5975739381
 40
0.1003696755
100
AcDbArc
 50
300.1329138854
 51
304.4945384274
  0
SPLINE
  5
35A
100
AcDbEntity
  8
0
100
AcDbSpline
 62
7
  6
CONTINUOUS
 70
0
 71
3
 72
10
 73
6
 74
0
 42
0.0000001
 43
0.0000001
 44
0.0000000001
 40
0.0
 40
0.0
 40
0.0
 40
0.0
 40
0.5278685352
 40
0.7673006673
 40
1.0
 40
1.0
 40
1.0
 40
1.0
 10
-28.8276944548
 20
55.322457712
 30
0.0
 10
-28.8863469351
 20
55.3454934254
 30
0.0
 10
-28.978770914
 20
55.366636596
 30
0.0
 10
-29.0981979015
 20
55.3516883414
 30
0.0
 10
-29.1513194137
 20
55.3307728913
 30
0.0
 10
-29.1756666538
 20
55.3173995143
 30
0.0
  0
SPLINE
  5
35B
100
AcDbEntity
  8
0
100
AcDbSpline
 62
7
  6
CONTINUOUS
 70
0
 71
3
 72
10
 73
6
 74
0
 42
0.0000001
 43
0.0000001
 44
0.0000000001
 40
0.0
 40
0.0
 40
0.0
 40
0.0
 40
0.2326995781
 40
0.4721317903
 40
1.0
 40
1.0
 40
1.0
 40
1.0
 10
33.0593692523
 20
-52.4767331903
 30
0.0
 10
33.0831228546
 20
-52.4623337789
 30
0.0
 10
33.1277932581
 20
-52.4267858773
 30
0.0
 10
33.2004447491
 20
-52.3308334058
 30
0.0
 10
33.2283410007
 20
-52.2402226879
 30
0.0
 10
33.2377146873
 20
-52.1779123637
 30
0.0
  0
SPLINE
  5
35C
100
AcDbEntity
  8
0
100
AcDbSpline
 62
7
  6
CONTINUOUS
 70
0
 71
3
 72
9
 73
5
 74
0
 42
0.0000001
 43
0.0000001
 44
0.0000000001
 40
0.0
 40
0.0
 40
0.0
 40
0.0
 40
0.2421136351
 40
1.0
 40
1.0
 40
1.0
 40
1.0
 10
33.2377146873
 20
-52.1779123637
 30
0.0
 10
33.2390855967
 20
-52.1687994272
 30
0.0
 10
33.2439226143
 20
-52.1310380521
 30
0.0
 10
33.2455761693
 20
-52.0928917232
 30
0.0
 10
33.2453053626
 20
-52.0640458629
 30
0.0
  0
SPLINE
  5
35D
100
AcDbEntity
  8
0
100
AcDbSpline
 62
250
  6
CONTINUOUS
 70
0
 71
3
 72
9
 73
5
 74
0
 42
0.0000001
 43
0.0000001
 44
0.0000000001
 40
0.0
 40
0.0
 40
0.0
 40
0.0
 40
0.4808334352
 40
1.0
 40
1.0
 40
1.0
 40
1.0
 10
-10.8800972419
 20
-11.3079399352
 30
0.0
 10
-10.8708637678
 20
-11.301595743
 30
0.0
 10
-10.8538274046
 20
-11.2850311372
 30
0.0
 10
-10.8426272409
 20
-11.2642368076
 30
0.0
 10
-10.838139438
 20
-11.2530040729
 30
0.0
  0
SPLINE
  5
35E
100
AcDbEntity
  8
0
100
AcDbSpline
 62
250
  6
CONTINUOUS
 70
0
 71
3
 72
8
 73
4
 74
0
 42
0.0000001
 43
0.0000001
 44
0.0000000001
 40
0.0
 40
0.0
 40
0.0
 40
0.0
 40
1.0
 40
1.0
 40
1.0
 40
1.0
 10
-10.838139438
 20
-11.2530040729
 30
0.0
 10
-10.8356673717
 20
-11.2468166211
 30
0.0
 10
-10.8335878746
 20
-11.2404616949
 30
0.0
 10
-10.8318658079
 20
-11.2340250687
 30
0.0
  0
SPLINE
  5
35F
100
AcDbEntity
  8
0
100
AcDbSpline
 62
250
  6
CONTINUOUS
 70
0
 71
3
 72
9
 73
5
 74
0
 42
0.0000001
 43
0.0000001
 44
0.0000000001
 40
0.0
 40
0.0
 40
0.0
 40
0.0
 40
0.4808334352
 40
1.0
 40
1.0
 40
1.0
 40
1.0
 10
20.9397079115
 20
-29.680296635
 30
0.0
 10
20.9489413856
 20
-29.6739524427
 30
0.0
 10
20.9659777488
 20
-29.657387837
 30
0.0
 10
20.9771779125
 20
-29.6365935073
 30
0.0
 10
20.9816657154
 20
-29.6253607726
 30
0.0
  0
SPLINE
  5
360
100
AcDbEntity
  8
0
100
AcDbSpline
 62
250
  6
CONTINUOUS
 70
0
 71
3
 72
8
 73
4
 74
0
 42
0.0000001
 43
0.0000001
 44
0.0000000001
 40
0.0
 40
0.0
 40
0.0
 40
0.0
 40
1.0
 40
1.0
 40
1.0
 40
1.0
 10
20.9816657154
 20
-29.6253607726
 30
0.0
 10
20.9841377817
 20
-29.6191733209
 30
0.0
 10
20.9862172788
 20
-29.6128183946
 30
0.0
 10
20.9879393455
 20
-29.6063817684
 30
0.0
  0
SPLINE
  5
361
100
AcDbEntity
  8
0
100
AcDbSpline
 62
7
  6
CONTINUOUS
 70
0
 71
3
 72
11
 73
7
 74
0
 42
0.0000001
 43
0.0000001
 44
0.0000000001
 40
0.0
 40
0.0
 40
0.0
 40
0.0
 40
0.2398961039
 40
0.4999946021
 40
0.7600960345
 40
1.0
 40
1.0
 40
1.0
 40
1.0
 10
33.2453053626
 20
18.7082618574
 30
0.0
 10
33.2462694513
 20
18.820974659
 30
0.0
 10
33.208562042
 20
19.0566876027
 30
0.0
 10
33.0654779144
 20
19.3872536901
 30
0.0
 10
32.8507387355
 20
19.6764538519
 30
0.0
 10
32.6654568588
 20
19.8269705596
 30
0.0
 10
32.5673608127
 20
19.8824962614
 30
0.0
  0
SPLINE
  5
362
100
AcDbEntity
  8
0
100
AcDbSpline
 62
7
  6
CONTINUOUS
 70
0
 71
3
 72
9
 73
5
 74
0
 42
0.0000001
 43
0.0000001
 44
0.0000000001
 40
0.0
 40
0.0
 40
0.0
 40
0.0
 40
0.2580518931
 40
1.0
 40
1.0
 40
1.0
 40
1.0
 10
-28.7252301507
 20
55.2720701071
 30
0.0
 10
-28.7336942726
 20
55.2770637554
 30
0.0
 10
-28.7668388455
 20
55.2958190835
 30
0.0
 10
-28.8013944988
 20
55.3121284259
 30
0.0
 10
-28.8276944548
 20
55.322457712
 30
0.0
  0
SPLINE
  5
363
100
AcDbEntity
  8
0
100
AcDbSpline
 62
250
  6
CONTINUOUS
 70
0
 71
3
 72
10
 73
6
 74
0
 42
0.0000001
 43
0.0000001
 44
0.0000000001
 40
0.0
 40
0.0
 40
0.0
 40
0.0
 40
0.3606042124
 40
0.6415407785
 40
1.0
 40
1.0
 40
1.0
 40
1.0
 10
-10.8318658079
 20
-11.2340250687
 30
0.0
 10
-10.830150839
 20
-11.2378624549
 30
0.0
 10
-10.827354953
 20
-11.2449086932
 30
0.0
 10
-10.8244035984
 20
-11.2558547869
 30
0.0
 10
-10.8249477465
 20
-11.2646468915
 30
0.0
 10
-10.827942047
 20
-11.2675608694
 30
0.0
  0
SPLINE
  5
364
100
AcDbEntity
  8
0
100
AcDbSpline
 62
250
  6
CONTINUOUS
 70
0
 71
3
 72
10
 73
6
 74
0
 42
0.0000001
 43
0.0000001
 44
0.0000000001
 40
0.0
 40
0.0
 40
0.0
 40
0.0
 40
0.3606042124
 40
0.6415407785
 40
1.0
 40
1.0
 40
1.0
 40
1.0
 10
20.9879393455
 20
-29.6063817684
 30
0.0
 10
20.9896543144
 20
-29.6102191546
 30
0.0
 10
20.9924502004
 20
-29.6172653929
 30
0.0
 10
20.995401555
 20
-29.6282114867
 30
0.0
 10
20.9948574069
 20
-29.6370035912
 30
0.0
 10
20.9918631064
 20
-29.6399175691
 30
0.0
  0
SPLINE
  5
365
100
AcDbEntity
  8
ASSI
100
AcDbSpline
 62
7
  6
CONTINUOUS
 70
0
 71
3
 72
10
 73
6
 74
0
 42
0.0000001
 43
0.0000001
 44
0.0000000001
 40
0.0
 40
0.0
 40
0.0
 40
0.0
 40
0.5278685352
 40
0.7673006673
 40
1.0
 40
1.0
 40
1.0
 40
1.0
 10
-28.8276944548
 20
55.322457712
 30
0.0
 10
-28.8863469351
 20
55.3454934254
 30
0.0
 10
-28.978770914
 20
55.366636596
 30
0.0
 10
-29.0981979015
 20
55.3516883414
 30
0.0
 10
-29.1513194137
 20
55.3307728913
 30
0.0
 10
-29.1756666538
 20
55.3173995143
 30
0.0
  0
SPLINE
  5
366
100
AcDbEntity
  8
ASSI
100
AcDbSpline
 62
7
  6
CONTINUOUS
 70
0
 71
3
 72
10
 73
6
 74
0
 42
0.0000001
 43
0.0000001
 44
0.0000000001
 40
0.0
 40
0.0
 40
0.0
 40
0.0
 40
0.2326995781
 40
0.4721317903
 40
1.0
 40
1.0
 40
1.0
 40
1.0
 10
33.0593692523
 20
-52.4767331903
 30
0.0
 10
33.0831228546
 20
-52.4623337789
 30
0.0
 10
33.1277932581
 20
-52.4267858773
 30
0.0
 10
33.2004447491
 20
-52.3308334058
 30
0.0
 10
33.2283410007
 20
-52.2402226879
 30
0.0
 10
33.2377146873
 20
-52.1779123637
 30
0.0
  0
SPLINE
  5
367
100
AcDbEntity
  8
ASSI
100
AcDbSpline
 62
7
  6
CONTINUOUS
 70
0
 71
3
 72
9
 73
5
 74
0
 42
0.0000001
 43
0.0000001
 44
0.0000000001
 40
0.0
 40
0.0
 40
0.0
 40
0.0
 40
0.2421136351
 40
1.0
 40
1.0
 40
1.0
 40
1.0
 10
33.2377146873
 20
-52.1779123637
 30
0.0
 10
33.2390855967
 20
-52.1687994272
 30
0.0
 10
33.2439226143
 20
-52.1310380521
 30
0.0
 10
33.2455761693
 20
-52.0928917232
 30
0.0
 10
33.2453053626
 20
-52.0640458629
 30
0.0
  0
SPLINE
  5
368
100
AcDbEntity
  8
ASSI
100
AcDbSpline
 62
250
  6
CONTINUOUS
 70
0
 71
3
 72
9
 73
5
 74
0
 42
0.0000001
 43
0.0000001
 44
0.0000000001
 40
0.0
 40
0.0
 40
0.0
 40
0.0
 40
0.4808334352
 40
1.0
 40
1.0
 40
1.0
 40
1.0
 10
-10.8800972419
 20
-11.3079399352
 30
0.0
 10
-10.8708637678
 20
-11.301595743
 30
0.0
 10
-10.8538274046
 20
-11.2850311372
 30
0.0
 10
-10.8426272409
 20
-11.2642368076
 30
0.0
 10
-10.838139438
 20
-11.2530040729
 30
0.0
  0
SPLINE
  5
369
100
AcDbEntity
  8
ASSI
100
AcDbSpline
 62
250
  6
CONTINUOUS
 70
0
 71
3
 72
8
 73
4
 74
0
 42
0.0000001
 43
0.0000001
 44
0.0000000001
 40
0.0
 40
0.0
 40
0.0
 40
0.0
 40
1.0
 40
1.0
 40
1.0
 40
1.0
 10
-10.838139438
 20
-11.2530040729
 30
0.0
 10
-10.8356673717
 20
-11.2468166211
 30
0.0
 10
-10.8335878746
 20
-11.2404616949
 30
0.0
 10
-10.8318658079
 20
-11.2340250687
 30
0.0
  0
SPLINE
  5
36A
100
AcDbEntity
  8
ASSI
100
AcDbSpline
 62
250
  6
CONTINUOUS
 70
0
 71
3
 72
9
 73
5
 74
0
 42
0.0000001
 43
0.0000001
 44
0.0000000001
 40
0.0
 40
0.0
 40
0.0
 40
0.0
 40
0.4808334352
 40
1.0
 40
1.0
 40
1.0
 40
1.0
 10
20.9397079115
 20
-29.680296635
 30
0.0
 10
20.9489413856
 20
-29.6739524427
 30
0.0
 10
20.9659777488
 20
-29.657387837
 30
0.0
 10
20.9771779125
 20
-29.6365935073
 30
0.0
 10
20.9816657154
 20
-29.6253607726
 30
0.0
  0
SPLINE
  5
36B
100
AcDbEntity
  8
ASSI
100
AcDbSpline
 62
250
  6
CONTINUOUS
 70
0
 71
3
 72
8
 73
4
 74
0
 42
0.0000001
 43
0.0000001
 44
0.0000000001
 40
0.0
 40
0.0
 40
0.0
 40
0.0
 40
1.0
 40
1.0
 40
1.0
 40
1.0
 10
20.9816657154
 20
-29.6253607726
 30
0.0
 10
20.9841377817
 20
-29.6191733209
 30
0.0
 10
20.9862172788
 20
-29.6128183946
 30
0.0
 10
20.9879393455
 20
-29.6063817684
 30
0.0
  0
SPLINE
  5
36C
100
AcDbEntity
  8
ASSI
100
AcDbSpline
 62
7
  6
CONTINUOUS
 70
0
 71
3
 72
11
 73
7
 74
0
 42
0.0000001
 43
0.0000001
 44
0.0000000001
 40
0.0
 40
0.0
 40
0.0
 40
0.0
 40
0.2398961039
 40
0.4999946021
 40
0.7600960345
 40
1.0
 40
1.0
 40
1.0
 40
1.0
 10
33.2453053626
 20
18.7082618574
 30
0.0
 10
33.2462694513
 20
18.820974659
 30
0.0
 10
33.208562042
 20
19.0566876027
 30
0.0
 10
33.0654779144
 20
19.3872536901
 30
0.0
 10
32.8507387355
 20
19.6764538519
 30
0.0
 10
32.6654568588
 20
19.8269705596
 30
0.0
 10
32.5673608127
 20
19.8824962614
 30
0.0
  0
SPLINE
  5
36D
100
AcDbEntity
  8
ASSI
100
AcDbSpline
 62
7
  6
CONTINUOUS
 70
0
 71
3
 72
9
 73
5
 74
0
 42
0.0000001
 43
0.0000001
 44
0.0000000001
 40
0.0
 40
0.0
 40
0.0
 40
0.0
 40
0.2580518931
 40
1.0
 40
1.0
 40
1.0
 40
1.0
 10
-28.7252301507
 20
55.2720701071
 30
0.0
 10
-28.7336942726
 20
55.2770637554
 30
0.0
 10
-28.7668388455
 20
55.2958190835
 30
0.0
 10
-28.8013944988
 20
55.3121284259
 30
0.0
 10
-28.8276944548
 20
55.322457712
 30
0.0
  0
SPLINE
  5
36E
100
AcDbEntity
  8
ASSI
100
AcDbSpline
 62
250
  6
CONTINUOUS
 70
0
 71
3
 72
10
 73
6
 74
0
 42
0.0000001
 43
0.0000001
 44
0.0000000001
 40
0.0
 40
0.0
 40
0.0
 40
0.0
 40
0.3606042124
 40
0.6415407785
 40
1.0
 40
1.0
 40
1.0
 40
1.0
 10
-10.8318658079
 20
-11.2340250687
 30
0.0
 10
-10.830150839
 20
-11.2378624549
 30
0.0
 10
-10.827354953
 20
-11.2449086932
 30
0.0
 10
-10.8244035984
 20
-11.2558547869
 30
0.0
 10
-10.8249477465
 20
-11.2646468915
 30
0.0
 10
-10.827942047
 20
-11.2675608694
 30
0.0
  0
SPLINE
  5
36F
100
AcDbEntity
  8
ASSI
100
AcDbSpline
 62
250
  6
CONTINUOUS
 70
0
 71
3
 72
10
 73
6
 74
0
 42
0.0000001
 43
0.0000001
 44
0.0000000001
 40
0.0
 40
0.0
 40
0.0
 40
0.0
 40
0.3606042124
 40
0.6415407785
 40
1.0
 40
1.0
 40
1.0
 40
1.0
 10
20.9879393455
 20
-29.6063817684
 30
0.0
 10
20.9896543144
 20
-29.6102191546
 30
0.0
 10
20.9924502004
 20
-29.6172653929
 30
0.0
 10
20.995401555
 20
-29.6282114867
 30
0.0
 10
20.9948574069
 20
-29.6370035912
 30
0.0
 10
20.9918631064
 20
-29.6399175691
 30
0.0
  0
SPLINE
  5
370
100
AcDbEntity
  8
0
100
AcDbSpline
 62
250
  6
CONTINUOUS
 70
0
 71
3
 72
16
 73
12
 74
0
 42
0.0000001
 43
0.0000001
 44
0.0000000001
 40
0.0
 40
0.0
 40
0.0
 40
0.0
 40
0.125
 40
0.25
 40
0.3125
 40
0.375
 40
0.5
 40
0.625
 40
0.75
 40
0.875
 40
1.0
 40
1.0
 40
1.0
 40
1.0
 10
32.5102355268
 20
-42.4730073154
 30
0.0
 10
32.5013834196
 20
-42.4822124395
 30
0.0
 10
32.4849088501
 20
-42.5008807773
 30
0.0
 10
32.4657196944
 20
-42.5262421114
 30
0.0
 10
32.4516697135
 20
-42.5472304486
 30
0.0
 10
32.4384683075
 20
-42.5687491279
 30
0.0
 10
32.4239915516
 20
-42.5960159344
 30
0.0
 10
32.4100431181
 20
-42.6295895789
 30
0.0
 10
32.4005552882
 20
-42.6627369788
 30
0.0
 10
32.395245956
 20
-42.6939497025
 30
0.0
 10
32.3940710038
 20
-42.7133204479
 30
0.0
 10
32.3940710038
 20
-42.7230468041
 30
0.0
  0
SPLINE
  5
371
100
AcDbEntity
  8
0
100
AcDbSpline
 62
250
  6
CONTINUOUS
 70
0
 71
3
 72
12
 73
8
 74
0
 42
0.0000001
 43
0.0000001
 44
0.0000000001
 40
0.0
 40
0.0
 40
0.0
 40
0.0
 40
0.1666666667
 40
0.3333333333
 40
0.5
 40
0.6666666667
 40
1.0
 40
1.0
 40
1.0
 40
1.0
 10
32.9106244681
 20
-42.091967555
 30
0.0
 10
32.8864912951
 20
-42.1145506562
 30
0.0
 10
32.8388840422
 20
-42.1593946958
 30
0.0
 10
32.7693365527
 20
-42.2250686346
 30
0.0
 10
32.701392788
 20
-42.2884577166
 30
0.0
 10
32.6131468986
 20
-42.3704627219
 30
0.0
 10
32.5502428704
 20
-42.4314183408
 30
0.0
 10
32.5102632207
 20
-42.4729785371
 30
0.0
  0
SPLINE
  5
372
100
AcDbEntity
  8
0
100
AcDbSpline
 62
250
  6
CONTINUOUS
 70
0
 71
3
 72
10
 73
6
 74
0
 42
0.0000001
 43
0.0000001
 44
0.0000000001
 40
0.0
 40
0.0
 40
0.0
 40
0.0
 40
0.3333333333
 40
0.6666666667
 40
1.0
 40
1.0
 40
1.0
 40
1.0
 10
32.5533996741
 20
-42.1047866265
 30
0.0
 10
32.5943500198
 20
-42.0671913867
 30
0.0
 10
32.6755002928
 20
-41.9933801185
 30
0.0
 10
32.7946258933
 20
-41.885771014
 30
0.0
 10
32.872331287
 20
-41.8156374583
 30
0.0
 10
32.9106244681
 20
-41.780519673
 30
0.0
  0
SPLINE
  5
373
100
AcDbEntity
  8
0
100
AcDbSpline
 62
250
  6
CONTINUOUS
 70
0
 71
3
 72
16
 73
12
 74
0
 42
0.0000001
 43
0.0000001
 44
0.0000000001
 40
0.0
 40
0.0
 40
0.0
 40
0.0
 40
0.1111111111
 40
0.2222222222
 40
0.3333333333
 40
0.4444444444
 40
0.5555555556
 40
0.6666666667
 40
0.7777777778
 40
0.8888888889
 40
1.0
 40
1.0
 40
1.0
 40
1.0
 10
32.2944859653
 20
-42.4462368397
 30
0.0
 10
32.2986626821
 20
-42.4314301599
 30
0.0
 10
32.3092208129
 20
-42.4020902432
 30
0.0
 10
32.3312485765
 20
-42.3580603966
 30
0.0
 10
32.356847464
 20
-42.3170064521
 30
0.0
 10
32.3849667715
 20
-42.2784078312
 30
0.0
 10
32.4140345947
 20
-42.2429692342
 30
0.0
 10
32.4446953697
 20
-42.2089401149
 30
0.0
 10
32.4774709624
 20
-42.1753882978
 30
0.0
 10
32.513172587
 20
-42.1414787437
 30
0.0
 10
32.5396439159
 20
-42.1174153609
 30
0.0
 10
32.5533996742
 20
-42.1047866267
 30
0.0
  0
SPLINE
  5
374
100
AcDbEntity
  8
0
100
AcDbSpline
 62
250
  6
CONTINUOUS
 70
0
 71
3
 72
34
 73
30
 74
0
 42
0.0000001
 43
0.0000001
 44
0.0000000001
 40
0.0
 40
0.0
 40
0.0
 40
0.0
 40
0.0277777778
 40
0.0555555556
 40
0.0833333333
 40
0.1111111111
 40
0.1388888889
 40
0.1666666667
 40
0.1944444444
 40
0.2222222222
 40
0.25
 40
0.2777777778
 40
0.3333333333
 40
0.3888888889
 40
0.4444444444
 40
0.5
 40
0.5555555556
 40
0.6111111111
 40
0.6666666667
 40
0.7222222222
 40
0.7777777778
 40
0.8055555556
 40
0.8333333333
 40
0.8611111111
 40
0.8888888889
 40
0.9166666667
 40
0.9444444444
 40
0.9722222222
 40
1.0
 40
1.0
 40
1.0
 40
1.0
 10
31.6199980139
 20
-42.8828986425
 30
0.0
 10
31.6235157071
 20
-42.8693363106
 30
0.0
 10
31.6320766457
 20
-42.8416832085
 30
0.0
 10
31.6493459809
 20
-42.7976749566
 30
0.0
 10
31.6711788755
 20
-42.7502232032
 30
0.0
 10
31.6967610748
 20
-42.7024299669
 30
0.0
 10
31.7256344773
 20
-42.6557153232
 30
0.0
 10
31.7572883139
 20
-42.6110772087
 30
0.0
 10
31.7910535866
 20
-42.5693839146
 30
0.0
 10
31.8258673553
 20
-42.5319118177
 30
0.0
 10
31.8595314841
 20
-42.5001593553
 30
0.0
 10
31.9035118483
 20
-42.4636593834
 30
0.0
 10
31.9541849756
 20
-42.4288459199
 30
0.0
 10
32.0085132429
 20
-42.3994116035
 30
0.0
 10
32.0571355633
 20
-42.3803644307
 30
0.0
 10
32.099663001
 20
-42.3700951396
 30
0.0
 10
32.1366361252
 20
-42.3666819594
 30
0.0
 10
32.1684582418
 20
-42.3686163121
 30
0.0
 10
32.1955067249
 20
-42.3747659531
 30
0.0
 10
32.2182214091
 20
-42.3843838971
 30
0.0
 10
32.2341633347
 20
-42.3939598705
 30
0.0
 10
32.2456058924
 20
-42.4019261317
 30
0.0
 10
32.2536412027
 20
-42.4079689164
 30
0.0
 10
32.2611286635
 20
-42.4139600229
 30
0.0
 10
32.2682672617
 20
-42.4198253703
 30
0.0
 10
32.2750665545
 20
-42.4260942111
 30
0.0
 10
32.2807102286
 20
-42.4331259619
 30
0.0
 10
32.2847893105
 20
-42.4411883657
 30
0.0
 10
32.2862875462
 20
-42.4475075198
 30
0.0
 10
32.2866862425
 20
-42.4509003113
 30
0.0
  0
SPLINE
  5
375
100
AcDbEntity
  8
0
100
AcDbSpline
 62
250
  6
CONTINUOUS
 70
0
 71
3
 72
15
 73
11
 74
0
 42
0.0000001
 43
0.0000001
 44
0.0000000001
 40
0.0
 40
0.0
 40
0.0
 40
0.0
 40
0.125
 40
0.25
 40
0.375
 40
0.5
 40
0.625
 40
0.75
 40
0.875
 40
1.0
 40
1.0
 40
1.0
 40
1.0
 10
31.606101046
 20
-43.6902706865
 30
0.0
 10
31.6011015582
 20
-43.6533238029
 30
0.0
 10
31.5918372555
 20
-43.5817022936
 30
0.0
 10
31.5813594955
 20
-43.4812745284
 30
0.0
 10
31.5745781673
 20
-43.38425747
 30
0.0
 10
31.5719185951
 20
-43.2885772714
 30
0.0
 10
31.5739929447
 20
-43.1913998307
 30
0.0
 10
31.5817141641
 20
-43.0916925966
 30
0.0
 10
31.5961289782
 20
-42.9890704122
 30
0.0
 10
31.6106973129
 20
-42.9187132295
 30
0.0
 10
31.6199980139
 20
-42.8828986425
 30
0.0
  0
SPLINE
  5
376
100
AcDbEntity
  8
0
100
AcDbSpline
 62
250
  6
CONTINUOUS
 70
0
 71
3
 72
12
 73
8
 74
0
 42
0.0000001
 43
0.0000001
 44
0.0000000001
 40
0.0
 40
0.0
 40
0.0
 40
0.0
 40
0.3333333333
 40
0.5
 40
0.6666666667
 40
0.8333333333
 40
1.0
 40
1.0
 40
1.0
 40
1.0
 10
31.8077745367
 20
-43.0042876589
 30
0.0
 10
31.8050261966
 20
-43.0337588961
 30
0.0
 10
31.802727925
 20
-43.0770440236
 30
0.0
 10
31.8032539293
 20
-43.1327490267
 30
0.0
 10
31.8054452085
 20
-43.1736500672
 30
0.0
 10
31.8095980594
 20
-43.2138576163
 30
0.0
 10
31.81345396
 20
-43.2401398085
 30
0.0
 10
31.815545377
 20
-43.2532931399
 30
0.0
  0
SPLINE
  5
377
100
AcDbEntity
  8
0
100
AcDbSpline
 62
250
  6
CONTINUOUS
 70
0
 71
3
 72
19
 73
15
 74
0
 42
0.0000001
 43
0.0000001
 44
0.0000000001
 40
0.0
 40
0.0
 40
0.0
 40
0.0
 40
0.1
 40
0.2
 40
0.25
 40
0.3
 40
0.4
 40
0.5
 40
0.6
 40
0.7
 40
0.75
 40
0.8
 40
0.9
 40
1.0
 40
1.0
 40
1.0
 40
1.0
 10
31.9728495603
 20
-42.7226771981
 30
0.0
 10
31.964868313
 20
-42.7275915286
 30
0.0
 10
31.9494017359
 20
-42.7385080043
 30
0.0
 10
31.9301283667
 20
-42.7553155672
 30
0.0
 10
31.915074777
 20
-42.7704207232
 30
0.0
 10
31.9002472865
 20
-42.7866771933
 30
0.0
 10
31.8825678264
 20
-42.8087352961
 30
0.0
 10
31.8627325756
 20
-42.8384187598
 30
0.0
 10
31.8455439811
 20
-42.8703636464
 30
0.0
 10
31.8337809409
 20
-42.8978055068
 30
0.0
 10
31.8257784527
 20
-42.9202902149
 30
0.0
 10
31.8188272643
 20
-42.9427873408
 30
0.0
 10
31.8120558611
 20
-42.9710294454
 30
0.0
 10
31.8088182979
 20
-42.9930951078
 30
0.0
 10
31.8077745366
 20
-43.004287659
 30
0.0
  0
SPLINE
  5
378
100
AcDbEntity
  8
0
100
AcDbSpline
 62
250
  6
CONTINUOUS
 70
0
 71
3
 72
15
 73
11
 74
0
 42
0.0000001
 43
0.0000001
 44
0.0000000001
 40
0.0
 40
0.0
 40
0.0
 40
0.0
 40
0.1666666667
 40
0.3333333333
 40
0.5
 40
0.5833333333
 40
0.6666666667
 40
0.75
 40
0.8333333333
 40
1.0
 40
1.0
 40
1.0
 40
1.0
 10
32.1778959475
 20
-42.8516004288
 30
0.0
 10
32.1774115072
 20
-42.8264016463
 30
0.0
 10
32.1732931439
 20
-42.7815452097
 30
0.0
 10
32.1584806799
 20
-42.7317089345
 30
0.0
 10
32.136873934
 20
-42.7026774045
 30
0.0
 10
32.111493614
 20
-42.6901716339
 30
0.0
 10
32.0890123601
 20
-42.6861078791
 30
0.0
 10
32.0641666546
 20
-42.6870692338
 30
0.0
 10
32.0272087806
 20
-42.694993602
 30
0.0
 10
31.9956511836
 20
-42.7086349665
 30
0.0
 10
31.9728133292
 20
-42.7226995192
 30
0.0
  0
SPLINE
  5
379
100
AcDbEntity
  8
RACCORDO
100
AcDbSpline
 62
7
  6
CONTINUOUS
 70
0
 71
3
 72
11
 73
7
 74
0
 42
0.0000001
 43
0.0000001
 44
0.0000000001
 40
0.0
 40
0.0
 40
0.0
 40
0.0
 40
0.217767124
 40
0.4509439365
 40
0.7101951399
 40
1.0
 40
1.0
 40
1.0
 40
1.0
 10
-26.0800894008
 20
30.9225716352
 30
0.0
 10
-26.0405070722
 20
30.9454259891
 30
0.0
 10
-25.9495511123
 20
30.9784604342
 30
0.0
 10
-25.7984949422
 20
30.9822402314
 30
0.0
 10
-25.6374733553
 20
30.9434036504
 30
0.0
 10
-25.5327366468
 20
30.8935368217
 30
0.0
 10
-25.4800604087
 20
30.863122222
 30
0.0
  0
SPLINE
  5
37A
100
AcDbEntity
  8
RACCORDO
100
AcDbSpline
 62
7
  6
CONTINUOUS
 70
0
 71
3
 72
11
 73
7
 74
0
 42
0.0000001
 43
0.0000001
 44
0.0000000001
 40
0.0
 40
0.0
 40
0.0
 40
0.0
 40
0.2372223812
 40
0.5000061068
 40
0.7627865084
 40
1.0
 40
1.0
 40
1.0
 40
1.0
 10
20.7647230809
 20
4.1619638183
 30
0.0
 10
20.8851790203
 20
4.0924140686
 30
0.0
 10
21.1131499911
 20
3.9005493081
 30
0.0
 10
21.3792304746
 20
3.5369431284
 30
0.0
 10
21.5610809546
 20
3.1247126585
 30
0.0
 10
21.6132512184
 20
2.8313575403
 30
0.0
 10
21.6132512184
 20
2.6922699742
 30
0.0
  0
SPLINE
  5
37B
100
AcDbEntity
  8
RACCORDO
100
AcDbSpline
 62
7
  6
CONTINUOUS
 70
0
 71
3
 72
11
 73
7
 74
0
 42
0.0000001
 43
0.0000001
 44
0.0000000001
 40
0.0
 40
0.0
 40
0.0
 40
0.0
 40
0.2372134916
 40
0.4999938932
 40
0.7627776188
 40
1.0
 40
1.0
 40
1.0
 40
1.0
 10
-24.2072682025
 20
-3.591757748
 30
0.0
 10
-24.2072682025
 20
-3.7308453141
 30
0.0
 10
-24.1550979387
 20
-4.0242004323
 30
0.0
 10
-23.9732474587
 20
-4.4364309023
 30
0.0
 10
-23.7071669752
 20
-4.8000370819
 30
0.0
 10
-23.4791960045
 20
-4.9919018424
 30
0.0
 10
-23.3587400651
 20
-5.0614515921
 30
0.0
  0
SPLINE
  5
37C
100
AcDbEntity
  8
RACCORDO
100
AcDbSpline
 62
7
  6
CONTINUOUS
 70
0
 71
3
 72
11
 73
7
 74
0
 42
0.0000001
 43
0.0000001
 44
0.0000000001
 40
0.0
 40
0.0
 40
0.0
 40
0.0
 40
0.2897993086
 40
0.5490484826
 40
0.7822275283
 40
1.0
 40
1.0
 40
1.0
 40
1.0
 10
21.6132512184
 20
-32.4975989556
 30
0.0
 10
21.6132512184
 20
-32.5584149576
 30
0.0
 10
21.6040672632
 20
-32.6740338553
 30
0.0
 10
21.5571942793
 20
-32.8328750735
 30
0.0
 10
21.4784038531
 20
-32.9617849149
 30
0.0
 10
21.4043294561
 20
-33.0240316906
 30
0.0
 10
21.3647520731
 20
-33.046883189
 30
0.0
  0
SPLINE
  5
37D
100
AcDbEntity
  8
RACCORDO
100
AcDbSpline
 62
7
  6
CONTINUOUS
 70
0
 71
3
 72
11
 73
7
 74
0
 42
0.0000001
 43
0.0000001
 44
0.0000000001
 40
0.0
 40
0.0
 40
0.0
 40
0.0
 40
0.2897993086
 40
0.5490484826
 40
0.7822275283
 40
1.0
 40
1.0
 40
1.0
 40
1.0
 10
-26.3285885461
 20
30.3732874018
 30
0.0
 10
-26.3285885461
 20
30.4341034038
 30
0.0
 10
-26.3194045909
 20
30.5497223016
 30
0.0
 10
-26.272531607
 20
30.7085635197
 30
0.0
 10
-26.1937411808
 20
30.8374733612
 30
0.0
 10
-26.1196667838
 20
30.8997201368
 30
0.0
 10
-26.0800894008
 20
30.9225716352
 30
0.0
  0
SPLINE
  5
37E
100
AcDbEntity
  8
RACCORDO
100
AcDbSpline
 62
7
  6
CONTINUOUS
 70
0
 71
3
 72
11
 73
7
 74
0
 42
0.0000001
 43
0.0000001
 44
0.0000000001
 40
0.0
 40
0.0
 40
0.0
 40
0.0
 40
0.217767124
 40
0.4509439365
 40
0.7101951399
 40
1.0
 40
1.0
 40
1.0
 40
1.0
 10
21.3647520731
 20
-33.046883189
 30
0.0
 10
21.3251697445
 20
-33.0697375429
 30
0.0
 10
21.2342137846
 20
-33.102771988
 30
0.0
 10
21.0831576145
 20
-33.1065517851
 30
0.0
 10
20.9221360276
 20
-33.0677152042
 30
0.0
 10
20.8173993191
 20
-33.0178483755
 30
0.0
 10
20.7647230809
 20
-32.9874337758
 30
0.0
  0
SPLINE
  5
37F
100
AcDbEntity
  8
RACCORDO
100
AcDbSpline
 62
7
  6
CONTINUOUS
 70
0
 71
3
 72
11
 73
7
 74
0
 42
0.0000001
 43
0.0000001
 44
0.0000000001
 40
0.0
 40
0.0
 40
0.0
 40
0.0
 40
0.2372223812
 40
0.5000061068
 40
0.7627865084
 40
1.0
 40
1.0
 40
1.0
 40
1.0
 10
-25.4800604087
 20
-6.2862753721
 30
0.0
 10
-25.600516348
 20
-6.2167256224
 30
0.0
 10
-25.8284873188
 20
-6.0248608619
 30
0.0
 10
-26.0945678023
 20
-5.6612546822
 30
0.0
 10
-26.2764182823
 20
-5.2490242123
 30
0.0
 10
-26.3285885461
 20
-4.9556690941
 30
0.0
 10
-26.3285885461
 20
-4.816581528
 30
0.0
  0
ELLIPSE
  5
380
100
AcDbEntity
  8
0
100
AcDbEllipse
 62
7
  6
CONTINUOUS
 10
33.4125608261
 20
-50.6887136385
 30
0.0
 11
-0.0320188688
 21
0.0554549875
 31
0.0
 40
0.5632057935
 41
-2.5265952341
 42
-2.3686251639
  0
ELLIPSE
  5
381
100
AcDbEntity
  8
0
100
AcDbEllipse
 62
7
  6
CONTINUOUS
 10
33.4125608261
 20
19.5877304008
 30
0.0
 11
-0.0312356712
 21
0.0540980115
 31
0.0
 40
0.5918118391
 41
-2.3438606673
 42
-0.7978336343
  0
ELLIPSE
  5
382
100
AcDbEntity
  8
0
100
AcDbEllipse
 62
7
  6
CONTINUOUS
 10
-27.4505857578
 20
54.7293484439
 30
0.0
 11
-0.0320188688
 21
0.0554549875
 31
0.0
 40
0.5632057935
 41
-0.7730595434
 42
-0.6150059205
  0
ELLIPSE
  5
383
100
AcDbEntity
  8
0
100
AcDbEllipse
 62
7
  6
CONTINUOUS
 10
-9.03601536
 20
-10.0482584712
 30
0.0
 11
0.1999995634
 21
0.1164181051
 31
0.0
 40
0.0035896273
 41
-0.7351277754
 42
-0.6748017824
  0
ELLIPSE
  5
384
100
AcDbEntity
  8
0
100
AcDbEllipse
 62
7
  6
CONTINUOUS
 10
18.9577884028
 20
-25.6401650849
 30
0.0
 11
0.1998333781
 21
-0.0157785196
 31
0.0
 40
0.5172961965
 41
0.8262203412
 42
2.3446567905
  0
ELLIPSE
  5
385
100
AcDbEntity
  8
0
100
AcDbEllipse
 62
7
  6
CONTINUOUS
 10
-12.8620167505
 20
-7.2678083852
 30
0.0
 11
0.1998333781
 21
-0.0157785196
 31
0.0
 40
0.5172961965
 41
0.8262203412
 42
2.3446567905
  0
ELLIPSE
  5
386
100
AcDbEntity
  8
0
100
AcDbEllipse
 62
7
  6
CONTINUOUS
 10
17.4395608729
 20
-26.9435795978
 30
0.0
 11
0.5413005334
 21
0.8416911418
 31
0.0
 40
0.6067084637
 41
0.7148472392
 42
0.8145158917
  0
ELLIPSE
  5
387
100
AcDbEntity
  8
0
100
AcDbEllipse
 62
7
  6
CONTINUOUS
 10
-14.3802442805
 20
-8.5712228981
 30
0.0
 11
0.5413005334
 21
0.8416911418
 31
0.0
 40
0.6067084637
 41
0.7148472392
 42
0.8145158917
  0
ELLIPSE
  5
388
100
AcDbEntity
  8
0
100
AcDbEllipse
 62
7
  6
CONTINUOUS
 10
-9.03601536
 20
-9.476893637
 30
0.0
 11
0.1998333781
 21
-0.0157785196
 31
0.0
 40
0.5172961965
 41
-0.692216108
 42
0.8262203412
  0
ELLIPSE
  5
389
100
AcDbEntity
  8
0
100
AcDbEllipse
 62
7
  6
CONTINUOUS
 10
-10.1339070222
 20
-11.0230048119
 30
0.0
 11
0.4625183445
 21
0.8873459255
 31
0.0
 40
0.5463614449
 41
0.662201126
 42
0.7618697785
  0
ELLIPSE
  5
38A
100
AcDbEntity
  8
0
100
AcDbEllipse
 62
7
  6
CONTINUOUS
 10
33.4181597629
 20
-51.1328193088
 30
0.0
 11
0.1304932868
 21
1.2025842266
 31
0.0
 40
0.0944494463
 41
-3.8578203675
 42
-3.816510454
  0
ELLIPSE
  5
38B
100
AcDbEntity
  8
0
100
AcDbEllipse
 62
7
  6
CONTINUOUS
 10
33.4181597629
 20
19.5735066614
 30
0.0
 11
0.1304932868
 21
1.2025842266
 31
0.0
 40
0.0944494463
 41
-3.899130281
 42
-3.8578203675
  0
ELLIPSE
  5
38C
100
AcDbEntity
  8
0
100
AcDbEllipse
 62
7
  6
CONTINUOUS
 10
33.4030609577
 20
19.5996585591
 30
0.0
 11
1.1066889452
 21
-0.4882482052
 31
0.0
 40
0.0945009384
 41
-2.4253001261
 42
-2.3839902126
  0
ELLIPSE
  5
38D
100
AcDbEntity
  8
0
100
AcDbEllipse
 62
7
  6
CONTINUOUS
 10
-27.8323862931
 20
54.9562383413
 30
0.0
 11
1.1066889452
 21
-0.4882482052
 31
0.0
 40
0.0945009384
 41
-2.4666100396
 42
-2.4253001261
  0
ELLIPSE
  5
38E
100
AcDbEntity
  8
ASSI
100
AcDbEllipse
 62
7
  6
CONTINUOUS
 10
33.4125608261
 20
-50.6887136385
 30
0.0
 11
-0.0320188688
 21
0.0554549875
 31
0.0
 40
0.5632057935
 41
-2.5265952341
 42
-2.3686251639
  0
ELLIPSE
  5
38F
100
AcDbEntity
  8
ASSI
100
AcDbEllipse
 62
7
  6
CONTINUOUS
 10
33.4125608261
 20
19.5877304008
 30
0.0
 11
-0.0312356712
 21
0.0540980115
 31
0.0
 40
0.5918118391
 41
-2.3438606673
 42
-0.7978336343
  0
ELLIPSE
  5
390
100
AcDbEntity
  8
ASSI
100
AcDbEllipse
 62
7
  6
CONTINUOUS
 10
-27.4505857578
 20
54.7293484439
 30
0.0
 11
-0.0320188688
 21
0.0554549875
 31
0.0
 40
0.5632057935
 41
-0.7730595434
 42
-0.6150059205
  0
ELLIPSE
  5
391
100
AcDbEntity
  8
ASSI
100
AcDbEllipse
 62
7
  6
CONTINUOUS
 10
-9.03601536
 20
-10.0482584712
 30
0.0
 11
0.1999995634
 21
0.1164181051
 31
0.0
 40
0.0035896273
 41
-0.7351277754
 42
-0.6748017824
  0
ELLIPSE
  5
392
100
AcDbEntity
  8
ASSI
100
AcDbEllipse
 62
7
  6
CONTINUOUS
 10
18.9577884028
 20
-25.6401650849
 30
0.0
 11
0.1998333781
 21
-0.0157785196
 31
0.0
 40
0.5172961965
 41
0.8262203412
 42
2.3446567905
  0
ELLIPSE
  5
393
100
AcDbEntity
  8
ASSI
100
AcDbEllipse
 62
7
  6
CONTINUOUS
 10
-12.8620167505
 20
-7.2678083852
 30
0.0
 11
0.1998333781
 21
-0.0157785196
 31
0.0
 40
0.5172961965
 41
0.8262203412
 42
2.3446567905
  0
ELLIPSE
  5
394
100
AcDbEntity
  8
ASSI
100
AcDbEllipse
 62
7
  6
CONTINUOUS
 10
17.4395608729
 20
-26.9435795978
 30
0.0
 11
0.5413005334
 21
0.8416911418
 31
0.0
 40
0.6067084637
 41
0.7148472392
 42
0.8145158917
  0
ELLIPSE
  5
395
100
AcDbEntity
  8
ASSI
100
AcDbEllipse
 62
7
  6
CONTINUOUS
 10
-14.3802442805
 20
-8.5712228981
 30
0.0
 11
0.5413005334
 21
0.8416911418
 31
0.0
 40
0.6067084637
 41
0.7148472392
 42
0.8145158917
  0
ELLIPSE
  5
396
100
AcDbEntity
  8
ASSI
100
AcDbEllipse
 62
7
  6
CONTINUOUS
 10
-9.03601536
 20
-9.476893637
 30
0.0
 11
0.1998333781
 21
-0.0157785196
 31
0.0
 40
0.5172961965
 41
-0.692216108
 42
0.8262203412
  0
ELLIPSE
  5
397
100
AcDbEntity
  8
ASSI
100
AcDbEllipse
 62
7
  6
CONTINUOUS
 10
-10.1339070222
 20
-11.0230048119
 30
0.0
 11
0.4625183445
 21
0.8873459255
 31
0.0
 40
0.5463614449
 41
0.662201126
 42
0.7618697785
  0
ELLIPSE
  5
398
100
AcDbEntity
  8
ASSI
100
AcDbEllipse
 62
7
  6
CONTINUOUS
 10
33.4181597629
 20
-51.1328193088
 30
0.0
 11
0.1304932868
 21
1.2025842266
 31
0.0
 40
0.0944494463
 41
-3.8578203675
 42
-3.816510454
  0
ELLIPSE
  5
399
100
AcDbEntity
  8
ASSI
100
AcDbEllipse
 62
7
  6
CONTINUOUS
 10
33.4181597629
 20
19.5735066614
 30
0.0
 11
0.1304932868
 21
1.2025842266
 31
0.0
 40
0.0944494463
 41
-3.899130281
 42
-3.8578203675
  0
ELLIPSE
  5
39A
100
AcDbEntity
  8
ASSI
100
AcDbEllipse
 62
7
  6
CONTINUOUS
 10
33.4030609577
 20
19.5996585591
 30
0.0
 11
1.1066889452
 21
-0.4882482052
 31
0.0
 40
0.0945009384
 41
-2.4253001261
 42
-2.3839902126
  0
ELLIPSE
  5
39B
100
AcDbEntity
  8
ASSI
100
AcDbEllipse
 62
7
  6
CONTINUOUS
 10
-27.8323862931
 20
54.9562383413
 30
0.0
 11
1.1066889452
 21
-0.4882482052
 31
0.0
 40
0.0945009384
 41
-2.4666100396
 42
-2.4253001261
  0
ENDSEC
  0
SECTION
  2
OBJECTS
  0
DICTIONARY
  5
C
100
AcDbDictionary
280
0
281
1
  3
ACAD_GROUP
350
D
  3
ACAD_MLINESTYLE
350
17
  3
ACAD_LAYOUT
350
1A
  3
ACAD_PLOTSETTINGS
350
19
  3
ACAD_PLOTSTYLENAME
350
E
  0
DICTIONARY
  5
D
102
{ACAD_REACTORS
330
C
102
}
100
AcDbDictionary
280
0
281
1
  0
ACDBDICTIONARYWDFLT
  5
E
102
{ACAD_REACTORS
330
C
102
}
100
AcDbDictionary
281
1
  3
Normal
350
F
100
AcDbDictionaryWithDefault
340
F
  0
DICTIONARY
  5
17
102
{ACAD_REACTORS
330
C
102
}
100
AcDbDictionary
280
0
281
1
  3
Standard
350
18
  0
DICTIONARY
  5
19
102
{ACAD_REACTORS
330
C
102
}
100
AcDbDictionary
281
1
  0
DICTIONARY
  5
1A
102
{ACAD_REACTORS
330
C
102
}
100
AcDbDictionary
281
1
  3
Model
350
39C
  3
Layout1
350
39D
  0
ACDBPLACEHOLDER
  5
F
102
{ACAD_REACTORS
330
E
102
}
  0
MLINESTYLE
  5
18
102
{ACAD_REACTORS
330
17
102
}
100
AcDbMlineStyle
  2
STANDARD
 70
0
  3

 62
256
 51
90.0
 52
90.0
 71
2
 49
0.5
 62
256
  6
BYLAYER
 49
-0.5
 62
256
  6
BYLAYER
  0
LAYOUT
  5
39C
102
{ACAD_REACTORS
330
1A
102
}
100
AcDbPlotSettings
  1

  2
none_device
  4
ISO_A4_(297.00_x_210.00_MM)
  6

 40
0.0
 41
0.0
 42
0.0
 43
0.0
 44
297.0
 45
210.0
 46
0.0
 47
0.0
 48
0.0
 49
0.0
140
0.0
141
0.0
142
1.0
143
1.0
 70
1024
 72
1
 73
0
 74
0
  7

 75
0
147
1.0
148
0.0
149
0.0
100
AcDbLayout
  1
Model
 70
0
 71
0
 10
0.0
 20
0.0
 11
297.0
 21
210.0
 12
0.0
 22
0.0
 32
0.0
 14
0.0
 24
0.0
 34
0.0
 15
0.0
 25
0.0
 35
0.0
146
0.0
 13
0.0
 23
0.0
 33
0.0
 16
1.0
 26
0.0
 36
0.0
 17
0.0
 27
1.0
 37
0.0
 76
0
330
21D
345
0
346
0
  0
LAYOUT
  5
39D
102
{ACAD_REACTORS
330
1A
102
}
100
AcDbPlotSettings
  1

  2
none_device
  4
ISO_A4_(297.00_x_210.00_MM)
  6

 40
0.0
 41
0.0
 42
0.0
 43
0.0
 44
297.0
 45
210.0
 46
0.0
 47
0.0
 48
0.0
 49
0.0
140
0.0
141
0.0
142
1.0
143
1.0
 70
0
 72
1
 73
0
 74
0
  7

 75
0
147
1.0
148
0.0
149
0.0
100
AcDbLayout
  1
Layout1
 70
0
 71
1
 10
0.0
 20
0.0
 11
297.0
 21
210.0
 12
0.0
 22
0.0
 32
0.0
 14
0.0
 24
0.0
 34
0.0
 15
0.0
 25
0.0
 35
0.0
146
0.0
 13
0.0
 23
0.0
 33
0.0
 16
1.0
 26
0.0
 36
0.0
 17
0.0
 27
1.0
 37
0.0
 76
0
330
21E
345
0
346
0
  0
ENDSEC
  0
EOF
