  0
SECTION
  2
HEADER
  9
$ACADVER
  1
AC1021
  9
$DWGCODEPAGE
  3
ANSI_1252
  9
$EXTMAX
 10
297.0
 20
210.0
 30
0.0
  9
$EXTMIN
 10
0.0
 20
0.0
 30
0.0
  9
$LIMMIN
 10
0.0
 20
0.0
  9
$LIMMAX
 10
297.0
 20
210.0
  9
$VIEWCTR
 10
148.5
 20
105.0
  9
$VIEWSIZE
 40
210.0
  9
$CLAYER
  8
0
  9
$LTSCALE
 40
16.335
  9
$CELTYPE
  6
BYLAYER
  9
$DIMSCALE
 40
1.0
  9
$DIMASZ
 40
3.0
  9
$DIMEXO
 40
0.5
  9
$DIMDLI
 40
11.286
  9
$DIMEXE
 40
1.5
  9
$DIMCEN
 40
2.673
  9
$DIMLFAC
 40
1.0
  9
$DIMBLK
  1
_FILLED
  9
$DIMALT
 70
0
  9
$DIMALTF
 40
25.4
  9
$DIMTXT
 40
3.0
  9
$DIMTOL
 70
1
  9
$DIMLIM
 70
0
  9
$DIMTFAC
 40
1.0
  9
$DIMTP
 40
0.01
  9
$DIMTM
 40
0.01
  9
$DIMGAP
 40
0.625
  9
$DIMDSEP
 70
44
  9
$AUNITS
 70
0
  9
$PDMODE
 70
3
  9
$PDSIZE
 40
3.0
  9
$HANDSEED
  5
3FF
  9
$TILEMODE
 70
1
  9
$MEASUREMENT
 70
1
  9
$INSUNITS
 70
4
  0
ENDSEC
  0
SECTION
  2
CLASSES
  0
CLASS
  1
ACDBDICTIONARYWDFLT
  2
AcDbDictionaryWithDefault
  3
AutoCAD 2000
 90
0
 91
1
280
0
281
0
  0
CLASS
  1
ACDBPLACEHOLDER
  2
AcDbPlaceHolder
  3
AutoCAD 2000
 90
0
 91
1
280
0
281
0
  0
CLASS
  1
LAYOUT
  2
AcDbLayout
  3
AutoCAD 2000
 90
0
 91
0
280
0
281
0
  0
ENDSEC
  0
SECTION
  2
TABLES
  0
TABLE
  2
VPORT
  5
8
100
AcDbSymbolTable
 70
2
  0
VPORT
  5
1F4
100
AcDbSymbolTableRecord
100
AcDbViewportTableRecord
  2
*ACTIVE
 70
0
 10
0.0
 20
0.0
 11
1.0
 21
1.0
 12
148.5
 22
105.0
 13
0.0
 23
0.0
 14
1.0
 24
1.0
 15
0.0
 25
0.0
 16
0.0
 26
0.0
 36
1.0
 17
0.0
 27
0.0
 37
0.0
 40
210.0
 41
1.4142857143
 42
50.0
 43
0.0
 44
0.0
 50
0.0
 51
0.0
 71
0
 72
100
 73
1
 74
1
 75
0
 76
0
 77
0
 78
0
  0
ENDTAB
  0
TABLE
  2
LTYPE
  5
5
100
AcDbSymbolTable
 70
6
  0
LTYPE
  5
14
100
AcDbSymbolTableRecord
100
AcDbLinetypeTableRecord
  2
BYBLOCK
 70
0
  3

 72
65
 73
0
 40
0.0
  0
LTYPE
  5
15
100
AcDbSymbolTableRecord
100
AcDbLinetypeTableRecord
  2
BYLAYER
 70
0
  3

 72
65
 73
0
 40
0.0
  0
LTYPE
  5
16
100
AcDbSymbolTableRecord
100
AcDbLinetypeTableRecord
  2
CONTINUOUS
 70
64
  3
Solid line
 72
65
 73
0
 40
0.0
  0
LTYPE
  5
1F5
100
AcDbSymbolTableRecord
100
AcDbLinetypeTableRecord
  2
CENTER
 70
64
  3
____ _ ____ _ ____ _ ____ _ ____ _ ____ _ ____
 72
65
 73
4
 40
0.6
 49
0.375
 74
0
 49
-0.075
 74
0
 49
0.075
 74
0
 49
-0.075
 74
0
  0
LTYPE
  5
1F6
100
AcDbSymbolTableRecord
100
AcDbLinetypeTableRecord
  2
HIDDEN
 70
64
  3
- - - - - - - - - - - - - - - - - - - -
 72
65
 73
2
 40
0.2
 49
0.1
 74
0
 49
-0.1
 74
0
  0
LTYPE
  5
1F7
100
AcDbSymbolTableRecord
100
AcDbLinetypeTableRecord
  2
PHANTOM
 70
64
  3
_____ _ _ _____ _ _ _____ _ _ _____
 72
65
 73
6
 40
0.8
 49
0.45
 74
0
 49
-0.05
 74
0
 49
0.1
 74
0
 49
-0.05
 74
0
 49
0.1
 74
0
 49
-0.05
 74
0
  0
LTYPE
  5
1F8
100
AcDbSymbolTableRecord
100
AcDbLinetypeTableRecord
  2
DOT
 70
64
  3
. . . . . . . . . . . . . . . . . . . .
 72
65
 73
2
 40
0.2
 49
0.1
 74
0
 49
-0.1
 74
0
  0
LTYPE
  5
1F9
100
AcDbSymbolTableRecord
100
AcDbLinetypeTableRecord
  2
DASHED
 70
64
  3
- - - - - - - - - - - - - - - - - - - -
 72
65
 73
2
 40
0.2
 49
0.1
 74
0
 49
-0.1
 74
0
  0
ENDTAB
  0
TABLE
  2
LAYER
  5
2
100
AcDbSymbolTable
 70
36
  0
LAYER
  5
10
100
AcDbSymbolTableRecord
100
AcDbLayerTableRecord
  2
0
 70
0
 62
7
  6
CONTINUOUS
370
-3
390
F
  0
LAYER
  5
1FA
100
AcDbSymbolTableRecord
100
AcDbLayerTableRecord
  2
DEFAULT_1
 70
0
 62
7
  6
CENTER
370
-3
390
F
  0
LAYER
  5
1FB
100
AcDbSymbolTableRecord
100
AcDbLayerTableRecord
  2
DEFAULT_2
 70
0
 62
7
  6
HIDDEN
370
-3
390
F
  0
LAYER
  5
1FC
100
AcDbSymbolTableRecord
100
AcDbLayerTableRecord
  2
DEFAULT_3
 70
0
 62
7
  6
PHANTOM
370
-3
390
F
  0
LAYER
  5
1FD
100
AcDbSymbolTableRecord
100
AcDbLayerTableRecord
  2
ASSI
 70
0
 62
7
  6
CONTINUOUS
370
-3
390
F
  0
LAYER
  5
1FE
100
AcDbSymbolTableRecord
100
AcDbLayerTableRecord
  2
COORDINATE
 70
0
 62
7
  6
CONTINUOUS
370
-3
390
F
  0
LAYER
  5
1FF
100
AcDbSymbolTableRecord
100
AcDbLayerTableRecord
  2
COORD_ORIGINE
 70
0
 62
7
  6
CONTINUOUS
370
-3
390
F
  0
LAYER
  5
200
100
AcDbSymbolTableRecord
100
AcDbLayerTableRecord
  2
COPY_PUBLISH
 70
0
 62
7
  6
CONTINUOUS
370
-3
390
F
  0
LAYER
  5
201
100
AcDbSymbolTableRecord
100
AcDbLayerTableRecord
  2
COSMETIC
 70
0
 62
7
  6
CONTINUOUS
370
-3
390
F
  0
LAYER
  5
202
100
AcDbSymbolTableRecord
100
AcDbLayerTableRecord
  2
COSMETICI
 70
0
 62
7
  6
CONTINUOUS
370
-3
390
F
  0
LAYER
  5
203
100
AcDbSymbolTableRecord
100
AcDbLayerTableRecord
  2
CURVE
 70
0
 62
7
  6
CONTINUOUS
370
-3
390
F
  0
LAYER
  5
204
100
AcDbSymbolTableRecord
100
AcDbLayerTableRecord
  2
CURVE_COSTRUZIONE
 70
0
 62
7
  6
CONTINUOUS
370
-3
390
F
  0
LAYER
  5
205
100
AcDbSymbolTableRecord
100
AcDbLayerTableRecord
  2
CURVE_TASSELLI
 70
0
 62
7
  6
CONTINUOUS
370
-3
390
F
  0
LAYER
  5
206
100
AcDbSymbolTableRecord
100
AcDbLayerTableRecord
  2
DRAFT
 70
0
 62
7
  6
CONTINUOUS
370
-3
390
F
  0
LAYER
  5
207
100
AcDbSymbolTableRecord
100
AcDbLayerTableRecord
  2
IMPORT_IGES
 70
0
 62
7
  6
CONTINUOUS
370
-3
390
F
  0
LAYER
  5
208
100
AcDbSymbolTableRecord
100
AcDbLayerTableRecord
  2
INTFCLR_2
 70
0
 62
7
  6
CONTINUOUS
370
-3
390
F
  0
LAYER
  5
209
100
AcDbSymbolTableRecord
100
AcDbLayerTableRecord
  2
INTF_1
 70
0
 62
7
  6
CONTINUOUS
370
-3
390
F
  0
LAYER
  5
20A
100
AcDbSymbolTableRecord
100
AcDbLayerTableRecord
  2
INTF_7
 70
0
 62
7
  6
CONTINUOUS
370
-3
390
F
  0
LAYER
  5
20B
100
AcDbSymbolTableRecord
100
AcDbLayerTableRecord
  2
INTF_CYAN
 70
0
 62
7
  6
CONTINUOUS
370
-3
390
F
  0
LAYER
  5
20C
100
AcDbSymbolTableRecord
100
AcDbLayerTableRecord
  2
NOTE
 70
0
 62
7
  6
CONTINUOUS
370
-3
390
F
  0
LAYER
  5
20D
100
AcDbSymbolTableRecord
100
AcDbLayerTableRecord
  2
PIANI
 70
0
 62
7
  6
CONTINUOUS
370
-3
390
F
  0
LAYER
  5
20E
100
AcDbSymbolTableRecord
100
AcDbLayerTableRecord
  2
PIANI_ORIGINE
 70
0
 62
7
  6
CONTINUOUS
370
-3
390
F
  0
LAYER
  5
20F
100
AcDbSymbolTableRecord
100
AcDbLayerTableRecord
  2
PIANI_RIFERIMENTO
 70
0
 62
7
  6
CONTINUOUS
370
-3
390
F
  0
LAYER
  5
210
100
AcDbSymbolTableRecord
100
AcDbLayerTableRecord
  2
PUNTI
 70
0
 62
7
  6
CONTINUOUS
370
-3
390
F
  0
LAYER
  5
211
100
AcDbSymbolTableRecord
100
AcDbLayerTableRecord
  2
RACCORDO
 70
0
 62
7
  6
CONTINUOUS
370
-3
390
F
  0
LAYER
  5
212
100
AcDbSymbolTableRecord
100
AcDbLayerTableRecord
  2
RGB__255__255__255__
 70
0
 62
7
  6
CONTINUOUS
370
-3
390
F
  0
LAYER
  5
213
100
AcDbSymbolTableRecord
100
AcDbLayerTableRecord
  2
RGB____0____0____0__
 70
0
 62
7
  6
CONTINUOUS
370
-3
390
F
  0
LAYER
  5
214
100
AcDbSymbolTableRecord
100
AcDbLayerTableRecord
  2
SIMBOLI
 70
0
 62
7
  6
CONTINUOUS
370
-3
390
F
  0
LAYER
  5
215
100
AcDbSymbolTableRecord
100
AcDbLayerTableRecord
  2
SMUSSO
 70
0
 62
7
  6
CONTINUOUS
370
-3
390
F
  0
LAYER
  5
216
100
AcDbSymbolTableRecord
100
AcDbLayerTableRecord
  2
SNAPLINE
 70
0
 62
7
  6
CONTINUOUS
370
-3
390
F
  0
LAYER
  5
217
100
AcDbSymbolTableRecord
100
AcDbLayerTableRecord
  2
SUPERFICI
 70
0
 62
7
  6
CONTINUOUS
370
-3
390
F
  0
LAYER
  5
218
100
AcDbSymbolTableRecord
100
AcDbLayerTableRecord
  2
TRASH
 70
0
 62
7
  6
CONTINUOUS
370
-3
390
F
  0
LAYER
  5
219
100
AcDbSymbolTableRecord
100
AcDbLayerTableRecord
  2
XSEC_DATUMS
 70
0
 62
7
  6
CONTINUOUS
370
-3
390
F
  0
ENDTAB
  0
TABLE
  2
STYLE
  5
3
100
AcDbSymbolTable
 70
1
  0
STYLE
  5
11
100
AcDbSymbolTableRecord
100
AcDbTextStyleTableRecord
  2
STANDARD
 70
0
 40
0.0
 41
0.8
 50
0.0
 71
0
 42
0.2
  3
txt
  4

  0
STYLE
  5
21A
100
AcDbSymbolTableRecord
100
AcDbTextStyleTableRecord
  2
TEXTSTYLE_1
 70
0
 40
0.0
 41
0.8
 50
0.0
 71
0
 42
0.2
  3
gdt
  4

  0
ENDTAB
  0
TABLE
  2
VIEW
  5
6
100
AcDbSymbolTable
 70
0
  0
ENDTAB
  0
TABLE
  2
UCS
  5
7
100
AcDbSymbolTable
 70
0
  0
ENDTAB
  0
TABLE
  2
APPID
  5
9
100
AcDbSymbolTable
 70
1
  0
APPID
  5
21B
100
AcDbSymbolTableRecord
100
AcDbRegAppTableRecord
  2
ACAD
 70
0
  0
ENDTAB
  0
TABLE
  2
BLOCK_RECORD
  5
1
100
AcDbSymbolTable
 70
0
  0
BLOCK_RECORD
  5
21C
100
AcDbSymbolTableRecord
100
AcDbBlockTableRecord
  2
*Model_Space
  0
BLOCK_RECORD
  5
21D
100
AcDbSymbolTableRecord
100
AcDbBlockTableRecord
  2
*Paper_Space
  0
BLOCK_RECORD
  5
21E
100
AcDbSymbolTableRecord
100
AcDbBlockTableRecord
  2
_FILLED
  0
ENDTAB
  0
TABLE
  2
DIMSTYLE
  5
A
100
AcDbSymbolTable
 70
1
100
AcDbDimStyleTable
 71
0
  0
DIMSTYLE
105
21F
100
AcDbSymbolTableRecord
100
AcDbDimStyleTableRecord
  2
STANDARD
 70
0
  3

  4

 40
1.0
 41
3.0
 42
0.5
 43
0.38
 44
1.5
 45
0.0
 46
0.0
 47
0.01
 48
0.01
140
3.0
141
0.09
142
0.0
143
25.4
144
1.0
145
0.0
146
1.0
147
0.625
 71
1.0
 72
0.0
 73
0
 74
0
 75
0
 76
0
 77
1
 78
8
 79
2
170
0
171
1
172
0
173
0
174
0
175
0
176
0
177
0
178
0
270
2
179
2
271
2
272
2
273
2
274
2
275
0
280
0
281
0
282
0
283
1
284
8
285
0
286
0
287
3
288
0
340
11
278
44
341
21E
342
21E
343
21E
344
21E
  0
ENDTAB
  0
ENDSEC
  0
SECTION
  2
BLOCKS
  0
BLOCK
  5
20
100
AcDbEntity
  8
0
100
AcDbBlockBegin
  2
*Model_Space
 70
0
 10
0.0
 20
0.0
 30
0.0
  3
*Model_Space
  1

  0
ENDBLK
  5
21
100
AcDbEntity
  8
0
100
AcDbBlockEnd
  0
BLOCK
  5
1C
100
AcDbEntity
  8
0
100
AcDbBlockBegin
  2
*Paper_Space
 70
0
 10
0.0
 20
0.0
 30
0.0
  3
*Paper_Space
  1

  0
ENDBLK
  5
1D
100
AcDbEntity
  8
0
100
AcDbBlockEnd
  0
BLOCK
  5
220
100
AcDbEntity
  8
0
100
AcDbBlockBegin
  2
_FILLED
 70
64
 10
0.0
 20
0.0
  3
_FILLED
  1

  0
SOLID
  5
221
100
AcDbEntity
  8
0
  6
BYBLOCK
 62
0
100
AcDbTrace
 10
0.0
 20
0.0
 11
-1.0
 21
0.3166666667
 12
-1.0
 22
-0.3166666667
 13
-1.0
 23
-0.3166666667
  0
ENDBLK
  5
222
100
AcDbEntity
  8
0
  6
BYBLOCK
 62
0
100
AcDbBlockEnd
  0
ENDSEC
  0
SECTION
  2
ENTITIES
  0
LINE
  5
223
100
AcDbEntity
  8
SMUSSO
100
AcDbLine
 62
7
  6
CONTINUOUS
 10
114.729691794
 20
162.233813696
 11
118.5175055812
 21
164.7373805874
  0
LINE
  5
224
100
AcDbEntity
  8
ASSI
100
AcDbLine
 62
7
  6
CONTINUOUS
 10
114.729691794
 20
162.233813696
 11
118.5175055812
 21
164.7373805874
  0
LINE
  5
225
100
AcDbEntity
  8
SMUSSO
100
AcDbLine
 62
7
  6
CONTINUOUS
 10
115.4372290633
 20
162.6422578899
 11
119.2250428505
 21
165.1458247812
  0
LINE
  5
226
100
AcDbEntity
  8
ASSI
100
AcDbLine
 62
7
  6
CONTINUOUS
 10
115.4372290633
 20
162.6422578899
 11
119.2250428505
 21
165.1458247812
  0
LINE
  5
227
100
AcDbEntity
  8
SMUSSO
100
AcDbLine
 62
7
  6
CONTINUOUS
 10
115.4164654492
 20
162.6294185389
 11
115.4372290633
 21
162.6422578899
  0
LINE
  5
228
100
AcDbEntity
  8
ASSI
100
AcDbLine
 62
7
  6
CONTINUOUS
 10
115.4164654492
 20
162.6294185389
 11
115.4372290633
 21
162.6422578899
  0
LINE
  5
229
100
AcDbEntity
  8
SMUSSO
100
AcDbLine
 62
7
  6
CONTINUOUS
 10
118.5175055812
 20
164.7373805874
 11
119.2250428505
 21
165.1458247812
  0
LINE
  5
22A
100
AcDbEntity
  8
ASSI
100
AcDbLine
 62
7
  6
CONTINUOUS
 10
118.5175055812
 20
164.7373805874
 11
119.2250428505
 21
165.1458247812
  0
LINE
  5
22B
100
AcDbEntity
  8
SMUSSO
100
AcDbLine
 62
7
  6
CONTINUOUS
 10
115.4164654492
 20
162.6294185389
 11
114.7300671015
 21
162.2331773345
  0
LINE
  5
22C
100
AcDbEntity
  8
ASSI
100
AcDbLine
 62
7
  6
CONTINUOUS
 10
115.4164654492
 20
162.6294185389
 11
114.7300671015
 21
162.2331773345
  0
LINE
  5
22D
100
AcDbEntity
  8
SMUSSO
100
AcDbLine
 62
7
  6
CONTINUOUS
 10
115.0337761493
 20
161.2141901005
 11
114.7548002152
 21
161.053144025
  0
LINE
  5
22E
100
AcDbEntity
  8
ASSI
100
AcDbLine
 62
7
  6
CONTINUOUS
 10
115.0337761493
 20
161.2141901005
 11
114.7548002152
 21
161.053144025
  0
LINE
  5
22F
100
AcDbEntity
  8
SMUSSO
100
AcDbLine
 62
7
  6
CONTINUOUS
 10
115.0337761493
 20
161.2141901005
 11
115.4164654492
 21
162.6294185389
  0
LINE
  5
230
100
AcDbEntity
  8
ASSI
100
AcDbLine
 62
7
  6
CONTINUOUS
 10
115.0337761493
 20
161.2141901005
 11
115.4164654492
 21
162.6294185389
  0
LINE
  5
231
100
AcDbEntity
  8
SMUSSO
100
AcDbLine
 62
7
  6
CONTINUOUS
 10
176.6567224204
 20
54.4801163576
 11
178.0736815513
 21
54.1039369018
  0
LINE
  5
232
100
AcDbEntity
  8
ASSI
100
AcDbLine
 62
7
  6
CONTINUOUS
 10
176.6567224204
 20
54.4801163576
 11
178.0736815513
 21
54.1039369018
  0
LWPOLYLINE
  5
233
100
AcDbEntity
  8
0
100
AcDbPolyline
 62
7
  6
CONTINUOUS
 90
13
 70
0
 10
121.9482572
 20
140.0642094202
 10
121.9489140323
 20
140.0644925147
 10
121.9540200481
 20
140.066225339
 10
121.9609854969
 20
140.0676368609
 10
121.9700242997
 20
140.068397877
 10
121.9812394761
 20
140.0681604064
 10
121.9946087386
 20
140.0666021408
 10
122.0101024375
 20
140.0634297307
 10
122.0273853367
 20
140.058451456
 10
122.0458777051
 20
140.0516704411
 10
122.0652197394
 20
140.0431448985
 10
122.0852559567
 20
140.0328905437
 10
122.0942984082
 20
140.0278105516
  0
LWPOLYLINE
  5
234
100
AcDbEntity
  8
ASSI
100
AcDbPolyline
 62
7
  6
CONTINUOUS
 90
13
 70
0
 10
121.9482572
 20
140.0642094202
 10
121.9489140323
 20
140.0644925147
 10
121.9540200481
 20
140.066225339
 10
121.9609854969
 20
140.0676368609
 10
121.9700242997
 20
140.068397877
 10
121.9812394761
 20
140.0681604064
 10
121.9946087386
 20
140.0666021408
 10
122.0101024375
 20
140.0634297307
 10
122.0273853367
 20
140.058451456
 10
122.0458777051
 20
140.0516704411
 10
122.0652197394
 20
140.0431448985
 10
122.0852559567
 20
140.0328905437
 10
122.0942984082
 20
140.0278105516
  0
LINE
  5
235
100
AcDbEntity
  8
SMUSSO
100
AcDbLine
 62
7
  6
CONTINUOUS
 10
114.7548002152
 20
90.2215104256
 11
115.0337761493
 21
89.7383099341
  0
LINE
  5
236
100
AcDbEntity
  8
ASSI
100
AcDbLine
 62
7
  6
CONTINUOUS
 10
114.7548002152
 20
90.2215104256
 11
115.0337761493
 21
89.7383099341
  0
LINE
  5
237
100
AcDbEntity
  8
SMUSSO
100
AcDbLine
 62
7
  6
CONTINUOUS
 10
114.7548002152
 20
90.2215104256
 11
114.7300671015
 21
90.6777460031
  0
LINE
  5
238
100
AcDbEntity
  8
ASSI
100
AcDbLine
 62
7
  6
CONTINUOUS
 10
114.7548002152
 20
90.2215104256
 11
114.7300671015
 21
90.6777460031
  0
LINE
  5
239
100
AcDbEntity
  8
0
100
AcDbLine
 62
250
  6
CONTINUOUS
 10
121.8318392318
 20
139.828766022
 11
122.1810839585
 21
139.9777015621
  0
LINE
  5
23A
100
AcDbEntity
  8
ASSI
100
AcDbLine
 62
250
  6
CONTINUOUS
 10
121.8318392318
 20
139.828766022
 11
122.1810839585
 21
139.9777015621
  0
LINE
  5
23B
100
AcDbEntity
  8
SMUSSO
100
AcDbLine
 62
7
  6
CONTINUOUS
 10
115.0337761493
 20
89.7383099341
 11
115.4164654492
 21
89.488869192
  0
LINE
  5
23C
100
AcDbEntity
  8
ASSI
100
AcDbLine
 62
7
  6
CONTINUOUS
 10
115.0337761493
 20
89.7383099341
 11
115.4164654492
 21
89.488869192
  0
LINE
  5
23D
100
AcDbEntity
  8
SMUSSO
100
AcDbLine
 62
7
  6
CONTINUOUS
 10
114.7548002152
 20
161.053144025
 11
114.7300671015
 21
162.2331773345
  0
LINE
  5
23E
100
AcDbEntity
  8
ASSI
100
AcDbLine
 62
7
  6
CONTINUOUS
 10
114.7548002152
 20
161.053144025
 11
114.7300671015
 21
162.2331773345
  0
LINE
  5
23F
100
AcDbEntity
  8
SMUSSO
100
AcDbLine
 62
7
  6
CONTINUOUS
 10
114.7300671015
 20
90.6777460031
 11
114.729691794
 21
90.7019388638
  0
LINE
  5
240
100
AcDbEntity
  8
ASSI
100
AcDbLine
 62
7
  6
CONTINUOUS
 10
114.7300671015
 20
90.6777460031
 11
114.729691794
 21
90.7019388638
  0
LINE
  5
241
100
AcDbEntity
  8
SMUSSO
100
AcDbLine
 62
7
  6
CONTINUOUS
 10
114.729691794
 20
162.233813696
 11
114.729691794
 21
90.7019388638
  0
LINE
  5
242
100
AcDbEntity
  8
ASSI
100
AcDbLine
 62
7
  6
CONTINUOUS
 10
114.729691794
 20
162.233813696
 11
114.729691794
 21
90.7019388638
  0
LINE
  5
243
100
AcDbEntity
  8
SMUSSO
100
AcDbLine
 62
7
  6
CONTINUOUS
 10
114.7548002152
 20
161.053144025
 11
114.7548002152
 21
90.2215104256
  0
LINE
  5
244
100
AcDbEntity
  8
ASSI
100
AcDbLine
 62
7
  6
CONTINUOUS
 10
114.7548002152
 20
161.053144025
 11
114.7548002152
 21
90.2215104256
  0
LINE
  5
245
100
AcDbEntity
  8
SMUSSO
100
AcDbLine
 62
7
  6
CONTINUOUS
 10
115.4372290633
 20
89.4764483664
 11
177.3876456339
 21
53.7070542596
  0
LINE
  5
246
100
AcDbEntity
  8
ASSI
100
AcDbLine
 62
7
  6
CONTINUOUS
 10
115.4372290633
 20
89.4764483664
 11
177.3876456339
 21
53.7070542596
  0
LINE
  5
247
100
AcDbEntity
  8
SMUSSO
100
AcDbLine
 62
7
  6
CONTINUOUS
 10
115.0337761493
 20
89.7383099341
 11
176.3777464863
 21
54.319070282
  0
LINE
  5
248
100
AcDbEntity
  8
ASSI
100
AcDbLine
 62
7
  6
CONTINUOUS
 10
115.0337761493
 20
89.7383099341
 11
176.3777464863
 21
54.319070282
  0
LINE
  5
249
100
AcDbEntity
  8
SMUSSO
100
AcDbLine
 62
7
  6
CONTINUOUS
 10
115.4372290633
 20
89.4764483664
 11
115.4164654492
 21
89.488869192
  0
LINE
  5
24A
100
AcDbEntity
  8
ASSI
100
AcDbLine
 62
7
  6
CONTINUOUS
 10
115.4372290633
 20
89.4764483664
 11
115.4164654492
 21
89.488869192
  0
LINE
  5
24B
100
AcDbEntity
  8
SMUSSO
100
AcDbLine
 62
7
  6
CONTINUOUS
 10
176.3777464863
 20
54.319070282
 11
177.3872832037
 21
53.7076956973
  0
LINE
  5
24C
100
AcDbEntity
  8
ASSI
100
AcDbLine
 62
7
  6
CONTINUOUS
 10
176.3777464863
 20
54.319070282
 11
177.3872832037
 21
53.7076956973
  0
LWPOLYLINE
  5
24D
100
AcDbEntity
  8
0
100
AcDbPolyline
 62
250
  6
CONTINUOUS
 90
25
 70
0
 10
123.1119148556
 20
104.3164475557
 10
123.1141353342
 20
104.2900669109
 10
123.1177391595
 20
104.2629347848
 10
123.1227097314
 20
104.2351784657
 10
123.1290246475
 20
104.2069563597
 10
123.1366504091
 20
104.1783659142
 10
123.1455570228
 20
104.1494407543
 10
123.1557232855
 20
104.1202798774
 10
123.1671077777
 20
104.0910357785
 10
123.1796542411
 20
104.0618208594
 10
123.1933174164
 20
104.0327458424
 10
123.2080428183
 20
104.0039502623
 10
123.2237477184
 20
103.9755864013
 10
123.2403502633
 20
103.9477853921
 10
123.2577892583
 20
103.9206479989
 10
123.2760031663
 20
103.8942753401
 10
123.2948700903
 20
103.8688293362
 10
123.3143443103
 20
103.8443542015
 10
123.3344920412
 20
103.8207936852
 10
123.355307824
 20
103.7981942608
 10
123.3766422928
 20
103.7767604267
 10
123.3983477217
 20
103.7566801352
 10
123.4203042313
 20
103.7380731255
 10
123.4424265055
 20
103.7210066556
 10
123.4646070079
 20
103.7055668291
  0
LWPOLYLINE
  5
24E
100
AcDbEntity
  8
ASSI
100
AcDbPolyline
 62
250
  6
CONTINUOUS
 90
25
 70
0
 10
123.1119148556
 20
104.3164475557
 10
123.1141353342
 20
104.2900669109
 10
123.1177391595
 20
104.2629347848
 10
123.1227097314
 20
104.2351784657
 10
123.1290246475
 20
104.2069563597
 10
123.1366504091
 20
104.1783659142
 10
123.1455570228
 20
104.1494407543
 10
123.1557232855
 20
104.1202798774
 10
123.1671077777
 20
104.0910357785
 10
123.1796542411
 20
104.0618208594
 10
123.1933174164
 20
104.0327458424
 10
123.2080428183
 20
104.0039502623
 10
123.2237477184
 20
103.9755864013
 10
123.2403502633
 20
103.9477853921
 10
123.2577892583
 20
103.9206479989
 10
123.2760031663
 20
103.8942753401
 10
123.2948700903
 20
103.8688293362
 10
123.3143443103
 20
103.8443542015
 10
123.3344920412
 20
103.8207936852
 10
123.355307824
 20
103.7981942608
 10
123.3766422928
 20
103.7767604267
 10
123.3983477217
 20
103.7566801352
 10
123.4203042313
 20
103.7380731255
 10
123.4424265055
 20
103.7210066556
 10
123.4646070079
 20
103.7055668291
  0
LINE
  5
24F
100
AcDbEntity
  8
0
100
AcDbLine
 62
250
  6
CONTINUOUS
 10
121.5592060698
 20
103.5828340542
 11
121.5592060698
 21
139.8342630739
  0
LINE
  5
250
100
AcDbEntity
  8
ASSI
100
AcDbLine
 62
250
  6
CONTINUOUS
 10
121.5592060698
 20
103.5828340542
 11
121.5592060698
 21
139.8342630739
  0
LINE
  5
251
100
AcDbEntity
  8
0
100
AcDbLine
 62
250
  6
CONTINUOUS
 10
121.8318392318
 20
103.5773370023
 11
121.8318392318
 21
139.828766022
  0
LINE
  5
252
100
AcDbEntity
  8
ASSI
100
AcDbLine
 62
250
  6
CONTINUOUS
 10
121.8318392318
 20
103.5773370023
 11
121.8318392318
 21
139.828766022
  0
LINE
  5
253
100
AcDbEntity
  8
RACCORDO
100
AcDbLine
 62
7
  6
CONTINUOUS
 10
122.9015676245
 20
139.5617033231
 11
122.9015676245
 21
104.1949769674
  0
LINE
  5
254
100
AcDbEntity
  8
ASSI
100
AcDbLine
 62
7
  6
CONTINUOUS
 10
122.9015676245
 20
139.5617033231
 11
122.9015676245
 21
104.1949769674
  0
LWPOLYLINE
  5
255
100
AcDbEntity
  8
0
100
AcDbPolyline
 62
250
  6
CONTINUOUS
 90
13
 70
0
 10
121.8318392318
 20
139.828766022
 10
121.8320493818
 20
139.8583277761
 10
121.8343096509
 20
139.8866213226
 10
121.8385954571
 20
139.9134827472
 10
121.8448648442
 20
139.9387582495
 10
121.8530817599
 20
139.9622987886
 10
121.8632123944
 20
139.9839653594
 10
121.8751904189
 20
140.0036320829
 10
121.8889398356
 20
140.0211963489
 10
121.9043977566
 20
140.0365732413
 10
121.9214746939
 20
140.0496752279
 10
121.9400739992
 20
140.0604317556
 10
121.9482372803
 20
140.0642019226
  0
LWPOLYLINE
  5
256
100
AcDbEntity
  8
ASSI
100
AcDbPolyline
 62
250
  6
CONTINUOUS
 90
13
 70
0
 10
121.8318392318
 20
139.828766022
 10
121.8320493818
 20
139.8583277761
 10
121.8343096509
 20
139.8866213226
 10
121.8385954571
 20
139.9134827472
 10
121.8448648442
 20
139.9387582495
 10
121.8530817599
 20
139.9622987886
 10
121.8632123944
 20
139.9839653594
 10
121.8751904189
 20
140.0036320829
 10
121.8889398356
 20
140.0211963489
 10
121.9043977566
 20
140.0365732413
 10
121.9214746939
 20
140.0496752279
 10
121.9400739992
 20
140.0604317556
 10
121.9482372803
 20
140.0642019226
  0
LWPOLYLINE
  5
257
100
AcDbEntity
  8
0
100
AcDbPolyline
 62
250
  6
CONTINUOUS
 90
22
 70
0
 10
121.5592060698
 20
139.8342630739
 10
121.5606428202
 20
139.876464723
 10
121.5647601636
 20
139.916410489
 10
121.5715581
 20
139.9541003719
 10
121.5811074055
 20
139.9897247482
 10
121.593337304
 20
140.0230932414
 10
121.608035467
 20
140.053634722
 10
121.6252384338
 20
140.0812899619
 10
121.6449096652
 20
140.1061181894
 10
121.6667272149
 20
140.1277259594
 10
121.6907150942
 20
140.1460650069
 10
121.7168492919
 20
140.161183597
 10
121.7447358278
 20
140.1728330798
 10
121.7744062573
 20
140.1809696749
 10
121.805829025
 20
140.1856371627
 10
121.8385154843
 20
140.1867182346
 10
121.8725701376
 20
140.1841127248
 10
121.9078884824
 20
140.177920799
 10
121.9436683648
 20
140.1683256459
 10
121.9796424
 20
140.1553883284
 10
122.0160779728
 20
140.1390477836
 10
122.052975083
 20
140.1193040114
  0
LWPOLYLINE
  5
258
100
AcDbEntity
  8
ASSI
100
AcDbPolyline
 62
250
  6
CONTINUOUS
 90
22
 70
0
 10
121.5592060698
 20
139.8342630739
 10
121.5606428202
 20
139.876464723
 10
121.5647601636
 20
139.916410489
 10
121.5715581
 20
139.9541003719
 10
121.5811074055
 20
139.9897247482
 10
121.593337304
 20
140.0230932414
 10
121.608035467
 20
140.053634722
 10
121.6252384338
 20
140.0812899619
 10
121.6449096652
 20
140.1061181894
 10
121.6667272149
 20
140.1277259594
 10
121.6907150942
 20
140.1460650069
 10
121.7168492919
 20
140.161183597
 10
121.7447358278
 20
140.1728330798
 10
121.7744062573
 20
140.1809696749
 10
121.805829025
 20
140.1856371627
 10
121.8385154843
 20
140.1867182346
 10
121.8725701376
 20
140.1841127248
 10
121.9078884824
 20
140.177920799
 10
121.9436683648
 20
140.1683256459
 10
121.9796424
 20
140.1553883284
 10
122.0160779728
 20
140.1390477836
 10
122.052975083
 20
140.1193040114
  0
LWPOLYLINE
  5
259
100
AcDbEntity
  8
0
100
AcDbPolyline
 62
250
  6
CONTINUOUS
 90
13
 70
0
 10
122.052975083
 20
102.727601037
 10
122.0540800386
 20
102.7486118072
 10
122.0573776008
 20
102.7705700335
 10
122.0628161845
 20
102.7931325728
 10
122.0703107476
 20
102.815946842
 10
122.0797441329
 20
102.8386563646
 10
122.090968911
 20
102.860906339
 10
122.1038096523
 20
102.882349114
 10
122.118065693
 20
102.9026496773
 10
122.133514301
 20
102.9214909146
 10
122.1499140992
 20
102.9385784767
 10
122.1670088269
 20
102.9536453903
 10
122.1845313841
 20
102.9664562757
  0
LWPOLYLINE
  5
25A
100
AcDbEntity
  8
ASSI
100
AcDbPolyline
 62
250
  6
CONTINUOUS
 90
13
 70
0
 10
122.052975083
 20
102.727601037
 10
122.0540800386
 20
102.7486118072
 10
122.0573776008
 20
102.7705700335
 10
122.0628161845
 20
102.7931325728
 10
122.0703107476
 20
102.815946842
 10
122.0797441329
 20
102.8386563646
 10
122.090968911
 20
102.860906339
 10
122.1038096523
 20
102.882349114
 10
122.118065693
 20
102.9026496773
 10
122.133514301
 20
102.9214909146
 10
122.1499140992
 20
102.9385784767
 10
122.1670088269
 20
102.9536453903
 10
122.1845313841
 20
102.9664562757
  0
LWPOLYLINE
  5
25B
100
AcDbEntity
  8
0
100
AcDbPolyline
 62
250
  6
CONTINUOUS
 90
8
 70
0
 10
122.052975083
 20
140.1193040114
 10
122.0540799445
 20
140.0995700276
 10
122.0573772655
 20
140.0814202557
 10
122.0628155249
 20
140.0651382877
 10
122.0703097495
 20
140.0509785309
 10
122.0797428411
 20
140.0391622331
 10
122.0909674069
 20
140.0298740251
 10
122.0942984082
 20
140.0278105516
  0
LWPOLYLINE
  5
25C
100
AcDbEntity
  8
ASSI
100
AcDbPolyline
 62
250
  6
CONTINUOUS
 90
8
 70
0
 10
122.052975083
 20
140.1193040114
 10
122.0540799445
 20
140.0995700276
 10
122.0573772655
 20
140.0814202557
 10
122.0628155249
 20
140.0651382877
 10
122.0703097495
 20
140.0509785309
 10
122.0797428411
 20
140.0391622331
 10
122.0909674069
 20
140.0298740251
 10
122.0942984082
 20
140.0278105516
  0
LINE
  5
25D
100
AcDbEntity
  8
0
100
AcDbLine
 62
250
  6
CONTINUOUS
 10
123.1119148556
 20
139.4402514682
 11
123.1119148556
 21
104.3164475557
  0
LINE
  5
25E
100
AcDbEntity
  8
ASSI
100
AcDbLine
 62
250
  6
CONTINUOUS
 10
123.1119148556
 20
139.4402514682
 11
123.1119148556
 21
104.3164475557
  0
LINE
  5
25F
100
AcDbEntity
  8
0
100
AcDbLine
 62
7
  6
CONTINUOUS
 10
123.2345600655
 20
139.3694376611
 11
123.2345600655
 21
104.5058476837
  0
LINE
  5
260
100
AcDbEntity
  8
ASSI
100
AcDbLine
 62
7
  6
CONTINUOUS
 10
123.2345600655
 20
139.3694376611
 11
123.2345600655
 21
104.5058476837
  0
LINE
  5
261
100
AcDbEntity
  8
0
100
AcDbLine
 62
7
  6
CONTINUOUS
 10
123.3258316932
 20
104.1531301264
 11
123.3258316932
 21
139.3167385671
  0
LINE
  5
262
100
AcDbEntity
  8
0
100
AcDbLine
 62
250
  6
CONTINUOUS
 10
124.0583654157
 20
138.8937827766
 11
124.0583654157
 21
103.5043772408
  0
LINE
  5
263
100
AcDbEntity
  8
0
100
AcDbLine
 62
7
  6
CONTINUOUS
 10
124.1285304656
 20
138.8532703561
 11
124.1285304656
 21
103.4638648203
  0
LWPOLYLINE
  5
264
100
AcDbEntity
  8
0
100
AcDbPolyline
 62
250
  6
CONTINUOUS
 90
10
 70
0
 10
123.2345600629
 20
104.5058180771
 10
123.2339724558
 20
104.491855542
 10
123.2302186916
 20
104.467886812
 10
123.2230203707
 20
104.4441819181
 10
123.2124275301
 20
104.4209055958
 10
123.198513796
 20
104.3982196002
 10
123.1813758651
 20
104.3762815752
 10
123.1611328408
 20
104.3552439728
 10
123.1379254095
 20
104.3352529921
 10
123.1119148556
 20
104.3164475557
  0
LWPOLYLINE
  5
265
100
AcDbEntity
  8
ASSI
100
AcDbPolyline
 62
250
  6
CONTINUOUS
 90
10
 70
0
 10
123.2345600629
 20
104.5058180771
 10
123.2339724558
 20
104.491855542
 10
123.2302186916
 20
104.467886812
 10
123.2230203707
 20
104.4441819181
 10
123.2124275301
 20
104.4209055958
 10
123.198513796
 20
104.3982196002
 10
123.1813758651
 20
104.3762815752
 10
123.1611328408
 20
104.3552439728
 10
123.1379254095
 20
104.3352529921
 10
123.1119148556
 20
104.3164475557
  0
LWPOLYLINE
  5
266
100
AcDbEntity
  8
IMPORT_IGES
100
AcDbPolyline
 62
7
  6
CONTINUOUS
 90
73
 70
0
 10
148.3965537372
 20
84.9654531281
 10
148.4002259363
 20
84.9641868972
 10
148.403787488
 20
84.9634975156
 10
148.4072576168
 20
84.9632501168
 10
148.4106555472
 20
84.9633098344
 10
148.4140005037
 20
84.9635418022
 10
148.4243243759
 20
84.9646037421
 10
148.4343432643
 20
84.96612474
 10
148.4440879109
 20
84.9681919752
 10
148.4539311597
 20
84.9709789435
 10
148.4635148474
 20
84.9743826253
 10
148.4728412734
 20
84.9783385545
 10
148.4819127374
 20
84.9827822652
 10
148.4926692232
 20
84.9888100662
 10
148.5030376377
 20
84.9954718875
 10
148.5130083692
 20
85.0027676707
 10
148.5225718063
 20
85.0106973574
 10
148.5310358876
 20
85.0185839485
 10
148.5391355646
 20
85.0270000217
 10
148.5468622064
 20
85.0359341576
 10
148.5542071818
 20
85.0453749368
 10
148.56116186
 20
85.0553109399
 10
148.5685255809
 20
85.0670935164
 10
148.5753756762
 20
85.0794726567
 10
148.5817056947
 20
85.0924298432
 10
148.5875091853
 20
85.1059465584
 10
148.5927796966
 20
85.120004285
 10
148.59723957
 20
85.1336803617
 10
148.6012271286
 20
85.1477939096
 10
148.6047457666
 20
85.1623216264
 10
148.6077988784
 20
85.17724021
 10
148.6103898582
 20
85.1925263583
 10
148.6125221004
 20
85.2081567691
 10
148.6143488772
 20
85.2257781133
 10
148.6156383536
 20
85.2437635367
 10
148.61640776
 20
85.2620862433
 10
148.6166720691
 20
85.2821166279
 10
148.6163625871
 20
85.3024791895
 10
148.6154858554
 20
85.3231477684
 10
148.6143664008
 20
85.3400281467
 10
148.6128659865
 20
85.3570854388
 10
148.610968561
 20
85.3743144275
 10
148.6087993352
 20
85.3907353111
 10
148.6062563203
 20
85.4072959798
 10
148.6033340271
 20
85.4239877804
 10
148.5996421096
 20
85.4426487372
 10
148.5954745666
 20
85.4614379472
 10
148.5908294294
 20
85.4803328898
 10
148.5857047294
 20
85.4993110443
 10
148.5800984978
 20
85.5183498902
 10
148.5745688635
 20
85.5357361767
 10
148.5686433755
 20
85.5531354887
 10
148.5623278331
 20
85.5705291427
 10
148.5556280358
 20
85.587898455
 10
148.5485497828
 20
85.6052247421
 10
148.5399797512
 20
85.6250064605
 10
148.5309327784
 20
85.64468089
 10
148.5214214614
 20
85.6642218052
 10
148.5114583971
 20
85.6836029808
 10
148.5012240449
 20
85.7024975775
 10
148.4905793771
 20
85.7211897078
 10
148.4795394901
 20
85.7396570527
 10
148.4681194801
 20
85.757877293
 10
148.4563344433
 20
85.7758281098
 10
148.4441994761
 20
85.7934871838
 10
148.4317296745
 20
85.8108321961
 10
148.4224369691
 20
85.8232595365
 10
148.4129737281
 20
85.8354705183
 10
148.4033392933
 20
85.8474275029
 10
148.3935330064
 20
85.8590928513
 10
148.3835542093
 20
85.8704289248
 10
148.3734022436
 20
85.8813980846
 10
148.3630764512
 20
85.8919626919
  0
LWPOLYLINE
  5
267
100
AcDbEntity
  8
CURVE
100
AcDbPolyline
 62
250
  6
CONTINUOUS
 90
73
 70
0
 10
148.3965537372
 20
84.9654531281
 10
148.4002259363
 20
84.9641868972
 10
148.403787488
 20
84.9634975156
 10
148.4072576168
 20
84.9632501168
 10
148.4106555472
 20
84.9633098344
 10
148.4140005037
 20
84.9635418022
 10
148.4243243759
 20
84.9646037421
 10
148.4343432643
 20
84.96612474
 10
148.4440879109
 20
84.9681919752
 10
148.4539311597
 20
84.9709789435
 10
148.4635148474
 20
84.9743826253
 10
148.4728412734
 20
84.9783385545
 10
148.4819127374
 20
84.9827822652
 10
148.4926692232
 20
84.9888100662
 10
148.5030376377
 20
84.9954718875
 10
148.5130083692
 20
85.0027676707
 10
148.5225718063
 20
85.0106973574
 10
148.5310358876
 20
85.0185839485
 10
148.5391355646
 20
85.0270000217
 10
148.5468622064
 20
85.0359341576
 10
148.5542071818
 20
85.0453749368
 10
148.56116186
 20
85.0553109399
 10
148.5685255809
 20
85.0670935164
 10
148.5753756762
 20
85.0794726567
 10
148.5817056947
 20
85.0924298432
 10
148.5875091853
 20
85.1059465584
 10
148.5927796966
 20
85.120004285
 10
148.59723957
 20
85.1336803617
 10
148.6012271286
 20
85.1477939096
 10
148.6047457666
 20
85.1623216264
 10
148.6077988784
 20
85.17724021
 10
148.6103898582
 20
85.1925263583
 10
148.6125221004
 20
85.2081567691
 10
148.6143488772
 20
85.2257781133
 10
148.6156383536
 20
85.2437635367
 10
148.61640776
 20
85.2620862433
 10
148.6166720691
 20
85.2821166279
 10
148.6163625871
 20
85.3024791895
 10
148.6154858554
 20
85.3231477684
 10
148.6143664008
 20
85.3400281467
 10
148.6128659865
 20
85.3570854388
 10
148.610968561
 20
85.3743144275
 10
148.6087993352
 20
85.3907353111
 10
148.6062563203
 20
85.4072959798
 10
148.6033340271
 20
85.4239877804
 10
148.5996421096
 20
85.4426487372
 10
148.5954745666
 20
85.4614379472
 10
148.5908294294
 20
85.4803328898
 10
148.5857047294
 20
85.4993110443
 10
148.5800984978
 20
85.5183498902
 10
148.5745688635
 20
85.5357361767
 10
148.5686433755
 20
85.5531354887
 10
148.5623278331
 20
85.5705291427
 10
148.5556280358
 20
85.587898455
 10
148.5485497828
 20
85.6052247421
 10
148.5399797512
 20
85.6250064605
 10
148.5309327784
 20
85.64468089
 10
148.5214214614
 20
85.6642218052
 10
148.5114583971
 20
85.6836029808
 10
148.5012240449
 20
85.7024975775
 10
148.4905793771
 20
85.7211897078
 10
148.4795394901
 20
85.7396570527
 10
148.4681194801
 20
85.757877293
 10
148.4563344433
 20
85.7758281098
 10
148.4441994761
 20
85.7934871838
 10
148.4317296745
 20
85.8108321961
 10
148.4224369691
 20
85.8232595365
 10
148.4129737281
 20
85.8354705183
 10
148.4033392933
 20
85.8474275029
 10
148.3935330064
 20
85.8590928513
 10
148.3835542093
 20
85.8704289248
 10
148.3734022436
 20
85.8813980846
 10
148.3630764512
 20
85.8919626919
  0
LWPOLYLINE
  5
268
100
AcDbEntity
  8
IMPORT_IGES
100
AcDbPolyline
 62
7
  6
CONTINUOUS
 90
23
 70
0
 10
147.8744013934
 20
85.9080311082
 10
147.8862110894
 20
85.9034836996
 10
147.8980417132
 20
85.8988098442
 10
147.9098920597
 20
85.8939986128
 10
147.921760924
 20
85.8890390762
 10
147.9336471011
 20
85.8839203051
 10
147.945549386
 20
85.8786313702
 10
147.9574665738
 20
85.8731613423
 10
147.9693974596
 20
85.8674992921
 10
147.9813408383
 20
85.8616342904
 10
147.993295505
 20
85.855555408
 10
148.0052602547
 20
85.8492517155
 10
148.0165025651
 20
85.8431209069
 10
148.0277500405
 20
85.8367884071
 10
148.0390000184
 20
85.8302603656
 10
148.0502498364
 20
85.8235429321
 10
148.0614968322
 20
85.8166422562
 10
148.0727383433
 20
85.8095644874
 10
148.0839717072
 20
85.8023157755
 10
148.0951942616
 20
85.7949022701
 10
148.1064033441
 20
85.7873301207
 10
148.1175962922
 20
85.7796054769
 10
148.1287704435
 20
85.7717344885
  0
LWPOLYLINE
  5
269
100
AcDbEntity
  8
CURVE
100
AcDbPolyline
 62
250
  6
CONTINUOUS
 90
23
 70
0
 10
147.8744013934
 20
85.9080311082
 10
147.8862110894
 20
85.9034836996
 10
147.8980417132
 20
85.8988098442
 10
147.9098920597
 20
85.8939986128
 10
147.921760924
 20
85.8890390762
 10
147.9336471011
 20
85.8839203051
 10
147.945549386
 20
85.8786313702
 10
147.9574665738
 20
85.8731613423
 10
147.9693974596
 20
85.8674992921
 10
147.9813408383
 20
85.8616342904
 10
147.993295505
 20
85.855555408
 10
148.0052602547
 20
85.8492517155
 10
148.0165025651
 20
85.8431209069
 10
148.0277500405
 20
85.8367884071
 10
148.0390000184
 20
85.8302603656
 10
148.0502498364
 20
85.8235429321
 10
148.0614968322
 20
85.8166422562
 10
148.0727383433
 20
85.8095644874
 10
148.0839717072
 20
85.8023157755
 10
148.0951942616
 20
85.7949022701
 10
148.1064033441
 20
85.7873301207
 10
148.1175962922
 20
85.7796054769
 10
148.1287704435
 20
85.7717344885
  0
LINE
  5
26A
100
AcDbEntity
  8
IMPORT_IGES
100
AcDbLine
 62
7
  6
CONTINUOUS
 10
147.4664332833
 20
84.6534842158
 11
147.1242188032
 21
84.8510745676
  0
LINE
  5
26B
100
AcDbEntity
  8
CURVE
100
AcDbLine
 62
250
  6
CONTINUOUS
 10
147.4664332833
 20
84.6534842158
 11
147.1242188032
 21
84.8510745676
  0
LINE
  5
26C
100
AcDbEntity
  8
IMPORT_IGES
100
AcDbLine
 62
7
  6
CONTINUOUS
 10
146.508329633
 20
85.2066812557
 11
146.1871577069
 21
85.3921219005
  0
LINE
  5
26D
100
AcDbEntity
  8
CURVE
100
AcDbLine
 62
250
  6
CONTINUOUS
 10
146.508329633
 20
85.2066812557
 11
146.1871577069
 21
85.3921219005
  0
LINE
  5
26E
100
AcDbEntity
  8
IMPORT_IGES
100
AcDbLine
 62
7
  6
CONTINUOUS
 10
146.1361721452
 20
85.4215603249
 11
145.8185344734
 21
85.6049603356
  0
LINE
  5
26F
100
AcDbEntity
  8
CURVE
100
AcDbLine
 62
250
  6
CONTINUOUS
 10
146.1361721452
 20
85.4215603249
 11
145.8185344734
 21
85.6049603356
  0
LINE
  5
270
100
AcDbEntity
  8
IMPORT_IGES
100
AcDbLine
 62
7
  6
CONTINUOUS
 10
145.3657625062
 20
85.8663851949
 11
145.3202246295
 21
85.8926781942
  0
LINE
  5
271
100
AcDbEntity
  8
CURVE
100
AcDbLine
 62
250
  6
CONTINUOUS
 10
145.3657625062
 20
85.8663851949
 11
145.3202246295
 21
85.8926781942
  0
LINE
  5
272
100
AcDbEntity
  8
IMPORT_IGES
100
AcDbLine
 62
7
  6
CONTINUOUS
 10
144.8692490503
 20
86.1530658416
 11
144.5586221062
 21
86.332417946
  0
LINE
  5
273
100
AcDbEntity
  8
CURVE
100
AcDbLine
 62
250
  6
CONTINUOUS
 10
144.8692490503
 20
86.1530658416
 11
144.5586221062
 21
86.332417946
  0
LINE
  5
274
100
AcDbEntity
  8
IMPORT_IGES
100
AcDbLine
 62
7
  6
CONTINUOUS
 10
143.438637612
 20
86.9790829563
 11
143.1525000643
 21
87.1442951902
  0
LINE
  5
275
100
AcDbEntity
  8
CURVE
100
AcDbLine
 62
250
  6
CONTINUOUS
 10
143.438637612
 20
86.9790829563
 11
143.1525000643
 21
87.1442951902
  0
LINE
  5
276
100
AcDbEntity
  8
IMPORT_IGES
100
AcDbLine
 62
7
  6
CONTINUOUS
 10
144.0591336837
 20
86.6208163011
 11
144.3838287523
 21
86.4333414379
  0
LINE
  5
277
100
AcDbEntity
  8
CURVE
100
AcDbLine
 62
250
  6
CONTINUOUS
 10
144.0591336837
 20
86.6208163011
 11
144.3838287523
 21
86.4333414379
  0
LINE
  5
278
100
AcDbEntity
  8
IMPORT_IGES
100
AcDbLine
 62
7
  6
CONTINUOUS
 10
147.5617795329
 20
84.5984321461
 11
147.8851677819
 21
84.4117118241
  0
LINE
  5
279
100
AcDbEntity
  8
CURVE
100
AcDbLine
 62
250
  6
CONTINUOUS
 10
147.5617795329
 20
84.5984321461
 11
147.8851677819
 21
84.4117118241
  0
LINE
  5
27A
100
AcDbEntity
  8
IMPORT_IGES
100
AcDbLine
 62
7
  6
CONTINUOUS
 10
148.3823929619
 20
84.1246202369
 11
148.6947115438
 21
83.9442914019
  0
LINE
  5
27B
100
AcDbEntity
  8
CURVE
100
AcDbLine
 62
250
  6
CONTINUOUS
 10
148.3823929619
 20
84.1246202369
 11
148.6947115438
 21
83.9442914019
  0
LINE
  5
27C
100
AcDbEntity
  8
IMPORT_IGES
100
AcDbLine
 62
7
  6
CONTINUOUS
 10
147.040105627
 20
85.2582022317
 11
146.5979253108
 21
85.5135116044
  0
LINE
  5
27D
100
AcDbEntity
  8
CURVE
100
AcDbLine
 62
250
  6
CONTINUOUS
 10
147.040105627
 20
85.2582022317
 11
146.5979253108
 21
85.5135116044
  0
LINE
  5
27E
100
AcDbEntity
  8
IMPORT_IGES
100
AcDbLine
 62
7
  6
CONTINUOUS
 10
146.6643435111
 20
85.7526166513
 11
146.9752156528
 21
85.5731229727
  0
LINE
  5
27F
100
AcDbEntity
  8
CURVE
100
AcDbLine
 62
250
  6
CONTINUOUS
 10
146.6643435111
 20
85.7526166513
 11
146.9752156528
 21
85.5731229727
  0
LINE
  5
280
100
AcDbEntity
  8
IMPORT_IGES
100
AcDbLine
 62
7
  6
CONTINUOUS
 10
147.8851677819
 20
85.114599702
 11
148.0592613332
 21
85.0140802674
  0
LINE
  5
281
100
AcDbEntity
  8
CURVE
100
AcDbLine
 62
250
  6
CONTINUOUS
 10
147.8851677819
 20
85.114599702
 11
148.0592613332
 21
85.0140802674
  0
LWPOLYLINE
  5
282
100
AcDbEntity
  8
IMPORT_IGES
100
AcDbPolyline
 62
7
  6
CONTINUOUS
 90
46
 70
0
 10
148.0592613332
 20
85.0140802674
 10
148.0645727785
 20
85.0109271141
 10
148.0698926404
 20
85.0075963298
 10
148.0752150334
 20
85.0040913294
 10
148.0805340723
 20
85.0004155279
 10
148.0858438718
 20
84.9965723402
 10
148.0911385468
 20
84.9925651811
 10
148.0964122119
 20
84.9883974657
 10
148.1016589819
 20
84.9840726087
 10
148.1068729715
 20
84.9795940251
 10
148.1120482954
 20
84.9749651299
 10
148.1171790685
 20
84.9701893378
 10
148.1222594054
 20
84.9652700639
 10
148.1272834209
 20
84.9602107231
 10
148.1322452297
 20
84.9550147302
 10
148.1371389465
 20
84.9496855002
 10
148.1419586862
 20
84.944226448
 10
148.1465788683
 20
84.9387858331
 10
148.1511208767
 20
84.9332308153
 10
148.155582366
 20
84.9275670145
 10
148.1599609913
 20
84.9218000505
 10
148.1642544073
 20
84.9159355429
 10
148.1684602689
 20
84.9099791115
 10
148.1725762309
 20
84.9039363761
 10
148.1765999481
 20
84.8978129564
 10
148.1805290755
 20
84.8916144722
 10
148.1843612678
 20
84.8853465432
 10
148.1880941799
 20
84.8790147892
 10
148.1917254667
 20
84.8726248299
 10
148.195252783
 20
84.8661822851
 10
148.198939995
 20
84.8591783532
 10
148.2025049362
 20
84.8521251463
 10
148.2059490997
 20
84.845028063
 10
148.2092739791
 20
84.8378925022
 10
148.2124810675
 20
84.8307238625
 10
148.2155718585
 20
84.8235275427
 10
148.2185478453
 20
84.8163089415
 10
148.2214105213
 20
84.8090734577
 10
148.2241613798
 20
84.8018264901
 10
148.2268019143
 20
84.7945734374
 10
148.229333618
 20
84.7873196984
 10
148.2317579843
 20
84.7800706717
 10
148.2340765066
 20
84.7728317562
 10
148.2362906783
 20
84.7656083506
 10
148.2384019926
 20
84.7584058537
 10
148.240411943
 20
84.7512296641
  0
LWPOLYLINE
  5
283
100
AcDbEntity
  8
CURVE
100
AcDbPolyline
 62
250
  6
CONTINUOUS
 90
46
 70
0
 10
148.0592613332
 20
85.0140802674
 10
148.0645727785
 20
85.0109271141
 10
148.0698926404
 20
85.0075963298
 10
148.0752150334
 20
85.0040913294
 10
148.0805340723
 20
85.0004155279
 10
148.0858438718
 20
84.9965723402
 10
148.0911385468
 20
84.9925651811
 10
148.0964122119
 20
84.9883974657
 10
148.1016589819
 20
84.9840726087
 10
148.1068729715
 20
84.9795940251
 10
148.1120482954
 20
84.9749651299
 10
148.1171790685
 20
84.9701893378
 10
148.1222594054
 20
84.9652700639
 10
148.1272834209
 20
84.9602107231
 10
148.1322452297
 20
84.9550147302
 10
148.1371389465
 20
84.9496855002
 10
148.1419586862
 20
84.944226448
 10
148.1465788683
 20
84.9387858331
 10
148.1511208767
 20
84.9332308153
 10
148.155582366
 20
84.9275670145
 10
148.1599609913
 20
84.9218000505
 10
148.1642544073
 20
84.9159355429
 10
148.1684602689
 20
84.9099791115
 10
148.1725762309
 20
84.9039363761
 10
148.1765999481
 20
84.8978129564
 10
148.1805290755
 20
84.8916144722
 10
148.1843612678
 20
84.8853465432
 10
148.1880941799
 20
84.8790147892
 10
148.1917254667
 20
84.8726248299
 10
148.195252783
 20
84.8661822851
 10
148.198939995
 20
84.8591783532
 10
148.2025049362
 20
84.8521251463
 10
148.2059490997
 20
84.845028063
 10
148.2092739791
 20
84.8378925022
 10
148.2124810675
 20
84.8307238625
 10
148.2155718585
 20
84.8235275427
 10
148.2185478453
 20
84.8163089415
 10
148.2214105213
 20
84.8090734577
 10
148.2241613798
 20
84.8018264901
 10
148.2268019143
 20
84.7945734374
 10
148.229333618
 20
84.7873196984
 10
148.2317579843
 20
84.7800706717
 10
148.2340765066
 20
84.7728317562
 10
148.2362906783
 20
84.7656083506
 10
148.2384019926
 20
84.7584058537
 10
148.240411943
 20
84.7512296641
  0
LWPOLYLINE
  5
284
100
AcDbEntity
  8
0
100
AcDbPolyline
 62
250
  6
CONTINUOUS
 90
13
 70
0
 10
121.5592060698
 20
103.5828340542
 10
121.5779540973
 20
103.5732850445
 10
121.5986189081
 20
103.5651611053
 10
121.6208776122
 20
103.5585891742
 10
121.6443824153
 20
103.5536719381
 10
121.6687660524
 20
103.5504862295
 10
121.6936475267
 20
103.5490818252
 10
121.7186380626
 20
103.5494806694
 10
121.7433471805
 20
103.5516765299
 10
121.7673887979
 20
103.5556350963
 10
121.7903872621
 20
103.5612945155
 10
121.8119832197
 20
103.5685663586
 10
121.8318392318
 20
103.5773370023
  0
LWPOLYLINE
  5
285
100
AcDbEntity
  8
ASSI
100
AcDbPolyline
 62
250
  6
CONTINUOUS
 90
13
 70
0
 10
121.5592060698
 20
103.5828340542
 10
121.5779540973
 20
103.5732850445
 10
121.5986189081
 20
103.5651611053
 10
121.6208776122
 20
103.5585891742
 10
121.6443824153
 20
103.5536719381
 10
121.6687660524
 20
103.5504862295
 10
121.6936475267
 20
103.5490818252
 10
121.7186380626
 20
103.5494806694
 10
121.7433471805
 20
103.5516765299
 10
121.7673887979
 20
103.5556350963
 10
121.7903872621
 20
103.5612945155
 10
121.8119832197
 20
103.5685663586
 10
121.8318392318
 20
103.5773370023
  0
LINE
  5
286
100
AcDbEntity
  8
IMPORT_IGES
100
AcDbLine
 62
7
  6
CONTINUOUS
 10
148.0599612067
 20
85.307831251
 11
147.8744013934
 21
85.4149711616
  0
LINE
  5
287
100
AcDbEntity
  8
CURVE
100
AcDbLine
 62
250
  6
CONTINUOUS
 10
148.0599612067
 20
85.307831251
 11
147.8744013934
 21
85.4149711616
  0
LINE
  5
288
100
AcDbEntity
  8
IMPORT_IGES
100
AcDbLine
 62
7
  6
CONTINUOUS
 10
142.6593749292
 20
89.2251025933
 11
143.0120936483
 21
89.0214472254
  0
LINE
  5
289
100
AcDbEntity
  8
CURVE
100
AcDbLine
 62
250
  6
CONTINUOUS
 10
142.6593749292
 20
89.2251025933
 11
143.0120936483
 21
89.0214472254
  0
LINE
  5
28A
100
AcDbEntity
  8
IMPORT_IGES
100
AcDbLine
 62
7
  6
CONTINUOUS
 10
143.6141658181
 20
88.6738183004
 11
143.9386393939
 21
88.4864713243
  0
LINE
  5
28B
100
AcDbEntity
  8
CURVE
100
AcDbLine
 62
250
  6
CONTINUOUS
 10
143.6141658181
 20
88.6738183004
 11
143.9386393939
 21
88.4864713243
  0
LINE
  5
28C
100
AcDbEntity
  8
IMPORT_IGES
100
AcDbLine
 62
7
  6
CONTINUOUS
 10
144.6990751911
 20
88.0474052255
 11
145.0235013571
 21
87.8600856232
  0
LINE
  5
28D
100
AcDbEntity
  8
CURVE
100
AcDbLine
 62
250
  6
CONTINUOUS
 10
144.6990751911
 20
88.0474052255
 11
145.0235013571
 21
87.8600856232
  0
LINE
  5
28E
100
AcDbEntity
  8
IMPORT_IGES
100
AcDbLine
 62
7
  6
CONTINUOUS
 10
145.6694616898
 20
87.4871162229
 11
145.9907151014
 21
87.3016285293
  0
LINE
  5
28F
100
AcDbEntity
  8
CURVE
100
AcDbLine
 62
250
  6
CONTINUOUS
 10
145.6694616898
 20
87.4871162229
 11
145.9907151014
 21
87.3016285293
  0
LINE
  5
290
100
AcDbEntity
  8
IMPORT_IGES
100
AcDbLine
 62
7
  6
CONTINUOUS
 10
146.6750633167
 20
86.9064944467
 11
146.9891659935
 21
86.7251354977
  0
LINE
  5
291
100
AcDbEntity
  8
CURVE
100
AcDbLine
 62
250
  6
CONTINUOUS
 10
146.6750633167
 20
86.9064944467
 11
146.9891659935
 21
86.7251354977
  0
LINE
  5
292
100
AcDbEntity
  8
IMPORT_IGES
100
AcDbLine
 62
7
  6
CONTINUOUS
 10
144.3838287523
 20
88.2295323423
 11
144.0591336837
 21
88.4170072055
  0
LINE
  5
293
100
AcDbEntity
  8
CURVE
100
AcDbLine
 62
250
  6
CONTINUOUS
 10
144.3838287523
 20
88.2295323423
 11
144.0591336837
 21
88.4170072055
  0
LINE
  5
294
100
AcDbEntity
  8
0
100
AcDbLine
 62
250
  6
CONTINUOUS
 10
169.3585475526
 20
75.4139563711
 11
122.052975083
 21
102.727601037
  0
LINE
  5
295
100
AcDbEntity
  8
ASSI
100
AcDbLine
 62
250
  6
CONTINUOUS
 10
169.3585475526
 20
75.4139563711
 11
122.052975083
 21
102.727601037
  0
LINE
  5
296
100
AcDbEntity
  8
0
100
AcDbLine
 62
250
  6
CONTINUOUS
 10
169.4901038537
 20
75.6528116099
 11
122.1845313841
 21
102.9664562757
  0
LINE
  5
297
100
AcDbEntity
  8
ASSI
100
AcDbLine
 62
250
  6
CONTINUOUS
 10
169.4901038537
 20
75.6528116099
 11
122.1845313841
 21
102.9664562757
  0
LINE
  5
298
100
AcDbEntity
  8
RACCORDO
100
AcDbLine
 62
7
  6
CONTINUOUS
 10
123.2542597768
 20
103.5840962408
 11
169.793737922
 21
76.7127848364
  0
LINE
  5
299
100
AcDbEntity
  8
ASSI
100
AcDbLine
 62
7
  6
CONTINUOUS
 10
123.2542597768
 20
103.5840962408
 11
169.793737922
 21
76.7127848364
  0
LINE
  5
29A
100
AcDbEntity
  8
0
100
AcDbLine
 62
250
  6
CONTINUOUS
 10
123.4646070079
 20
103.7055668291
 11
169.793737922
 21
76.9557072797
  0
LINE
  5
29B
100
AcDbEntity
  8
ASSI
100
AcDbLine
 62
250
  6
CONTINUOUS
 10
123.4646070079
 20
103.7055668291
 11
169.793737922
 21
76.9557072797
  0
LINE
  5
29C
100
AcDbEntity
  8
0
100
AcDbLine
 62
7
  6
CONTINUOUS
 10
123.6899564502
 20
103.7170919602
 11
169.793737922
 21
77.0973463545
  0
LINE
  5
29D
100
AcDbEntity
  8
ASSI
100
AcDbLine
 62
7
  6
CONTINUOUS
 10
123.6899564502
 20
103.7170919602
 11
169.793737922
 21
77.0973463545
  0
LINE
  5
29E
100
AcDbEntity
  8
0
100
AcDbLine
 62
7
  6
CONTINUOUS
 10
166.8128987362
 20
78.8831794054
 11
162.9238114397
 21
81.1286896687
  0
LINE
  5
29F
100
AcDbEntity
  8
0
100
AcDbLine
 62
7
  6
CONTINUOUS
 10
134.9930935828
 20
97.2555361052
 11
131.1040062863
 21
99.5010463685
  0
LINE
  5
2A0
100
AcDbEntity
  8
0
100
AcDbLine
 62
7
  6
CONTINUOUS
 10
167.0603861096
 20
78.9036049716
 11
163.0652327959
 21
81.2103445874
  0
LINE
  5
2A1
100
AcDbEntity
  8
0
100
AcDbLine
 62
7
  6
CONTINUOUS
 10
131.2454276425
 20
99.5827012871
 11
135.2405809562
 21
97.2759616713
  0
LINE
  5
2A2
100
AcDbEntity
  8
0
100
AcDbLine
 62
7
  6
CONTINUOUS
 10
167.1664521268
 20
79.0873167021
 11
163.2773648303
 21
81.3328269654
  0
LINE
  5
2A3
100
AcDbEntity
  8
0
100
AcDbLine
 62
7
  6
CONTINUOUS
 10
135.3466469734
 20
97.4596734018
 11
131.4575596769
 21
99.7051836651
  0
LWPOLYLINE
  5
2A4
100
AcDbEntity
  8
0
100
AcDbPolyline
 62
250
  6
CONTINUOUS
 90
22
 70
0
 10
122.1845313841
 20
102.9664562757
 10
122.1573786318
 20
102.9823765065
 10
122.1304629323
 20
103.0005270724
 10
122.1039204007
 20
103.0208009973
 10
122.0778715017
 20
103.0430802795
 10
122.0524658283
 20
103.0672369174
 10
122.0278802577
 20
103.0931297479
 10
122.0042559573
 20
103.1206006751
 10
121.9817030898
 20
103.1494983394
 10
121.9603460413
 20
103.179678309
 10
121.9403085952
 20
103.2109657843
 10
121.9216908224
 20
103.2431913887
 10
121.9045780682
 20
103.2762148052
 10
121.8890719711
 20
103.3098644392
 10
121.8752662952
 20
103.3439468419
 10
121.8632306772
 20
103.3782862272
 10
121.8530329684
 20
103.4127729289
 10
121.8447668803
 20
103.4471362415
 10
121.8384999712
 20
103.4809653588
 10
121.8342524894
 20
103.5140133419
 10
121.8320317702
 20
103.5461892575
 10
121.8318392318
 20
103.5773370023
  0
LWPOLYLINE
  5
2A5
100
AcDbEntity
  8
ASSI
100
AcDbPolyline
 62
250
  6
CONTINUOUS
 90
22
 70
0
 10
122.1845313841
 20
102.9664562757
 10
122.1573786318
 20
102.9823765065
 10
122.1304629323
 20
103.0005270724
 10
122.1039204007
 20
103.0208009973
 10
122.0778715017
 20
103.0430802795
 10
122.0524658283
 20
103.0672369174
 10
122.0278802577
 20
103.0931297479
 10
122.0042559573
 20
103.1206006751
 10
121.9817030898
 20
103.1494983394
 10
121.9603460413
 20
103.179678309
 10
121.9403085952
 20
103.2109657843
 10
121.9216908224
 20
103.2431913887
 10
121.9045780682
 20
103.2762148052
 10
121.8890719711
 20
103.3098644392
 10
121.8752662952
 20
103.3439468419
 10
121.8632306772
 20
103.3782862272
 10
121.8530329684
 20
103.4127729289
 10
121.8447668803
 20
103.4471362415
 10
121.8384999712
 20
103.4809653588
 10
121.8342524894
 20
103.5140133419
 10
121.8320317702
 20
103.5461892575
 10
121.8318392318
 20
103.5773370023
  0
LWPOLYLINE
  5
2A6
100
AcDbEntity
  8
0
100
AcDbPolyline
 62
7
  6
CONTINUOUS
 90
27
 70
0
 10
123.6899258659
 20
103.7171096149
 10
123.6710861426
 20
103.7285866019
 10
123.6496806547
 20
103.7430067262
 10
123.626572148
 20
103.7601388275
 10
123.6021842787
 20
103.7799276626
 10
123.5767692234
 20
103.8023982016
 10
123.5505721564
 20
103.827556702
 10
123.5239929778
 20
103.8552161697
 10
123.4972815307
 20
103.8852876952
 10
123.470700416
 20
103.9176406273
 10
123.4446273371
 20
103.9519468707
 10
123.4192905299
 20
103.988004702
 10
123.3949185601
 20
104.0255799062
 10
123.371828688
 20
104.0642320943
 10
123.3501915928
 20
104.1036790758
 10
123.3301613649
 20
104.1436291329
 10
123.3119535489
 20
104.1835842042
 10
123.2956504076
 20
104.223228706
 10
123.2813058543
 20
104.2622653681
 10
123.269006604
 20
104.3002039784
 10
123.2587273377
 20
104.3367543863
 10
123.250412768
 20
104.3716610437
 10
123.2440159673
 20
104.4044900281
 10
123.2394022978
 20
104.4350390671
 10
123.2364180381
 20
104.4631073991
 10
123.2348909892
 20
104.4883055737
 10
123.2345600629
 20
104.5058180771
  0
LWPOLYLINE
  5
2A7
100
AcDbEntity
  8
ASSI
100
AcDbPolyline
 62
7
  6
CONTINUOUS
 90
27
 70
0
 10
123.6899258659
 20
103.7171096149
 10
123.6710861426
 20
103.7285866019
 10
123.6496806547
 20
103.7430067262
 10
123.626572148
 20
103.7601388275
 10
123.6021842787
 20
103.7799276626
 10
123.5767692234
 20
103.8023982016
 10
123.5505721564
 20
103.827556702
 10
123.5239929778
 20
103.8552161697
 10
123.4972815307
 20
103.8852876952
 10
123.470700416
 20
103.9176406273
 10
123.4446273371
 20
103.9519468707
 10
123.4192905299
 20
103.988004702
 10
123.3949185601
 20
104.0255799062
 10
123.371828688
 20
104.0642320943
 10
123.3501915928
 20
104.1036790758
 10
123.3301613649
 20
104.1436291329
 10
123.3119535489
 20
104.1835842042
 10
123.2956504076
 20
104.223228706
 10
123.2813058543
 20
104.2622653681
 10
123.269006604
 20
104.3002039784
 10
123.2587273377
 20
104.3367543863
 10
123.250412768
 20
104.3716610437
 10
123.2440159673
 20
104.4044900281
 10
123.2394022978
 20
104.4350390671
 10
123.2364180381
 20
104.4631073991
 10
123.2348909892
 20
104.4883055737
 10
123.2345600629
 20
104.5058180771
  0
LWPOLYLINE
  5
2A8
100
AcDbEntity
  8
0
100
AcDbPolyline
 62
250
  6
CONTINUOUS
 90
22
 70
0
 10
122.052975083
 20
102.727601037
 10
122.0157077607
 20
102.7507776849
 10
121.9790537274
 20
102.7766954098
 10
121.9430129831
 20
102.8053542118
 10
121.9073852601
 20
102.8369514455
 10
121.8723708261
 20
102.8712897563
 10
121.8385704841
 20
102.9077770801
 10
121.8060172574
 20
102.9464365403
 10
121.7746781227
 20
102.9872450136
 10
121.745054813
 20
103.0295410662
 10
121.7171771214
 20
103.0733352208
 10
121.6910152547
 20
103.1186169546
 10
121.6669815662
 20
103.1646932658
 10
121.6450981925
 20
103.2115878087
 10
121.6253429969
 20
103.2592769289
 10
121.6080619219
 20
103.3069966612
 10
121.59328946
 20
103.3548477553
 10
121.5809911186
 20
103.4027294614
 10
121.5714093625
 20
103.4495755658
 10
121.564625013
 20
103.4950306637
 10
121.5605572488
 20
103.5394501599
 10
121.5592060698
 20
103.5828340542
  0
LWPOLYLINE
  5
2A9
100
AcDbEntity
  8
ASSI
100
AcDbPolyline
 62
250
  6
CONTINUOUS
 90
22
 70
0
 10
122.052975083
 20
102.727601037
 10
122.0157077607
 20
102.7507776849
 10
121.9790537274
 20
102.7766954098
 10
121.9430129831
 20
102.8053542118
 10
121.9073852601
 20
102.8369514455
 10
121.8723708261
 20
102.8712897563
 10
121.8385704841
 20
102.9077770801
 10
121.8060172574
 20
102.9464365403
 10
121.7746781227
 20
102.9872450136
 10
121.745054813
 20
103.0295410662
 10
121.7171771214
 20
103.0733352208
 10
121.6910152547
 20
103.1186169546
 10
121.6669815662
 20
103.1646932658
 10
121.6450981925
 20
103.2115878087
 10
121.6253429969
 20
103.2592769289
 10
121.6080619219
 20
103.3069966612
 10
121.59328946
 20
103.3548477553
 10
121.5809911186
 20
103.4027294614
 10
121.5714093625
 20
103.4495755658
 10
121.564625013
 20
103.4950306637
 10
121.5605572488
 20
103.5394501599
 10
121.5592060698
 20
103.5828340542
  0
LWPOLYLINE
  5
2AA
100
AcDbEntity
  8
IMPORT_IGES
100
AcDbPolyline
 62
7
  6
CONTINUOUS
 90
49
 70
0
 10
148.1287704435
 20
85.7717344885
 10
148.1347212978
 20
85.7674080696
 10
148.1406725578
 20
85.7628956811
 10
148.146617669
 20
85.7582016298
 10
148.1525500769
 20
85.7533302222
 10
148.158463227
 20
85.7482857649
 10
148.1643505648
 20
85.7430725647
 10
148.1702055357
 20
85.7376949281
 10
148.1760215854
 20
85.7321571618
 10
148.1817921592
 20
85.7264635724
 10
148.1875107027
 20
85.7206184665
 10
148.1931706614
 20
85.7146261508
 10
148.1987654807
 20
85.708490932
 10
148.2042886062
 20
85.7022171166
 10
148.2097334833
 20
85.6958090112
 10
148.2150935575
 20
85.6892709227
 10
148.2203622744
 20
85.6826071574
 10
148.2255330794
 20
85.6758220222
 10
148.2305994181
 20
85.6689198236
 10
148.2355547358
 20
85.6619048683
 10
148.2403924782
 20
85.6547814628
 10
148.2451060907
 20
85.6475539139
 10
148.2496890187
 20
85.6402265282
 10
148.2541347079
 20
85.6328036123
 10
148.2584366036
 20
85.6252894729
 10
148.262566952
 20
85.6177304362
 10
148.2665466856
 20
85.6100946214
 10
148.2703739214
 20
85.6023912329
 10
148.2740467764
 20
85.5946294752
 10
148.2775633675
 20
85.5868185526
 10
148.2809218115
 20
85.5789676697
 10
148.2841202256
 20
85.5710860307
 10
148.2871567265
 20
85.5631828402
 10
148.2900294313
 20
85.5552673026
 10
148.2927364568
 20
85.5473486223
 10
148.29527592
 20
85.5394360037
 10
148.2976459378
 20
85.5315386513
 10
148.2998446272
 20
85.5236657695
 10
148.3018701052
 20
85.5158265628
 10
148.3037204885
 20
85.5080302354
 10
148.3053938942
 20
85.500285992
 10
148.3068884393
 20
85.4926030369
 10
148.3082022406
 20
85.4849905745
 10
148.3093334151
 20
85.4774578092
 10
148.3102800796
 20
85.4700139456
 10
148.3110403513
 20
85.462668188
 10
148.3116123469
 20
85.4554297409
 10
148.3119941835
 20
85.4483078086
 10
148.3121839779
 20
85.4413115957
  0
LWPOLYLINE
  5
2AB
100
AcDbEntity
  8
CURVE
100
AcDbPolyline
 62
250
  6
CONTINUOUS
 90
49
 70
0
 10
148.1287704435
 20
85.7717344885
 10
148.1347212978
 20
85.7674080696
 10
148.1406725578
 20
85.7628956811
 10
148.146617669
 20
85.7582016298
 10
148.1525500769
 20
85.7533302222
 10
148.158463227
 20
85.7482857649
 10
148.1643505648
 20
85.7430725647
 10
148.1702055357
 20
85.7376949281
 10
148.1760215854
 20
85.7321571618
 10
148.1817921592
 20
85.7264635724
 10
148.1875107027
 20
85.7206184665
 10
148.1931706614
 20
85.7146261508
 10
148.1987654807
 20
85.708490932
 10
148.2042886062
 20
85.7022171166
 10
148.2097334833
 20
85.6958090112
 10
148.2150935575
 20
85.6892709227
 10
148.2203622744
 20
85.6826071574
 10
148.2255330794
 20
85.6758220222
 10
148.2305994181
 20
85.6689198236
 10
148.2355547358
 20
85.6619048683
 10
148.2403924782
 20
85.6547814628
 10
148.2451060907
 20
85.6475539139
 10
148.2496890187
 20
85.6402265282
 10
148.2541347079
 20
85.6328036123
 10
148.2584366036
 20
85.6252894729
 10
148.262566952
 20
85.6177304362
 10
148.2665466856
 20
85.6100946214
 10
148.2703739214
 20
85.6023912329
 10
148.2740467764
 20
85.5946294752
 10
148.2775633675
 20
85.5868185526
 10
148.2809218115
 20
85.5789676697
 10
148.2841202256
 20
85.5710860307
 10
148.2871567265
 20
85.5631828402
 10
148.2900294313
 20
85.5552673026
 10
148.2927364568
 20
85.5473486223
 10
148.29527592
 20
85.5394360037
 10
148.2976459378
 20
85.5315386513
 10
148.2998446272
 20
85.5236657695
 10
148.3018701052
 20
85.5158265628
 10
148.3037204885
 20
85.5080302354
 10
148.3053938942
 20
85.500285992
 10
148.3068884393
 20
85.4926030369
 10
148.3082022406
 20
85.4849905745
 10
148.3093334151
 20
85.4774578092
 10
148.3102800796
 20
85.4700139456
 10
148.3110403513
 20
85.462668188
 10
148.3116123469
 20
85.4554297409
 10
148.3119941835
 20
85.4483078086
 10
148.3121839779
 20
85.4413115957
  0
LWPOLYLINE
  5
2AC
100
AcDbEntity
  8
IMPORT_IGES
100
AcDbPolyline
 62
7
  6
CONTINUOUS
 90
30
 70
0
 10
148.3630764512
 20
85.8919626919
 10
148.3442798652
 20
85.9102901384
 10
148.3253007569
 20
85.9280895062
 10
148.3061557545
 20
85.9453794343
 10
148.2868614861
 20
85.9621785615
 10
148.2674345797
 20
85.9785055268
 10
148.2478916633
 20
85.994378969
 10
148.2282493652
 20
86.0098175271
 10
148.2085243132
 20
86.02483984
 10
148.1887331355
 20
86.0394645465
 10
148.1688924601
 20
86.0537102856
 10
148.1490189152
 20
86.0675956961
 10
148.1291291287
 20
86.0811394171
 10
148.0998945741
 20
86.1004599386
 10
148.0706620842
 20
86.119122183
 10
148.0414328888
 20
86.1371656387
 10
148.0122082179
 20
86.1546297936
 10
147.9829893012
 20
86.1715541362
 10
147.9537773685
 20
86.1879781546
 10
147.9245736498
 20
86.203941337
 10
147.8953793747
 20
86.2194831717
 10
147.8581775092
 20
86.2387386553
 10
147.8209979277
 20
86.257399293
 10
147.7838455673
 20
86.2754908395
 10
147.7467253652
 20
86.2930390493
 10
147.7096422587
 20
86.3100696771
 10
147.672601185
 20
86.3266084774
 10
147.6356070814
 20
86.3426812049
 10
147.5986648849
 20
86.358313614
 10
147.5617795329
 20
86.3735314595
  0
LWPOLYLINE
  5
2AD
100
AcDbEntity
  8
CURVE
100
AcDbPolyline
 62
250
  6
CONTINUOUS
 90
30
 70
0
 10
148.3630764512
 20
85.8919626919
 10
148.3442798652
 20
85.9102901384
 10
148.3253007569
 20
85.9280895062
 10
148.3061557545
 20
85.9453794343
 10
148.2868614861
 20
85.9621785615
 10
148.2674345797
 20
85.9785055268
 10
148.2478916633
 20
85.994378969
 10
148.2282493652
 20
86.0098175271
 10
148.2085243132
 20
86.02483984
 10
148.1887331355
 20
86.0394645465
 10
148.1688924601
 20
86.0537102856
 10
148.1490189152
 20
86.0675956961
 10
148.1291291287
 20
86.0811394171
 10
148.0998945741
 20
86.1004599386
 10
148.0706620842
 20
86.119122183
 10
148.0414328888
 20
86.1371656387
 10
148.0122082179
 20
86.1546297936
 10
147.9829893012
 20
86.1715541362
 10
147.9537773685
 20
86.1879781546
 10
147.9245736498
 20
86.203941337
 10
147.8953793747
 20
86.2194831717
 10
147.8581775092
 20
86.2387386553
 10
147.8209979277
 20
86.257399293
 10
147.7838455673
 20
86.2754908395
 10
147.7467253652
 20
86.2930390493
 10
147.7096422587
 20
86.3100696771
 10
147.672601185
 20
86.3266084774
 10
147.6356070814
 20
86.3426812049
 10
147.5986648849
 20
86.358313614
 10
147.5617795329
 20
86.3735314595
  0
LWPOLYLINE
  5
2AE
100
AcDbEntity
  8
0
100
AcDbPolyline
 62
250
  6
CONTINUOUS
 90
10
 70
0
 10
123.6899258659
 20
103.7171096149
 10
123.6775350277
 20
103.7235841887
 10
123.6549019628
 20
103.732315581
 10
123.6307750453
 20
103.7379319935
 10
123.6053219457
 20
103.7403943947
 10
123.578719551
 20
103.7396856722
 10
123.5511527351
 20
103.7358107512
 10
123.5228130742
 20
103.7287965605
 10
123.4938975153
 20
103.7186918455
 10
123.4646070079
 20
103.7055668291
  0
LWPOLYLINE
  5
2AF
100
AcDbEntity
  8
ASSI
100
AcDbPolyline
 62
250
  6
CONTINUOUS
 90
10
 70
0
 10
123.6899258659
 20
103.7171096149
 10
123.6775350277
 20
103.7235841887
 10
123.6549019628
 20
103.732315581
 10
123.6307750453
 20
103.7379319935
 10
123.6053219457
 20
103.7403943947
 10
123.578719551
 20
103.7396856722
 10
123.5511527351
 20
103.7358107512
 10
123.5228130742
 20
103.7287965605
 10
123.4938975153
 20
103.7186918455
 10
123.4646070079
 20
103.7055668291
  0
LINE
  5
2B0
100
AcDbEntity
  8
0
100
AcDbLine
 62
7
  6
CONTINUOUS
 10
167.4139395002
 20
79.1077422682
 11
163.4187861865
 21
81.414481884
  0
LINE
  5
2B1
100
AcDbEntity
  8
0
100
AcDbLine
 62
7
  6
CONTINUOUS
 10
131.5989810331
 20
99.7868385838
 11
135.5941343468
 21
97.480098968
  0
LINE
  5
2B2
100
AcDbEntity
  8
0
100
AcDbLine
 62
7
  6
CONTINUOUS
 10
167.5200055174
 20
79.2914539987
 11
163.6309182209
 21
81.536964262
  0
LINE
  5
2B3
100
AcDbEntity
  8
0
100
AcDbLine
 62
7
  6
CONTINUOUS
 10
135.700200364
 20
97.6638106985
 11
131.8111130675
 21
99.9093209618
  0
LINE
  5
2B4
100
AcDbEntity
  8
0
100
AcDbLine
 62
7
  6
CONTINUOUS
 10
167.7674928908
 20
79.3118795649
 11
163.7723395771
 21
81.6186191807
  0
LINE
  5
2B5
100
AcDbEntity
  8
0
100
AcDbLine
 62
7
  6
CONTINUOUS
 10
131.9525344237
 20
99.9909758805
 11
135.9476877374
 21
97.6842362646
  0
LINE
  5
2B6
100
AcDbEntity
  8
0
100
AcDbLine
 62
7
  6
CONTINUOUS
 10
167.873558908
 20
79.4955912954
 11
163.9844716115
 21
81.7411015587
  0
LINE
  5
2B7
100
AcDbEntity
  8
0
100
AcDbLine
 62
7
  6
CONTINUOUS
 10
136.0537537546
 20
97.8679479951
 11
132.1646664581
 21
100.1134582584
  0
LINE
  5
2B8
100
AcDbEntity
  8
0
100
AcDbLine
 62
7
  6
CONTINUOUS
 10
168.1210462814
 20
79.5160168615
 11
164.1258929677
 21
81.8227564774
  0
LINE
  5
2B9
100
AcDbEntity
  8
0
100
AcDbLine
 62
7
  6
CONTINUOUS
 10
132.3060878143
 20
100.1951131771
 11
136.301241128
 21
97.8883735613
  0
LINE
  5
2BA
100
AcDbEntity
  8
0
100
AcDbLine
 62
7
  6
CONTINUOUS
 10
168.2271122986
 20
79.6997285921
 11
164.3380250021
 21
81.9452388554
  0
LINE
  5
2BB
100
AcDbEntity
  8
0
100
AcDbLine
 62
7
  6
CONTINUOUS
 10
136.4073071452
 20
98.0720852918
 11
132.5182198487
 21
100.3175955551
  0
LINE
  5
2BC
100
AcDbEntity
  8
0
100
AcDbLine
 62
7
  6
CONTINUOUS
 10
168.474599672
 20
79.7201541582
 11
164.4794463583
 21
82.026893774
  0
LINE
  5
2BD
100
AcDbEntity
  8
0
100
AcDbLine
 62
7
  6
CONTINUOUS
 10
132.6596412049
 20
100.3992504738
 11
136.6547945186
 21
98.092510858
  0
LINE
  5
2BE
100
AcDbEntity
  8
0
100
AcDbLine
 62
7
  6
CONTINUOUS
 10
168.5806656892
 20
79.9038658887
 11
164.6915783927
 21
82.149376152
  0
LINE
  5
2BF
100
AcDbEntity
  8
0
100
AcDbLine
 62
7
  6
CONTINUOUS
 10
136.7608605358
 20
98.2762225885
 11
132.8717732393
 21
100.5217328518
  0
LINE
  5
2C0
100
AcDbEntity
  8
0
100
AcDbLine
 62
7
  6
CONTINUOUS
 10
168.8281530626
 20
79.9242914549
 11
164.8329997489
 21
82.2310310707
  0
LINE
  5
2C1
100
AcDbEntity
  8
0
100
AcDbLine
 62
7
  6
CONTINUOUS
 10
133.0131945955
 20
100.6033877704
 11
137.0083479092
 21
98.2966481546
  0
LINE
  5
2C2
100
AcDbEntity
  8
0
100
AcDbLine
 62
7
  6
CONTINUOUS
 10
168.9342190798
 20
80.1080031854
 11
165.0451317832
 21
82.3535134487
  0
LINE
  5
2C3
100
AcDbEntity
  8
0
100
AcDbLine
 62
7
  6
CONTINUOUS
 10
137.1144139264
 20
98.4803598851
 11
133.2253266299
 21
100.7258701484
  0
LINE
  5
2C4
100
AcDbEntity
  8
0
100
AcDbLine
 62
7
  6
CONTINUOUS
 10
169.1817064532
 20
80.1284287515
 11
165.1865531395
 21
82.4351683674
  0
LINE
  5
2C5
100
AcDbEntity
  8
0
100
AcDbLine
 62
7
  6
CONTINUOUS
 10
133.3667479861
 20
100.8075250671
 11
137.3619012998
 21
98.5007854513
  0
LINE
  5
2C6
100
AcDbEntity
  8
0
100
AcDbLine
 62
250
  6
CONTINUOUS
 10
169.4664854004
 20
80.086584896
 11
165.2201481421
 21
82.5383668098
  0
LINE
  5
2C7
100
AcDbEntity
  8
0
100
AcDbLine
 62
250
  6
CONTINUOUS
 10
137.646680247
 20
98.4589415958
 11
133.4003429887
 21
100.9107235096
  0
LINE
  5
2C8
100
AcDbEntity
  8
0
100
AcDbLine
 62
250
  6
CONTINUOUS
 10
169.5331577564
 20
80.1252868074
 11
165.2941952951
 21
82.5728106059
  0
LINE
  5
2C9
100
AcDbEntity
  8
0
100
AcDbLine
 62
250
  6
CONTINUOUS
 10
137.713352603
 20
98.4976435072
 11
133.4743901417
 21
100.9451673057
  0
LINE
  5
2CA
100
AcDbEntity
  8
0
100
AcDbLine
 62
7
  6
CONTINUOUS
 10
135.0599918749
 20
101.4629932588
 11
138.8859932654
 21
99.253908007
  0
LINE
  5
2CB
100
AcDbEntity
  8
0
100
AcDbLine
 62
7
  6
CONTINUOUS
 10
166.8797970283
 20
83.0906365591
 11
169.793737922
 21
81.4081636073
  0
LWPOLYLINE
  5
2CC
100
AcDbEntity
  8
0
100
AcDbPolyline
 62
250
  6
CONTINUOUS
 90
8
 70
0
 10
169.8523165658
 20
75.6989973086
 10
169.835777606
 20
75.7098226717
 10
169.8217071145
 20
75.7217547393
 10
169.8103248915
 20
75.7346070324
 10
169.8018087252
 20
75.7481786937
 10
169.7962916021
 20
75.7622576484
 10
169.7938596478
 20
75.7766239207
 10
169.7937380212
 20
75.7805372435
  0
LWPOLYLINE
  5
2CD
100
AcDbEntity
  8
ASSI
100
AcDbPolyline
 62
250
  6
CONTINUOUS
 90
8
 70
0
 10
169.8523165658
 20
75.6989973086
 10
169.835777606
 20
75.7098226717
 10
169.8217071145
 20
75.7217547393
 10
169.8103248915
 20
75.7346070324
 10
169.8018087252
 20
75.7481786937
 10
169.7962916021
 20
75.7622576484
 10
169.7938596478
 20
75.7766239207
 10
169.7937380212
 20
75.7805372435
  0
LWPOLYLINE
  5
2CE
100
AcDbEntity
  8
0
100
AcDbPolyline
 62
250
  6
CONTINUOUS
 90
10
 70
0
 10
136.9487214613
 20
97.4314510622
 10
136.9510269632
 20
97.4260215564
 10
136.95290459
 20
97.4209083466
 10
136.954323842
 20
97.4161469471
 10
136.955249989
 20
97.4117939531
 10
136.9556630808
 20
97.4078604198
 10
136.9555309332
 20
97.4043377754
 10
136.9547987575
 20
97.4012841671
 10
136.9534114617
 20
97.3987701814
 10
136.952645953
 20
97.3979155057
  0
LINE
  5
2CF
100
AcDbEntity
  8
0
100
AcDbLine
 62
250
  6
CONTINUOUS
 10
138.8932008743
 20
99.1104583536
 11
138.8932008743
 21
98.7030887157
  0
LINE
  5
2D0
100
AcDbEntity
  8
0
100
AcDbLine
 62
7
  6
CONTINUOUS
 10
138.9445719092
 20
99.1770358605
 11
138.9445719092
 21
98.7336340105
  0
LINE
  5
2D1
100
AcDbEntity
  8
0
100
AcDbLine
 62
7
  6
CONTINUOUS
 10
131.0759761525
 20
99.4524967527
 11
131.1040062863
 21
99.5010463685
  0
LINE
  5
2D2
100
AcDbEntity
  8
0
100
AcDbLine
 62
7
  6
CONTINUOUS
 10
131.3514936597
 20
99.5214719346
 11
131.4575596769
 21
99.7051836651
  0
LINE
  5
2D3
100
AcDbEntity
  8
0
100
AcDbLine
 62
7
  6
CONTINUOUS
 10
131.7050470503
 20
99.7256092313
 11
131.8111130675
 21
99.9093209618
  0
LINE
  5
2D4
100
AcDbEntity
  8
0
100
AcDbLine
 62
7
  6
CONTINUOUS
 10
132.0586004409
 20
99.9297465279
 11
132.1646664581
 21
100.1134582584
  0
LINE
  5
2D5
100
AcDbEntity
  8
0
100
AcDbLine
 62
7
  6
CONTINUOUS
 10
132.4121538315
 20
100.1338838246
 11
132.5182198487
 21
100.3175955551
  0
LINE
  5
2D6
100
AcDbEntity
  8
0
100
AcDbLine
 62
7
  6
CONTINUOUS
 10
132.7657072221
 20
100.3380211213
 11
132.8717732393
 21
100.5217328518
  0
LINE
  5
2D7
100
AcDbEntity
  8
0
100
AcDbLine
 62
7
  6
CONTINUOUS
 10
133.1192606127
 20
100.5421584179
 11
133.2253266299
 21
100.7258701484
  0
LINE
  5
2D8
100
AcDbEntity
  8
0
100
AcDbLine
 62
250
  6
CONTINUOUS
 10
121.8318392318
 20
103.5773370023
 11
123.1119148556
 21
104.3164475557
  0
LINE
  5
2D9
100
AcDbEntity
  8
ASSI
100
AcDbLine
 62
250
  6
CONTINUOUS
 10
121.8318392318
 20
103.5773370023
 11
123.1119148556
 21
104.3164475557
  0
LINE
  5
2DA
100
AcDbEntity
  8
IMPORT_IGES
100
AcDbLine
 62
7
  6
CONTINUOUS
 10
145.3202246295
 20
85.8926781942
 11
144.9393185477
 21
87.2854171591
  0
LINE
  5
2DB
100
AcDbEntity
  8
CURVE
100
AcDbLine
 62
250
  6
CONTINUOUS
 10
145.3202246295
 20
85.8926781942
 11
144.9393185477
 21
87.2854171591
  0
LINE
  5
2DC
100
AcDbEntity
  8
IMPORT_IGES
100
AcDbLine
 62
7
  6
CONTINUOUS
 10
145.0235013571
 20
87.8600856232
 11
145.3447666212
 21
86.6774003688
  0
LINE
  5
2DD
100
AcDbEntity
  8
CURVE
100
AcDbLine
 62
250
  6
CONTINUOUS
 10
145.0235013571
 20
87.8600856232
 11
145.3447666212
 21
86.6774003688
  0
LINE
  5
2DE
100
AcDbEntity
  8
IMPORT_IGES
100
AcDbLine
 62
7
  6
CONTINUOUS
 10
143.1525000643
 20
87.1442951902
 11
142.6593749292
 21
89.2251025933
  0
LINE
  5
2DF
100
AcDbEntity
  8
CURVE
100
AcDbLine
 62
250
  6
CONTINUOUS
 10
143.1525000643
 20
87.1442951902
 11
142.6593749292
 21
89.2251025933
  0
LINE
  5
2E0
100
AcDbEntity
  8
IMPORT_IGES
100
AcDbLine
 62
7
  6
CONTINUOUS
 10
143.0120936483
 20
89.0214472254
 11
143.3086013543
 21
87.6139479219
  0
LINE
  5
2E1
100
AcDbEntity
  8
CURVE
100
AcDbLine
 62
250
  6
CONTINUOUS
 10
143.0120936483
 20
89.0214472254
 11
143.3086013543
 21
87.6139479219
  0
LINE
  5
2E2
100
AcDbEntity
  8
IMPORT_IGES
100
AcDbLine
 62
7
  6
CONTINUOUS
 10
145.9907151014
 20
87.3016285293
 11
146.1361721452
 21
85.4215603249
  0
LINE
  5
2E3
100
AcDbEntity
  8
CURVE
100
AcDbLine
 62
250
  6
CONTINUOUS
 10
145.9907151014
 20
87.3016285293
 11
146.1361721452
 21
85.4215603249
  0
LINE
  5
2E4
100
AcDbEntity
  8
IMPORT_IGES
100
AcDbLine
 62
7
  6
CONTINUOUS
 10
145.8185344734
 20
85.6049603356
 11
145.7518251472
 21
86.8113968523
  0
LINE
  5
2E5
100
AcDbEntity
  8
CURVE
100
AcDbLine
 62
250
  6
CONTINUOUS
 10
145.8185344734
 20
85.6049603356
 11
145.7518251472
 21
86.8113968523
  0
LINE
  5
2E6
100
AcDbEntity
  8
IMPORT_IGES
100
AcDbLine
 62
7
  6
CONTINUOUS
 10
144.0591336837
 20
88.4170072055
 11
144.0591336837
 21
86.6208163011
  0
LINE
  5
2E7
100
AcDbEntity
  8
CURVE
100
AcDbLine
 62
250
  6
CONTINUOUS
 10
144.0591336837
 20
88.4170072055
 11
144.0591336837
 21
86.6208163011
  0
LINE
  5
2E8
100
AcDbEntity
  8
IMPORT_IGES
100
AcDbLine
 62
7
  6
CONTINUOUS
 10
144.3838287523
 20
86.4333414379
 11
144.3838287523
 21
88.2295323423
  0
LINE
  5
2E9
100
AcDbEntity
  8
CURVE
100
AcDbLine
 62
250
  6
CONTINUOUS
 10
144.3838287523
 20
86.4333414379
 11
144.3838287523
 21
88.2295323423
  0
LINE
  5
2EA
100
AcDbEntity
  8
0
100
AcDbLine
 62
250
  6
CONTINUOUS
 10
136.9424604999
 20
97.4124701031
 11
136.9487214613
 21
97.4314510622
  0
LINE
  5
2EB
100
AcDbEntity
  8
0
100
AcDbLine
 62
7
  6
CONTINUOUS
 10
134.965063449
 20
97.2069864894
 11
134.9930935828
 21
97.2555361052
  0
LINE
  5
2EC
100
AcDbEntity
  8
0
100
AcDbLine
 62
7
  6
CONTINUOUS
 10
135.2405809562
 20
97.2759616713
 11
135.3466469734
 21
97.4596734018
  0
LINE
  5
2ED
100
AcDbEntity
  8
0
100
AcDbLine
 62
7
  6
CONTINUOUS
 10
135.5941343468
 20
97.480098968
 11
135.700200364
 21
97.6638106985
  0
LINE
  5
2EE
100
AcDbEntity
  8
0
100
AcDbLine
 62
7
  6
CONTINUOUS
 10
135.9476877374
 20
97.6842362646
 11
136.0537537546
 21
97.8679479951
  0
LINE
  5
2EF
100
AcDbEntity
  8
0
100
AcDbLine
 62
7
  6
CONTINUOUS
 10
136.301241128
 20
97.8883735613
 11
136.4073071452
 21
98.0720852918
  0
LINE
  5
2F0
100
AcDbEntity
  8
0
100
AcDbLine
 62
7
  6
CONTINUOUS
 10
136.6547945186
 20
98.092510858
 11
136.7608605358
 21
98.2762225885
  0
LINE
  5
2F1
100
AcDbEntity
  8
0
100
AcDbLine
 62
7
  6
CONTINUOUS
 10
137.0083479092
 20
98.2966481546
 11
137.1144139264
 21
98.4803598851
  0
LINE
  5
2F2
100
AcDbEntity
  8
0
100
AcDbLine
 62
250
  6
CONTINUOUS
 10
122.1845313841
 20
102.9664562757
 11
123.4646070079
 21
103.7055668291
  0
LINE
  5
2F3
100
AcDbEntity
  8
ASSI
100
AcDbLine
 62
250
  6
CONTINUOUS
 10
122.1845313841
 20
102.9664562757
 11
123.4646070079
 21
103.7055668291
  0
LWPOLYLINE
  5
2F4
100
AcDbEntity
  8
IMPORT_IGES
100
AcDbPolyline
 62
7
  6
CONTINUOUS
 90
5
 70
0
 10
148.240411943
 20
84.7512296641
 10
148.2457678827
 20
84.7311738828
 10
148.2508653251
 20
84.7111624214
 10
148.2557491998
 20
84.6911880076
 10
148.2604644362
 20
84.6712433691
  0
LWPOLYLINE
  5
2F5
100
AcDbEntity
  8
CURVE
100
AcDbPolyline
 62
250
  6
CONTINUOUS
 90
5
 70
0
 10
148.240411943
 20
84.7512296641
 10
148.2457678827
 20
84.7311738828
 10
148.2508653251
 20
84.7111624214
 10
148.2557491998
 20
84.6911880076
 10
148.2604644362
 20
84.6712433691
  0
LINE
  5
2F6
100
AcDbEntity
  8
IMPORT_IGES
100
AcDbLine
 62
7
  6
CONTINUOUS
 10
146.9891659935
 20
86.7251354977
 11
147.4664332833
 21
84.6534842158
  0
LINE
  5
2F7
100
AcDbEntity
  8
CURVE
100
AcDbLine
 62
250
  6
CONTINUOUS
 10
146.9891659935
 20
86.7251354977
 11
147.4664332833
 21
84.6534842158
  0
LINE
  5
2F8
100
AcDbEntity
  8
IMPORT_IGES
100
AcDbLine
 62
7
  6
CONTINUOUS
 10
148.2604644362
 20
84.6712433691
 11
148.2695687127
 21
84.6314143289
  0
LINE
  5
2F9
100
AcDbEntity
  8
CURVE
100
AcDbLine
 62
250
  6
CONTINUOUS
 10
148.2604644362
 20
84.6712433691
 11
148.2695687127
 21
84.6314143289
  0
LINE
  5
2FA
100
AcDbEntity
  8
IMPORT_IGES
100
AcDbLine
 62
7
  6
CONTINUOUS
 10
148.2695687127
 20
84.6314143289
 11
148.3358347576
 21
84.3366853433
  0
LINE
  5
2FB
100
AcDbEntity
  8
CURVE
100
AcDbLine
 62
250
  6
CONTINUOUS
 10
148.2695687127
 20
84.6314143289
 11
148.3358347576
 21
84.3366853433
  0
LWPOLYLINE
  5
2FC
100
AcDbEntity
  8
IMPORT_IGES
100
AcDbPolyline
 62
7
  6
CONTINUOUS
 90
37
 70
0
 10
148.5684066678
 20
84.5670550122
 10
148.5651793646
 20
84.5816183915
 10
148.5618583992
 20
84.596200711
 10
148.55842739
 20
84.6108024633
 10
148.5548699558
 20
84.6254241412
 10
148.5511697152
 20
84.6400662371
 10
148.547310287
 20
84.6547292437
 10
148.5432752897
 20
84.6694136537
 10
148.539048342
 20
84.6841199595
 10
148.5346130626
 20
84.6988486539
 10
148.5299530701
 20
84.7136002294
 10
148.5250519832
 20
84.7283751786
 10
148.5215428056
 20
84.7385202007
 10
148.517905757
 20
84.7486695799
 10
148.5141340573
 20
84.7588164489
 10
148.5102209262
 20
84.7689539403
 10
148.5061595837
 20
84.7790751868
 10
148.5019432497
 20
84.7891733213
 10
148.4975651438
 20
84.7992414763
 10
148.4930184861
 20
84.8092727846
 10
148.4882964963
 20
84.8192603789
 10
148.4833923943
 20
84.8291973918
 10
148.4782993999
 20
84.8390769562
 10
148.4730107331
 20
84.8488922047
 10
148.4679910785
 20
84.8578182828
 10
148.4628072056
 20
84.8666697175
 10
148.4574647351
 20
84.8754315816
 10
148.4519692878
 20
84.8840889477
 10
148.4463264846
 20
84.8926268887
 10
148.4405419461
 20
84.9010304772
 10
148.4346212932
 20
84.9092847861
 10
148.4285701466
 20
84.9173748881
 10
148.4223941273
 20
84.9252858559
 10
148.4160988558
 20
84.9330027623
 10
148.4096899531
 20
84.94051068
 10
148.40317304
 20
84.9477946818
 10
148.3965537372
 20
84.9548398404
  0
LWPOLYLINE
  5
2FD
100
AcDbEntity
  8
CURVE
100
AcDbPolyline
 62
250
  6
CONTINUOUS
 90
37
 70
0
 10
148.5684066678
 20
84.5670550122
 10
148.5651793646
 20
84.5816183915
 10
148.5618583992
 20
84.596200711
 10
148.55842739
 20
84.6108024633
 10
148.5548699558
 20
84.6254241412
 10
148.5511697152
 20
84.6400662371
 10
148.547310287
 20
84.6547292437
 10
148.5432752897
 20
84.6694136537
 10
148.539048342
 20
84.6841199595
 10
148.5346130626
 20
84.6988486539
 10
148.5299530701
 20
84.7136002294
 10
148.5250519832
 20
84.7283751786
 10
148.5215428056
 20
84.7385202007
 10
148.517905757
 20
84.7486695799
 10
148.5141340573
 20
84.7588164489
 10
148.5102209262
 20
84.7689539403
 10
148.5061595837
 20
84.7790751868
 10
148.5019432497
 20
84.7891733213
 10
148.4975651438
 20
84.7992414763
 10
148.4930184861
 20
84.8092727846
 10
148.4882964963
 20
84.8192603789
 10
148.4833923943
 20
84.8291973918
 10
148.4782993999
 20
84.8390769562
 10
148.4730107331
 20
84.8488922047
 10
148.4679910785
 20
84.8578182828
 10
148.4628072056
 20
84.8666697175
 10
148.4574647351
 20
84.8754315816
 10
148.4519692878
 20
84.8840889477
 10
148.4463264846
 20
84.8926268887
 10
148.4405419461
 20
84.9010304772
 10
148.4346212932
 20
84.9092847861
 10
148.4285701466
 20
84.9173748881
 10
148.4223941273
 20
84.9252858559
 10
148.4160988558
 20
84.9330027623
 10
148.4096899531
 20
84.94051068
 10
148.40317304
 20
84.9477946818
 10
148.3965537372
 20
84.9548398404
  0
LINE
  5
2FE
100
AcDbEntity
  8
IMPORT_IGES
100
AcDbLine
 62
7
  6
CONTINUOUS
 10
148.3358347576
 20
84.3366853433
 11
148.3823929619
 21
84.1246202369
  0
LINE
  5
2FF
100
AcDbEntity
  8
CURVE
100
AcDbLine
 62
250
  6
CONTINUOUS
 10
148.3358347576
 20
84.3366853433
 11
148.3823929619
 21
84.1246202369
  0
LINE
  5
300
100
AcDbEntity
  8
IMPORT_IGES
100
AcDbLine
 62
7
  6
CONTINUOUS
 10
148.5746458124
 20
84.5379831041
 11
148.5684066678
 21
84.5670550122
  0
LINE
  5
301
100
AcDbEntity
  8
CURVE
100
AcDbLine
 62
250
  6
CONTINUOUS
 10
148.5746458124
 20
84.5379831041
 11
148.5684066678
 21
84.5670550122
  0
LINE
  5
302
100
AcDbEntity
  8
IMPORT_IGES
100
AcDbLine
 62
7
  6
CONTINUOUS
 10
147.1242188032
 20
84.8510745676
 11
147.040105627
 21
85.2582022317
  0
LINE
  5
303
100
AcDbEntity
  8
CURVE
100
AcDbLine
 62
250
  6
CONTINUOUS
 10
147.1242188032
 20
84.8510745676
 11
147.040105627
 21
85.2582022317
  0
LINE
  5
304
100
AcDbEntity
  8
IMPORT_IGES
100
AcDbLine
 62
7
  6
CONTINUOUS
 10
148.5988765937
 20
84.4208731946
 11
148.5746458124
 21
84.5379831041
  0
LINE
  5
305
100
AcDbEntity
  8
CURVE
100
AcDbLine
 62
250
  6
CONTINUOUS
 10
148.5988765937
 20
84.4208731946
 11
148.5746458124
 21
84.5379831041
  0
LINE
  5
306
100
AcDbEntity
  8
IMPORT_IGES
100
AcDbLine
 62
7
  6
CONTINUOUS
 10
148.6947115438
 20
83.9442914019
 11
148.6798975482
 21
84.0169682559
  0
LINE
  5
307
100
AcDbEntity
  8
CURVE
100
AcDbLine
 62
250
  6
CONTINUOUS
 10
148.6947115438
 20
83.9442914019
 11
148.6798975482
 21
84.0169682559
  0
LINE
  5
308
100
AcDbEntity
  8
IMPORT_IGES
100
AcDbLine
 62
7
  6
CONTINUOUS
 10
148.6798975482
 20
84.0169682559
 11
148.5988765937
 21
84.4208731946
  0
LINE
  5
309
100
AcDbEntity
  8
CURVE
100
AcDbLine
 62
250
  6
CONTINUOUS
 10
148.6798975482
 20
84.0169682559
 11
148.5988765937
 21
84.4208731946
  0
LINE
  5
30A
100
AcDbEntity
  8
IMPORT_IGES
100
AcDbLine
 62
7
  6
CONTINUOUS
 10
146.9752156528
 20
85.5731229727
 11
146.8260139738
 21
86.3258194267
  0
LINE
  5
30B
100
AcDbEntity
  8
CURVE
100
AcDbLine
 62
250
  6
CONTINUOUS
 10
146.9752156528
 20
85.5731229727
 11
146.8260139738
 21
86.3258194267
  0
LWPOLYLINE
  5
30C
100
AcDbEntity
  8
IMPORT_IGES
100
AcDbPolyline
 62
7
  6
CONTINUOUS
 90
58
 70
0
 10
148.3121839779
 20
85.4413115957
 10
148.3122328934
 20
85.4329562557
 10
148.3121521183
 20
85.4246517604
 10
148.3119336062
 20
85.4164116591
 10
148.3115693105
 20
85.4082495009
 10
148.3110511848
 20
85.4001788351
 10
148.3103711825
 20
85.392213211
 10
148.3095212572
 20
85.3843661778
 10
148.3084933624
 20
85.3766512847
 10
148.3072794516
 20
85.369082081
 10
148.3058714782
 20
85.3616721159
 10
148.3042613959
 20
85.3544349386
 10
148.3024411581
 20
85.3473840984
 10
148.3004027184
 20
85.3405331444
 10
148.2981380301
 20
85.3338956261
 10
148.2956390469
 20
85.3274850925
 10
148.2928977223
 20
85.3213150929
 10
148.2901701688
 20
85.3158877699
 10
148.2872371809
 20
85.3106803741
 10
148.2841032286
 20
85.3056998305
 10
148.2807727819
 20
85.3009530638
 10
148.2772503108
 20
85.2964469991
 10
148.2735402854
 20
85.2921885614
 10
148.2696471756
 20
85.2881846754
 10
148.2655754515
 20
85.2844422662
 10
148.2613295831
 20
85.2809682586
 10
148.2569140403
 20
85.2777695776
 10
148.2523332932
 20
85.2748531482
 10
148.2475918119
 20
85.2722258952
 10
148.2426940662
 20
85.2698947436
 10
148.2376445262
 20
85.2678666182
 10
148.2322171775
 20
85.2660775296
 10
148.2266370071
 20
85.2646169009
 10
148.2209117059
 20
85.2634754947
 10
148.2150489645
 20
85.2626440737
 10
148.2090564738
 20
85.2621134004
 10
148.2029419245
 20
85.2618742375
 10
148.1967130074
 20
85.2619173474
 10
148.1903774133
 20
85.2622334929
 10
148.1839428329
 20
85.2628134365
 10
148.177416957
 20
85.2636479408
 10
148.1708074763
 20
85.2647277683
 10
148.1641220817
 20
85.2660436818
 10
148.1573684639
 20
85.2675864437
 10
148.1505543136
 20
85.2693468167
 10
148.1436873216
 20
85.2713155633
 10
148.1367751788
 20
85.2734834461
 10
148.1298255758
 20
85.2758412278
 10
148.1228462034
 20
85.278379671
 10
148.1158447524
 20
85.2810895381
 10
148.1088289136
 20
85.2839615919
 10
148.1018063777
 20
85.2869865948
 10
148.0947848355
 20
85.2901553096
 10
148.0877719778
 20
85.2934584987
 10
148.0807754952
 20
85.2968869248
 10
148.0738030787
 20
85.3004313505
 10
148.066862419
 20
85.3040825384
 10
148.0599612067
 20
85.307831251
  0
LWPOLYLINE
  5
30D
100
AcDbEntity
  8
CURVE
100
AcDbPolyline
 62
250
  6
CONTINUOUS
 90
58
 70
0
 10
148.3121839779
 20
85.4413115957
 10
148.3122328934
 20
85.4329562557
 10
148.3121521183
 20
85.4246517604
 10
148.3119336062
 20
85.4164116591
 10
148.3115693105
 20
85.4082495009
 10
148.3110511848
 20
85.4001788351
 10
148.3103711825
 20
85.392213211
 10
148.3095212572
 20
85.3843661778
 10
148.3084933624
 20
85.3766512847
 10
148.3072794516
 20
85.369082081
 10
148.3058714782
 20
85.3616721159
 10
148.3042613959
 20
85.3544349386
 10
148.3024411581
 20
85.3473840984
 10
148.3004027184
 20
85.3405331444
 10
148.2981380301
 20
85.3338956261
 10
148.2956390469
 20
85.3274850925
 10
148.2928977223
 20
85.3213150929
 10
148.2901701688
 20
85.3158877699
 10
148.2872371809
 20
85.3106803741
 10
148.2841032286
 20
85.3056998305
 10
148.2807727819
 20
85.3009530638
 10
148.2772503108
 20
85.2964469991
 10
148.2735402854
 20
85.2921885614
 10
148.2696471756
 20
85.2881846754
 10
148.2655754515
 20
85.2844422662
 10
148.2613295831
 20
85.2809682586
 10
148.2569140403
 20
85.2777695776
 10
148.2523332932
 20
85.2748531482
 10
148.2475918119
 20
85.2722258952
 10
148.2426940662
 20
85.2698947436
 10
148.2376445262
 20
85.2678666182
 10
148.2322171775
 20
85.2660775296
 10
148.2266370071
 20
85.2646169009
 10
148.2209117059
 20
85.2634754947
 10
148.2150489645
 20
85.2626440737
 10
148.2090564738
 20
85.2621134004
 10
148.2029419245
 20
85.2618742375
 10
148.1967130074
 20
85.2619173474
 10
148.1903774133
 20
85.2622334929
 10
148.1839428329
 20
85.2628134365
 10
148.177416957
 20
85.2636479408
 10
148.1708074763
 20
85.2647277683
 10
148.1641220817
 20
85.2660436818
 10
148.1573684639
 20
85.2675864437
 10
148.1505543136
 20
85.2693468167
 10
148.1436873216
 20
85.2713155633
 10
148.1367751788
 20
85.2734834461
 10
148.1298255758
 20
85.2758412278
 10
148.1228462034
 20
85.278379671
 10
148.1158447524
 20
85.2810895381
 10
148.1088289136
 20
85.2839615919
 10
148.1018063777
 20
85.2869865948
 10
148.0947848355
 20
85.2901553096
 10
148.0877719778
 20
85.2934584987
 10
148.0807754952
 20
85.2968869248
 10
148.0738030787
 20
85.3004313505
 10
148.066862419
 20
85.3040825384
 10
148.0599612067
 20
85.307831251
  0
LINE
  5
30E
100
AcDbEntity
  8
IMPORT_IGES
100
AcDbLine
 62
7
  6
CONTINUOUS
 10
147.5617795329
 20
86.3735314595
 11
147.5617795329
 21
84.5984321461
  0
LINE
  5
30F
100
AcDbEntity
  8
CURVE
100
AcDbLine
 62
250
  6
CONTINUOUS
 10
147.5617795329
 20
86.3735314595
 11
147.5617795329
 21
84.5984321461
  0
LINE
  5
310
100
AcDbEntity
  8
IMPORT_IGES
100
AcDbLine
 62
7
  6
CONTINUOUS
 10
147.8744013934
 20
85.4149711616
 11
147.8744013934
 21
85.9080311082
  0
LINE
  5
311
100
AcDbEntity
  8
CURVE
100
AcDbLine
 62
250
  6
CONTINUOUS
 10
147.8744013934
 20
85.4149711616
 11
147.8744013934
 21
85.9080311082
  0
LINE
  5
312
100
AcDbEntity
  8
IMPORT_IGES
100
AcDbLine
 62
7
  6
CONTINUOUS
 10
147.8851677819
 20
84.4117118241
 11
147.8851677819
 21
85.114599702
  0
LINE
  5
313
100
AcDbEntity
  8
CURVE
100
AcDbLine
 62
250
  6
CONTINUOUS
 10
147.8851677819
 20
84.4117118241
 11
147.8851677819
 21
85.114599702
  0
LINE
  5
314
100
AcDbEntity
  8
IMPORT_IGES
100
AcDbLine
 62
7
  6
CONTINUOUS
 10
148.3965537372
 20
84.9548398404
 11
148.3965537372
 21
84.9654531281
  0
LINE
  5
315
100
AcDbEntity
  8
CURVE
100
AcDbLine
 62
250
  6
CONTINUOUS
 10
148.3965537372
 20
84.9548398404
 11
148.3965537372
 21
84.9654531281
  0
LINE
  5
316
100
AcDbEntity
  8
IMPORT_IGES
100
AcDbLine
 62
7
  6
CONTINUOUS
 10
144.9393185477
 20
87.2854171591
 11
144.8692490503
 21
86.1530658416
  0
LINE
  5
317
100
AcDbEntity
  8
CURVE
100
AcDbLine
 62
250
  6
CONTINUOUS
 10
144.9393185477
 20
87.2854171591
 11
144.8692490503
 21
86.1530658416
  0
LINE
  5
318
100
AcDbEntity
  8
IMPORT_IGES
100
AcDbLine
 62
7
  6
CONTINUOUS
 10
144.5586221062
 20
86.332417946
 11
144.6990751911
 21
88.0474052255
  0
LINE
  5
319
100
AcDbEntity
  8
CURVE
100
AcDbLine
 62
250
  6
CONTINUOUS
 10
144.5586221062
 20
86.332417946
 11
144.6990751911
 21
88.0474052255
  0
LINE
  5
31A
100
AcDbEntity
  8
SMUSSO
100
AcDbLine
 62
7
  6
CONTINUOUS
 10
177.3876456339
 20
126.8728637831
 11
181.4495786187
 21
129.2181576853
  0
LINE
  5
31B
100
AcDbEntity
  8
ASSI
100
AcDbLine
 62
7
  6
CONTINUOUS
 10
177.3876456339
 20
126.8728637831
 11
181.4495786187
 21
129.2181576853
  0
LINE
  5
31C
100
AcDbEntity
  8
0
100
AcDbLine
 62
7
  6
CONTINUOUS
 10
131.1040062863
 20
99.5010463685
 11
131.2454276425
 21
99.5827012871
  0
LINE
  5
31D
100
AcDbEntity
  8
0
100
AcDbLine
 62
7
  6
CONTINUOUS
 10
131.4575596769
 20
99.7051836651
 11
131.5989810331
 21
99.7868385838
  0
LINE
  5
31E
100
AcDbEntity
  8
0
100
AcDbLine
 62
7
  6
CONTINUOUS
 10
131.8111130675
 20
99.9093209618
 11
131.9525344237
 21
99.9909758805
  0
LINE
  5
31F
100
AcDbEntity
  8
0
100
AcDbLine
 62
7
  6
CONTINUOUS
 10
132.1646664581
 20
100.1134582584
 11
132.3060878143
 21
100.1951131771
  0
LINE
  5
320
100
AcDbEntity
  8
0
100
AcDbLine
 62
7
  6
CONTINUOUS
 10
132.5182198487
 20
100.3175955551
 11
132.6596412049
 21
100.3992504738
  0
LINE
  5
321
100
AcDbEntity
  8
0
100
AcDbLine
 62
7
  6
CONTINUOUS
 10
132.8717732393
 20
100.5217328518
 11
133.0131945955
 21
100.6033877704
  0
LINE
  5
322
100
AcDbEntity
  8
0
100
AcDbLine
 62
7
  6
CONTINUOUS
 10
133.2253266299
 20
100.7258701484
 11
133.3667479861
 21
100.8075250671
  0
LINE
  5
323
100
AcDbEntity
  8
SMUSSO
100
AcDbLine
 62
7
  6
CONTINUOUS
 10
114.729691794
 20
162.233813696
 11
114.7300671015
 21
162.2331773345
  0
LINE
  5
324
100
AcDbEntity
  8
ASSI
100
AcDbLine
 62
7
  6
CONTINUOUS
 10
114.729691794
 20
162.233813696
 11
114.7300671015
 21
162.2331773345
  0
LINE
  5
325
100
AcDbEntity
  8
SMUSSO
100
AcDbLine
 62
7
  6
CONTINUOUS
 10
177.3872832037
 20
53.7076956973
 11
177.3876456339
 21
53.7070542596
  0
LINE
  5
326
100
AcDbEntity
  8
ASSI
100
AcDbLine
 62
7
  6
CONTINUOUS
 10
177.3872832037
 20
53.7076956973
 11
177.3876456339
 21
53.7070542596
  0
LINE
  5
327
100
AcDbEntity
  8
IMPORT_IGES
100
AcDbLine
 62
7
  6
CONTINUOUS
 10
146.8260139738
 20
86.3258194267
 11
146.6643435111
 21
85.7526166513
  0
LINE
  5
328
100
AcDbEntity
  8
CURVE
100
AcDbLine
 62
250
  6
CONTINUOUS
 10
146.8260139738
 20
86.3258194267
 11
146.6643435111
 21
85.7526166513
  0
LINE
  5
329
100
AcDbEntity
  8
IMPORT_IGES
100
AcDbLine
 62
7
  6
CONTINUOUS
 10
143.3086013543
 20
87.6139479219
 11
143.6141658181
 21
88.6738183004
  0
LINE
  5
32A
100
AcDbEntity
  8
CURVE
100
AcDbLine
 62
250
  6
CONTINUOUS
 10
143.3086013543
 20
87.6139479219
 11
143.6141658181
 21
88.6738183004
  0
LINE
  5
32B
100
AcDbEntity
  8
CURVE
100
AcDbLine
 62
250
  6
CONTINUOUS
 10
143.9386393939
 20
88.4864713243
 11
143.438637612
 21
86.9790829563
  0
LINE
  5
32C
100
AcDbEntity
  8
IMPORT_IGES
100
AcDbLine
 62
7
  6
CONTINUOUS
 10
143.9386393939
 20
88.4864713243
 11
143.438637612
 21
86.9790829563
  0
LINE
  5
32D
100
AcDbEntity
  8
0
100
AcDbLine
 62
250
  6
CONTINUOUS
 10
136.9487214613
 20
97.4314510622
 11
137.2846664263
 21
97.7582046519
  0
LINE
  5
32E
100
AcDbEntity
  8
0
100
AcDbLine
 62
7
  6
CONTINUOUS
 10
136.9526463188
 20
97.3979158615
 11
137.3816306995
 21
97.8151633305
  0
LWPOLYLINE
  5
32F
100
AcDbEntity
  8
0
100
AcDbPolyline
 62
250
  6
CONTINUOUS
 90
5
 70
0
 10
136.8995379953
 20
97.3568898142
 10
136.912764615
 20
97.3674512421
 10
136.9243980479
 20
97.3803195837
 10
136.9343271856
 20
97.3953726828
 10
136.9424604999
 20
97.4124701031
  0
LINE
  5
330
100
AcDbEntity
  8
0
100
AcDbLine
 62
7
  6
CONTINUOUS
 10
137.646680247
 20
98.4589415958
 11
135.3488037227
 21
96.9854196648
  0
LINE
  5
331
100
AcDbEntity
  8
0
100
AcDbLine
 62
250
  6
CONTINUOUS
 10
136.894032799
 20
97.3534523325
 11
136.8995379953
 21
97.3568898142
  0
LINE
  5
332
100
AcDbEntity
  8
0
100
AcDbLine
 62
7
  6
CONTINUOUS
 10
135.6616264334
 20
96.8047997522
 11
138.8932008743
 21
98.7030887157
  0
LINE
  5
333
100
AcDbEntity
  8
0
100
AcDbLine
 62
7
  6
CONTINUOUS
 10
136.8940319731
 20
97.3534518533
 11
135.8054033796
 21
96.7217847454
  0
LINE
  5
334
100
AcDbEntity
  8
0
100
AcDbLine
 62
250
  6
CONTINUOUS
 10
136.9487214613
 20
97.4314510622
 11
135.7650473817
 21
96.7450857928
  0
LINE
  5
335
100
AcDbEntity
  8
SMUSSO
100
AcDbLine
 62
7
  6
CONTINUOUS
 10
178.0951829032
 20
125.6473732857
 11
182.157115888
 21
127.9926671879
  0
LINE
  5
336
100
AcDbEntity
  8
ASSI
100
AcDbLine
 62
7
  6
CONTINUOUS
 10
178.0951829032
 20
125.6473732857
 11
182.157115888
 21
127.9926671879
  0
LINE
  5
337
100
AcDbEntity
  8
0
100
AcDbLine
 62
7
  6
CONTINUOUS
 10
134.9930935828
 20
97.2555361052
 11
135.1345149391
 21
97.3371910238
  0
LINE
  5
338
100
AcDbEntity
  8
0
100
AcDbLine
 62
7
  6
CONTINUOUS
 10
135.3466469734
 20
97.4596734018
 11
135.4880683296
 21
97.5413283205
  0
LINE
  5
339
100
AcDbEntity
  8
0
100
AcDbLine
 62
7
  6
CONTINUOUS
 10
135.700200364
 20
97.6638106985
 11
135.8416217202
 21
97.7454656171
  0
LINE
  5
33A
100
AcDbEntity
  8
0
100
AcDbLine
 62
7
  6
CONTINUOUS
 10
136.0537537546
 20
97.8679479951
 11
136.1951751108
 21
97.9496029138
  0
LINE
  5
33B
100
AcDbEntity
  8
0
100
AcDbLine
 62
7
  6
CONTINUOUS
 10
136.4073071452
 20
98.0720852918
 11
136.5487285014
 21
98.1537402105
  0
LINE
  5
33C
100
AcDbEntity
  8
0
100
AcDbLine
 62
7
  6
CONTINUOUS
 10
136.7608605358
 20
98.2762225885
 11
136.902281892
 21
98.3578775071
  0
LINE
  5
33D
100
AcDbEntity
  8
0
100
AcDbLine
 62
7
  6
CONTINUOUS
 10
137.1144139264
 20
98.4803598851
 11
137.2558352826
 21
98.5620148038
  0
LINE
  5
33E
100
AcDbEntity
  8
0
100
AcDbLine
 62
7
  6
CONTINUOUS
 10
137.3619012998
 20
98.5007854513
 11
135.0430917912
 21
97.1619339025
  0
LINE
  5
33F
100
AcDbEntity
  8
0
100
AcDbLine
 62
7
  6
CONTINUOUS
 10
130.8482925632
 20
99.5839584036
 11
133.4003429887
 21
100.9107235096
  0
LINE
  5
340
100
AcDbEntity
  8
0
100
AcDbLine
 62
7
  6
CONTINUOUS
 10
138.8932008743
 20
99.1104583536
 11
137.713352603
 21
98.4976435072
  0
LINE
  5
341
100
AcDbEntity
  8
0
100
AcDbLine
 62
7
  6
CONTINUOUS
 10
133.4743901417
 20
100.9451673057
 11
134.7847443974
 21
101.4826296323
  0
LINE
  5
342
100
AcDbEntity
  8
IMPORT_IGES
100
AcDbLine
 62
7
  6
CONTINUOUS
 10
146.5979253108
 20
85.5135116044
 11
146.508329633
 21
85.2066812557
  0
LINE
  5
343
100
AcDbEntity
  8
CURVE
100
AcDbLine
 62
250
  6
CONTINUOUS
 10
146.5979253108
 20
85.5135116044
 11
146.508329633
 21
85.2066812557
  0
LINE
  5
344
100
AcDbEntity
  8
IMPORT_IGES
100
AcDbLine
 62
7
  6
CONTINUOUS
 10
146.1871577069
 20
85.3921219005
 11
146.6750633167
 21
86.9064944467
  0
LINE
  5
345
100
AcDbEntity
  8
CURVE
100
AcDbLine
 62
250
  6
CONTINUOUS
 10
146.1871577069
 20
85.3921219005
 11
146.6750633167
 21
86.9064944467
  0
LINE
  5
346
100
AcDbEntity
  8
IMPORT_IGES
100
AcDbLine
 62
7
  6
CONTINUOUS
 10
145.3447666212
 20
86.6774003688
 11
145.6694616898
 21
87.4871162229
  0
LINE
  5
347
100
AcDbEntity
  8
CURVE
100
AcDbLine
 62
250
  6
CONTINUOUS
 10
145.3447666212
 20
86.6774003688
 11
145.6694616898
 21
87.4871162229
  0
LINE
  5
348
100
AcDbEntity
  8
IMPORT_IGES
100
AcDbLine
 62
7
  6
CONTINUOUS
 10
145.7518251472
 20
86.8113968523
 11
145.3657625062
 21
85.8663851949
  0
LINE
  5
349
100
AcDbEntity
  8
CURVE
100
AcDbLine
 62
250
  6
CONTINUOUS
 10
145.7518251472
 20
86.8113968523
 11
145.3657625062
 21
85.8663851949
  0
LINE
  5
34A
100
AcDbEntity
  8
SMUSSO
100
AcDbLine
 62
7
  6
CONTINUOUS
 10
176.3777464863
 20
125.7949504485
 11
177.3872832037
 21
126.8482450442
  0
LINE
  5
34B
100
AcDbEntity
  8
ASSI
100
AcDbLine
 62
7
  6
CONTINUOUS
 10
176.3777464863
 20
125.7949504485
 11
177.3872832037
 21
126.8482450442
  0
LINE
  5
34C
100
AcDbEntity
  8
SMUSSO
100
AcDbLine
 62
7
  6
CONTINUOUS
 10
176.6567224204
 20
125.311749957
 11
178.0736815513
 21
125.6593682331
  0
LINE
  5
34D
100
AcDbEntity
  8
ASSI
100
AcDbLine
 62
7
  6
CONTINUOUS
 10
176.6567224204
 20
125.311749957
 11
178.0736815513
 21
125.6593682331
  0
LWPOLYLINE
  5
34E
100
AcDbEntity
  8
0
100
AcDbPolyline
 62
250
  6
CONTINUOUS
 90
10
 70
0
 10
168.7685266147
 20
79.0590943624
 10
168.7708321166
 20
79.0536648567
 10
168.7727097434
 20
79.0485516469
 10
168.7741289954
 20
79.0437902474
 10
168.7750551424
 20
79.0394372534
 10
168.7754682342
 20
79.0355037201
 10
168.7753360866
 20
79.0319810756
 10
168.7746039109
 20
79.0289274674
 10
168.7732166151
 20
79.0264134817
 10
168.7724511064
 20
79.025558806
  0
LINE
  5
34F
100
AcDbEntity
  8
CURVE
100
AcDbLine
 62
7
  6
CONTINUOUS
 10
142.6756849482
 20
89.1562802887
 11
142.7133453869
 21
89.1939407274
  0
LINE
  5
350
100
AcDbEntity
  8
CURVE
100
AcDbLine
 62
7
  6
CONTINUOUS
 10
142.7561544711
 20
88.8167283836
 11
142.9796220227
 21
89.0401959351
  0
LINE
  5
351
100
AcDbEntity
  8
CURVE
100
AcDbLine
 62
7
  6
CONTINUOUS
 10
142.836623994
 20
88.4771764785
 11
143.076267308
 21
88.7168197925
  0
LINE
  5
352
100
AcDbEntity
  8
CURVE
100
AcDbLine
 62
7
  6
CONTINUOUS
 10
142.917093517
 20
88.1376245734
 11
143.1493536213
 21
88.3698846777
  0
LINE
  5
353
100
AcDbEntity
  8
CURVE
100
AcDbLine
 62
7
  6
CONTINUOUS
 10
142.9975630399
 20
87.7980726683
 11
143.2224399345
 21
88.0229495629
  0
LINE
  5
354
100
AcDbEntity
  8
CURVE
100
AcDbLine
 62
7
  6
CONTINUOUS
 10
143.5091887184
 20
88.3096983468
 11
143.7784519299
 21
88.5789615584
  0
LINE
  5
355
100
AcDbEntity
  8
CURVE
100
AcDbLine
 62
7
  6
CONTINUOUS
 10
143.0780325629
 20
87.4585207633
 11
143.2955262478
 21
87.6760144481
  0
LINE
  5
356
100
AcDbEntity
  8
CURVE
100
AcDbLine
 62
7
  6
CONTINUOUS
 10
143.3390407453
 20
87.7195289457
 11
143.8555807505
 21
88.2360689509
  0
LINE
  5
357
100
AcDbEntity
  8
CURVE
100
AcDbLine
 62
7
  6
CONTINUOUS
 10
143.1723609762
 20
87.1328277486
 11
143.6471091812
 21
87.6075759536
  0
LINE
  5
358
100
AcDbEntity
  8
CURVE
100
AcDbLine
 62
7
  6
CONTINUOUS
 10
144.0591336837
 20
88.0196004561
 11
144.3110735259
 21
88.2715402982
  0
LINE
  5
359
100
AcDbEntity
  8
CURVE
100
AcDbLine
 62
7
  6
CONTINUOUS
 10
144.0591336837
 20
87.5995790281
 11
144.3838287523
 21
87.9242740966
  0
LINE
  5
35A
100
AcDbEntity
  8
CURVE
100
AcDbLine
 62
7
  6
CONTINUOUS
 10
144.0591336837
 20
87.1795576001
 11
144.3838287523
 21
87.5042526686
  0
LINE
  5
35B
100
AcDbEntity
  8
CURVE
100
AcDbLine
 62
7
  6
CONTINUOUS
 10
144.6787452945
 20
87.7991692108
 11
144.843558473
 21
87.9639823893
  0
LINE
  5
35C
100
AcDbEntity
  8
CURVE
100
AcDbLine
 62
7
  6
CONTINUOUS
 10
144.0591336837
 20
86.759536172
 11
144.3838287523
 21
87.0842312406
  0
LINE
  5
35D
100
AcDbEntity
  8
CURVE
100
AcDbLine
 62
7
  6
CONTINUOUS
 10
144.6412781468
 20
87.3416806351
 11
145.0525917256
 21
87.7529942139
  0
LINE
  5
35E
100
AcDbEntity
  8
CURVE
100
AcDbLine
 62
7
  6
CONTINUOUS
 10
144.2374675193
 20
86.5178485795
 11
144.3838287523
 21
86.6642098126
  0
LINE
  5
35F
100
AcDbEntity
  8
CURVE
100
AcDbLine
 62
7
  6
CONTINUOUS
 10
144.603810999
 20
86.8841920593
 11
144.9349837321
 21
87.2153647924
  0
LINE
  5
360
100
AcDbEntity
  8
CURVE
100
AcDbLine
 62
7
  6
CONTINUOUS
 10
144.9534319775
 20
87.2338130378
 11
145.1423142885
 21
87.4226953488
  0
LINE
  5
361
100
AcDbEntity
  8
CURVE
100
AcDbLine
 62
7
  6
CONTINUOUS
 10
144.5663438512
 20
86.4267034835
 11
144.9072785697
 21
86.7676382019
  0
LINE
  5
362
100
AcDbEntity
  8
CURVE
100
AcDbLine
 62
7
  6
CONTINUOUS
 10
145.0436353227
 20
86.903994955
 11
145.2320368514
 21
87.0923964837
  0
LINE
  5
363
100
AcDbEntity
  8
0
100
AcDbLine
 62
7
  6
CONTINUOUS
 10
122.0943916072
 20
140.0277566392
 11
169.3999640775
 21
112.7141119729
  0
LINE
  5
364
100
AcDbEntity
  8
ASSI
100
AcDbLine
 62
7
  6
CONTINUOUS
 10
122.0943916072
 20
140.0277566392
 11
169.3999640775
 21
112.7141119729
  0
LINE
  5
365
100
AcDbEntity
  8
0
100
AcDbLine
 62
250
  6
CONTINUOUS
 10
122.052975083
 20
140.1193040114
 11
169.3585475526
 21
112.8056593456
  0
LINE
  5
366
100
AcDbEntity
  8
ASSI
100
AcDbLine
 62
250
  6
CONTINUOUS
 10
122.052975083
 20
140.1193040114
 11
169.3585475526
 21
112.8056593456
  0
LINE
  5
367
100
AcDbEntity
  8
CURVE
100
AcDbLine
 62
7
  6
CONTINUOUS
 10
144.7700207908
 20
86.210358995
 11
144.8795734072
 21
86.3199116115
  0
LINE
  5
368
100
AcDbEntity
  8
CURVE
100
AcDbLine
 62
7
  6
CONTINUOUS
 10
145.133838668
 20
86.5741768722
 11
145.3217594143
 21
86.7620976185
  0
LINE
  5
369
100
AcDbEntity
  8
CURVE
100
AcDbLine
 62
7
  6
CONTINUOUS
 10
145.4168689042
 20
86.8572071084
 11
145.9086650161
 21
87.3490032203
  0
LINE
  5
36A
100
AcDbEntity
  8
CURVE
100
AcDbLine
 62
7
  6
CONTINUOUS
 10
145.2240420132
 20
86.2443587893
 11
145.7247120097
 21
86.7450287859
  0
LINE
  5
36B
100
AcDbEntity
  8
CURVE
100
AcDbLine
 62
7
  6
CONTINUOUS
 10
145.7538819971
 20
86.7741987732
 11
146.0115834317
 21
87.0319002079
  0
LINE
  5
36C
100
AcDbEntity
  8
CURVE
100
AcDbLine
 62
7
  6
CONTINUOUS
 10
145.3142453584
 20
85.9145407065
 11
145.4346057979
 21
86.034901146
  0
LINE
  5
36D
100
AcDbEntity
  8
CURVE
100
AcDbLine
 62
7
  6
CONTINUOUS
 10
145.7758899599
 20
86.3761853081
 11
146.0417460156
 21
86.6420413638
  0
LINE
  5
36E
100
AcDbEntity
  8
CURVE
100
AcDbLine
 62
7
  6
CONTINUOUS
 10
145.7978979228
 20
85.9781718429
 11
146.0719085995
 21
86.2521825196
  0
LINE
  5
36F
100
AcDbEntity
  8
CURVE
100
AcDbLine
 62
7
  6
CONTINUOUS
 10
146.6507470053
 20
86.8310209255
 11
146.7074949234
 21
86.8877688435
  0
LINE
  5
370
100
AcDbEntity
  8
CURVE
100
AcDbLine
 62
7
  6
CONTINUOUS
 10
145.8351273338
 20
85.595379826
 11
146.1020711834
 21
85.8623236755
  0
LINE
  5
371
100
AcDbEntity
  8
CURVE
100
AcDbLine
 62
7
  6
CONTINUOUS
 10
146.4511002328
 20
86.2113527249
 11
146.9737715591
 21
86.7340240512
  0
LINE
  5
372
100
AcDbEntity
  8
CURVE
100
AcDbLine
 62
7
  6
CONTINUOUS
 10
146.1014039696
 20
85.4416350337
 11
146.1322337673
 21
85.4724648314
  0
LINE
  5
373
100
AcDbEntity
  8
CURVE
100
AcDbLine
 62
7
  6
CONTINUOUS
 10
146.2514534602
 20
85.5916845243
 11
146.7633251776
 21
86.1035562417
  0
LINE
  5
374
100
AcDbEntity
  8
CURVE
100
AcDbLine
 62
7
  6
CONTINUOUS
 10
146.8524124837
 20
86.1926435477
 11
147.0632652664
 21
86.4034963305
  0
LINE
  5
375
100
AcDbEntity
  8
CURVE
100
AcDbLine
 62
7
  6
CONTINUOUS
 10
146.3676806054
 20
85.2878902414
 11
146.7708889906
 21
85.6910986267
  0
LINE
  5
376
100
AcDbEntity
  8
CURVE
100
AcDbLine
 62
7
  6
CONTINUOUS
 10
146.9218969409
 20
85.842106577
 11
147.14191136
 21
86.0621209961
  0
LINE
  5
377
100
AcDbEntity
  8
CURVE
100
AcDbLine
 62
7
  6
CONTINUOUS
 10
146.8612709341
 20
85.3614591421
 11
147.2205574536
 21
85.7207456617
  0
LINE
  5
378
100
AcDbEntity
  8
CURVE
100
AcDbLine
 62
7
  6
CONTINUOUS
 10
147.5617795329
 20
86.0619677409
 11
147.7779922672
 21
86.2781804753
  0
LINE
  5
379
100
AcDbEntity
  8
CURVE
100
AcDbLine
 62
7
  6
CONTINUOUS
 10
147.0637227913
 20
85.1438895714
 11
147.2992035472
 21
85.3793703273
  0
LINE
  5
37A
100
AcDbEntity
  8
CURVE
100
AcDbLine
 62
7
  6
CONTINUOUS
 10
147.5617795329
 20
85.6419463129
 11
148.0510969377
 21
86.1312637177
  0
LINE
  5
37B
100
AcDbEntity
  8
CURVE
100
AcDbLine
 62
7
  6
CONTINUOUS
 10
147.1665105127
 20
84.8266558647
 11
147.3778496409
 21
85.0379949928
  0
LINE
  5
37C
100
AcDbEntity
  8
CURVE
100
AcDbLine
 62
7
  6
CONTINUOUS
 10
147.5617795329
 20
85.2219248848
 11
147.8744013934
 21
85.5345467454
  0
LINE
  5
37D
100
AcDbEntity
  8
CURVE
100
AcDbLine
 62
7
  6
CONTINUOUS
 10
148.1186149879
 20
85.7787603399
 11
148.2947913968
 21
85.9549367488
  0
LINE
  5
37E
100
AcDbEntity
  8
CURVE
100
AcDbLine
 62
7
  6
CONTINUOUS
 10
147.4327871484
 20
84.6729110724
 11
147.4564957345
 21
84.6966196584
  0
LINE
  5
37F
100
AcDbEntity
  8
CURVE
100
AcDbLine
 62
7
  6
CONTINUOUS
 10
147.5617795329
 20
84.8019034568
 11
148.065037939
 21
85.3051618629
  0
LINE
  5
380
100
AcDbEntity
  8
CURVE
100
AcDbLine
 62
7
  6
CONTINUOUS
 10
148.2961318266
 20
85.5362557506
 11
148.4870521072
 21
85.7271760312
  0
LINE
  5
381
100
AcDbEntity
  8
CURVE
100
AcDbLine
 62
7
  6
CONTINUOUS
 10
147.6990635685
 20
84.5191660645
 11
147.8851677819
 21
84.7052702778
  0
LINE
  5
382
100
AcDbEntity
  8
CURVE
100
AcDbLine
 62
7
  6
CONTINUOUS
 10
148.1334047275
 20
84.9535072234
 11
148.6034074654
 21
85.4235099613
  0
LINE
  5
383
100
AcDbEntity
  8
CURVE
100
AcDbLine
 62
7
  6
CONTINUOUS
 10
148.2624531477
 20
84.6625342156
 11
148.4641174741
 21
84.864198542
  0
LINE
  5
384
100
AcDbEntity
  8
CURVE
100
AcDbLine
 62
7
  6
CONTINUOUS
 10
148.3395135109
 20
84.3195731508
 11
148.5716651605
 21
84.5517248004
  0
LWPOLYLINE
  5
385
100
AcDbEntity
  8
0
100
AcDbPolyline
 62
250
  6
CONTINUOUS
 90
13
 70
0
 10
121.5592060698
 20
139.8342630739
 10
121.5779549411
 20
139.8247136861
 10
121.5986205573
 20
139.8165895608
 10
121.6208799481
 20
139.8100176081
 10
121.6443852407
 20
139.8051004805
 10
121.6687691346
 20
139.8019149628
 10
121.6936506451
 20
139.8005107829
 10
121.7186409813
 20
139.8009098424
 10
121.7433496828
 20
139.8031058665
 10
121.767390756
 20
139.8070645173
 10
121.7903886023
 20
139.8127239246
 10
121.8119838903
 20
139.8199956383
 10
121.8318392318
 20
139.828766022
  0
LWPOLYLINE
  5
386
100
AcDbEntity
  8
ASSI
100
AcDbPolyline
 62
250
  6
CONTINUOUS
 90
13
 70
0
 10
121.5592060698
 20
139.8342630739
 10
121.5779549411
 20
139.8247136861
 10
121.5986205573
 20
139.8165895608
 10
121.6208799481
 20
139.8100176081
 10
121.6443852407
 20
139.8051004805
 10
121.6687691346
 20
139.8019149628
 10
121.6936506451
 20
139.8005107829
 10
121.7186409813
 20
139.8009098424
 10
121.7433496828
 20
139.8031058665
 10
121.767390756
 20
139.8070645173
 10
121.7903886023
 20
139.8127239246
 10
121.8119838903
 20
139.8199956383
 10
121.8318392318
 20
139.828766022
  0
LWPOLYLINE
  5
387
100
AcDbEntity
  8
0
100
AcDbPolyline
 62
7
  6
CONTINUOUS
 90
24
 70
0
 10
169.4000083602
 20
112.7140864273
 10
169.4181288105
 20
112.7030767293
 10
169.4421068694
 20
112.686870249
 10
169.4669832554
 20
112.6681114735
 10
169.4923588073
 20
112.6469211976
 10
169.5180027111
 20
112.6233444665
 10
169.5437012163
 20
112.5974415363
 10
169.5691170694
 20
112.5694342333
 10
169.5940361706
 20
112.5394636101
 10
169.6182525337
 20
112.5076928843
 10
169.6414819905
 20
112.4744297491
 10
169.663542918
 20
112.4398923965
 10
169.684271463
 20
112.4043103707
 10
169.7034570077
 20
112.3680435999
 10
169.7209777697
 20
112.3313490235
 10
169.7367318794
 20
112.2944903138
 10
169.7505917341
 20
112.257860936
 10
169.7625132525
 20
112.2217218772
 10
169.7724742937
 20
112.1863326591
 10
169.7804456788
 20
112.1520929723
 10
169.7864755306
 20
112.1192227927
 10
169.7906323184
 20
112.0879468651
 10
169.7930028591
 20
112.0586664797
 10
169.7937379488
 20
112.0321409278
  0
LWPOLYLINE
  5
388
100
AcDbEntity
  8
ASSI
100
AcDbPolyline
 62
7
  6
CONTINUOUS
 90
24
 70
0
 10
169.4000083602
 20
112.7140864273
 10
169.4181288105
 20
112.7030767293
 10
169.4421068694
 20
112.686870249
 10
169.4669832554
 20
112.6681114735
 10
169.4923588073
 20
112.6469211976
 10
169.5180027111
 20
112.6233444665
 10
169.5437012163
 20
112.5974415363
 10
169.5691170694
 20
112.5694342333
 10
169.5940361706
 20
112.5394636101
 10
169.6182525337
 20
112.5076928843
 10
169.6414819905
 20
112.4744297491
 10
169.663542918
 20
112.4398923965
 10
169.684271463
 20
112.4043103707
 10
169.7034570077
 20
112.3680435999
 10
169.7209777697
 20
112.3313490235
 10
169.7367318794
 20
112.2944903138
 10
169.7505917341
 20
112.257860936
 10
169.7625132525
 20
112.2217218772
 10
169.7724742937
 20
112.1863326591
 10
169.7804456788
 20
112.1520929723
 10
169.7864755306
 20
112.1192227927
 10
169.7906323184
 20
112.0879468651
 10
169.7930028591
 20
112.0586664797
 10
169.7937379488
 20
112.0321409278
  0
LWPOLYLINE
  5
389
100
AcDbEntity
  8
0
100
AcDbPolyline
 62
250
  6
CONTINUOUS
 90
4
 70
0
 10
169.3585475526
 20
112.8056593456
 10
169.3958148749
 20
112.7824826977
 10
169.4324689082
 20
112.7565649727
 10
169.4685096525
 20
112.7279061707
  0
LWPOLYLINE
  5
38A
100
AcDbEntity
  8
ASSI
100
AcDbPolyline
 62
250
  6
CONTINUOUS
 90
4
 70
0
 10
169.3585475526
 20
112.8056593456
 10
169.3958148749
 20
112.7824826977
 10
169.4324689082
 20
112.7565649727
 10
169.4685096525
 20
112.7279061707
  0
LWPOLYLINE
  5
38B
100
AcDbEntity
  8
0
100
AcDbPolyline
 62
250
  6
CONTINUOUS
 90
8
 70
0
 10
169.8523165658
 20
111.9504263284
 10
169.8357782613
 20
111.9612512045
 10
169.8217080925
 20
111.9731828072
 10
169.8103259072
 20
111.986034704
 10
169.8018095532
 20
111.9996060828
 10
169.7962920994
 20
112.0136848892
 10
169.7938597566
 20
112.0280511406
 10
169.793737922
 20
112.032081247
  0
LWPOLYLINE
  5
38C
100
AcDbEntity
  8
ASSI
100
AcDbPolyline
 62
250
  6
CONTINUOUS
 90
8
 70
0
 10
169.8523165658
 20
111.9504263284
 10
169.8357782613
 20
111.9612512045
 10
169.8217080925
 20
111.9731828072
 10
169.8103259072
 20
111.986034704
 10
169.8018095532
 20
111.9996060828
 10
169.7962920994
 20
112.0136848892
 10
169.7938597566
 20
112.0280511406
 10
169.793737922
 20
112.032081247
  0
LWPOLYLINE
  5
38D
100
AcDbEntity
  8
0
100
AcDbPolyline
 62
250
  6
CONTINUOUS
 90
15
 70
0
 10
169.4685096525
 20
112.7279061707
 10
169.5041373755
 20
112.696308937
 10
169.5391518095
 20
112.6619706263
 10
169.5729521515
 20
112.6254833025
 10
169.6055053782
 20
112.5868238423
 10
169.6368445129
 20
112.546015369
 10
169.6664678226
 20
112.5037193164
 10
169.6943455142
 20
112.4599251618
 10
169.7205073808
 20
112.4146434279
 10
169.7445410694
 20
112.3685671168
 10
169.7664244431
 20
112.3216725739
 10
169.7861796387
 20
112.2739834537
 10
169.8034607137
 20
112.2262637213
 10
169.8182331756
 20
112.1784126273
 10
169.830531517
 20
112.1305309211
  0
LWPOLYLINE
  5
38E
100
AcDbEntity
  8
ASSI
100
AcDbPolyline
 62
250
  6
CONTINUOUS
 90
15
 70
0
 10
169.4685096525
 20
112.7279061707
 10
169.5041373755
 20
112.696308937
 10
169.5391518095
 20
112.6619706263
 10
169.5729521515
 20
112.6254833025
 10
169.6055053782
 20
112.5868238423
 10
169.6368445129
 20
112.546015369
 10
169.6664678226
 20
112.5037193164
 10
169.6943455142
 20
112.4599251618
 10
169.7205073808
 20
112.4146434279
 10
169.7445410694
 20
112.3685671168
 10
169.7664244431
 20
112.3216725739
 10
169.7861796387
 20
112.2739834537
 10
169.8034607137
 20
112.2262637213
 10
169.8182331756
 20
112.1784126273
 10
169.830531517
 20
112.1305309211
  0
LWPOLYLINE
  5
38F
100
AcDbEntity
  8
0
100
AcDbPolyline
 62
250
  6
CONTINUOUS
 90
8
 70
0
 10
169.3585475526
 20
112.8056593456
 10
169.3596525085
 20
112.7859245506
 10
169.3629500711
 20
112.7677742667
 10
169.3683886551
 20
112.7514920677
 10
169.3758832183
 20
112.7373323322
 10
169.3853166038
 20
112.7255162466
 10
169.3965413819
 20
112.7162283645
 10
169.3999640775
 20
112.7141119729
  0
LWPOLYLINE
  5
390
100
AcDbEntity
  8
ASSI
100
AcDbPolyline
 62
250
  6
CONTINUOUS
 90
8
 70
0
 10
169.3585475526
 20
112.8056593456
 10
169.3596525085
 20
112.7859245506
 10
169.3629500711
 20
112.7677742667
 10
169.3683886551
 20
112.7514920677
 10
169.3758832183
 20
112.7373323322
 10
169.3853166038
 20
112.7255162466
 10
169.3965413819
 20
112.7162283645
 10
169.3999640775
 20
112.7141119729
  0
LINE
  5
391
100
AcDbEntity
  8
0
100
AcDbLine
 62
7
  6
CONTINUOUS
 10
169.793737922
 20
112.032081247
 11
169.793737922
 21
75.7806522265
  0
LINE
  5
392
100
AcDbEntity
  8
ASSI
100
AcDbLine
 62
7
  6
CONTINUOUS
 10
169.793737922
 20
112.032081247
 11
169.793737922
 21
75.7806522265
  0
LINE
  5
393
100
AcDbEntity
  8
0
100
AcDbLine
 62
250
  6
CONTINUOUS
 10
169.8523165658
 20
111.9504263284
 11
169.8523165658
 21
75.6989973086
  0
LINE
  5
394
100
AcDbEntity
  8
ASSI
100
AcDbLine
 62
250
  6
CONTINUOUS
 10
169.8523165658
 20
111.9504263284
 11
169.8523165658
 21
75.6989973086
  0
LWPOLYLINE
  5
395
100
AcDbEntity
  8
0
100
AcDbPolyline
 62
7
  6
CONTINUOUS
 90
12
 70
0
 10
169.7937380212
 20
75.7805372435
 10
169.7936394564
 20
75.7712320814
 10
169.7925479293
 20
75.7486004018
 10
169.7902935662
 20
75.7274361926
 10
169.7869402712
 20
75.7078841594
 10
169.7826172954
 20
75.690289939
 10
169.7776124613
 20
75.6751645226
 10
169.7722614489
 20
75.6627045544
 10
169.7668362666
 20
75.6527902182
 10
169.7616322742
 20
75.6452827194
 10
169.7569040255
 20
75.639917838
 10
169.7528322805
 20
75.6363413785
  0
LWPOLYLINE
  5
396
100
AcDbEntity
  8
ASSI
100
AcDbPolyline
 62
7
  6
CONTINUOUS
 90
12
 70
0
 10
169.7937380212
 20
75.7805372435
 10
169.7936394564
 20
75.7712320814
 10
169.7925479293
 20
75.7486004018
 10
169.7902935662
 20
75.7274361926
 10
169.7869402712
 20
75.7078841594
 10
169.7826172954
 20
75.690289939
 10
169.7776124613
 20
75.6751645226
 10
169.7722614489
 20
75.6627045544
 10
169.7668362666
 20
75.6527902182
 10
169.7616322742
 20
75.6452827194
 10
169.7569040255
 20
75.639917838
 10
169.7528322805
 20
75.6363413785
  0
LINE
  5
397
100
AcDbEntity
  8
CURVE
100
AcDbLine
 62
7
  6
CONTINUOUS
 10
148.4978934758
 20
84.0579316877
 11
148.6427651829
 21
84.2028033948
  0
LWPOLYLINE
  5
398
100
AcDbEntity
  8
0
100
AcDbPolyline
 62
250
  6
CONTINUOUS
 90
5
 70
0
 10
169.830531517
 20
112.1305309211
 10
169.8401132731
 20
112.0836848168
 10
169.8468976225
 20
112.0382297188
 10
169.8509653868
 20
111.9938102227
 10
169.8523165658
 20
111.9504263284
  0
LWPOLYLINE
  5
399
100
AcDbEntity
  8
ASSI
100
AcDbPolyline
 62
250
  6
CONTINUOUS
 90
5
 70
0
 10
169.830531517
 20
112.1305309211
 10
169.8401132731
 20
112.0836848168
 10
169.8468976225
 20
112.0382297188
 10
169.8509653868
 20
111.9938102227
 10
169.8523165658
 20
111.9504263284
  0
LWPOLYLINE
  5
39A
100
AcDbEntity
  8
0
100
AcDbPolyline
 62
250
  6
CONTINUOUS
 90
3
 70
0
 10
169.8523165658
 20
75.6989973086
 10
169.8508798154
 20
75.6567956595
 10
169.846762472
 20
75.6168498935
  0
LWPOLYLINE
  5
39B
100
AcDbEntity
  8
ASSI
100
AcDbPolyline
 62
250
  6
CONTINUOUS
 90
3
 70
0
 10
169.8523165658
 20
75.6989973086
 10
169.8508798154
 20
75.6567956595
 10
169.846762472
 20
75.6168498935
  0
LWPOLYLINE
  5
39C
100
AcDbEntity
  8
0
100
AcDbPolyline
 62
250
  6
CONTINUOUS
 90
13
 70
0
 10
169.3585475526
 20
75.4139563711
 10
169.3596524141
 20
75.4349662213
 10
169.3629497351
 20
75.4569236568
 10
169.3683879945
 20
75.4794855906
 10
169.375882219
 20
75.50229949
 10
169.3853153107
 20
75.5250088856
 10
169.3965398765
 20
75.5472589407
 10
169.4093805313
 20
75.5687019961
 10
169.4236366387
 20
75.5890030018
 10
169.4390854456
 20
75.6078447526
 10
169.4554855628
 20
75.6249328441
 10
169.4725807368
 20
75.6400002732
 10
169.4901038537
 20
75.6528116099
  0
LWPOLYLINE
  5
39D
100
AcDbEntity
  8
ASSI
100
AcDbPolyline
 62
250
  6
CONTINUOUS
 90
13
 70
0
 10
169.3585475526
 20
75.4139563711
 10
169.3596524141
 20
75.4349662213
 10
169.3629497351
 20
75.4569236568
 10
169.3683879945
 20
75.4794855906
 10
169.375882219
 20
75.50229949
 10
169.3853153107
 20
75.5250088856
 10
169.3965398765
 20
75.5472589407
 10
169.4093805313
 20
75.5687019961
 10
169.4236366387
 20
75.5890030018
 10
169.4390854456
 20
75.6078447526
 10
169.4554855628
 20
75.6249328441
 10
169.4725807368
 20
75.6400002732
 10
169.4901038537
 20
75.6528116099
  0
LINE
  5
39E
100
AcDbEntity
  8
SMUSSO
100
AcDbLine
 62
7
  6
CONTINUOUS
 10
176.6567224204
 20
54.4801163576
 11
176.6567224204
 21
125.311749957
  0
LINE
  5
39F
100
AcDbEntity
  8
ASSI
100
AcDbLine
 62
7
  6
CONTINUOUS
 10
176.6567224204
 20
54.4801163576
 11
176.6567224204
 21
125.311749957
  0
LINE
  5
3A0
100
AcDbEntity
  8
SMUSSO
100
AcDbLine
 62
7
  6
CONTINUOUS
 10
178.0951829032
 20
54.1154984535
 11
178.0951829032
 21
125.6473732857
  0
LINE
  5
3A1
100
AcDbEntity
  8
ASSI
100
AcDbLine
 62
7
  6
CONTINUOUS
 10
178.0951829032
 20
54.1154984535
 11
178.0951829032
 21
125.6473732857
  0
LINE
  5
3A2
100
AcDbEntity
  8
SMUSSO
100
AcDbLine
 62
7
  6
CONTINUOUS
 10
177.3876456339
 20
126.8728637831
 11
177.3872832037
 21
126.8482450442
  0
LINE
  5
3A3
100
AcDbEntity
  8
ASSI
100
AcDbLine
 62
7
  6
CONTINUOUS
 10
177.3876456339
 20
126.8728637831
 11
177.3872832037
 21
126.8482450442
  0
LWPOLYLINE
  5
3A4
100
AcDbEntity
  8
0
100
AcDbPolyline
 62
250
  6
CONTINUOUS
 90
20
 70
0
 10
169.846762472
 20
75.6168498935
 10
169.8399645356
 20
75.5791600106
 10
169.8304152301
 20
75.5435356344
 10
169.8181853316
 20
75.5101671412
 10
169.8034871686
 20
75.4796256606
 10
169.7862842018
 20
75.4519704206
 10
169.7666129704
 20
75.4271421932
 10
169.7447954207
 20
75.4055344232
 10
169.7208075413
 20
75.3871953757
 10
169.6946733437
 20
75.3720767856
 10
169.6667868078
 20
75.3604273028
 10
169.6371163783
 20
75.3522907077
 10
169.6056936106
 20
75.3476232198
 10
169.5730071513
 20
75.346542148
 10
169.538952498
 20
75.3491476578
 10
169.5036341532
 20
75.3553395836
 10
169.4678542708
 20
75.3649347367
 10
169.4318802356
 20
75.3778720542
 10
169.3954446628
 20
75.394212599
 10
169.3585475526
 20
75.4139563711
  0
LWPOLYLINE
  5
3A5
100
AcDbEntity
  8
ASSI
100
AcDbPolyline
 62
250
  6
CONTINUOUS
 90
20
 70
0
 10
169.846762472
 20
75.6168498935
 10
169.8399645356
 20
75.5791600106
 10
169.8304152301
 20
75.5435356344
 10
169.8181853316
 20
75.5101671412
 10
169.8034871686
 20
75.4796256606
 10
169.7862842018
 20
75.4519704206
 10
169.7666129704
 20
75.4271421932
 10
169.7447954207
 20
75.4055344232
 10
169.7208075413
 20
75.3871953757
 10
169.6946733437
 20
75.3720767856
 10
169.6667868078
 20
75.3604273028
 10
169.6371163783
 20
75.3522907077
 10
169.6056936106
 20
75.3476232198
 10
169.5730071513
 20
75.346542148
 10
169.538952498
 20
75.3491476578
 10
169.5036341532
 20
75.3553395836
 10
169.4678542708
 20
75.3649347367
 10
169.4318802356
 20
75.3778720542
 10
169.3954446628
 20
75.394212599
 10
169.3585475526
 20
75.4139563711
  0
LINE
  5
3A6
100
AcDbEntity
  8
0
100
AcDbLine
 62
250
  6
CONTINUOUS
 10
168.7622656533
 20
79.0401134033
 11
168.7685266147
 21
79.0590943624
  0
LINE
  5
3A7
100
AcDbEntity
  8
0
100
AcDbLine
 62
7
  6
CONTINUOUS
 10
162.8957813059
 20
81.0801400529
 11
162.9238114397
 21
81.1286896687
  0
LINE
  5
3A8
100
AcDbEntity
  8
0
100
AcDbLine
 62
7
  6
CONTINUOUS
 10
163.1712988131
 20
81.1491152349
 11
163.2773648303
 21
81.3328269654
  0
LINE
  5
3A9
100
AcDbEntity
  8
0
100
AcDbLine
 62
7
  6
CONTINUOUS
 10
163.5248522037
 20
81.3532525315
 11
163.6309182209
 21
81.536964262
  0
LINE
  5
3AA
100
AcDbEntity
  8
0
100
AcDbLine
 62
7
  6
CONTINUOUS
 10
163.8784055943
 20
81.5573898282
 11
163.9844716115
 21
81.7411015587
  0
LINE
  5
3AB
100
AcDbEntity
  8
0
100
AcDbLine
 62
7
  6
CONTINUOUS
 10
164.2319589849
 20
81.7615271248
 11
164.3380250021
 21
81.9452388554
  0
LINE
  5
3AC
100
AcDbEntity
  8
0
100
AcDbLine
 62
7
  6
CONTINUOUS
 10
164.5855123755
 20
81.9656644215
 11
164.6915783927
 21
82.149376152
  0
LINE
  5
3AD
100
AcDbEntity
  8
0
100
AcDbLine
 62
7
  6
CONTINUOUS
 10
164.9390657661
 20
82.1698017182
 11
165.0451317832
 21
82.3535134487
  0
LINE
  5
3AE
100
AcDbEntity
  8
SMUSSO
100
AcDbLine
 62
7
  6
CONTINUOUS
 10
178.0736815513
 20
125.6593682331
 11
178.0951829032
 21
125.6473732857
  0
LINE
  5
3AF
100
AcDbEntity
  8
ASSI
100
AcDbLine
 62
7
  6
CONTINUOUS
 10
178.0736815513
 20
125.6593682331
 11
178.0951829032
 21
125.6473732857
  0
LINE
  5
3B0
100
AcDbEntity
  8
SMUSSO
100
AcDbLine
 62
7
  6
CONTINUOUS
 10
176.3777464863
 20
125.7949504485
 11
115.0337761493
 21
161.2141901005
  0
LINE
  5
3B1
100
AcDbEntity
  8
ASSI
100
AcDbLine
 62
7
  6
CONTINUOUS
 10
176.3777464863
 20
125.7949504485
 11
115.0337761493
 21
161.2141901005
  0
LINE
  5
3B2
100
AcDbEntity
  8
SMUSSO
100
AcDbLine
 62
7
  6
CONTINUOUS
 10
177.3876456339
 20
126.8728637831
 11
115.4372290633
 21
162.6422578899
  0
LINE
  5
3B3
100
AcDbEntity
  8
ASSI
100
AcDbLine
 62
7
  6
CONTINUOUS
 10
177.3876456339
 20
126.8728637831
 11
115.4372290633
 21
162.6422578899
  0
LINE
  5
3B4
100
AcDbEntity
  8
SMUSSO
100
AcDbLine
 62
7
  6
CONTINUOUS
 10
182.157115888
 20
56.1442769678
 11
182.157115888
 21
127.9926671879
  0
LINE
  5
3B5
100
AcDbEntity
  8
ASSI
100
AcDbLine
 62
7
  6
CONTINUOUS
 10
182.157115888
 20
56.1442769678
 11
182.157115888
 21
127.9926671879
  0
LINE
  5
3B6
100
AcDbEntity
  8
0
100
AcDbLine
 62
7
  6
CONTINUOUS
 10
166.7848686024
 20
78.8346297896
 11
166.8128987362
 21
78.8831794054
  0
LINE
  5
3B7
100
AcDbEntity
  8
0
100
AcDbLine
 62
7
  6
CONTINUOUS
 10
167.0603861096
 20
78.9036049716
 11
167.1664521268
 21
79.0873167021
  0
LINE
  5
3B8
100
AcDbEntity
  8
0
100
AcDbLine
 62
7
  6
CONTINUOUS
 10
167.4139395002
 20
79.1077422682
 11
167.5200055174
 21
79.2914539987
  0
LINE
  5
3B9
100
AcDbEntity
  8
0
100
AcDbLine
 62
7
  6
CONTINUOUS
 10
167.7674928908
 20
79.3118795649
 11
167.873558908
 21
79.4955912954
  0
LINE
  5
3BA
100
AcDbEntity
  8
0
100
AcDbLine
 62
7
  6
CONTINUOUS
 10
168.1210462814
 20
79.5160168615
 11
168.2271122986
 21
79.6997285921
  0
LINE
  5
3BB
100
AcDbEntity
  8
0
100
AcDbLine
 62
7
  6
CONTINUOUS
 10
168.474599672
 20
79.7201541582
 11
168.5806656892
 21
79.9038658887
  0
LINE
  5
3BC
100
AcDbEntity
  8
0
100
AcDbLine
 62
7
  6
CONTINUOUS
 10
168.8281530626
 20
79.9242914549
 11
168.9342190798
 21
80.1080031854
  0
LINE
  5
3BD
100
AcDbEntity
  8
0
100
AcDbLine
 62
7
  6
CONTINUOUS
 10
162.9238114397
 20
81.1286896687
 11
163.0652327959
 21
81.2103445874
  0
LINE
  5
3BE
100
AcDbEntity
  8
0
100
AcDbLine
 62
7
  6
CONTINUOUS
 10
163.2773648303
 20
81.3328269654
 11
163.4187861865
 21
81.414481884
  0
LINE
  5
3BF
100
AcDbEntity
  8
0
100
AcDbLine
 62
7
  6
CONTINUOUS
 10
163.6309182209
 20
81.536964262
 11
163.7723395771
 21
81.6186191807
  0
LINE
  5
3C0
100
AcDbEntity
  8
0
100
AcDbLine
 62
7
  6
CONTINUOUS
 10
163.9844716115
 20
81.7411015587
 11
164.1258929677
 21
81.8227564774
  0
LINE
  5
3C1
100
AcDbEntity
  8
0
100
AcDbLine
 62
7
  6
CONTINUOUS
 10
164.3380250021
 20
81.9452388554
 11
164.4794463583
 21
82.026893774
  0
LINE
  5
3C2
100
AcDbEntity
  8
0
100
AcDbLine
 62
7
  6
CONTINUOUS
 10
164.6915783927
 20
82.149376152
 11
164.8329997489
 21
82.2310310707
  0
LINE
  5
3C3
100
AcDbEntity
  8
0
100
AcDbLine
 62
7
  6
CONTINUOUS
 10
165.0451317832
 20
82.3535134487
 11
165.1865531395
 21
82.4351683674
  0
LINE
  5
3C4
100
AcDbEntity
  8
0
100
AcDbLine
 62
7
  6
CONTINUOUS
 10
162.6680977166
 20
81.2116017038
 11
165.2201481421
 21
82.5383668098
  0
LINE
  5
3C5
100
AcDbEntity
  8
0
100
AcDbLine
 62
7
  6
CONTINUOUS
 10
165.2941952951
 20
82.5728106059
 11
166.6045495507
 21
83.1102729326
  0
LINE
  5
3C6
100
AcDbEntity
  8
SMUSSO
100
AcDbLine
 62
7
  6
CONTINUOUS
 10
181.4495786187
 20
129.2181576853
 11
119.2250428505
 21
165.1458247812
  0
LINE
  5
3C7
100
AcDbEntity
  8
ASSI
100
AcDbLine
 62
7
  6
CONTINUOUS
 10
181.4495786187
 20
129.2181576853
 11
119.2250428505
 21
165.1458247812
  0
LINE
  5
3C8
100
AcDbEntity
  8
SMUSSO
100
AcDbLine
 62
7
  6
CONTINUOUS
 10
176.6567224204
 20
125.311749957
 11
176.3777464863
 21
125.7949504485
  0
LINE
  5
3C9
100
AcDbEntity
  8
ASSI
100
AcDbLine
 62
7
  6
CONTINUOUS
 10
176.6567224204
 20
125.311749957
 11
176.3777464863
 21
125.7949504485
  0
LINE
  5
3CA
100
AcDbEntity
  8
SMUSSO
100
AcDbLine
 62
7
  6
CONTINUOUS
 10
178.0736815513
 20
125.6593682331
 11
177.3872832037
 21
126.8482450442
  0
LINE
  5
3CB
100
AcDbEntity
  8
ASSI
100
AcDbLine
 62
7
  6
CONTINUOUS
 10
178.0736815513
 20
125.6593682331
 11
177.3872832037
 21
126.8482450442
  0
LINE
  5
3CC
100
AcDbEntity
  8
0
100
AcDbLine
 62
250
  6
CONTINUOUS
 10
168.7685266147
 20
79.0590943624
 11
169.1044715797
 21
79.3858479522
  0
LINE
  5
3CD
100
AcDbEntity
  8
0
100
AcDbLine
 62
7
  6
CONTINUOUS
 10
168.7724514722
 20
79.0255591617
 11
169.2014358529
 21
79.4428066308
  0
LWPOLYLINE
  5
3CE
100
AcDbEntity
  8
0
100
AcDbPolyline
 62
250
  6
CONTINUOUS
 90
5
 70
0
 10
168.7193431487
 20
78.9845331145
 10
168.7325697684
 20
78.9950945424
 10
168.7442032013
 20
79.007962884
 10
168.754132339
 20
79.023015983
 10
168.7622656533
 20
79.0401134033
  0
LINE
  5
3CF
100
AcDbEntity
  8
0
100
AcDbLine
 62
250
  6
CONTINUOUS
 10
169.4901038537
 20
75.6528116099
 11
169.793737922
 21
75.8808470939
  0
LINE
  5
3D0
100
AcDbEntity
  8
ASSI
100
AcDbLine
 62
250
  6
CONTINUOUS
 10
169.4901038537
 20
75.6528116099
 11
169.793737922
 21
75.8808470939
  0
LINE
  5
3D1
100
AcDbEntity
  8
0
100
AcDbLine
 62
7
  6
CONTINUOUS
 10
169.4664854004
 20
80.086584896
 11
167.168608876
 21
78.613062965
  0
LINE
  5
3D2
100
AcDbEntity
  8
0
100
AcDbLine
 62
250
  6
CONTINUOUS
 10
168.7138379524
 20
78.9810956328
 11
168.7193431487
 21
78.9845331145
  0
LINE
  5
3D3
100
AcDbEntity
  8
0
100
AcDbLine
 62
7
  6
CONTINUOUS
 10
167.4814315868
 20
78.4324430525
 11
169.793737922
 21
79.790736255
  0
LINE
  5
3D4
100
AcDbEntity
  8
0
100
AcDbLine
 62
7
  6
CONTINUOUS
 10
168.7138371265
 20
78.9810951536
 11
167.625208533
 21
78.3494280457
  0
LINE
  5
3D5
100
AcDbEntity
  8
0
100
AcDbLine
 62
250
  6
CONTINUOUS
 10
168.7685266147
 20
79.0590943624
 11
167.5848525351
 21
78.3727290931
  0
LINE
  5
3D6
100
AcDbEntity
  8
0
100
AcDbLine
 62
7
  6
CONTINUOUS
 10
166.8128987362
 20
78.8831794054
 11
166.9543200924
 21
78.9648343241
  0
LINE
  5
3D7
100
AcDbEntity
  8
0
100
AcDbLine
 62
7
  6
CONTINUOUS
 10
167.1664521268
 20
79.0873167021
 11
167.307873483
 21
79.1689716207
  0
LINE
  5
3D8
100
AcDbEntity
  8
0
100
AcDbLine
 62
7
  6
CONTINUOUS
 10
167.5200055174
 20
79.2914539987
 11
167.6614268736
 21
79.3731089174
  0
LINE
  5
3D9
100
AcDbEntity
  8
0
100
AcDbLine
 62
7
  6
CONTINUOUS
 10
167.873558908
 20
79.4955912954
 11
168.0149802642
 21
79.5772462141
  0
LINE
  5
3DA
100
AcDbEntity
  8
0
100
AcDbLine
 62
7
  6
CONTINUOUS
 10
168.2271122986
 20
79.6997285921
 11
168.3685336548
 21
79.7813835107
  0
LINE
  5
3DB
100
AcDbEntity
  8
0
100
AcDbLine
 62
7
  6
CONTINUOUS
 10
168.5806656892
 20
79.9038658887
 11
168.7220870454
 21
79.9855208074
  0
LINE
  5
3DC
100
AcDbEntity
  8
0
100
AcDbLine
 62
7
  6
CONTINUOUS
 10
168.9342190798
 20
80.1080031854
 11
169.075640436
 21
80.1896581041
  0
LINE
  5
3DD
100
AcDbEntity
  8
0
100
AcDbLine
 62
7
  6
CONTINUOUS
 10
169.1817064532
 20
80.1284287515
 11
166.8628969446
 21
78.7895772028
  0
LINE
  5
3DE
100
AcDbEntity
  8
0
100
AcDbLine
 62
7
  6
CONTINUOUS
 10
169.793737922
 20
80.2606325108
 11
169.5331577564
 21
80.1252868074
  0
LINE
  5
3DF
100
AcDbEntity
  8
SMUSSO
100
AcDbLine
 62
7
  6
CONTINUOUS
 10
181.4495786187
 20
129.2181576853
 11
182.157115888
 21
127.9926671879
  0
LINE
  5
3E0
100
AcDbEntity
  8
ASSI
100
AcDbLine
 62
7
  6
CONTINUOUS
 10
181.4495786187
 20
129.2181576853
 11
182.157115888
 21
127.9926671879
  0
LINE
  5
3E1
100
AcDbEntity
  8
0
100
AcDbLine
 62
7
  6
CONTINUOUS
 10
169.7526214201
 20
75.6361843441
 11
169.7522290986
 21
75.6358905887
  0
LINE
  5
3E2
100
AcDbEntity
  8
ASSI
100
AcDbLine
 62
7
  6
CONTINUOUS
 10
169.7526214201
 20
75.6361843441
 11
169.7522290986
 21
75.6358905887
  0
LWPOLYLINE
  5
3E3
100
AcDbEntity
  8
0
100
AcDbPolyline
 62
250
  6
CONTINUOUS
 90
13
 70
0
 10
169.7522290986
 20
75.6358905887
 10
169.7450793557
 20
75.6308370969
 10
169.7264785556
 20
75.620079706
 10
169.7065857923
 20
75.6118060767
 10
169.6855070045
 20
75.6060724
 10
169.6633584349
 20
75.6029198247
 10
169.640241918
 20
75.6023699586
 10
169.6162398491
 20
75.6044535747
 10
169.5915326237
 20
75.6091747195
 10
169.5663928966
 20
75.6164539698
 10
169.5410240026
 20
75.6261973026
 10
169.5155422812
 20
75.6383460173
 10
169.4901038537
 20
75.6528116099
  0
LWPOLYLINE
  5
3E4
100
AcDbEntity
  8
ASSI
100
AcDbPolyline
 62
250
  6
CONTINUOUS
 90
13
 70
0
 10
169.7522290986
 20
75.6358905887
 10
169.7450793557
 20
75.6308370969
 10
169.7264785556
 20
75.620079706
 10
169.7065857923
 20
75.6118060767
 10
169.6855070045
 20
75.6060724
 10
169.6633584349
 20
75.6029198247
 10
169.640241918
 20
75.6023699586
 10
169.6162398491
 20
75.6044535747
 10
169.5915326237
 20
75.6091747195
 10
169.5663928966
 20
75.6164539698
 10
169.5410240026
 20
75.6261973026
 10
169.5155422812
 20
75.6383460173
 10
169.4901038537
 20
75.6528116099
  0
LINE
  5
3E5
100
AcDbEntity
  8
SMUSSO
100
AcDbLine
 62
7
  6
CONTINUOUS
 10
176.3777464863
 20
54.319070282
 11
176.6567224204
 21
54.4801163576
  0
LINE
  5
3E6
100
AcDbEntity
  8
ASSI
100
AcDbLine
 62
7
  6
CONTINUOUS
 10
176.3777464863
 20
54.319070282
 11
176.6567224204
 21
54.4801163576
  0
LINE
  5
3E7
100
AcDbEntity
  8
SMUSSO
100
AcDbLine
 62
7
  6
CONTINUOUS
 10
177.3872832037
 20
53.7076956973
 11
178.0736815513
 21
54.1039369018
  0
LINE
  5
3E8
100
AcDbEntity
  8
ASSI
100
AcDbLine
 62
7
  6
CONTINUOUS
 10
177.3872832037
 20
53.7076956973
 11
178.0736815513
 21
54.1039369018
  0
LINE
  5
3E9
100
AcDbEntity
  8
SMUSSO
100
AcDbLine
 62
7
  6
CONTINUOUS
 10
182.157115888
 20
56.1442769678
 11
181.4495786187
 21
55.7358327739
  0
LINE
  5
3EA
100
AcDbEntity
  8
ASSI
100
AcDbLine
 62
7
  6
CONTINUOUS
 10
182.157115888
 20
56.1442769678
 11
181.4495786187
 21
55.7358327739
  0
LINE
  5
3EB
100
AcDbEntity
  8
SMUSSO
100
AcDbLine
 62
7
  6
CONTINUOUS
 10
178.0951829032
 20
54.1154984535
 11
178.0736815513
 21
54.1039369018
  0
LINE
  5
3EC
100
AcDbEntity
  8
ASSI
100
AcDbLine
 62
7
  6
CONTINUOUS
 10
178.0951829032
 20
54.1154984535
 11
178.0736815513
 21
54.1039369018
  0
LINE
  5
3ED
100
AcDbEntity
  8
SMUSSO
100
AcDbLine
 62
7
  6
CONTINUOUS
 10
178.0951829032
 20
54.1154984535
 11
182.157115888
 21
56.1442769678
  0
LINE
  5
3EE
100
AcDbEntity
  8
ASSI
100
AcDbLine
 62
7
  6
CONTINUOUS
 10
178.0951829032
 20
54.1154984535
 11
182.157115888
 21
56.1442769678
  0
LINE
  5
3EF
100
AcDbEntity
  8
SMUSSO
100
AcDbLine
 62
7
  6
CONTINUOUS
 10
177.3876456339
 20
53.7070542596
 11
181.4495786187
 21
55.7358327739
  0
LINE
  5
3F0
100
AcDbEntity
  8
ASSI
100
AcDbLine
 62
7
  6
CONTINUOUS
 10
177.3876456339
 20
53.7070542596
 11
181.4495786187
 21
55.7358327739
  0
ARC
  5
3F1
100
AcDbEntity
  8
0
100
AcDbCircle
 62
7
  6
CONTINUOUS
 10
168.5631177241
 20
79.2407430793
 40
0.3
100
AcDbArc
 50
300.1089963766
 51
314.2001405093
  0
ARC
  5
3F2
100
AcDbEntity
  8
0
100
AcDbCircle
 62
7
  6
CONTINUOUS
 10
136.7433125707
 20
97.613099779
 40
0.3
100
AcDbArc
 50
300.1089963766
 51
314.2001405093
  0
ELLIPSE
  5
3F3
100
AcDbEntity
  8
0
100
AcDbEllipse
 62
7
  6
CONTINUOUS
 10
138.7445719092
 20
98.6172176596
 30
0.0
 11
0.1999995634
 21
0.1164181051
 31
0.0
 40
0.0035896273
 41
-0.7351277754
 42
-0.6748017824
  0
ELLIPSE
  5
3F4
100
AcDbEntity
  8
0
100
AcDbEllipse
 62
7
  6
CONTINUOUS
 10
166.738375672
 20
83.0253110459
 30
0.0
 11
0.1998333781
 21
-0.0157785196
 31
0.0
 40
0.5172961965
 41
0.8262203412
 42
2.3446567905
  0
ELLIPSE
  5
3F5
100
AcDbEntity
  8
0
100
AcDbEllipse
 62
7
  6
CONTINUOUS
 10
134.9185705186
 20
101.3976677457
 30
0.0
 11
0.1998333781
 21
-0.0157785196
 31
0.0
 40
0.5172961965
 41
0.8262203412
 42
2.3446567905
  0
ELLIPSE
  5
3F6
100
AcDbEntity
  8
0
100
AcDbEllipse
 62
7
  6
CONTINUOUS
 10
165.2201481421
 20
81.721896533
 30
0.0
 11
0.5413005334
 21
0.8416911418
 31
0.0
 40
0.6067084637
 41
0.7148472392
 42
0.8145158917
  0
ELLIPSE
  5
3F7
100
AcDbEntity
  8
0
100
AcDbEllipse
 62
7
  6
CONTINUOUS
 10
133.4003429887
 20
100.0942532328
 30
0.0
 11
0.5413005334
 21
0.8416911418
 31
0.0
 40
0.6067084637
 41
0.7148472392
 42
0.8145158917
  0
ELLIPSE
  5
3F8
100
AcDbEntity
  8
0
100
AcDbEllipse
 62
7
  6
CONTINUOUS
 10
138.7445719092
 20
99.1885824938
 30
0.0
 11
0.1998333781
 21
-0.0157785196
 31
0.0
 40
0.5172961965
 41
-0.692216108
 42
0.8262203412
  0
ELLIPSE
  5
3F9
100
AcDbEntity
  8
0
100
AcDbEllipse
 62
7
  6
CONTINUOUS
 10
169.4664854004
 20
79.2701146192
 30
0.0
 11
0.4625183445
 21
0.8873459255
 31
0.0
 40
0.5463614449
 41
0.662201126
 42
0.7618697785
  0
ELLIPSE
  5
3FA
100
AcDbEntity
  8
0
100
AcDbEllipse
 62
7
  6
CONTINUOUS
 10
137.646680247
 20
97.642471319
 30
0.0
 11
0.4625183445
 21
0.8873459255
 31
0.0
 40
0.5463614449
 41
0.662201126
 42
0.7618697785
  0
ELLIPSE
  5
3FB
100
AcDbEntity
  8
RACCORDO
100
AcDbEllipse
 62
7
  6
CONTINUOUS
 10
123.2559843565
 20
103.9923324971
 30
0.0
 11
-0.2500122581
 21
0.4330056244
 31
0.0
 40
0.5801478137
 41
0.7877823601
 42
2.353712702
  0
ELLIPSE
  5
3FC
100
AcDbEntity
  8
ASSI
100
AcDbEllipse
 62
7
  6
CONTINUOUS
 10
123.2559843565
 20
103.9923324971
 30
0.0
 11
-0.2500122581
 21
0.4330056244
 31
0.0
 40
0.5801478137
 41
0.7877823601
 42
2.353712702
  0
ENDSEC
  0
SECTION
  2
OBJECTS
  0
DICTIONARY
  5
C
100
AcDbDictionary
280
0
281
1
  3
ACAD_GROUP
350
D
  3
ACAD_MLINESTYLE
350
17
  3
ACAD_LAYOUT
350
1A
  3
ACAD_PLOTSETTINGS
350
19
  3
ACAD_PLOTSTYLENAME
350
E
  0
DICTIONARY
  5
D
102
{ACAD_REACTORS
330
C
102
}
100
AcDbDictionary
280
0
281
1
  0
ACDBDICTIONARYWDFLT
  5
E
102
{ACAD_REACTORS
330
C
102
}
100
AcDbDictionary
281
1
  3
Normal
350
F
100
AcDbDictionaryWithDefault
340
F
  0
DICTIONARY
  5
17
102
{ACAD_REACTORS
330
C
102
}
100
AcDbDictionary
280
0
281
1
  3
Standard
350
18
  0
DICTIONARY
  5
19
102
{ACAD_REACTORS
330
C
102
}
100
AcDbDictionary
281
1
  0
DICTIONARY
  5
1A
102
{ACAD_REACTORS
330
C
102
}
100
AcDbDictionary
281
1
  3
Model
350
3FD
  3
Layout1
350
3FE
  0
ACDBPLACEHOLDER
  5
F
102
{ACAD_REACTORS
330
E
102
}
  0
MLINESTYLE
  5
18
102
{ACAD_REACTORS
330
17
102
}
100
AcDbMlineStyle
  2
STANDARD
 70
0
  3

 62
256
 51
90.0
 52
90.0
 71
2
 49
0.5
 62
256
  6
BYLAYER
 49
-0.5
 62
256
  6
BYLAYER
  0
LAYOUT
  5
3FD
102
{ACAD_REACTORS
330
1A
102
}
100
AcDbPlotSettings
  1

  2
none_device
  4
ISO_A4_(297.00_x_210.00_MM)
  6

 40
0.0
 41
0.0
 42
0.0
 43
0.0
 44
297.0
 45
210.0
 46
0.0
 47
0.0
 48
0.0
 49
0.0
140
0.0
141
0.0
142
1.0
143
1.0
 70
1024
 72
1
 73
0
 74
0
  7

 75
0
147
1.0
148
0.0
149
0.0
100
AcDbLayout
  1
Model
 70
0
 71
0
 10
0.0
 20
0.0
 11
297.0
 21
210.0
 12
0.0
 22
0.0
 32
0.0
 14
0.0
 24
0.0
 34
0.0
 15
0.0
 25
0.0
 35
0.0
146
0.0
 13
0.0
 23
0.0
 33
0.0
 16
1.0
 26
0.0
 36
0.0
 17
0.0
 27
1.0
 37
0.0
 76
0
330
21C
345
0
346
0
  0
LAYOUT
  5
3FE
102
{ACAD_REACTORS
330
1A
102
}
100
AcDbPlotSettings
  1

  2
none_device
  4
ISO_A4_(297.00_x_210.00_MM)
  6

 40
0.0
 41
0.0
 42
0.0
 43
0.0
 44
297.0
 45
210.0
 46
0.0
 47
0.0
 48
0.0
 49
0.0
140
0.0
141
0.0
142
1.0
143
1.0
 70
0
 72
1
 73
0
 74
0
  7

 75
0
147
1.0
148
0.0
149
0.0
100
AcDbLayout
  1
Layout1
 70
0
 71
1
 10
0.0
 20
0.0
 11
297.0
 21
210.0
 12
0.0
 22
0.0
 32
0.0
 14
0.0
 24
0.0
 34
0.0
 15
0.0
 25
0.0
 35
0.0
146
0.0
 13
0.0
 23
0.0
 33
0.0
 16
1.0
 26
0.0
 36
0.0
 17
0.0
 27
1.0
 37
0.0
 76
0
330
21D
345
0
346
0
  0
ENDSEC
  0
EOF
