  0
SECTION
  2
HEADER
  9
$ACADVER
  1
AC1024
  9
$DWGCODEPAGE
  3
ANSI_1252
  9
$EXTMAX
 10
297.0
 20
210.0
 30
0.0
  9
$EXTMIN
 10
0.0
 20
0.0
 30
0.0
  9
$LIMMIN
 10
0.0
 20
0.0
  9
$LIMMAX
 10
297.0
 20
210.0
  9
$VIEWCTR
 10
148.5
 20
105.0
  9
$VIEWSIZE
 40
210.0
  9
$CLAYER
  8
0
  9
$LTSCALE
 40
16.335
  9
$CELTYPE
  6
BYLAYER
  9
$DIMSCALE
 40
1.0
  9
$DIMASZ
 40
3.0
  9
$DIMEXO
 40
0.5
  9
$DIMDLI
 40
11.286
  9
$DIMEXE
 40
1.5
  9
$DIMCEN
 40
2.673
  9
$DIMLFAC
 40
1.0
  9
$DIMBLK
  1
_FILLED
  9
$DIMALT
 70
0
  9
$DIMALTF
 40
0.0393700787
  9
$DIMTXT
 40
3.0
  9
$DIMTOL
 70
1
  9
$DIMLIM
 70
0
  9
$DIMTFAC
 40
1.0
  9
$DIMTP
 40
0.01
  9
$DIMTM
 40
0.01
  9
$DIMGAP
 40
0.625
  9
$DIMDSEP
 70
44
  9
$AUNITS
 70
0
  9
$PDMODE
 70
3
  9
$PDSIZE
 40
3.0
  9
$HANDSEED
  5
2E2
  9
$TILEMODE
 70
1
  9
$MEASUREMENT
 70
1
  9
$INSUNITS
 70
4
  0
ENDSEC
  0
SECTION
  2
CLASSES
  0
CLASS
  1
ACDBDICTIONARYWDFLT
  2
AcDbDictionaryWithDefault
  3
AutoCAD 2000
 90
0
 91
1
280
0
281
0
  0
CLASS
  1
ACDBPLACEHOLDER
  2
AcDbPlaceHolder
  3
AutoCAD 2000
 90
0
 91
1
280
0
281
0
  0
CLASS
  1
LAYOUT
  2
AcDbLayout
  3
AutoCAD 2000
 90
0
 91
0
280
0
281
0
  0
ENDSEC
  0
SECTION
  2
TABLES
  0
TABLE
  2
VPORT
  5
8
100
AcDbSymbolTable
 70
2
  0
VPORT
  5
1F4
100
AcDbSymbolTableRecord
100
AcDbViewportTableRecord
  2
*ACTIVE
 70
0
 10
0.0
 20
0.0
 11
1.0
 21
1.0
 12
148.5
 22
105.0
 13
0.0
 23
0.0
 14
1.0
 24
1.0
 15
0.0
 25
0.0
 16
0.0
 26
0.0
 36
1.0
 17
0.0
 27
0.0
 37
0.0
 40
210.0
 41
1.4142857143
 42
50.0
 43
0.0
 44
0.0
 50
0.0
 51
0.0
 71
0
 72
100
 73
1
 74
1
 75
0
 76
0
 77
0
 78
0
  0
ENDTAB
  0
TABLE
  2
LTYPE
  5
5
100
AcDbSymbolTable
 70
6
  0
LTYPE
  5
14
100
AcDbSymbolTableRecord
100
AcDbLinetypeTableRecord
  2
BYBLOCK
 70
0
  3

 72
65
 73
0
 40
0.0
  0
LTYPE
  5
15
100
AcDbSymbolTableRecord
100
AcDbLinetypeTableRecord
  2
BYLAYER
 70
0
  3

 72
65
 73
0
 40
0.0
  0
LTYPE
  5
16
100
AcDbSymbolTableRecord
100
AcDbLinetypeTableRecord
  2
CONTINUOUS
 70
64
  3
Solid line
 72
65
 73
0
 40
0.0
  0
LTYPE
  5
1F5
100
AcDbSymbolTableRecord
100
AcDbLinetypeTableRecord
  2
CENTER
 70
64
  3
____ _ ____ _ ____ _ ____ _ ____ _ ____ _ ____
 72
65
 73
4
 40
0.6
 49
0.375
 74
0
 49
-0.075
 74
0
 49
0.075
 74
0
 49
-0.075
 74
0
  0
LTYPE
  5
1F6
100
AcDbSymbolTableRecord
100
AcDbLinetypeTableRecord
  2
HIDDEN
 70
64
  3
- - - - - - - - - - - - - - - - - - - -
 72
65
 73
2
 40
0.2
 49
0.1
 74
0
 49
-0.1
 74
0
  0
LTYPE
  5
1F7
100
AcDbSymbolTableRecord
100
AcDbLinetypeTableRecord
  2
PHANTOM
 70
64
  3
_____ _ _ _____ _ _ _____ _ _ _____
 72
65
 73
6
 40
0.8
 49
0.45
 74
0
 49
-0.05
 74
0
 49
0.1
 74
0
 49
-0.05
 74
0
 49
0.1
 74
0
 49
-0.05
 74
0
  0
LTYPE
  5
1F8
100
AcDbSymbolTableRecord
100
AcDbLinetypeTableRecord
  2
DOT
 70
64
  3
. . . . . . . . . . . . . . . . . . . .
 72
65
 73
2
 40
0.2
 49
0.1
 74
0
 49
-0.1
 74
0
  0
LTYPE
  5
1F9
100
AcDbSymbolTableRecord
100
AcDbLinetypeTableRecord
  2
DASHED
 70
64
  3
- - - - - - - - - - - - - - - - - - - -
 72
65
 73
2
 40
0.2
 49
0.1
 74
0
 49
-0.1
 74
0
  0
ENDTAB
  0
TABLE
  2
LAYER
  5
2
100
AcDbSymbolTable
 70
36
  0
LAYER
  5
10
100
AcDbSymbolTableRecord
100
AcDbLayerTableRecord
  2
0
 70
0
 62
7
  6
CONTINUOUS
370
-3
390
F
  0
LAYER
  5
1FA
100
AcDbSymbolTableRecord
100
AcDbLayerTableRecord
  2
DEFAULT_1
 70
0
 62
7
  6
CENTER
370
-3
390
F
  0
LAYER
  5
1FB
100
AcDbSymbolTableRecord
100
AcDbLayerTableRecord
  2
DEFAULT_2
 70
0
 62
7
  6
HIDDEN
370
-3
390
F
  0
LAYER
  5
1FC
100
AcDbSymbolTableRecord
100
AcDbLayerTableRecord
  2
DEFAULT_3
 70
0
 62
7
  6
PHANTOM
370
-3
390
F
  0
LAYER
  5
1FD
100
AcDbSymbolTableRecord
100
AcDbLayerTableRecord
  2
ASSI
 70
0
 62
7
  6
CONTINUOUS
370
-3
390
F
  0
LAYER
  5
1FE
100
AcDbSymbolTableRecord
100
AcDbLayerTableRecord
  2
COORDINATE
 70
0
 62
7
  6
CONTINUOUS
370
-3
390
F
  0
LAYER
  5
1FF
100
AcDbSymbolTableRecord
100
AcDbLayerTableRecord
  2
COORD_ORIGINE
 70
0
 62
7
  6
CONTINUOUS
370
-3
390
F
  0
LAYER
  5
200
100
AcDbSymbolTableRecord
100
AcDbLayerTableRecord
  2
COPY_PUBLISH
 70
0
 62
7
  6
CONTINUOUS
370
-3
390
F
  0
LAYER
  5
201
100
AcDbSymbolTableRecord
100
AcDbLayerTableRecord
  2
COSMETIC
 70
0
 62
7
  6
CONTINUOUS
370
-3
390
F
  0
LAYER
  5
202
100
AcDbSymbolTableRecord
100
AcDbLayerTableRecord
  2
COSMETICI
 70
0
 62
7
  6
CONTINUOUS
370
-3
390
F
  0
LAYER
  5
203
100
AcDbSymbolTableRecord
100
AcDbLayerTableRecord
  2
CURVE
 70
0
 62
7
  6
CONTINUOUS
370
-3
390
F
  0
LAYER
  5
204
100
AcDbSymbolTableRecord
100
AcDbLayerTableRecord
  2
CURVE_COSTRUZIONE
 70
0
 62
7
  6
CONTINUOUS
370
-3
390
F
  0
LAYER
  5
205
100
AcDbSymbolTableRecord
100
AcDbLayerTableRecord
  2
CURVE_TASSELLI
 70
0
 62
7
  6
CONTINUOUS
370
-3
390
F
  0
LAYER
  5
206
100
AcDbSymbolTableRecord
100
AcDbLayerTableRecord
  2
DRAFT
 70
0
 62
7
  6
CONTINUOUS
370
-3
390
F
  0
LAYER
  5
207
100
AcDbSymbolTableRecord
100
AcDbLayerTableRecord
  2
IMPORT_IGES
 70
0
 62
7
  6
CONTINUOUS
370
-3
390
F
  0
LAYER
  5
208
100
AcDbSymbolTableRecord
100
AcDbLayerTableRecord
  2
INTFCLR_2
 70
0
 62
7
  6
CONTINUOUS
370
-3
390
F
  0
LAYER
  5
209
100
AcDbSymbolTableRecord
100
AcDbLayerTableRecord
  2
INTF_1
 70
0
 62
7
  6
CONTINUOUS
370
-3
390
F
  0
LAYER
  5
20A
100
AcDbSymbolTableRecord
100
AcDbLayerTableRecord
  2
INTF_7
 70
0
 62
7
  6
CONTINUOUS
370
-3
390
F
  0
LAYER
  5
20B
100
AcDbSymbolTableRecord
100
AcDbLayerTableRecord
  2
INTF_CYAN
 70
0
 62
7
  6
CONTINUOUS
370
-3
390
F
  0
LAYER
  5
20C
100
AcDbSymbolTableRecord
100
AcDbLayerTableRecord
  2
NOTE
 70
0
 62
7
  6
CONTINUOUS
370
-3
390
F
  0
LAYER
  5
20D
100
AcDbSymbolTableRecord
100
AcDbLayerTableRecord
  2
PIANI
 70
0
 62
7
  6
CONTINUOUS
370
-3
390
F
  0
LAYER
  5
20E
100
AcDbSymbolTableRecord
100
AcDbLayerTableRecord
  2
PIANI_ORIGINE
 70
0
 62
7
  6
CONTINUOUS
370
-3
390
F
  0
LAYER
  5
20F
100
AcDbSymbolTableRecord
100
AcDbLayerTableRecord
  2
PIANI_RIFERIMENTO
 70
0
 62
7
  6
CONTINUOUS
370
-3
390
F
  0
LAYER
  5
210
100
AcDbSymbolTableRecord
100
AcDbLayerTableRecord
  2
PUNTI
 70
0
 62
7
  6
CONTINUOUS
370
-3
390
F
  0
LAYER
  5
211
100
AcDbSymbolTableRecord
100
AcDbLayerTableRecord
  2
RACCORDO
 70
0
 62
7
  6
CONTINUOUS
370
-3
390
F
  0
LAYER
  5
212
100
AcDbSymbolTableRecord
100
AcDbLayerTableRecord
  2
RGB__255__255__255__
 70
0
 62
7
  6
CONTINUOUS
370
-3
390
F
  0
LAYER
  5
213
100
AcDbSymbolTableRecord
100
AcDbLayerTableRecord
  2
RGB____0____0____0__
 70
0
 62
7
  6
CONTINUOUS
370
-3
390
F
  0
LAYER
  5
214
100
AcDbSymbolTableRecord
100
AcDbLayerTableRecord
  2
SIMBOLI
 70
0
 62
7
  6
CONTINUOUS
370
-3
390
F
  0
LAYER
  5
215
100
AcDbSymbolTableRecord
100
AcDbLayerTableRecord
  2
SMUSSO
 70
0
 62
7
  6
CONTINUOUS
370
-3
390
F
  0
LAYER
  5
216
100
AcDbSymbolTableRecord
100
AcDbLayerTableRecord
  2
SNAPLINE
 70
0
 62
7
  6
CONTINUOUS
370
-3
390
F
  0
LAYER
  5
217
100
AcDbSymbolTableRecord
100
AcDbLayerTableRecord
  2
SUPERFICI
 70
0
 62
7
  6
CONTINUOUS
370
-3
390
F
  0
LAYER
  5
218
100
AcDbSymbolTableRecord
100
AcDbLayerTableRecord
  2
TRASH
 70
0
 62
7
  6
CONTINUOUS
370
-3
390
F
  0
LAYER
  5
219
100
AcDbSymbolTableRecord
100
AcDbLayerTableRecord
  2
WHITE
 70
0
 62
7
  6
CONTINUOUS
370
-3
390
F
  0
LAYER
  5
21A
100
AcDbSymbolTableRecord
100
AcDbLayerTableRecord
  2
XSEC_DATUMS
 70
0
 62
7
  6
CONTINUOUS
370
-3
390
F
  0
ENDTAB
  0
TABLE
  2
STYLE
  5
3
100
AcDbSymbolTable
 70
1
  0
STYLE
  5
11
100
AcDbSymbolTableRecord
100
AcDbTextStyleTableRecord
  2
STANDARD
 70
0
 40
0.0
 41
0.8
 50
0.0
 71
0
 42
0.2
  3
txt
  4

  0
STYLE
  5
21B
100
AcDbSymbolTableRecord
100
AcDbTextStyleTableRecord
  2
TEXTSTYLE_1
 70
0
 40
0.0
 41
0.8
 50
0.0
 71
0
 42
0.2
  3
gdt
  4

  0
ENDTAB
  0
TABLE
  2
VIEW
  5
6
100
AcDbSymbolTable
 70
0
  0
ENDTAB
  0
TABLE
  2
UCS
  5
7
100
AcDbSymbolTable
 70
0
  0
ENDTAB
  0
TABLE
  2
APPID
  5
9
100
AcDbSymbolTable
 70
1
  0
APPID
  5
21C
100
AcDbSymbolTableRecord
100
AcDbRegAppTableRecord
  2
ACAD
 70
0
  0
ENDTAB
  0
TABLE
  2
BLOCK_RECORD
  5
1
100
AcDbSymbolTable
 70
0
  0
BLOCK_RECORD
  5
21D
100
AcDbSymbolTableRecord
100
AcDbBlockTableRecord
  2
*Model_Space
  0
BLOCK_RECORD
  5
21E
100
AcDbSymbolTableRecord
100
AcDbBlockTableRecord
  2
*Paper_Space
  0
BLOCK_RECORD
  5
21F
100
AcDbSymbolTableRecord
100
AcDbBlockTableRecord
  2
_FILLED
  0
ENDTAB
  0
TABLE
  2
DIMSTYLE
  5
A
100
AcDbSymbolTable
 70
1
100
AcDbDimStyleTable
 71
0
  0
DIMSTYLE
105
220
100
AcDbSymbolTableRecord
100
AcDbDimStyleTableRecord
  2
STANDARD
 70
0
  3

  4

 40
1.0
 41
3.0
 42
0.5
 43
0.38
 44
1.5
 45
0.0
 46
0.0
 47
0.01
 48
0.01
140
3.0
141
0.09
142
0.0
143
25.4
144
1.0
145
0.0
146
1.0
147
0.625
 71
1.0
 72
0.0
 73
0
 74
0
 75
0
 76
0
 77
1
 78
8
 79
2
170
0
171
1
172
0
173
0
174
0
175
0
176
0
177
0
178
0
270
2
179
2
271
2
272
2
273
2
274
2
275
0
280
0
281
0
282
0
283
1
284
8
285
0
286
0
287
3
288
0
340
11
278
44
341
21F
342
21F
343
21F
344
21F
  0
ENDTAB
  0
ENDSEC
  0
SECTION
  2
BLOCKS
  0
BLOCK
  5
20
100
AcDbEntity
  8
0
100
AcDbBlockBegin
  2
*Model_Space
 70
0
 10
0.0
 20
0.0
 30
0.0
  3
*Model_Space
  1

  0
ENDBLK
  5
21
100
AcDbEntity
  8
0
100
AcDbBlockEnd
  0
BLOCK
  5
1C
100
AcDbEntity
  8
0
100
AcDbBlockBegin
  2
*Paper_Space
 70
0
 10
0.0
 20
0.0
 30
0.0
  3
*Paper_Space
  1

  0
ENDBLK
  5
1D
100
AcDbEntity
  8
0
100
AcDbBlockEnd
  0
BLOCK
  5
221
100
AcDbEntity
  8
0
100
AcDbBlockBegin
  2
_FILLED
 70
64
 10
0.0
 20
0.0
  3
_FILLED
  1

  0
SOLID
  5
222
100
AcDbEntity
  8
0
  6
BYBLOCK
 62
0
100
AcDbTrace
 10
0.0
 20
0.0
 11
-1.0
 21
0.3166666667
 12
-1.0
 22
-0.3166666667
 13
-1.0
 23
-0.3166666667
  0
ENDBLK
  5
223
100
AcDbEntity
  8
0
  6
BYBLOCK
 62
0
100
AcDbBlockEnd
  0
ENDSEC
  0
SECTION
  2
ENTITIES
  0
LINE
  5
224
100
AcDbEntity
  8
SMUSSO
100
AcDbLine
 62
7
  6
CONTINUOUS
 10
114.2870388026
 20
159.4137401505
 11
116.7619125367
 21
160.8426617723
  0
LINE
  5
225
100
AcDbEntity
  8
0
100
AcDbLine
 62
250
  6
CONTINUOUS
 10
119.7671163567
 20
161.4347151695
 11
117.7165066913
 21
160.2920483197
  0
LINE
  5
226
100
AcDbEntity
  8
0
100
AcDbLine
 62
7
  6
CONTINUOUS
 10
119.2888442033
 20
161.4962900515
 11
117.4136292769
 21
160.4663686944
  0
LINE
  5
227
100
AcDbEntity
  8
0
100
AcDbLine
 62
250
  6
CONTINUOUS
 10
121.8177260222
 20
136.2051523377
 11
122.6661379926
 21
136.6950147763
  0
LWPOLYLINE
  5
228
100
AcDbEntity
  8
0
100
AcDbPolyline
 62
7
  6
CONTINUOUS
 90
13
 70
0
 10
122.0662251674
 20
136.7544365711
 10
122.1067831253
 20
136.7748826888
 10
122.1497085942
 20
136.7907740605
 10
122.1948461504
 20
136.8020590887
 10
122.2420026519
 20
136.8086895041
 10
122.290975948
 20
136.8106369012
 10
122.3415555306
 20
136.8078930596
 10
122.3935249228
 20
136.8004699416
 10
122.4466612991
 20
136.7883995876
 10
122.5007355964
 20
136.7717344426
 10
122.555515671
 20
136.7505466857
 10
122.6107673864
 20
136.7249275028
 10
122.6662541596
 20
136.6949871578
  0
LINE
  5
229
100
AcDbEntity
  8
SMUSSO
100
AcDbLine
 62
7
  6
CONTINUOUS
 10
114.2870388026
 20
86.747846061
 11
114.2870388026
 21
159.4137401505
  0
LINE
  5
22A
100
AcDbEntity
  8
SMUSSO
100
AcDbLine
 62
7
  6
CONTINUOUS
 10
114.2870388026
 20
86.747846061
 11
177.2195423282
 21
50.4114467098
  0
LINE
  5
22B
100
AcDbEntity
  8
0
100
AcDbLine
 62
7
  6
CONTINUOUS
 10
121.110619241
 20
101.2602244909
 11
121.110619241
 21
136.2051523377
  0
LINE
  5
22C
100
AcDbEntity
  8
0
100
AcDbLine
 62
7
  6
CONTINUOUS
 10
121.8177260222
 20
101.2602244909
 11
121.8177260222
 21
136.2051523377
  0
LWPOLYLINE
  5
22D
100
AcDbEntity
  8
0
100
AcDbPolyline
 62
7
  6
CONTINUOUS
 90
28
 70
0
 10
121.110619241
 20
136.2051523377
 10
121.1127090586
 20
136.2850926582
 10
121.1187956407
 20
136.3619139181
 10
121.1288789874
 20
136.4356161174
 10
121.1430200478
 20
136.5064276756
 10
121.1611578728
 20
136.5741201732
 10
121.1831096148
 20
136.638008352
 10
121.2089141104
 20
136.6980532812
 10
121.238532523
 20
136.7542938917
 10
121.2716654954
 20
136.8061617183
 10
121.308348617
 20
136.8536121568
 10
121.3485462983
 20
136.8966898113
 10
121.3918524139
 20
136.9349600291
 10
121.4382980644
 20
136.9683740075
 10
121.4878521492
 20
136.9969805491
 10
121.5400152405
 20
137.0204914094
 10
121.5948139503
 20
137.0388552658
 10
121.6522216665
 20
137.0521234408
 10
121.7116591254
 20
137.0601616568
 10
121.7731472103
 20
137.0629168523
 10
121.8366650378
 20
137.0604420888
 10
121.9015706939
 20
137.0527622724
 10
121.9678785195
 20
137.0398243007
 10
122.0355741736
 20
137.0216812762
 10
122.1039727193
 20
136.9985174124
 10
122.1728458443
 20
136.970394114
 10
122.2424218609
 20
136.9372499764
 10
122.312700769
 20
136.8990849996
  0
LWPOLYLINE
  5
22E
100
AcDbEntity
  8
0
100
AcDbPolyline
 62
7
  6
CONTINUOUS
 90
13
 70
0
 10
121.8177260222
 20
136.2051523377
 10
121.8195421106
 20
136.2681715031
 10
121.8249829453
 20
136.3288265526
 10
121.8340257479
 20
136.3868574692
 10
121.8466324459
 20
136.4420159109
 10
121.862749494
 20
136.494064717
 10
121.8823077733
 20
136.5427792266
 10
121.9052236322
 20
136.5879504613
 10
121.9313991911
 20
136.6293849494
 10
121.9607220154
 20
136.6669044204
 10
121.9930663908
 20
136.7003480117
 10
122.028293946
 20
136.7295726433
 10
122.0662251674
 20
136.7544365711
  0
LWPOLYLINE
  5
22F
100
AcDbEntity
  8
RACCORDO
100
AcDbPolyline
 62
7
  6
CONTINUOUS
 90
25
 70
0
 10
124.2925997563
 20
102.6891855676
 10
124.2944809555
 20
102.6235690403
 10
124.2999156989
 20
102.5567169079
 10
124.3089039866
 20
102.4886291703
 10
124.3215145447
 20
102.4190045453
 10
124.337678647
 20
102.348144315
 10
124.3571901148
 20
102.2769523266
 10
124.3800918272
 20
102.2054243301
 10
124.4063409051
 20
102.1335645754
 10
124.4356025323
 20
102.0622896587
 10
124.467915299
 20
101.9916070716
 10
124.5032406151
 20
101.9215093225
 10
124.5411278938
 20
101.8528905326
 10
124.5816099533
 20
101.7857696471
 10
124.6246539755
 20
101.7201277208
 10
124.6697109187
 20
101.6568020393
 10
124.7168065683
 20
101.5958222734
 10
124.7659151389
 20
101.5371587523
 10
124.8164102337
 20
101.4815597497
 10
124.8683096138
 20
101.4290645215
 10
124.921595518
 20
101.3796338119
 10
124.9755882662
 20
101.3338981266
 10
125.0300612982
 20
101.2920676345
 10
125.085241174
 20
101.2539321667
 10
125.1411278938
 20
101.2194917235
  0
LINE
  5
230
100
AcDbEntity
  8
RACCORDO
100
AcDbLine
 62
7
  6
CONTINUOUS
 10
124.2925997563
 20
135.7559161383
 11
124.2925997563
 21
102.6891855676
  0
LINE
  5
231
100
AcDbEntity
  8
0
100
AcDbLine
 62
250
  6
CONTINUOUS
 10
124.9190674616
 20
135.3942015367
 11
124.9190674616
 21
101.3819789653
  0
LINE
  5
232
100
AcDbEntity
  8
0
100
AcDbLine
 62
7
  6
CONTINUOUS
 10
124.9892325115
 20
135.3536891163
 11
124.9892325115
 21
101.3234205476
  0
LINE
  5
233
100
AcDbEntity
  8
0
100
AcDbLine
 62
250
  6
CONTINUOUS
 10
122.312700769
 20
99.1781582117
 11
122.6662541596
 21
99.7905306468
  0
LINE
  5
234
100
AcDbEntity
  8
0
100
AcDbLine
 62
7
  6
CONTINUOUS
 10
168.4867735805
 20
72.5178272674
 11
122.312700769
 21
99.1781582117
  0
LINE
  5
235
100
AcDbEntity
  8
0
100
AcDbLine
 62
7
  6
CONTINUOUS
 10
168.8403269711
 20
73.1301997025
 11
122.6662541596
 21
99.7905306468
  0
LWPOLYLINE
  5
236
100
AcDbEntity
  8
0
100
AcDbPolyline
 62
7
  6
CONTINUOUS
 90
28
 70
0
 10
122.312700769
 20
99.1781582117
 10
122.2424231805
 20
99.2211486463
 10
122.1728482893
 20
99.2683482697
 10
122.1039760954
 20
99.3197570821
 10
122.0355782979
 20
99.3755772772
 10
121.9678831977
 20
99.4356066612
 10
121.9015756975
 20
99.4992386525
 10
121.8366700934
 20
99.5665098399
 10
121.7731520893
 20
99.6373836346
 10
121.7116636994
 20
99.7111436888
 10
121.6522257569
 20
99.7878190675
 10
121.5948174287
 20
99.8673807056
 10
121.5400182296
 20
99.9490250604
 10
121.4878548735
 20
100.0327726184
 10
121.4383006465
 20
100.118602893
 10
121.391854922
 20
100.2056508813
 10
121.3485488404
 20
100.2939293312
 10
121.3083512613
 20
100.3834254949
 10
121.2716681362
 20
100.4732361263
 10
121.2385349762
 20
100.5633648351
 10
121.2089162701
 20
100.6538080116
 10
121.183111436
 20
100.7436515809
 10
121.1611592921
 20
100.832889689
 10
121.1430210201
 20
100.9215281899
 10
121.1288795827
 20
101.0086705718
 10
121.1187959675
 20
101.0940179972
 10
121.1127091869
 20
101.1778693036
 10
121.110619241
 20
101.2602244909
  0
LWPOLYLINE
  5
237
100
AcDbEntity
  8
0
100
AcDbPolyline
 62
7
  6
CONTINUOUS
 90
25
 70
0
 10
122.6662541596
 20
99.7905306468
 10
122.6107680712
 20
99.8246645895
 10
122.5555168848
 20
99.8628482645
 10
122.5007371795
 20
99.9049187724
 10
122.4466630706
 20
99.9506969772
 10
122.3935267272
 20
99.9999870006
 10
122.3415572804
 20
100.0525767358
 10
122.2909775465
 20
100.1082409423
 10
122.2420040268
 20
100.1667415971
 10
122.1948473359
 20
100.2278272697
 10
122.1497096524
 20
100.2912360669
 10
122.1067840837
 20
100.3566967188
 10
122.0662546029
 20
100.4239286881
 10
122.0282947865
 20
100.4926440331
 10
121.9930672028
 20
100.5625484637
 10
121.9607228075
 20
100.6333423934
 10
121.9313999848
 20
100.7047229072
 10
121.9052244204
 20
100.7763840196
 10
121.882308498
 20
100.8480177757
 10
121.8627501065
 20
100.9193176978
 10
121.8466329205
 20
100.9899781847
 10
121.8340260627
 20
101.059694835
 10
121.8249831051
 20
101.1281686692
 10
121.8195421554
 20
101.1951073356
 10
121.8177260222
 20
101.2602244909
  0
LINE
  5
238
100
AcDbEntity
  8
RACCORDO
100
AcDbLine
 62
7
  6
CONTINUOUS
 10
125.1411278938
 20
101.2194917235
 11
169.6888551085
 21
75.4981923438
  0
LINE
  5
239
100
AcDbEntity
  8
0
100
AcDbLine
 62
7
  6
CONTINUOUS
 10
167.8503774774
 20
76.600727075
 11
163.9612901809
 21
78.8462373383
  0
LINE
  5
23A
100
AcDbEntity
  8
0
100
AcDbLine
 62
7
  6
CONTINUOUS
 10
136.030572324
 20
94.9730837747
 11
132.1414850275
 21
97.218594038
  0
LINE
  5
23B
100
AcDbEntity
  8
0
100
AcDbLine
 62
7
  6
CONTINUOUS
 10
168.0978648508
 20
76.6211526411
 11
164.1027115371
 21
78.9278922569
  0
LINE
  5
23C
100
AcDbEntity
  8
0
100
AcDbLine
 62
7
  6
CONTINUOUS
 10
132.2829063837
 20
97.3002489567
 11
136.2780596975
 21
94.9935093408
  0
LINE
  5
23D
100
AcDbEntity
  8
0
100
AcDbLine
 62
7
  6
CONTINUOUS
 10
168.203930868
 20
76.8048643716
 11
164.3148435715
 21
79.0503746349
  0
LINE
  5
23E
100
AcDbEntity
  8
0
100
AcDbLine
 62
7
  6
CONTINUOUS
 10
136.3841257146
 20
95.1772210714
 11
132.4950384181
 21
97.4227313347
  0
LINE
  5
23F
100
AcDbEntity
  8
0
100
AcDbLine
 62
7
  6
CONTINUOUS
 10
168.4514182414
 20
76.8252899378
 11
164.4562649277
 21
79.1320295536
  0
LINE
  5
240
100
AcDbEntity
  8
0
100
AcDbLine
 62
7
  6
CONTINUOUS
 10
132.6364597743
 20
97.5043862533
 11
136.631613088
 21
95.1976466375
  0
LINE
  5
241
100
AcDbEntity
  8
0
100
AcDbLine
 62
7
  6
CONTINUOUS
 10
168.5574842586
 20
77.0090016683
 11
164.6683969621
 21
79.2545119316
  0
LINE
  5
242
100
AcDbEntity
  8
0
100
AcDbLine
 62
7
  6
CONTINUOUS
 10
136.7376791052
 20
95.381358368
 11
132.8485918087
 21
97.6268686313
  0
LINE
  5
243
100
AcDbEntity
  8
0
100
AcDbLine
 62
7
  6
CONTINUOUS
 10
168.804971632
 20
77.0294272344
 11
164.8098183183
 21
79.3361668502
  0
LINE
  5
244
100
AcDbEntity
  8
0
100
AcDbLine
 62
7
  6
CONTINUOUS
 10
132.9900131649
 20
97.70852355
 11
136.9851664786
 21
95.4017839342
  0
LINE
  5
245
100
AcDbEntity
  8
0
100
AcDbLine
 62
7
  6
CONTINUOUS
 10
168.9110376492
 20
77.2131389649
 11
165.0219503527
 21
79.4586492282
  0
LINE
  5
246
100
AcDbEntity
  8
0
100
AcDbLine
 62
7
  6
CONTINUOUS
 10
137.0912324958
 20
95.5854956647
 11
133.2021451993
 21
97.831005928
  0
LINE
  5
247
100
AcDbEntity
  8
0
100
AcDbLine
 62
7
  6
CONTINUOUS
 10
169.1585250226
 20
77.2335645311
 11
165.1633717089
 21
79.5403041469
  0
LINE
  5
248
100
AcDbEntity
  8
0
100
AcDbLine
 62
7
  6
CONTINUOUS
 10
133.3435665555
 20
97.9126608467
 11
137.3387198692
 21
95.6059212308
  0
LINE
  5
249
100
AcDbEntity
  8
0
100
AcDbLine
 62
7
  6
CONTINUOUS
 10
169.2645910398
 20
77.4172762616
 11
165.3755037433
 21
79.6627865249
  0
LINE
  5
24A
100
AcDbEntity
  8
0
100
AcDbLine
 62
7
  6
CONTINUOUS
 10
137.4447858864
 20
95.7896329614
 11
133.5556985899
 21
98.0351432247
  0
LINE
  5
24B
100
AcDbEntity
  8
0
100
AcDbLine
 62
7
  6
CONTINUOUS
 10
169.5120784132
 20
77.4377018278
 11
165.5169250995
 21
79.7444414436
  0
LINE
  5
24C
100
AcDbEntity
  8
0
100
AcDbLine
 62
7
  6
CONTINUOUS
 10
133.6971199461
 20
98.1167981433
 11
137.6922732598
 21
95.8100585275
  0
LINE
  5
24D
100
AcDbEntity
  8
0
100
AcDbLine
 62
7
  6
CONTINUOUS
 10
169.6181444304
 20
77.6214135583
 11
165.7290571339
 21
79.8669238216
  0
LINE
  5
24E
100
AcDbEntity
  8
0
100
AcDbLine
 62
7
  6
CONTINUOUS
 10
137.798339277
 20
95.993770258
 11
133.9092519805
 21
98.2392805213
  0
LINE
  5
24F
100
AcDbEntity
  8
0
100
AcDbLine
 62
7
  6
CONTINUOUS
 10
169.6888551085
 20
77.7438959363
 11
165.8704784901
 21
79.9485787402
  0
LINE
  5
250
100
AcDbEntity
  8
0
100
AcDbLine
 62
7
  6
CONTINUOUS
 10
134.0506733367
 20
98.32093544
 11
138.0458266504
 21
96.0141958242
  0
LINE
  5
251
100
AcDbEntity
  8
0
100
AcDbLine
 62
250
  6
CONTINUOUS
 10
169.6888551085
 20
77.8664917122
 11
165.9040734927
 21
80.0517771827
  0
LINE
  5
252
100
AcDbEntity
  8
0
100
AcDbLine
 62
250
  6
CONTINUOUS
 10
138.3306055976
 20
95.9723519686
 11
134.0842683393
 21
98.4241338825
  0
LINE
  5
253
100
AcDbEntity
  8
0
100
AcDbLine
 62
250
  6
CONTINUOUS
 10
169.6888551085
 20
77.9436894064
 11
165.9781206457
 21
80.0862209788
  0
LINE
  5
254
100
AcDbEntity
  8
0
100
AcDbLine
 62
250
  6
CONTINUOUS
 10
138.3972779536
 20
96.01105388
 11
134.1583154923
 21
98.4585776785
  0
LWPOLYLINE
  5
255
100
AcDbEntity
  8
0
100
AcDbPolyline
 62
250
  6
CONTINUOUS
 90
10
 70
0
 10
137.6326468119
 20
94.944861435
 10
137.6349488706
 20
94.9394406734
 10
137.6368245678
 20
94.93433491
 10
137.6382434994
 20
94.9295795323
 10
137.639170964
 20
94.9252313002
 10
137.6395872196
 20
94.9213007952
 10
137.6394601652
 20
94.9177786219
 10
137.6387347754
 20
94.9147230097
 10
137.6373556913
 20
94.9122048565
 10
137.6365713136
 20
94.9113258882
  0
LINE
  5
256
100
AcDbEntity
  8
0
100
AcDbLine
 62
250
  6
CONTINUOUS
 10
139.5771262249
 20
96.6238687265
 11
139.5771262249
 21
96.2164990886
  0
LINE
  5
257
100
AcDbEntity
  8
0
100
AcDbLine
 62
7
  6
CONTINUOUS
 10
139.6284972598
 20
96.6904462333
 11
139.6284972598
 21
96.2470443834
  0
LINE
  5
258
100
AcDbEntity
  8
0
100
AcDbLine
 62
7
  6
CONTINUOUS
 10
132.1237227911
 20
97.1878289422
 11
132.1414850275
 21
97.218594038
  0
LINE
  5
259
100
AcDbEntity
  8
0
100
AcDbLine
 62
7
  6
CONTINUOUS
 10
132.3889724009
 20
97.2390196041
 11
132.4950384181
 21
97.4227313347
  0
LINE
  5
25A
100
AcDbEntity
  8
0
100
AcDbLine
 62
7
  6
CONTINUOUS
 10
132.7425257915
 20
97.4431569008
 11
132.8485918087
 21
97.6268686313
  0
LINE
  5
25B
100
AcDbEntity
  8
0
100
AcDbLine
 62
7
  6
CONTINUOUS
 10
133.0960791821
 20
97.6472941975
 11
133.2021451993
 21
97.831005928
  0
LINE
  5
25C
100
AcDbEntity
  8
0
100
AcDbLine
 62
7
  6
CONTINUOUS
 10
133.4496325727
 20
97.8514314941
 11
133.5556985899
 21
98.0351432247
  0
LINE
  5
25D
100
AcDbEntity
  8
0
100
AcDbLine
 62
7
  6
CONTINUOUS
 10
133.8031859633
 20
98.0555687908
 11
133.9092519805
 21
98.2392805213
  0
LINE
  5
25E
100
AcDbEntity
  8
0
100
AcDbLine
 62
250
  6
CONTINUOUS
 10
121.8177260222
 20
101.2602244909
 11
124.2925997563
 21
102.6891855676
  0
LINE
  5
25F
100
AcDbEntity
  8
0
100
AcDbLine
 62
7
  6
CONTINUOUS
 10
135.7439172255
 20
98.9764036317
 11
139.569918616
 21
96.7673183799
  0
LINE
  5
260
100
AcDbEntity
  8
0
100
AcDbLine
 62
7
  6
CONTINUOUS
 10
167.5637223789
 20
80.604046932
 11
169.6888551085
 21
79.377021928
  0
LINE
  5
261
100
AcDbEntity
  8
0
100
AcDbLine
 62
250
  6
CONTINUOUS
 10
137.6263859434
 20
94.9258807056
 11
137.6326468119
 21
94.944861435
  0
LINE
  5
262
100
AcDbEntity
  8
0
100
AcDbLine
 62
7
  6
CONTINUOUS
 10
136.0128100877
 20
94.9423186789
 11
136.030572324
 21
94.9730837747
  0
LINE
  5
263
100
AcDbEntity
  8
0
100
AcDbLine
 62
7
  6
CONTINUOUS
 10
136.2780596975
 20
94.9935093408
 11
136.3841257146
 21
95.1772210714
  0
LINE
  5
264
100
AcDbEntity
  8
0
100
AcDbLine
 62
7
  6
CONTINUOUS
 10
136.631613088
 20
95.1976466375
 11
136.7376791052
 21
95.381358368
  0
LINE
  5
265
100
AcDbEntity
  8
0
100
AcDbLine
 62
7
  6
CONTINUOUS
 10
136.9851664786
 20
95.4017839342
 11
137.0912324958
 21
95.5854956647
  0
LINE
  5
266
100
AcDbEntity
  8
0
100
AcDbLine
 62
7
  6
CONTINUOUS
 10
137.3387198692
 20
95.6059212308
 11
137.4447858864
 21
95.7896329614
  0
LINE
  5
267
100
AcDbEntity
  8
0
100
AcDbLine
 62
7
  6
CONTINUOUS
 10
137.6922732598
 20
95.8100585275
 11
137.798339277
 21
95.993770258
  0
LINE
  5
268
100
AcDbEntity
  8
0
100
AcDbLine
 62
250
  6
CONTINUOUS
 10
122.6662541596
 20
99.7905306468
 11
125.1411278938
 21
101.2194917235
  0
LINE
  5
269
100
AcDbEntity
  8
0
100
AcDbLine
 62
250
  6
CONTINUOUS
 10
121.110619241
 20
101.2602244909
 11
121.8177260222
 21
101.2602244909
  0
LINE
  5
26A
100
AcDbEntity
  8
SMUSSO
100
AcDbLine
 62
7
  6
CONTINUOUS
 10
177.2195423282
 20
123.8938110761
 11
178.9873092811
 21
124.9144975594
  0
LINE
  5
26B
100
AcDbEntity
  8
0
100
AcDbLine
 62
7
  6
CONTINUOUS
 10
132.1414850275
 20
97.218594038
 11
132.2829063837
 21
97.3002489567
  0
LINE
  5
26C
100
AcDbEntity
  8
0
100
AcDbLine
 62
7
  6
CONTINUOUS
 10
132.4950384181
 20
97.4227313347
 11
132.6364597743
 21
97.5043862533
  0
LINE
  5
26D
100
AcDbEntity
  8
0
100
AcDbLine
 62
7
  6
CONTINUOUS
 10
132.8485918087
 20
97.6268686313
 11
132.9900131649
 21
97.70852355
  0
LINE
  5
26E
100
AcDbEntity
  8
0
100
AcDbLine
 62
7
  6
CONTINUOUS
 10
133.2021451993
 20
97.831005928
 11
133.3435665555
 21
97.9126608467
  0
LINE
  5
26F
100
AcDbEntity
  8
0
100
AcDbLine
 62
7
  6
CONTINUOUS
 10
133.5556985899
 20
98.0351432247
 11
133.6971199461
 21
98.1167981433
  0
LINE
  5
270
100
AcDbEntity
  8
0
100
AcDbLine
 62
7
  6
CONTINUOUS
 10
133.9092519805
 20
98.2392805213
 11
134.0506733367
 21
98.32093544
  0
LINE
  5
271
100
AcDbEntity
  8
SMUSSO
100
AcDbLine
 62
7
  6
CONTINUOUS
 10
177.2195423282
 20
123.0773013444
 11
176.512435547
 21
122.669066206
  0
LINE
  5
272
100
AcDbEntity
  8
SMUSSO
100
AcDbLine
 62
7
  6
CONTINUOUS
 10
177.9266491093
 20
122.669066206
 11
179.6944160623
 21
123.6897526893
  0
LINE
  5
273
100
AcDbEntity
  8
0
100
AcDbLine
 62
250
  6
CONTINUOUS
 10
178.9519539421
 20
124.9354685376
 11
181.0025636075
 21
126.0781353873
  0
LINE
  5
274
100
AcDbEntity
  8
0
100
AcDbLine
 62
7
  6
CONTINUOUS
 10
131.9259112384
 20
97.3020428535
 11
134.0842683393
 21
98.4241338825
  0
LINE
  5
275
100
AcDbEntity
  8
0
100
AcDbLine
 62
250
  6
CONTINUOUS
 10
137.6326468119
 20
94.944861435
 11
137.9685917769
 21
95.2716150248
  0
LINE
  5
276
100
AcDbEntity
  8
0
100
AcDbLine
 62
7
  6
CONTINUOUS
 10
137.6365716769
 20
94.9113262416
 11
138.0655560502
 21
95.3285737034
  0
LWPOLYLINE
  5
277
100
AcDbEntity
  8
0
100
AcDbPolyline
 62
250
  6
CONTINUOUS
 90
5
 70
0
 10
137.5834646607
 20
94.8703010678
 10
137.5966908146
 20
94.880862413
 10
137.6083238772
 20
94.8937305727
 10
137.6182527863
 20
94.9087834968
 10
137.6263859434
 20
94.9258807056
  0
LINE
  5
278
100
AcDbEntity
  8
0
100
AcDbLine
 62
7
  6
CONTINUOUS
 10
138.3306055976
 20
95.9723519686
 11
136.3872121349
 21
94.7261436291
  0
LINE
  5
279
100
AcDbEntity
  8
0
100
AcDbLine
 62
250
  6
CONTINUOUS
 10
137.5779581582
 20
94.8668627104
 11
137.5834646607
 21
94.8703010678
  0
LINE
  5
27A
100
AcDbEntity
  8
0
100
AcDbLine
 62
250
  6
CONTINUOUS
 10
179.6948542481
 20
123.6487274639
 11
181.7096703887
 21
124.8533905172
  0
LINE
  5
27B
100
AcDbEntity
  8
0
100
AcDbLine
 62
7
  6
CONTINUOUS
 10
136.7164181864
 20
94.5360641809
 11
139.5771262249
 21
96.2164990886
  0
LINE
  5
27C
100
AcDbEntity
  8
0
100
AcDbLine
 62
7
  6
CONTINUOUS
 10
137.5779573304
 20
94.86686223
 11
136.8624947542
 21
94.4517214015
  0
LINE
  5
27D
100
AcDbEntity
  8
0
100
AcDbLine
 62
250
  6
CONTINUOUS
 10
137.6326468119
 20
94.944861435
 11
136.8222616574
 21
94.4749514873
  0
LINE
  5
27E
100
AcDbEntity
  8
0
100
AcDbLine
 62
7
  6
CONTINUOUS
 10
136.030572324
 20
94.9730837747
 11
136.1719936803
 21
95.0547386934
  0
LINE
  5
27F
100
AcDbEntity
  8
0
100
AcDbLine
 62
7
  6
CONTINUOUS
 10
136.3841257146
 20
95.1772210714
 11
136.5255470709
 21
95.25887599
  0
LINE
  5
280
100
AcDbEntity
  8
0
100
AcDbLine
 62
7
  6
CONTINUOUS
 10
136.7376791052
 20
95.381358368
 11
136.8791004615
 21
95.4630132867
  0
LINE
  5
281
100
AcDbEntity
  8
0
100
AcDbLine
 62
7
  6
CONTINUOUS
 10
137.0912324958
 20
95.5854956647
 11
137.2326538521
 21
95.6671505834
  0
LINE
  5
282
100
AcDbEntity
  8
0
100
AcDbLine
 62
7
  6
CONTINUOUS
 10
137.4447858864
 20
95.7896329614
 11
137.5862072426
 21
95.87128788
  0
LINE
  5
283
100
AcDbEntity
  8
0
100
AcDbLine
 62
7
  6
CONTINUOUS
 10
137.798339277
 20
95.993770258
 11
137.9397606332
 21
96.0754251767
  0
LINE
  5
284
100
AcDbEntity
  8
0
100
AcDbLine
 62
7
  6
CONTINUOUS
 10
138.0458266504
 20
96.0141958242
 11
136.1011053349
 21
94.8913381097
  0
LINE
  5
285
100
AcDbEntity
  8
0
100
AcDbLine
 62
7
  6
CONTINUOUS
 10
139.5771262249
 20
96.6238687265
 11
138.3972779536
 21
96.01105388
  0
LINE
  5
286
100
AcDbEntity
  8
0
100
AcDbLine
 62
7
  6
CONTINUOUS
 10
134.1583154923
 20
98.4585776785
 11
135.468669748
 21
98.9960400052
  0
LWPOLYLINE
  5
287
100
AcDbEntity
  8
0
100
AcDbPolyline
 62
250
  6
CONTINUOUS
 90
10
 70
0
 10
169.4524519653
 20
76.5725047353
 10
169.454754024
 20
76.5670839736
 10
169.4566297212
 20
76.5619782102
 10
169.4580486528
 20
76.5572228325
 10
169.4589761174
 20
76.5528746005
 10
169.459392373
 20
76.5489440955
 10
169.4592653186
 20
76.5454219221
 10
169.4585399288
 20
76.54236631
 10
169.4571608447
 20
76.5398481568
 10
169.456376467
 20
76.5389691885
  0
LINE
  5
288
100
AcDbEntity
  8
0
100
AcDbLine
 62
7
  6
CONTINUOUS
 10
122.312700769
 20
136.8990849996
 11
168.4867735805
 21
110.2387540553
  0
LWPOLYLINE
  5
289
100
AcDbEntity
  8
0
100
AcDbPolyline
 62
7
  6
CONTINUOUS
 90
28
 70
0
 10
168.4867735805
 20
110.2387540553
 10
168.557051169
 20
110.1957636207
 10
168.6266260602
 20
110.1485639973
 10
168.6954982541
 20
110.0971551849
 10
168.7638960516
 20
110.0413349898
 10
168.8315911518
 20
109.9813056058
 10
168.897898652
 20
109.9176736145
 10
168.9628042561
 20
109.8504024271
 10
169.0263222602
 20
109.7795286324
 10
169.0878106501
 20
109.7057685782
 10
169.1472485926
 20
109.6290931996
 10
169.2046569209
 20
109.5495315614
 10
169.25945612
 20
109.4678872067
 10
169.3116194761
 20
109.3841396487
 10
169.361173703
 20
109.2983093741
 10
169.4076194275
 20
109.2112613857
 10
169.4509255091
 20
109.1229829358
 10
169.4911230882
 20
109.0334867721
 10
169.5278062133
 20
108.9436761407
 10
169.5609393733
 20
108.8535474319
 10
169.5905580794
 20
108.7631042555
 10
169.6163629135
 20
108.6732606861
 10
169.6383150574
 20
108.5840225781
 10
169.6564533295
 20
108.4953840771
 10
169.6705947669
 20
108.4082416953
 10
169.680678382
 20
108.3228942698
 10
169.6867651626
 20
108.2390429634
 10
169.6888551085
 20
108.1566877761
  0
LINE
  5
28A
100
AcDbEntity
  8
0
100
AcDbLine
 62
7
  6
CONTINUOUS
 10
169.6888551085
 20
108.1566877761
 11
169.6888551085
 21
73.2117599293
  0
LWPOLYLINE
  5
28B
100
AcDbEntity
  8
0
100
AcDbPolyline
 62
7
  6
CONTINUOUS
 90
28
 70
0
 10
169.6888551085
 20
73.2117599293
 10
169.6867652909
 20
73.1318196088
 10
169.6806787088
 20
73.0549983489
 10
169.6705953621
 20
72.9812961496
 10
169.6564543017
 20
72.9104845914
 10
169.6383164767
 20
72.8427920939
 10
169.6163647347
 20
72.778903915
 10
169.5905602391
 20
72.7188589858
 10
169.5609418265
 20
72.6626183753
 10
169.5278088541
 20
72.6107505487
 10
169.4911257326
 20
72.5633001102
 10
169.4509280512
 20
72.5202224557
 10
169.4076219357
 20
72.4819522379
 10
169.3611762851
 20
72.4485382595
 10
169.3116222003
 20
72.4199317179
 10
169.259459109
 20
72.3964208577
 10
169.2046603992
 20
72.3780570012
 10
169.147252683
 20
72.3647888262
 10
169.0878152241
 20
72.3567506102
 10
169.0263271392
 20
72.3539954147
 10
168.9628093117
 20
72.3564701782
 10
168.8979036556
 20
72.3641499946
 10
168.83159583
 20
72.3770879663
 10
168.7639001759
 20
72.3952309908
 10
168.6955016302
 20
72.4183948546
 10
168.6266285052
 20
72.446518153
 10
168.5570524887
 20
72.4796622906
 10
168.4867735805
 20
72.5178272674
  0
LWPOLYLINE
  5
28C
100
AcDbEntity
  8
0
100
AcDbPolyline
 62
7
  6
CONTINUOUS
 90
7
 70
0
 10
169.6888551085
 20
73.6200345227
 10
169.6870390201
 20
73.5570153573
 10
169.6815981854
 20
73.4963603077
 10
169.6725553828
 20
73.4383293911
 10
169.6599486848
 20
73.3831709494
 10
169.6438316367
 20
73.3311221433
 10
169.6242733574
 20
73.2824076337
  0
LINE
  5
28D
100
AcDbEntity
  8
SMUSSO
100
AcDbLine
 62
7
  6
CONTINUOUS
 10
176.512435547
 20
50.8196818482
 11
176.512435547
 21
122.669066206
  0
LINE
  5
28E
100
AcDbEntity
  8
SMUSSO
100
AcDbLine
 62
7
  6
CONTINUOUS
 10
177.2195423282
 20
123.8938110761
 11
177.2195423282
 21
123.0773013444
  0
LINE
  5
28F
100
AcDbEntity
  8
SMUSSO
100
AcDbLine
 62
7
  6
CONTINUOUS
 10
177.9266491093
 20
50.8196818482
 11
177.9266491093
 21
122.669066206
  0
LINE
  5
290
100
AcDbEntity
  8
0
100
AcDbLine
 62
250
  6
CONTINUOUS
 10
181.7098179824
 20
124.8871483611
 11
181.921802423
 21
125.7420700804
  0
LINE
  5
291
100
AcDbEntity
  8
0
100
AcDbLine
 62
250
  6
CONTINUOUS
 10
169.4461910968
 20
76.5535240059
 11
169.4524519653
 21
76.5725047353
  0
LINE
  5
292
100
AcDbEntity
  8
0
100
AcDbLine
 62
7
  6
CONTINUOUS
 10
163.9435279445
 20
78.8154722424
 11
163.9612901809
 21
78.8462373383
  0
LINE
  5
293
100
AcDbEntity
  8
0
100
AcDbLine
 62
7
  6
CONTINUOUS
 10
164.2087775543
 20
78.8666629044
 11
164.3148435715
 21
79.0503746349
  0
LINE
  5
294
100
AcDbEntity
  8
0
100
AcDbLine
 62
7
  6
CONTINUOUS
 10
164.5623309449
 20
79.0708002011
 11
164.6683969621
 21
79.2545119316
  0
LINE
  5
295
100
AcDbEntity
  8
0
100
AcDbLine
 62
7
  6
CONTINUOUS
 10
164.9158843355
 20
79.2749374977
 11
165.0219503527
 21
79.4586492282
  0
LINE
  5
296
100
AcDbEntity
  8
0
100
AcDbLine
 62
7
  6
CONTINUOUS
 10
165.2694377261
 20
79.4790747944
 11
165.3755037433
 21
79.6627865249
  0
LINE
  5
297
100
AcDbEntity
  8
0
100
AcDbLine
 62
7
  6
CONTINUOUS
 10
165.6229911167
 20
79.6832120911
 11
165.7290571339
 21
79.8669238216
  0
LINE
  5
298
100
AcDbEntity
  8
0
100
AcDbLine
 62
7
  6
CONTINUOUS
 10
165.9781206457
 20
80.0862209788
 11
167.2884749014
 21
80.6236833055
  0
LINE
  5
299
100
AcDbEntity
  8
0
100
AcDbLine
 62
250
  6
CONTINUOUS
 10
121.110619241
 20
136.2051523377
 11
121.8177260222
 21
136.2051523377
  0
LINE
  5
29A
100
AcDbEntity
  8
0
100
AcDbLine
 62
250
  6
CONTINUOUS
 10
181.0318734325
 20
126.0613827651
 11
181.8781812377
 21
125.8176241895
  0
LINE
  5
29B
100
AcDbEntity
  8
SMUSSO
100
AcDbLine
 62
7
  6
CONTINUOUS
 10
176.512435547
 20
122.669066206
 11
114.2870388026
 21
158.5972304188
  0
LINE
  5
29C
100
AcDbEntity
  8
SMUSSO
100
AcDbLine
 62
7
  6
CONTINUOUS
 10
177.2195423282
 20
123.0773013444
 11
177.9266491093
 21
122.669066206
  0
LINE
  5
29D
100
AcDbEntity
  8
SMUSSO
100
AcDbLine
 62
7
  6
CONTINUOUS
 10
177.2195423282
 20
123.8938110761
 11
114.9941455837
 21
159.8219752889
  0
LWPOLYLINE
  5
29E
100
AcDbEntity
  8
0
100
AcDbPolyline
 62
7
  6
CONTINUOUS
 90
22
 70
0
 10
181.7098179824
 20
124.8871483611
 10
181.7085031165
 20
124.948492295
 10
181.7034327625
 20
125.0113443865
 10
181.6946332387
 20
125.0754005395
 10
181.6821431101
 20
125.1404315722
 10
181.6660218438
 20
125.2060362381
 10
181.64638883
 20
125.271637427
 10
181.6234405509
 20
125.3367144254
 10
181.5972718423
 20
125.4011418903
 10
181.5678591205
 20
125.4649305107
 10
181.5352005763
 20
125.527978107
 10
181.4995475814
 20
125.5897309038
 10
181.4612758776
 20
125.6495380972
 10
181.420739365
 20
125.7069051
 10
181.3780274419
 20
125.7617823833
 10
181.3331426465
 20
125.8141957122
 10
181.2861461141
 20
125.8640002831
 10
181.2373905567
 20
125.9107655771
 10
181.1873160721
 20
125.9540996387
 10
181.1362404216
 20
125.9937503334
 10
181.0843428074
 20
126.02956966
 10
181.0318734325
 20
126.0613827651
  0
LINE
  5
29F
100
AcDbEntity
  8
SMUSSO
100
AcDbLine
 62
7
  6
CONTINUOUS
 10
179.6944160623
 20
51.8403683315
 11
179.6944160623
 21
124.506262421
  0
LINE
  5
2A0
100
AcDbEntity
  8
0
100
AcDbLine
 62
7
  6
CONTINUOUS
 10
181.7096703887
 20
124.8533905172
 11
181.7096703887
 21
54.1470645469
  0
LINE
  5
2A1
100
AcDbEntity
  8
0
100
AcDbLine
 62
7
  6
CONTINUOUS
 10
181.921802423
 20
125.7420700804
 11
181.921802423
 21
55.4630677877
  0
LWPOLYLINE
  5
2A2
100
AcDbEntity
  8
0
100
AcDbPolyline
 62
7
  6
CONTINUOUS
 90
7
 70
0
 10
169.6242733574
 20
73.2824076337
 10
169.6013574985
 20
73.2372363991
 10
169.5751819396
 20
73.1958019109
 10
169.5458591153
 20
73.15828244
 10
169.5135147399
 20
73.1248388487
 10
169.4782871847
 20
73.0956142171
 10
169.4403559633
 20
73.0707502893
  0
LINE
  5
2A3
100
AcDbEntity
  8
0
100
AcDbLine
 62
7
  6
CONTINUOUS
 10
167.8326152411
 20
76.5699619791
 11
167.8503774774
 21
76.600727075
  0
LINE
  5
2A4
100
AcDbEntity
  8
0
100
AcDbLine
 62
7
  6
CONTINUOUS
 10
168.0978648508
 20
76.6211526411
 11
168.203930868
 21
76.8048643716
  0
LINE
  5
2A5
100
AcDbEntity
  8
0
100
AcDbLine
 62
7
  6
CONTINUOUS
 10
168.4514182414
 20
76.8252899378
 11
168.5574842586
 21
77.0090016683
  0
LINE
  5
2A6
100
AcDbEntity
  8
0
100
AcDbLine
 62
7
  6
CONTINUOUS
 10
168.804971632
 20
77.0294272344
 11
168.9110376492
 21
77.2131389649
  0
LINE
  5
2A7
100
AcDbEntity
  8
0
100
AcDbLine
 62
7
  6
CONTINUOUS
 10
169.1585250226
 20
77.2335645311
 11
169.2645910398
 21
77.4172762616
  0
LINE
  5
2A8
100
AcDbEntity
  8
0
100
AcDbLine
 62
7
  6
CONTINUOUS
 10
169.5120784132
 20
77.4377018278
 11
169.6181444304
 21
77.6214135583
  0
LINE
  5
2A9
100
AcDbEntity
  8
0
100
AcDbLine
 62
250
  6
CONTINUOUS
 10
168.4867735805
 20
72.5178272674
 11
168.8403269711
 21
73.1301997025
  0
LINE
  5
2AA
100
AcDbEntity
  8
0
100
AcDbLine
 62
7
  6
CONTINUOUS
 10
163.9612901809
 20
78.8462373383
 11
164.1027115371
 21
78.9278922569
  0
LINE
  5
2AB
100
AcDbEntity
  8
0
100
AcDbLine
 62
7
  6
CONTINUOUS
 10
164.3148435715
 20
79.0503746349
 11
164.4562649277
 21
79.1320295536
  0
LINE
  5
2AC
100
AcDbEntity
  8
0
100
AcDbLine
 62
7
  6
CONTINUOUS
 10
164.6683969621
 20
79.2545119316
 11
164.8098183183
 21
79.3361668502
  0
LINE
  5
2AD
100
AcDbEntity
  8
0
100
AcDbLine
 62
7
  6
CONTINUOUS
 10
165.0219503527
 20
79.4586492282
 11
165.1633717089
 21
79.5403041469
  0
LINE
  5
2AE
100
AcDbEntity
  8
0
100
AcDbLine
 62
7
  6
CONTINUOUS
 10
165.3755037433
 20
79.6627865249
 11
165.5169250995
 21
79.7444414436
  0
LINE
  5
2AF
100
AcDbEntity
  8
0
100
AcDbLine
 62
7
  6
CONTINUOUS
 10
165.7290571339
 20
79.8669238216
 11
165.8704784901
 21
79.9485787402
  0
LINE
  5
2B0
100
AcDbEntity
  8
0
100
AcDbLine
 62
7
  6
CONTINUOUS
 10
163.7457163918
 20
78.9296861538
 11
165.9040734927
 21
80.0517771827
  0
LWPOLYLINE
  5
2B1
100
AcDbEntity
  8
0
100
AcDbPolyline
 62
7
  6
CONTINUOUS
 90
4
 70
0
 10
119.7392824691
 20
161.4509566108
 10
119.6918626696
 20
161.4768182637
 10
119.6445669612
 20
161.4982719251
 10
119.6368368198
 20
161.5013625041
  0
LINE
  5
2B2
100
AcDbEntity
  8
SMUSSO
100
AcDbLine
 62
7
  6
CONTINUOUS
 10
116.7619125367
 20
160.8426617723
 11
179.6944160623
 21
124.506262421
  0
LINE
  5
2B3
100
AcDbEntity
  8
0
100
AcDbLine
 62
7
  6
CONTINUOUS
 10
119.7671163567
 20
161.4347151695
 11
181.0025636075
 21
126.0781353873
  0
LINE
  5
2B4
100
AcDbEntity
  8
0
100
AcDbLine
 62
7
  6
CONTINUOUS
 10
121.0128190701
 20
160.960521483
 11
181.8781812377
 21
125.8176241895
  0
LINE
  5
2B5
100
AcDbEntity
  8
0
100
AcDbLine
 62
250
  6
CONTINUOUS
 10
169.4524519653
 20
76.5725047353
 11
169.6888551085
 21
76.8024399441
  0
LINE
  5
2B6
100
AcDbEntity
  8
0
100
AcDbLine
 62
7
  6
CONTINUOUS
 10
169.4563768302
 20
76.5389695418
 11
169.6888551085
 21
76.7650872691
  0
LWPOLYLINE
  5
2B7
100
AcDbEntity
  8
0
100
AcDbPolyline
 62
250
  6
CONTINUOUS
 90
5
 70
0
 10
169.4032698141
 20
76.4979443681
 10
169.416495968
 20
76.5085057132
 10
169.4281290306
 20
76.5213738729
 10
169.4380579397
 20
76.536426797
 10
169.4461910968
 20
76.5535240059
  0
LINE
  5
2B8
100
AcDbEntity
  8
0
100
AcDbLine
 62
7
  6
CONTINUOUS
 10
169.6888551085
 20
77.3040209838
 11
168.2070172883
 21
76.3537869294
  0
LINE
  5
2B9
100
AcDbEntity
  8
0
100
AcDbLine
 62
250
  6
CONTINUOUS
 10
169.3977633116
 20
76.4945060106
 11
169.4032698141
 21
76.4979443681
  0
LINE
  5
2BA
100
AcDbEntity
  8
0
100
AcDbLine
 62
7
  6
CONTINUOUS
 10
168.5362233398
 20
76.1637074812
 11
169.6888551085
 21
76.840785545
  0
LINE
  5
2BB
100
AcDbEntity
  8
0
100
AcDbLine
 62
7
  6
CONTINUOUS
 10
169.3977624837
 20
76.4945055303
 11
168.6822999076
 21
76.0793647017
  0
LINE
  5
2BC
100
AcDbEntity
  8
0
100
AcDbLine
 62
250
  6
CONTINUOUS
 10
169.4524519653
 20
76.5725047353
 11
168.6420668108
 21
76.1025947876
  0
LINE
  5
2BD
100
AcDbEntity
  8
0
100
AcDbLine
 62
7
  6
CONTINUOUS
 10
167.8503774774
 20
76.600727075
 11
167.9917988337
 21
76.6823819936
  0
LINE
  5
2BE
100
AcDbEntity
  8
0
100
AcDbLine
 62
7
  6
CONTINUOUS
 10
168.203930868
 20
76.8048643716
 11
168.3453522243
 21
76.8865192903
  0
LINE
  5
2BF
100
AcDbEntity
  8
0
100
AcDbLine
 62
7
  6
CONTINUOUS
 10
168.5574842586
 20
77.0090016683
 11
168.6989056149
 21
77.0906565869
  0
LINE
  5
2C0
100
AcDbEntity
  8
0
100
AcDbLine
 62
7
  6
CONTINUOUS
 10
168.9110376492
 20
77.2131389649
 11
169.0524590055
 21
77.2947938836
  0
LINE
  5
2C1
100
AcDbEntity
  8
0
100
AcDbLine
 62
7
  6
CONTINUOUS
 10
169.2645910398
 20
77.4172762616
 11
169.406012396
 21
77.4989311803
  0
LINE
  5
2C2
100
AcDbEntity
  8
0
100
AcDbLine
 62
7
  6
CONTINUOUS
 10
169.6181444304
 20
77.6214135583
 11
169.6888551085
 21
77.6622410176
  0
LINE
  5
2C3
100
AcDbEntity
  8
0
100
AcDbLine
 62
7
  6
CONTINUOUS
 10
169.6888551085
 20
77.5397704761
 11
167.9209104883
 21
76.5189814099
  0
LINE
  5
2C4
100
AcDbEntity
  8
0
100
AcDbLine
 62
250
  6
CONTINUOUS
 10
168.8403269711
 20
73.1301997025
 11
169.6888551085
 21
73.6201292145
  0
LWPOLYLINE
  5
2C5
100
AcDbEntity
  8
0
100
AcDbPolyline
 62
7
  6
CONTINUOUS
 90
13
 70
0
 10
169.4403559633
 20
73.0707502893
 10
169.3997980054
 20
73.0503041715
 10
169.3568725365
 20
73.0344127999
 10
169.3117349803
 20
73.0231277716
 10
169.2645784788
 20
73.0164973563
 10
169.2156051827
 20
73.0145499591
 10
169.1650256001
 20
73.0172938007
 10
169.1130562079
 20
73.0247169188
 10
169.0599198316
 20
73.0367872727
 10
169.0058455343
 20
73.0534524178
 10
168.9510654597
 20
73.0746401747
 10
168.8958137443
 20
73.1002593576
 10
168.8403269711
 20
73.1301997025
  0
LWPOLYLINE
  5
2C6
100
AcDbEntity
  8
0
100
AcDbPolyline
 62
7
  6
CONTINUOUS
 90
4
 70
0
 10
181.7022525019
 20
54.0009811607
 10
181.70343277
 20
54.0091634014
 10
181.7085031171
 20
54.0608462067
 10
181.7098179824
 20
54.1148406409
  0
LINE
  5
2C7
100
AcDbEntity
  8
0
100
AcDbLine
 62
7
  6
CONTINUOUS
 10
181.9212455
 20
55.4552830845
 11
181.702234076
 21
54.0009693556
  0
LINE
  5
2C8
100
AcDbEntity
  8
0
100
AcDbLine
 62
250
  6
CONTINUOUS
 10
181.7098179824
 20
54.1148406409
 11
181.921802423
 21
55.4630677877
  0
LWPOLYLINE
  5
2C9
100
AcDbEntity
  8
0
100
AcDbPolyline
 62
7
  6
CONTINUOUS
 90
10
 70
0
 10
119.6368368198
 20
161.5013625041
 10
119.5976455457
 20
161.5152035254
 10
119.5513046023
 20
161.5275385629
 10
119.5058349104
 20
161.5351778081
 10
119.4615956333
 20
161.5380517043
 10
119.4189222225
 20
161.5361934079
 10
119.3778930837
 20
161.5296671536
 10
119.338481623
 20
161.5184610637
 10
119.3007675149
 20
161.5025270268
 10
119.2888363333
 20
161.4962857291
  0
LINE
  5
2CA
100
AcDbEntity
  8
0
100
AcDbLine
 62
250
  6
CONTINUOUS
 10
119.7392824691
 20
161.4509566108
 11
121.0128190701
 21
160.960521483
  0
LINE
  5
2CB
100
AcDbEntity
  8
0
100
AcDbLine
 62
7
  6
CONTINUOUS
 10
121.0057949388
 20
160.9639333906
 11
119.6368174065
 21
161.50135246
  0
LWPOLYLINE
  5
2CC
100
AcDbEntity
  8
0
100
AcDbPolyline
 62
7
  6
CONTINUOUS
 90
10
 70
0
 10
181.5238768066
 20
53.7021451183
 10
181.5352006504
 20
53.7093270053
 10
181.5678592809
 20
53.7340173936
 10
181.5972720422
 20
53.7625417456
 10
181.6234407598
 20
53.79480701
 10
181.6463890157
 20
53.830830276
 10
181.6660219728
 20
53.8705757639
 10
181.6821431759
 20
53.913769575
 10
181.694633264
 20
53.960065925
 10
181.7022525019
 20
54.0009811607
  0
LINE
  5
2CD
100
AcDbEntity
  8
0
100
AcDbLine
 62
7
  6
CONTINUOUS
 10
179.6944160623
 20
52.5930338345
 11
181.5238844828
 21
53.702149772
  0
LINE
  5
2CE
100
AcDbEntity
  8
0
100
AcDbLine
 62
250
  6
CONTINUOUS
 10
179.6948542481
 20
52.9424014936
 11
181.7096703887
 21
54.1470645469
  0
LINE
  5
2CF
100
AcDbEntity
  8
SMUSSO
100
AcDbLine
 62
7
  6
CONTINUOUS
 10
179.6944160623
 20
51.8403683315
 11
177.2195423282
 21
50.4114467098
  0
ARC
  5
2D0
100
AcDbEntity
  8
0
100
AcDbCircle
 62
7
  6
CONTINUOUS
 10
169.2470430814
 20
76.75415346
 40
0.3
100
AcDbArc
 50
300.1089870924
 51
314.200140513
  0
ARC
  5
2D1
100
AcDbEntity
  8
0
100
AcDbCircle
 62
7
  6
CONTINUOUS
 10
137.427237928
 20
95.1265101598
 40
0.3
100
AcDbArc
 50
300.1089870924
 51
314.200140513
  0
ELLIPSE
  5
2D2
100
AcDbEntity
  8
0
100
AcDbEllipse
 62
7
  6
CONTINUOUS
 10
181.8770734459
 20
55.4901728652
 30
0.0
 11
-0.0320188688
 21
0.0554549875
 31
0.0
 40
0.5632057935
 41
-2.5265952341
 42
-2.3686251639
  0
ELLIPSE
  5
2D3
100
AcDbEntity
  8
0
100
AcDbEllipse
 62
7
  6
CONTINUOUS
 10
181.8770734459
 20
125.7666169045
 30
0.0
 11
-0.0312356712
 21
0.0540980115
 31
0.0
 40
0.5918118391
 41
-2.3438606673
 42
-0.7978336343
  0
ELLIPSE
  5
2D4
100
AcDbEntity
  8
0
100
AcDbEllipse
 62
7
  6
CONTINUOUS
 10
121.013926862
 20
160.9082349477
 30
0.0
 11
-0.0320188688
 21
0.0554549875
 31
0.0
 40
0.5632057935
 41
-0.7730595434
 42
-0.6150059205
  0
ELLIPSE
  5
2D5
100
AcDbEntity
  8
0
100
AcDbEllipse
 62
7
  6
CONTINUOUS
 10
139.4284972598
 20
96.1306280325
 30
0.0
 11
0.1999995634
 21
0.1164181051
 31
0.0
 40
0.0035896273
 41
-0.7351277754
 42
-0.6748017824
  0
ELLIPSE
  5
2D6
100
AcDbEntity
  8
0
100
AcDbEllipse
 62
7
  6
CONTINUOUS
 10
167.4223010226
 20
80.5387214188
 30
0.0
 11
0.1998333781
 21
-0.0157785196
 31
0.0
 40
0.5172961965
 41
0.8262203412
 42
2.3446567905
  0
ELLIPSE
  5
2D7
100
AcDbEntity
  8
0
100
AcDbEllipse
 62
7
  6
CONTINUOUS
 10
135.6024958693
 20
98.9110781186
 30
0.0
 11
0.1998333781
 21
-0.0157785196
 31
0.0
 40
0.5172961965
 41
0.8262203412
 42
2.3446567905
  0
ELLIPSE
  5
2D8
100
AcDbEntity
  8
0
100
AcDbEllipse
 62
7
  6
CONTINUOUS
 10
165.9040734927
 20
79.2353069059
 30
0.0
 11
0.5413005334
 21
0.8416911418
 31
0.0
 40
0.6067084637
 41
0.7148472392
 42
0.8145158917
  0
ELLIPSE
  5
2D9
100
AcDbEntity
  8
0
100
AcDbEllipse
 62
7
  6
CONTINUOUS
 10
134.0842683393
 20
97.6076636057
 30
0.0
 11
0.5413005334
 21
0.8416911418
 31
0.0
 40
0.6067084637
 41
0.7148472392
 42
0.8145158917
  0
ELLIPSE
  5
2DA
100
AcDbEntity
  8
0
100
AcDbEllipse
 62
7
  6
CONTINUOUS
 10
139.4284972598
 20
96.7019928667
 30
0.0
 11
0.1998333781
 21
-0.0157785196
 31
0.0
 40
0.5172961965
 41
-0.692216108
 42
0.8262203412
  0
ELLIPSE
  5
2DB
100
AcDbEntity
  8
0
100
AcDbEllipse
 62
7
  6
CONTINUOUS
 10
138.3306055976
 20
95.1558816918
 30
0.0
 11
0.4625183445
 21
0.8873459255
 31
0.0
 40
0.5463614449
 41
0.662201126
 42
0.7618697785
  0
ELLIPSE
  5
2DC
100
AcDbEntity
  8
0
100
AcDbEllipse
 62
7
  6
CONTINUOUS
 10
181.8826723827
 20
55.0460671949
 30
0.0
 11
0.1304932868
 21
1.2025842266
 31
0.0
 40
0.0944494463
 41
-3.8578203675
 42
-3.816510454
  0
ELLIPSE
  5
2DD
100
AcDbEntity
  8
0
100
AcDbEllipse
 62
7
  6
CONTINUOUS
 10
181.8826723827
 20
125.7523931652
 30
0.0
 11
0.1304932868
 21
1.2025842266
 31
0.0
 40
0.0944494463
 41
-3.899130281
 42
-3.8578203675
  0
ELLIPSE
  5
2DE
100
AcDbEntity
  8
0
100
AcDbEllipse
 62
7
  6
CONTINUOUS
 10
181.8675735775
 20
125.7785450629
 30
0.0
 11
1.1066889452
 21
-0.4882482052
 31
0.0
 40
0.0945009384
 41
-2.4253001261
 42
-2.3839902126
  0
ELLIPSE
  5
2DF
100
AcDbEntity
  8
0
100
AcDbEllipse
 62
7
  6
CONTINUOUS
 10
120.6321263267
 20
161.1351248451
 30
0.0
 11
1.1066889452
 21
-0.4882482052
 31
0.0
 40
0.0945009384
 41
-2.4666100396
 42
-2.4253001261
  0
ENDSEC
  0
SECTION
  2
OBJECTS
  0
DICTIONARY
  5
C
100
AcDbDictionary
280
0
281
1
  3
ACAD_GROUP
350
D
  3
ACAD_MLINESTYLE
350
17
  3
ACAD_LAYOUT
350
1A
  3
ACAD_PLOTSETTINGS
350
19
  3
ACAD_PLOTSTYLENAME
350
E
  0
DICTIONARY
  5
D
102
{ACAD_REACTORS
330
C
102
}
100
AcDbDictionary
280
0
281
1
  0
ACDBDICTIONARYWDFLT
  5
E
102
{ACAD_REACTORS
330
C
102
}
100
AcDbDictionary
281
1
  3
Normal
350
F
100
AcDbDictionaryWithDefault
340
F
  0
DICTIONARY
  5
17
102
{ACAD_REACTORS
330
C
102
}
100
AcDbDictionary
280
0
281
1
  3
Standard
350
18
  0
DICTIONARY
  5
19
102
{ACAD_REACTORS
330
C
102
}
100
AcDbDictionary
281
1
  0
DICTIONARY
  5
1A
102
{ACAD_REACTORS
330
C
102
}
100
AcDbDictionary
281
1
  3
Model
350
2E0
  3
Layout1
350
2E1
  0
ACDBPLACEHOLDER
  5
F
102
{ACAD_REACTORS
330
E
102
}
  0
MLINESTYLE
  5
18
102
{ACAD_REACTORS
330
17
102
}
100
AcDbMlineStyle
  2
STANDARD
 70
0
  3

 62
256
 51
90.0
 52
90.0
 71
2
 49
0.5
 62
256
  6
BYLAYER
 49
-0.5
 62
256
  6
BYLAYER
  0
LAYOUT
  5
2E0
102
{ACAD_REACTORS
330
1A
102
}
100
AcDbPlotSettings
  1

  2
none_device
  4
ISO_A4_(297.00_x_210.00_MM)
  6

 40
0.0
 41
0.0
 42
0.0
 43
0.0
 44
297.0
 45
210.0
 46
0.0
 47
0.0
 48
0.0
 49
0.0
140
0.0
141
0.0
142
1.0
143
1.0
 70
1024
 72
1
 73
0
 74
0
  7

 75
0
147
1.0
148
0.0
149
0.0
100
AcDbLayout
  1
Model
 70
0
 71
0
 10
0.0
 20
0.0
 11
297.0
 21
210.0
 12
0.0
 22
0.0
 32
0.0
 14
0.0
 24
0.0
 34
0.0
 15
0.0
 25
0.0
 35
0.0
146
0.0
 13
0.0
 23
0.0
 33
0.0
 16
1.0
 26
0.0
 36
0.0
 17
0.0
 27
1.0
 37
0.0
 76
0
330
21D
345
0
346
0
  0
LAYOUT
  5
2E1
102
{ACAD_REACTORS
330
1A
102
}
100
AcDbPlotSettings
  1

  2
none_device
  4
ISO_A4_(297.00_x_210.00_MM)
  6

 40
0.0
 41
0.0
 42
0.0
 43
0.0
 44
297.0
 45
210.0
 46
0.0
 47
0.0
 48
0.0
 49
0.0
140
0.0
141
0.0
142
1.0
143
1.0
 70
0
 72
1
 73
0
 74
0
  7

 75
0
147
1.0
148
0.0
149
0.0
100
AcDbLayout
  1
Layout1
 70
0
 71
1
 10
0.0
 20
0.0
 11
297.0
 21
210.0
 12
0.0
 22
0.0
 32
0.0
 14
0.0
 24
0.0
 34
0.0
 15
0.0
 25
0.0
 35
0.0
146
0.0
 13
0.0
 23
0.0
 33
0.0
 16
1.0
 26
0.0
 36
0.0
 17
0.0
 27
1.0
 37
0.0
 76
0
330
21E
345
0
346
0
  0
ENDSEC
  0
EOF
