  0
SECTION
  2
HEADER
  9
$ACADVER
  1
AC1024
  9
$DWGCODEPAGE
  3
ANSI_1252
  9
$EXTMAX
 10
297.0
 20
210.0
 30
0.0
  9
$EXTMIN
 10
0.0
 20
0.0
 30
0.0
  9
$LIMMIN
 10
0.0
 20
0.0
  9
$LIMMAX
 10
297.0
 20
210.0
  9
$VIEWCTR
 10
148.5
 20
105.0
  9
$VIEWSIZE
 40
210.0
  9
$CLAYER
  8
0
  9
$LTSCALE
 40
16.335
  9
$CELTYPE
  6
BYLAYER
  9
$DIMSCALE
 40
1.0
  9
$DIMASZ
 40
3.0
  9
$DIMEXO
 40
0.5
  9
$DIMDLI
 40
11.286
  9
$DIMEXE
 40
1.5
  9
$DIMCEN
 40
2.673
  9
$DIMLFAC
 40
1.0
  9
$DIMBLK
  1
_FILLED
  9
$DIMALT
 70
0
  9
$DIMALTF
 40
0.0393700787
  9
$DIMTXT
 40
3.0
  9
$DIMTOL
 70
1
  9
$DIMLIM
 70
0
  9
$DIMTFAC
 40
1.0
  9
$DIMTP
 40
0.01
  9
$DIMTM
 40
0.01
  9
$DIMGAP
 40
0.625
  9
$DIMDSEP
 70
44
  9
$AUNITS
 70
0
  9
$PDMODE
 70
3
  9
$PDSIZE
 40
3.0
  9
$HANDSEED
  5
41F
  9
$TILEMODE
 70
1
  9
$MEASUREMENT
 70
1
  9
$INSUNITS
 70
4
  0
ENDSEC
  0
SECTION
  2
CLASSES
  0
CLASS
  1
ACDBDICTIONARYWDFLT
  2
AcDbDictionaryWithDefault
  3
AutoCAD 2000
 90
0
 91
1
280
0
281
0
  0
CLASS
  1
ACDBPLACEHOLDER
  2
AcDbPlaceHolder
  3
AutoCAD 2000
 90
0
 91
1
280
0
281
0
  0
CLASS
  1
LAYOUT
  2
AcDbLayout
  3
AutoCAD 2000
 90
0
 91
0
280
0
281
0
  0
ENDSEC
  0
SECTION
  2
TABLES
  0
TABLE
  2
VPORT
  5
8
100
AcDbSymbolTable
 70
2
  0
VPORT
  5
1F4
100
AcDbSymbolTableRecord
100
AcDbViewportTableRecord
  2
*ACTIVE
 70
0
 10
0.0
 20
0.0
 11
1.0
 21
1.0
 12
148.5
 22
105.0
 13
0.0
 23
0.0
 14
1.0
 24
1.0
 15
0.0
 25
0.0
 16
0.0
 26
0.0
 36
1.0
 17
0.0
 27
0.0
 37
0.0
 40
210.0
 41
1.4142857143
 42
50.0
 43
0.0
 44
0.0
 50
0.0
 51
0.0
 71
0
 72
100
 73
1
 74
1
 75
0
 76
0
 77
0
 78
0
  0
ENDTAB
  0
TABLE
  2
LTYPE
  5
5
100
AcDbSymbolTable
 70
6
  0
LTYPE
  5
14
100
AcDbSymbolTableRecord
100
AcDbLinetypeTableRecord
  2
BYBLOCK
 70
0
  3

 72
65
 73
0
 40
0.0
  0
LTYPE
  5
15
100
AcDbSymbolTableRecord
100
AcDbLinetypeTableRecord
  2
BYLAYER
 70
0
  3

 72
65
 73
0
 40
0.0
  0
LTYPE
  5
16
100
AcDbSymbolTableRecord
100
AcDbLinetypeTableRecord
  2
CONTINUOUS
 70
64
  3
Solid line
 72
65
 73
0
 40
0.0
  0
LTYPE
  5
1F5
100
AcDbSymbolTableRecord
100
AcDbLinetypeTableRecord
  2
CENTER
 70
64
  3
____ _ ____ _ ____ _ ____ _ ____ _ ____ _ ____
 72
65
 73
4
 40
0.6
 49
0.375
 74
0
 49
-0.075
 74
0
 49
0.075
 74
0
 49
-0.075
 74
0
  0
LTYPE
  5
1F6
100
AcDbSymbolTableRecord
100
AcDbLinetypeTableRecord
  2
HIDDEN
 70
64
  3
- - - - - - - - - - - - - - - - - - - -
 72
65
 73
2
 40
0.2
 49
0.1
 74
0
 49
-0.1
 74
0
  0
LTYPE
  5
1F7
100
AcDbSymbolTableRecord
100
AcDbLinetypeTableRecord
  2
PHANTOM
 70
64
  3
_____ _ _ _____ _ _ _____ _ _ _____
 72
65
 73
6
 40
0.8
 49
0.45
 74
0
 49
-0.05
 74
0
 49
0.1
 74
0
 49
-0.05
 74
0
 49
0.1
 74
0
 49
-0.05
 74
0
  0
LTYPE
  5
1F8
100
AcDbSymbolTableRecord
100
AcDbLinetypeTableRecord
  2
DOT
 70
64
  3
. . . . . . . . . . . . . . . . . . . .
 72
65
 73
2
 40
0.2
 49
0.1
 74
0
 49
-0.1
 74
0
  0
LTYPE
  5
1F9
100
AcDbSymbolTableRecord
100
AcDbLinetypeTableRecord
  2
DASHED
 70
64
  3
- - - - - - - - - - - - - - - - - - - -
 72
65
 73
2
 40
0.2
 49
0.1
 74
0
 49
-0.1
 74
0
  0
ENDTAB
  0
TABLE
  2
LAYER
  5
2
100
AcDbSymbolTable
 70
36
  0
LAYER
  5
10
100
AcDbSymbolTableRecord
100
AcDbLayerTableRecord
  2
0
 70
0
 62
7
  6
CONTINUOUS
370
-3
390
F
  0
LAYER
  5
1FA
100
AcDbSymbolTableRecord
100
AcDbLayerTableRecord
  2
DEFAULT_1
 70
0
 62
7
  6
CENTER
370
-3
390
F
  0
LAYER
  5
1FB
100
AcDbSymbolTableRecord
100
AcDbLayerTableRecord
  2
DEFAULT_2
 70
0
 62
7
  6
HIDDEN
370
-3
390
F
  0
LAYER
  5
1FC
100
AcDbSymbolTableRecord
100
AcDbLayerTableRecord
  2
DEFAULT_3
 70
0
 62
7
  6
PHANTOM
370
-3
390
F
  0
LAYER
  5
1FD
100
AcDbSymbolTableRecord
100
AcDbLayerTableRecord
  2
ASSI
 70
0
 62
7
  6
CONTINUOUS
370
-3
390
F
  0
LAYER
  5
1FE
100
AcDbSymbolTableRecord
100
AcDbLayerTableRecord
  2
COORDINATE
 70
0
 62
7
  6
CONTINUOUS
370
-3
390
F
  0
LAYER
  5
1FF
100
AcDbSymbolTableRecord
100
AcDbLayerTableRecord
  2
COORD_ORIGINE
 70
0
 62
7
  6
CONTINUOUS
370
-3
390
F
  0
LAYER
  5
200
100
AcDbSymbolTableRecord
100
AcDbLayerTableRecord
  2
COPY_PUBLISH
 70
0
 62
7
  6
CONTINUOUS
370
-3
390
F
  0
LAYER
  5
201
100
AcDbSymbolTableRecord
100
AcDbLayerTableRecord
  2
COSMETIC
 70
0
 62
7
  6
CONTINUOUS
370
-3
390
F
  0
LAYER
  5
202
100
AcDbSymbolTableRecord
100
AcDbLayerTableRecord
  2
COSMETICI
 70
0
 62
7
  6
CONTINUOUS
370
-3
390
F
  0
LAYER
  5
203
100
AcDbSymbolTableRecord
100
AcDbLayerTableRecord
  2
CURVE
 70
0
 62
7
  6
CONTINUOUS
370
-3
390
F
  0
LAYER
  5
204
100
AcDbSymbolTableRecord
100
AcDbLayerTableRecord
  2
DRAFT
 70
0
 62
7
  6
CONTINUOUS
370
-3
390
F
  0
LAYER
  5
205
100
AcDbSymbolTableRecord
100
AcDbLayerTableRecord
  2
IMPORT_IGES
 70
0
 62
7
  6
CONTINUOUS
370
-3
390
F
  0
LAYER
  5
206
100
AcDbSymbolTableRecord
100
AcDbLayerTableRecord
  2
INTFCLR_2
 70
0
 62
7
  6
CONTINUOUS
370
-3
390
F
  0
LAYER
  5
207
100
AcDbSymbolTableRecord
100
AcDbLayerTableRecord
  2
INTF_1
 70
0
 62
7
  6
CONTINUOUS
370
-3
390
F
  0
LAYER
  5
208
100
AcDbSymbolTableRecord
100
AcDbLayerTableRecord
  2
INTF_21
 70
0
 62
7
  6
CONTINUOUS
370
-3
390
F
  0
LAYER
  5
209
100
AcDbSymbolTableRecord
100
AcDbLayerTableRecord
  2
INTF_7
 70
0
 62
7
  6
CONTINUOUS
370
-3
390
F
  0
LAYER
  5
20A
100
AcDbSymbolTableRecord
100
AcDbLayerTableRecord
  2
INTF_CYAN
 70
0
 62
7
  6
CONTINUOUS
370
-3
390
F
  0
LAYER
  5
20B
100
AcDbSymbolTableRecord
100
AcDbLayerTableRecord
  2
LINEA_CHIUSURA
 70
0
 62
7
  6
CONTINUOUS
370
-3
390
F
  0
LAYER
  5
20C
100
AcDbSymbolTableRecord
100
AcDbLayerTableRecord
  2
NOTE
 70
0
 62
7
  6
CONTINUOUS
370
-3
390
F
  0
LAYER
  5
20D
100
AcDbSymbolTableRecord
100
AcDbLayerTableRecord
  2
PIANI
 70
0
 62
7
  6
CONTINUOUS
370
-3
390
F
  0
LAYER
  5
20E
100
AcDbSymbolTableRecord
100
AcDbLayerTableRecord
  2
PIANI_ORIGINE
 70
0
 62
7
  6
CONTINUOUS
370
-3
390
F
  0
LAYER
  5
20F
100
AcDbSymbolTableRecord
100
AcDbLayerTableRecord
  2
PIANI_RIFERIMENTO
 70
0
 62
7
  6
CONTINUOUS
370
-3
390
F
  0
LAYER
  5
210
100
AcDbSymbolTableRecord
100
AcDbLayerTableRecord
  2
PUNTI
 70
0
 62
7
  6
CONTINUOUS
370
-3
390
F
  0
LAYER
  5
211
100
AcDbSymbolTableRecord
100
AcDbLayerTableRecord
  2
RACCORDO
 70
0
 62
7
  6
CONTINUOUS
370
-3
390
F
  0
LAYER
  5
212
100
AcDbSymbolTableRecord
100
AcDbLayerTableRecord
  2
RGB__255__255__255__
 70
0
 62
7
  6
CONTINUOUS
370
-3
390
F
  0
LAYER
  5
213
100
AcDbSymbolTableRecord
100
AcDbLayerTableRecord
  2
RGB____0____0____0__
 70
0
 62
7
  6
CONTINUOUS
370
-3
390
F
  0
LAYER
  5
214
100
AcDbSymbolTableRecord
100
AcDbLayerTableRecord
  2
SIMBOLI
 70
0
 62
7
  6
CONTINUOUS
370
-3
390
F
  0
LAYER
  5
215
100
AcDbSymbolTableRecord
100
AcDbLayerTableRecord
  2
SMUSSO
 70
0
 62
7
  6
CONTINUOUS
370
-3
390
F
  0
LAYER
  5
216
100
AcDbSymbolTableRecord
100
AcDbLayerTableRecord
  2
SNAPLINE
 70
0
 62
7
  6
CONTINUOUS
370
-3
390
F
  0
LAYER
  5
217
100
AcDbSymbolTableRecord
100
AcDbLayerTableRecord
  2
SUPERFICI
 70
0
 62
7
  6
CONTINUOUS
370
-3
390
F
  0
LAYER
  5
218
100
AcDbSymbolTableRecord
100
AcDbLayerTableRecord
  2
TRASH
 70
0
 62
7
  6
CONTINUOUS
370
-3
390
F
  0
LAYER
  5
219
100
AcDbSymbolTableRecord
100
AcDbLayerTableRecord
  2
XSEC_DATUMS
 70
0
 62
7
  6
CONTINUOUS
370
-3
390
F
  0
ENDTAB
  0
TABLE
  2
STYLE
  5
3
100
AcDbSymbolTable
 70
1
  0
STYLE
  5
11
100
AcDbSymbolTableRecord
100
AcDbTextStyleTableRecord
  2
STANDARD
 70
0
 40
0.0
 41
0.8
 50
0.0
 71
0
 42
0.2
  3
txt
  4

  0
STYLE
  5
21A
100
AcDbSymbolTableRecord
100
AcDbTextStyleTableRecord
  2
TEXTSTYLE_1
 70
0
 40
0.0
 41
0.8
 50
0.0
 71
0
 42
0.2
  3
gdt
  4

  0
ENDTAB
  0
TABLE
  2
VIEW
  5
6
100
AcDbSymbolTable
 70
0
  0
ENDTAB
  0
TABLE
  2
UCS
  5
7
100
AcDbSymbolTable
 70
0
  0
ENDTAB
  0
TABLE
  2
APPID
  5
9
100
AcDbSymbolTable
 70
1
  0
APPID
  5
21B
100
AcDbSymbolTableRecord
100
AcDbRegAppTableRecord
  2
ACAD
 70
0
  0
ENDTAB
  0
TABLE
  2
BLOCK_RECORD
  5
1
100
AcDbSymbolTable
 70
0
  0
BLOCK_RECORD
  5
21C
100
AcDbSymbolTableRecord
100
AcDbBlockTableRecord
  2
*Model_Space
  0
BLOCK_RECORD
  5
21D
100
AcDbSymbolTableRecord
100
AcDbBlockTableRecord
  2
*Paper_Space
  0
BLOCK_RECORD
  5
21E
100
AcDbSymbolTableRecord
100
AcDbBlockTableRecord
  2
_FILLED
  0
ENDTAB
  0
TABLE
  2
DIMSTYLE
  5
A
100
AcDbSymbolTable
 70
1
100
AcDbDimStyleTable
 71
0
  0
DIMSTYLE
105
21F
100
AcDbSymbolTableRecord
100
AcDbDimStyleTableRecord
  2
STANDARD
 70
0
  3

  4

 40
1.0
 41
3.0
 42
0.5
 43
0.38
 44
1.5
 45
0.0
 46
0.0
 47
0.01
 48
0.01
140
3.0
141
0.09
142
0.0
143
25.4
144
1.0
145
0.0
146
1.0
147
0.625
 71
1
 72
0
 73
0
 74
0
 75
0
 76
0
 77
1
 78
8
 79
2
170
0
171
1
172
0
173
0
174
0
175
0
176
0
177
0
178
0
270
2
179
2
271
2
272
2
273
2
274
2
275
0
280
0
281
0
282
0
283
1
284
8
285
0
286
0
287
3
288
0
340
11
278
44
341
21E
342
21E
343
21E
344
21E
  0
ENDTAB
  0
ENDSEC
  0
SECTION
  2
BLOCKS
  0
BLOCK
  5
20
100
AcDbEntity
  8
0
100
AcDbBlockBegin
  2
*Model_Space
 70
0
 10
0.0
 20
0.0
 30
0.0
  3
*Model_Space
  1

  0
ENDBLK
  5
21
100
AcDbEntity
  8
0
100
AcDbBlockEnd
  0
BLOCK
  5
1C
100
AcDbEntity
  8
0
100
AcDbBlockBegin
  2
*Paper_Space
 70
0
 10
0.0
 20
0.0
 30
0.0
  3
*Paper_Space
  1

  0
ENDBLK
  5
1D
100
AcDbEntity
  8
0
100
AcDbBlockEnd
  0
BLOCK
  5
220
100
AcDbEntity
  8
0
100
AcDbBlockBegin
  2
_FILLED
 70
64
 10
0.0
 20
0.0
  3
_FILLED
  1

  0
SOLID
  5
221
100
AcDbEntity
  8
0
  6
BYBLOCK
 62
0
100
AcDbTrace
 10
0.0
 20
0.0
 11
-1.0
 21
0.3166666667
 12
-1.0
 22
-0.3166666667
 13
-1.0
 23
-0.3166666667
  0
ENDBLK
  5
222
100
AcDbEntity
  8
0
  6
BYBLOCK
 62
0
100
AcDbBlockEnd
  0
ENDSEC
  0
SECTION
  2
ENTITIES
  0
LINE
  5
223
100
AcDbEntity
  8
SMUSSO
100
AcDbLine
 62
7
  6
CONTINUOUS
 10
-58.2149620151
 20
66.9540888344
 11
-54.4271482279
 21
69.4576557258
  0
LINE
  5
224
100
AcDbEntity
  8
ASSI
100
AcDbLine
 62
7
  6
CONTINUOUS
 10
-58.2149620151
 20
66.9540888344
 11
-54.4271482279
 21
69.4576557258
  0
LINE
  5
225
100
AcDbEntity
  8
SMUSSO
100
AcDbLine
 62
7
  6
CONTINUOUS
 10
-57.5074247458
 20
67.3625330283
 11
-53.7196109586
 21
69.8660999196
  0
LINE
  5
226
100
AcDbEntity
  8
ASSI
100
AcDbLine
 62
7
  6
CONTINUOUS
 10
-57.5074247458
 20
67.3625330283
 11
-53.7196109586
 21
69.8660999196
  0
LINE
  5
227
100
AcDbEntity
  8
SMUSSO
100
AcDbLine
 62
7
  6
CONTINUOUS
 10
-57.5281883599
 20
67.3496936773
 11
-57.5074247458
 21
67.3625330283
  0
LINE
  5
228
100
AcDbEntity
  8
ASSI
100
AcDbLine
 62
7
  6
CONTINUOUS
 10
-57.5281883599
 20
67.3496936773
 11
-57.5074247458
 21
67.3625330283
  0
LINE
  5
229
100
AcDbEntity
  8
SMUSSO
100
AcDbLine
 62
7
  6
CONTINUOUS
 10
-54.4271482279
 20
69.4576557258
 11
-53.7196109586
 21
69.8660999196
  0
LINE
  5
22A
100
AcDbEntity
  8
ASSI
100
AcDbLine
 62
7
  6
CONTINUOUS
 10
-54.4271482279
 20
69.4576557258
 11
-53.7196109586
 21
69.8660999196
  0
LINE
  5
22B
100
AcDbEntity
  8
SMUSSO
100
AcDbLine
 62
7
  6
CONTINUOUS
 10
-57.5281883599
 20
67.3496936773
 11
-58.2145867076
 21
66.9534524729
  0
LINE
  5
22C
100
AcDbEntity
  8
ASSI
100
AcDbLine
 62
7
  6
CONTINUOUS
 10
-57.5281883599
 20
67.3496936773
 11
-58.2145867076
 21
66.9534524729
  0
LINE
  5
22D
100
AcDbEntity
  8
SMUSSO
100
AcDbLine
 62
7
  6
CONTINUOUS
 10
-57.9108776598
 20
65.9344652389
 11
-58.189853594
 21
65.7734191633
  0
LINE
  5
22E
100
AcDbEntity
  8
ASSI
100
AcDbLine
 62
7
  6
CONTINUOUS
 10
-57.9108776598
 20
65.9344652389
 11
-58.189853594
 21
65.7734191633
  0
LINE
  5
22F
100
AcDbEntity
  8
SMUSSO
100
AcDbLine
 62
7
  6
CONTINUOUS
 10
-57.9108776598
 20
65.9344652389
 11
-57.5281883599
 21
67.3496936773
  0
LINE
  5
230
100
AcDbEntity
  8
ASSI
100
AcDbLine
 62
7
  6
CONTINUOUS
 10
-57.9108776598
 20
65.9344652389
 11
-57.5281883599
 21
67.3496936773
  0
LINE
  5
231
100
AcDbEntity
  8
CURVE
100
AcDbLine
 62
250
  6
CONTINUOUS
 10
56.5423821968
 20
-62.993090558
 11
55.2839813755
 21
-63.269713358
  0
LINE
  5
232
100
AcDbEntity
  8
CURVE
100
AcDbLine
 62
250
  6
CONTINUOUS
 10
55.7863219044
 20
-58.7850117902
 11
56.4647870317
 21
-58.6318372103
  0
LINE
  5
233
100
AcDbEntity
  8
CURVE
100
AcDbLine
 62
250
  6
CONTINUOUS
 10
56.7472007263
 20
-58.5669252712
 11
57.1121725522
 21
-58.4879740595
  0
LINE
  5
234
100
AcDbEntity
  8
CURVE
100
AcDbLine
 62
250
  6
CONTINUOUS
 10
57.1121725522
 20
-58.90937968
 11
55.2839813755
 21
-59.2535442382
  0
LINE
  5
235
100
AcDbEntity
  8
CURVE
100
AcDbLine
 62
250
  6
CONTINUOUS
 10
55.2839813755
 20
-62.8439763627
 11
57.1121725522
 21
-62.5156831702
  0
LINE
  5
236
100
AcDbEntity
  8
CURVE
100
AcDbLine
 62
250
  6
CONTINUOUS
 10
56.2989986552
 20
-60.4525033766
 11
55.2839813755
 21
-60.5729830666
  0
LINE
  5
237
100
AcDbEntity
  8
CURVE
100
AcDbLine
 62
250
  6
CONTINUOUS
 10
55.9233746627
 20
-60.1206513135
 11
57.1121725522
 21
-59.9871228948
  0
LINE
  5
238
100
AcDbEntity
  8
SMUSSO
100
AcDbLine
 62
7
  6
CONTINUOUS
 10
-58.189853594
 20
-5.058214436
 11
-58.2145867076
 21
-4.6019788585
  0
LINE
  5
239
100
AcDbEntity
  8
ASSI
100
AcDbLine
 62
7
  6
CONTINUOUS
 10
-58.189853594
 20
-5.058214436
 11
-58.2145867076
 21
-4.6019788585
  0
LINE
  5
23A
100
AcDbEntity
  8
SMUSSO
100
AcDbLine
 62
7
  6
CONTINUOUS
 10
-58.189853594
 20
65.7734191633
 11
-58.2145867076
 21
66.9534524729
  0
LINE
  5
23B
100
AcDbEntity
  8
ASSI
100
AcDbLine
 62
7
  6
CONTINUOUS
 10
-58.189853594
 20
65.7734191633
 11
-58.2145867076
 21
66.9534524729
  0
LINE
  5
23C
100
AcDbEntity
  8
SMUSSO
100
AcDbLine
 62
7
  6
CONTINUOUS
 10
-58.2145867076
 20
-4.6019788585
 11
-58.2149620151
 21
-4.5777859978
  0
LINE
  5
23D
100
AcDbEntity
  8
ASSI
100
AcDbLine
 62
7
  6
CONTINUOUS
 10
-58.2145867076
 20
-4.6019788585
 11
-58.2149620151
 21
-4.5777859978
  0
LINE
  5
23E
100
AcDbEntity
  8
SMUSSO
100
AcDbLine
 62
7
  6
CONTINUOUS
 10
-58.2149620151
 20
66.9540888344
 11
-58.2149620151
 21
-4.5777859978
  0
LINE
  5
23F
100
AcDbEntity
  8
ASSI
100
AcDbLine
 62
7
  6
CONTINUOUS
 10
-58.2149620151
 20
66.9540888344
 11
-58.2149620151
 21
-4.5777859978
  0
LINE
  5
240
100
AcDbEntity
  8
SMUSSO
100
AcDbLine
 62
7
  6
CONTINUOUS
 10
-58.189853594
 20
65.7734191633
 11
-58.189853594
 21
-5.058214436
  0
LINE
  5
241
100
AcDbEntity
  8
ASSI
100
AcDbLine
 62
7
  6
CONTINUOUS
 10
-58.189853594
 20
65.7734191633
 11
-58.189853594
 21
-5.058214436
  0
LINE
  5
242
100
AcDbEntity
  8
0
100
AcDbLine
 62
7
  6
CONTINUOUS
 10
-42.371410763
 20
39.7620477443
 11
-42.3711551367
 21
39.7621756926
  0
LINE
  5
243
100
AcDbEntity
  8
ASSI
100
AcDbLine
 62
7
  6
CONTINUOUS
 10
-42.371410763
 20
39.7620477443
 11
-42.3711551367
 21
39.7621756926
  0
LINE
  5
244
100
AcDbEntity
  8
0
100
AcDbLine
 62
250
  6
CONTINUOUS
 10
-42.4813659717
 20
39.5296861811
 11
-42.1601169411
 21
39.6901376542
  0
LINE
  5
245
100
AcDbEntity
  8
ASSI
100
AcDbLine
 62
250
  6
CONTINUOUS
 10
-42.4813659717
 20
39.5296861811
 11
-42.1601169411
 21
39.6901376542
  0
LWPOLYLINE
  5
246
100
AcDbEntity
  8
0
100
AcDbPolyline
 62
7
  6
CONTINUOUS
 90
13
 70
0
 10
-42.3714250814
 20
39.7620399423
 10
-42.3692075114
 20
39.7630749404
 10
-42.3641968617
 20
39.7648194955
 10
-42.3574400467
 20
39.7662600014
 10
-42.3487243299
 20
39.7670883529
 10
-42.3379418974
 20
39.7669929226
 10
-42.3250880881
 20
39.7656666417
 10
-42.3101684643
 20
39.762821247
 10
-42.2934969019
 20
39.7582687419
 10
-42.2756173133
 20
39.7519953721
 10
-42.256861933
 20
39.7440373179
 10
-42.2373773194
 20
39.7344013493
 10
-42.2231503871
 20
39.7265324085
  0
LWPOLYLINE
  5
247
100
AcDbEntity
  8
ASSI
100
AcDbPolyline
 62
7
  6
CONTINUOUS
 90
13
 70
0
 10
-42.3714250814
 20
39.7620399423
 10
-42.3692075114
 20
39.7630749404
 10
-42.3641968617
 20
39.7648194955
 10
-42.3574400467
 20
39.7662600014
 10
-42.3487243299
 20
39.7670883529
 10
-42.3379418974
 20
39.7669929226
 10
-42.3250880881
 20
39.7656666417
 10
-42.3101684643
 20
39.762821247
 10
-42.2934969019
 20
39.7582687419
 10
-42.2756173133
 20
39.7519953721
 10
-42.256861933
 20
39.7440373179
 10
-42.2373773194
 20
39.7344013493
 10
-42.2231503871
 20
39.7265324085
  0
LINE
  5
248
100
AcDbEntity
  8
SMUSSO
100
AcDbLine
 62
7
  6
CONTINUOUS
 10
52.7145685475
 20
-69.0930378217
 11
54.1315276785
 21
-69.4692172775
  0
LINE
  5
249
100
AcDbEntity
  8
ASSI
100
AcDbLine
 62
7
  6
CONTINUOUS
 10
52.7145685475
 20
-69.0930378217
 11
54.1315276785
 21
-69.4692172775
  0
LINE
  5
24A
100
AcDbEntity
  8
SMUSSO
100
AcDbLine
 62
7
  6
CONTINUOUS
 10
-58.189853594
 20
-5.058214436
 11
-57.9108776598
 21
-5.5414149275
  0
LINE
  5
24B
100
AcDbEntity
  8
ASSI
100
AcDbLine
 62
7
  6
CONTINUOUS
 10
-58.189853594
 20
-5.058214436
 11
-57.9108776598
 21
-5.5414149275
  0
LINE
  5
24C
100
AcDbEntity
  8
0
100
AcDbLine
 62
250
  6
CONTINUOUS
 10
-42.759187
 20
3.3637715733
 11
-42.759187
 21
39.5324861547
  0
LINE
  5
24D
100
AcDbEntity
  8
ASSI
100
AcDbLine
 62
250
  6
CONTINUOUS
 10
-42.759187
 20
3.3637715733
 11
-42.759187
 21
39.5324861547
  0
LINE
  5
24E
100
AcDbEntity
  8
0
100
AcDbLine
 62
250
  6
CONTINUOUS
 10
-42.4813659717
 20
3.3609715997
 11
-42.4813659717
 21
39.5296861811
  0
LINE
  5
24F
100
AcDbEntity
  8
ASSI
100
AcDbLine
 62
250
  6
CONTINUOUS
 10
-42.4813659717
 20
3.3609715997
 11
-42.4813659717
 21
39.5296861811
  0
LWPOLYLINE
  5
250
100
AcDbEntity
  8
0
100
AcDbPolyline
 62
7
  6
CONTINUOUS
 90
7
 70
0
 10
-40.2705101052
 20
14.1289539539
 10
-40.2958126591
 20
14.9154672892
 10
-40.3187467465
 20
15.7034999047
 10
-40.3393120401
 20
16.4930424877
 10
-40.3575082079
 20
17.2840855404
 10
-40.3733349183
 20
18.0766193772
 10
-40.3867919398
 20
18.8706344262
  0
LINE
  5
251
100
AcDbEntity
  8
0
100
AcDbLine
 62
250
  6
CONTINUOUS
 10
-40.4893314043
 20
20.2502193977
 11
-40.489692468
 21
20.2799417448
  0
LINE
  5
252
100
AcDbEntity
  8
0
100
AcDbLine
 62
7
  6
CONTINUOUS
 10
-40.3867919398
 20
18.8706344262
 11
-40.4036782356
 21
20.1709625116
  0
LWPOLYLINE
  5
253
100
AcDbEntity
  8
0
100
AcDbPolyline
 62
7
  6
CONTINUOUS
 90
4
 70
0
 10
-40.2448777773
 20
13.3922417664
 10
-40.2449313871
 20
13.3979821831
 10
-40.2450521969
 20
13.4037031797
 10
-40.2705101052
 20
14.1289539539
  0
LINE
  5
254
100
AcDbEntity
  8
0
100
AcDbLine
 62
7
  6
CONTINUOUS
 10
-41.4517387932
 20
39.2811289896
 11
-41.4517387932
 21
3.9554615513
  0
LINE
  5
255
100
AcDbEntity
  8
ASSI
100
AcDbLine
 62
7
  6
CONTINUOUS
 10
-41.4517387932
 20
39.2811289896
 11
-41.4517387932
 21
3.9554615513
  0
LINE
  5
256
100
AcDbEntity
  8
0
100
AcDbLine
 62
250
  6
CONTINUOUS
 10
-41.2400451615
 20
39.1588997398
 11
-41.2400451615
 21
4.0777080089
  0
LINE
  5
257
100
AcDbEntity
  8
ASSI
100
AcDbLine
 62
250
  6
CONTINUOUS
 10
-41.2400451615
 20
39.1588997398
 11
-41.2400451615
 21
4.0777080089
  0
LINE
  5
258
100
AcDbEntity
  8
0
100
AcDbLine
 62
7
  6
CONTINUOUS
 10
-41.1057220123
 20
39.081343237
 11
-41.1057220123
 21
4.2745966617
  0
LINE
  5
259
100
AcDbEntity
  8
ASSI
100
AcDbLine
 62
7
  6
CONTINUOUS
 10
-41.1057220123
 20
39.081343237
 11
-41.1057220123
 21
4.2745966617
  0
LINE
  5
25A
100
AcDbEntity
  8
0
100
AcDbLine
 62
7
  6
CONTINUOUS
 10
-41.0274747245
 20
3.9506209015
 11
-41.0274747245
 21
39.0361642336
  0
LINE
  5
25B
100
AcDbEntity
  8
0
100
AcDbLine
 62
250
  6
CONTINUOUS
 10
-40.5722404112
 20
20.2624690718
 11
-40.5722404112
 21
25.4244777154
  0
LINE
  5
25C
100
AcDbEntity
  8
0
100
AcDbLine
 62
7
  6
CONTINUOUS
 10
-40.4880423513
 20
20.4706793388
 11
-40.4880423513
 21
25.4568954874
  0
LINE
  5
25D
100
AcDbEntity
  8
0
100
AcDbLine
 62
250
  6
CONTINUOUS
 10
-40.329072946
 20
3.2988621547
 11
-40.329072946
 21
13.2729036762
  0
LINE
  5
25E
100
AcDbEntity
  8
0
100
AcDbLine
 62
250
  6
CONTINUOUS
 10
-40.329072946
 20
32.7048806042
 11
-40.329072946
 21
38.6329157998
  0
LINE
  5
25F
100
AcDbEntity
  8
0
100
AcDbLine
 62
7
  6
CONTINUOUS
 10
-40.2448748861
 20
3.2502472502
 11
-40.2448777773
 21
13.3922417664
  0
LINE
  5
260
100
AcDbEntity
  8
0
100
AcDbLine
 62
250
  6
CONTINUOUS
 10
-40.4918657308
 20
25.5035827513
 11
-40.4882724197
 21
25.8528391838
  0
LWPOLYLINE
  5
261
100
AcDbEntity
  8
0
100
AcDbPolyline
 62
7
  6
CONTINUOUS
 90
9
 70
0
 10
-40.4037342257
 20
25.8521647343
 10
-40.3868718652
 20
27.1727762267
 10
-40.373429532
 20
27.9829244367
 10
-40.3576174822
 20
28.7944311201
 10
-40.3394359192
 20
29.6072864456
 10
-40.3188850425
 20
30.4214807086
 10
-40.2959650534
 20
31.2370040804
 10
-40.270676157
 20
32.053846607
 10
-40.2451811178
 20
32.8104181314
  0
LWPOLYLINE
  5
262
100
AcDbEntity
  8
0
100
AcDbPolyline
 62
7
  6
CONTINUOUS
 90
11
 70
0
 10
-40.4880430522
 20
25.4569117286
 10
-40.4879911372
 20
25.4592853846
 10
-40.4877039664
 20
25.4637312571
 10
-40.4870155587
 20
25.4698955169
 10
-40.4857670258
 20
25.477656694
 10
-40.4838158272
 20
25.4868455868
 10
-40.4810331151
 20
25.4972967525
 10
-40.4772738384
 20
25.5089307863
 10
-40.4723520647
 20
25.5217493487
 10
-40.4660891889
 20
25.5356697076
 10
-40.4609229279
 20
25.5458002002
  0
LWPOLYLINE
  5
263
100
AcDbEntity
  8
0
100
AcDbPolyline
 62
7
  6
CONTINUOUS
 90
5
 70
0
 10
-40.2451522473
 20
32.811260883
 10
-40.2450262006
 20
32.8156061649
 10
-40.2449379195
 20
32.8199508555
 10
-40.244887564
 20
32.8243001433
 10
-40.2448748861
 20
38.5843008952
  0
LINE
  5
264
100
AcDbEntity
  8
SMUSSO
100
AcDbLine
 62
7
  6
CONTINUOUS
 10
-57.9108776598
 20
-5.5414149275
 11
-57.5281883599
 21
-5.7908556696
  0
LINE
  5
265
100
AcDbEntity
  8
ASSI
100
AcDbLine
 62
7
  6
CONTINUOUS
 10
-57.9108776598
 20
-5.5414149275
 11
-57.5281883599
 21
-5.7908556696
  0
LINE
  5
266
100
AcDbEntity
  8
SMUSSO
100
AcDbLine
 62
7
  6
CONTINUOUS
 10
-57.5074247458
 20
-5.8032764952
 11
53.4454917611
 21
-69.8660999196
  0
LINE
  5
267
100
AcDbEntity
  8
ASSI
100
AcDbLine
 62
7
  6
CONTINUOUS
 10
-57.5074247458
 20
-5.8032764952
 11
53.4454917611
 21
-69.8660999196
  0
LINE
  5
268
100
AcDbEntity
  8
SMUSSO
100
AcDbLine
 62
7
  6
CONTINUOUS
 10
-57.9108776598
 20
-5.5414149275
 11
52.4355926134
 21
-69.2540838972
  0
LINE
  5
269
100
AcDbEntity
  8
ASSI
100
AcDbLine
 62
7
  6
CONTINUOUS
 10
-57.9108776598
 20
-5.5414149275
 11
52.4355926134
 21
-69.2540838972
  0
LINE
  5
26A
100
AcDbEntity
  8
SMUSSO
100
AcDbLine
 62
7
  6
CONTINUOUS
 10
-57.5074247458
 20
-5.8032764952
 11
-57.5281883599
 21
-5.7908556696
  0
LINE
  5
26B
100
AcDbEntity
  8
ASSI
100
AcDbLine
 62
7
  6
CONTINUOUS
 10
-57.5074247458
 20
-5.8032764952
 11
-57.5281883599
 21
-5.7908556696
  0
LINE
  5
26C
100
AcDbEntity
  8
SMUSSO
100
AcDbLine
 62
7
  6
CONTINUOUS
 10
52.4355926134
 20
-69.2540838972
 11
53.4451293308
 21
-69.8654584819
  0
LINE
  5
26D
100
AcDbEntity
  8
ASSI
100
AcDbLine
 62
7
  6
CONTINUOUS
 10
52.4355926134
 20
-69.2540838972
 11
53.4451293308
 21
-69.8654584819
  0
LINE
  5
26E
100
AcDbEntity
  8
0
100
AcDbLine
 62
250
  6
CONTINUOUS
 10
-25.4601055434
 20
-1.129802817
 11
-25.4601055434
 21
-1.5371724548
  0
LINE
  5
26F
100
AcDbEntity
  8
0
100
AcDbLine
 62
7
  6
CONTINUOUS
 10
-25.4087345085
 20
-1.0632253101
 11
-25.4087345085
 21
-1.5066271601
  0
LINE
  5
270
100
AcDbEntity
  8
0
100
AcDbLine
 62
7
  6
CONTINUOUS
 10
-33.2708184099
 20
-0.7764855537
 11
-33.2493001314
 21
-0.7392148021
  0
LINE
  5
271
100
AcDbEntity
  8
0
100
AcDbLine
 62
7
  6
CONTINUOUS
 10
-33.001812758
 20
-0.718789236
 11
-32.8957467408
 21
-0.5350775054
  0
LINE
  5
272
100
AcDbEntity
  8
0
100
AcDbLine
 62
7
  6
CONTINUOUS
 10
-32.6482593674
 20
-0.5146519393
 11
-32.5421933502
 21
-0.3309402088
  0
LINE
  5
273
100
AcDbEntity
  8
0
100
AcDbLine
 62
7
  6
CONTINUOUS
 10
-32.2947059768
 20
-0.3105146426
 11
-32.1886399596
 21
-0.1268029121
  0
LINE
  5
274
100
AcDbEntity
  8
0
100
AcDbLine
 62
7
  6
CONTINUOUS
 10
-31.9411525862
 20
-0.106377346
 11
-31.835086569
 21
0.0773343846
  0
LINE
  5
275
100
AcDbEntity
  8
0
100
AcDbLine
 62
7
  6
CONTINUOUS
 10
-31.5875991956
 20
0.0977599507
 11
-31.4815331784
 21
0.2814716812
  0
LINE
  5
276
100
AcDbEntity
  8
0
100
AcDbLine
 62
7
  6
CONTINUOUS
 10
-31.234045805
 20
0.3018972474
 11
-31.1279797878
 21
0.4856089779
  0
LINE
  5
277
100
AcDbEntity
  8
0
100
AcDbLine
 62
7
  6
CONTINUOUS
 10
-29.3817311134
 20
-3.021995817
 11
-29.3602128349
 21
-2.9847250654
  0
LINE
  5
278
100
AcDbEntity
  8
0
100
AcDbLine
 62
7
  6
CONTINUOUS
 10
-29.1127254615
 20
-2.9642994993
 11
-29.0066594443
 21
-2.7805877687
  0
LINE
  5
279
100
AcDbEntity
  8
0
100
AcDbLine
 62
7
  6
CONTINUOUS
 10
-28.7591720709
 20
-2.7601622026
 11
-28.6531060537
 21
-2.5764504721
  0
LINE
  5
27A
100
AcDbEntity
  8
0
100
AcDbLine
 62
250
  6
CONTINUOUS
 10
-42.4813659717
 20
3.3609715997
 11
-41.2400451615
 21
4.0777080089
  0
LINE
  5
27B
100
AcDbEntity
  8
ASSI
100
AcDbLine
 62
250
  6
CONTINUOUS
 10
-42.4813659717
 20
3.3609715997
 11
-41.2400451615
 21
4.0777080089
  0
LINE
  5
27C
100
AcDbEntity
  8
0
100
AcDbLine
 62
250
  6
CONTINUOUS
 10
-42.1280279563
 20
2.7489722054
 11
-40.8867071461
 21
3.4657086146
  0
LINE
  5
27D
100
AcDbEntity
  8
ASSI
100
AcDbLine
 62
250
  6
CONTINUOUS
 10
-42.1280279563
 20
2.7489722054
 11
-40.8867071461
 21
3.4657086146
  0
LWPOLYLINE
  5
27E
100
AcDbEntity
  8
0
100
AcDbPolyline
 62
7
  6
CONTINUOUS
 90
13
 70
0
 10
-40.4232441393
 20
20.2510222183
 10
-40.4283682256
 20
20.2593913706
 10
-40.4398988541
 20
20.2799662041
 10
-40.4501461513
 20
20.3008303144
 10
-40.4591077742
 20
20.3218614381
 10
-40.4667750633
 20
20.3428839346
 10
-40.4731807071
 20
20.3637874694
 10
-40.4783692628
 20
20.3844821647
 10
-40.4823771025
 20
20.4048113939
 10
-40.4852681551
 20
20.4247016034
 10
-40.4871031913
 20
20.4440214035
 10
-40.487953466
 20
20.4625200985
 10
-40.4880421145
 20
20.470665363
  0
LINE
  5
27F
100
AcDbEntity
  8
0
100
AcDbLine
 62
7
  6
CONTINUOUS
 10
-28.4056186803
 20
-2.5560249059
 11
-28.2995526631
 21
-2.3723131754
  0
LINE
  5
280
100
AcDbEntity
  8
0
100
AcDbLine
 62
7
  6
CONTINUOUS
 10
-28.0520652897
 20
-2.3518876093
 11
-27.9459992725
 21
-2.1681758788
  0
LINE
  5
281
100
AcDbEntity
  8
0
100
AcDbLine
 62
7
  6
CONTINUOUS
 10
-27.6985118991
 20
-2.1477503126
 11
-27.5924458819
 21
-1.9640385821
  0
LINE
  5
282
100
AcDbEntity
  8
0
100
AcDbLine
 62
7
  6
CONTINUOUS
 10
-27.3449585085
 20
-1.9436130159
 11
-27.2388924913
 21
-1.7599012854
  0
LINE
  5
283
100
AcDbEntity
  8
0
100
AcDbLine
 62
250
  6
CONTINUOUS
 10
36.789228732
 20
-43.1376677281
 11
-42.2645137784
 21
2.5069724212
  0
LINE
  5
284
100
AcDbEntity
  8
ASSI
100
AcDbLine
 62
250
  6
CONTINUOUS
 10
36.789228732
 20
-43.1376677281
 11
-42.2645137784
 21
2.5069724212
  0
LINE
  5
285
100
AcDbEntity
  8
0
100
AcDbLine
 62
250
  6
CONTINUOUS
 10
36.925714554
 20
-42.895667944
 11
-42.1280279563
 21
2.7489722054
  0
LINE
  5
286
100
AcDbEntity
  8
ASSI
100
AcDbLine
 62
250
  6
CONTINUOUS
 10
36.925714554
 20
-42.895667944
 11
-42.1280279563
 21
2.7489722054
  0
LINE
  5
287
100
AcDbEntity
  8
0
100
AcDbLine
 62
7
  6
CONTINUOUS
 10
-41.0984007777
 20
3.3434621569
 11
37.2253233098
 21
-41.8796745044
  0
LINE
  5
288
100
AcDbEntity
  8
ASSI
100
AcDbLine
 62
7
  6
CONTINUOUS
 10
-41.0984007777
 20
3.3434621569
 11
37.2253233098
 21
-41.8796745044
  0
LINE
  5
289
100
AcDbEntity
  8
0
100
AcDbLine
 62
250
  6
CONTINUOUS
 10
-40.8867071461
 20
3.4657086146
 11
37.2253233098
 21
-41.635198797
  0
LINE
  5
28A
100
AcDbEntity
  8
ASSI
100
AcDbLine
 62
250
  6
CONTINUOUS
 10
-40.8867071461
 20
3.4657086146
 11
37.2253233098
 21
-41.635198797
  0
LWPOLYLINE
  5
28B
100
AcDbEntity
  8
0
100
AcDbPolyline
 62
7
  6
CONTINUOUS
 90
30
 70
0
 10
-40.6490479859
 20
3.4836117316
 10
-40.6617793429
 20
3.4912393912
 10
-40.6807016324
 20
3.503553008
 10
-40.7011407345
 20
3.5181011152
 10
-40.7227837663
 20
3.5348663247
 10
-40.7454442307
 20
3.5538885271
 10
-40.7689343752
 20
3.575190216
 10
-40.7929429159
 20
3.5986521104
 10
-40.8172795985
 20
3.6242314933
 10
-40.8417463013
 20
3.6518576704
 10
-40.8660379065
 20
3.6813068804
 10
-40.8899675657
 20
3.7124495268
 10
-40.9133535233
 20
3.745134213
 10
-40.9359294237
 20
3.7790552387
 10
-40.9575388869
 20
3.8140185253
 10
-40.9780411648
 20
3.8498202443
 10
-40.9972348751
 20
3.8861059539
 10
-41.0150179338
 20
3.9226505522
 10
-41.0313044688
 20
3.9592201699
 10
-41.0459683711
 20
3.9954291641
 10
-41.058974636
 20
4.0310449141
 10
-41.0703098636
 20
4.0658427302
 10
-41.0799392735
 20
4.0994481771
 10
-41.0879063068
 20
4.131657583
 10
-41.0942744819
 20
4.1622880973
 10
-41.0991025806
 20
4.1910136882
 10
-41.1025090313
 20
4.2176886737
 10
-41.1046266319
 20
4.2421753487
 10
-41.1056031371
 20
4.2641971725
 10
-41.1057220127
 20
4.2745854982
  0
LWPOLYLINE
  5
28C
100
AcDbEntity
  8
ASSI
100
AcDbPolyline
 62
7
  6
CONTINUOUS
 90
30
 70
0
 10
-40.6490479859
 20
3.4836117316
 10
-40.6617793429
 20
3.4912393912
 10
-40.6807016324
 20
3.503553008
 10
-40.7011407345
 20
3.5181011152
 10
-40.7227837663
 20
3.5348663247
 10
-40.7454442307
 20
3.5538885271
 10
-40.7689343752
 20
3.575190216
 10
-40.7929429159
 20
3.5986521104
 10
-40.8172795985
 20
3.6242314933
 10
-40.8417463013
 20
3.6518576704
 10
-40.8660379065
 20
3.6813068804
 10
-40.8899675657
 20
3.7124495268
 10
-40.9133535233
 20
3.745134213
 10
-40.9359294237
 20
3.7790552387
 10
-40.9575388869
 20
3.8140185253
 10
-40.9780411648
 20
3.8498202443
 10
-40.9972348751
 20
3.8861059539
 10
-41.0150179338
 20
3.9226505522
 10
-41.0313044688
 20
3.9592201699
 10
-41.0459683711
 20
3.9954291641
 10
-41.058974636
 20
4.0310449141
 10
-41.0703098636
 20
4.0658427302
 10
-41.0799392735
 20
4.0994481771
 10
-41.0879063068
 20
4.131657583
 10
-41.0942744819
 20
4.1622880973
 10
-41.0991025806
 20
4.1910136882
 10
-41.1025090313
 20
4.2176886737
 10
-41.1046266319
 20
4.2421753487
 10
-41.1056031371
 20
4.2641971725
 10
-41.1057220127
 20
4.2745854982
  0
LINE
  5
28D
100
AcDbEntity
  8
0
100
AcDbLine
 62
250
  6
CONTINUOUS
 10
-27.4045849564
 20
-2.8088101084
 11
-27.0686399914
 21
-2.4820565186
  0
LINE
  5
28E
100
AcDbEntity
  8
0
100
AcDbLine
 62
7
  6
CONTINUOUS
 10
-27.4006600989
 20
-2.8423453091
 11
-26.9716757182
 21
-2.4250978401
  0
LINE
  5
28F
100
AcDbEntity
  8
0
100
AcDbLine
 62
7
  6
CONTINUOUS
 10
-26.7066261707
 20
-1.7813195748
 11
-28.9921621246
 21
-3.2469280687
  0
LINE
  5
290
100
AcDbEntity
  8
0
100
AcDbLine
 62
7
  6
CONTINUOUS
 10
-28.6787690628
 20
-3.4278772948
 11
-25.4601055434
 21
-1.5371724548
  0
LINE
  5
291
100
AcDbEntity
  8
0
100
AcDbLine
 62
250
  6
CONTINUOUS
 10
-27.4045849564
 20
-2.8088101084
 11
-28.5752637795
 21
-3.4876399482
  0
LINE
  5
292
100
AcDbEntity
  8
0
100
AcDbLine
 62
7
  6
CONTINUOUS
 10
-33.2493001314
 20
-0.7392148021
 11
-33.1078787752
 21
-0.6575598834
  0
LINE
  5
293
100
AcDbEntity
  8
0
100
AcDbLine
 62
7
  6
CONTINUOUS
 10
-32.8957467408
 20
-0.5350775054
 11
-32.7543253846
 21
-0.4534225868
  0
LINE
  5
294
100
AcDbEntity
  8
0
100
AcDbLine
 62
7
  6
CONTINUOUS
 10
-32.5421933502
 20
-0.3309402088
 11
-32.400771994
 21
-0.2492852901
  0
LINE
  5
295
100
AcDbEntity
  8
0
100
AcDbLine
 62
7
  6
CONTINUOUS
 10
-32.1886399596
 20
-0.1268029121
 11
-32.0472186034
 21
-0.0451479934
  0
LINE
  5
296
100
AcDbEntity
  8
0
100
AcDbLine
 62
7
  6
CONTINUOUS
 10
-31.835086569
 20
0.0773343846
 11
-31.6936652128
 21
0.1589893032
  0
LINE
  5
297
100
AcDbEntity
  8
0
100
AcDbLine
 62
7
  6
CONTINUOUS
 10
-31.4815331784
 20
0.2814716812
 11
-31.3401118222
 21
0.3631265999
  0
LINE
  5
298
100
AcDbEntity
  8
0
100
AcDbLine
 62
7
  6
CONTINUOUS
 10
-31.1279797878
 20
0.4856089779
 11
-30.9865584316
 21
0.5672638965
  0
LINE
  5
299
100
AcDbEntity
  8
0
100
AcDbLine
 62
7
  6
CONTINUOUS
 10
-29.3602128349
 20
-2.9847250654
 11
-29.2187914786
 21
-2.9030701467
  0
LINE
  5
29A
100
AcDbEntity
  8
0
100
AcDbLine
 62
7
  6
CONTINUOUS
 10
-29.0066594443
 20
-2.7805877687
 11
-28.865238088
 21
-2.6989328501
  0
LINE
  5
29B
100
AcDbEntity
  8
0
100
AcDbLine
 62
7
  6
CONTINUOUS
 10
-28.6531060537
 20
-2.5764504721
 11
-28.5116846975
 21
-2.4947955534
  0
LINE
  5
29C
100
AcDbEntity
  8
0
100
AcDbLine
 62
7
  6
CONTINUOUS
 10
-28.2995526631
 20
-2.3723131754
 11
-28.1581313069
 21
-2.2906582568
  0
LINE
  5
29D
100
AcDbEntity
  8
0
100
AcDbLine
 62
7
  6
CONTINUOUS
 10
-27.9459992725
 20
-2.1681758788
 11
-27.8045779163
 21
-2.0865209601
  0
LINE
  5
29E
100
AcDbEntity
  8
0
100
AcDbLine
 62
7
  6
CONTINUOUS
 10
-27.5924458819
 20
-1.9640385821
 11
-27.4510245257
 21
-1.8823836634
  0
LINE
  5
29F
100
AcDbEntity
  8
0
100
AcDbLine
 62
7
  6
CONTINUOUS
 10
-27.2388924913
 20
-1.7599012854
 11
-27.0974711351
 21
-1.6782463668
  0
LINE
  5
2A0
100
AcDbEntity
  8
0
100
AcDbLine
 62
7
  6
CONTINUOUS
 10
-26.9914051179
 20
-1.7394757193
 11
-29.2971915452
 21
-3.0708079041
  0
LINE
  5
2A1
100
AcDbEntity
  8
0
100
AcDbLine
 62
7
  6
CONTINUOUS
 10
-33.4913082625
 20
-0.6491774763
 11
-30.952963429
 21
0.670462339
  0
LINE
  5
2A2
100
AcDbEntity
  8
0
100
AcDbLine
 62
7
  6
CONTINUOUS
 10
-30.878916276
 20
0.7049061351
 11
-29.5685620203
 21
1.2423684618
  0
LINE
  5
2A3
100
AcDbEntity
  8
0
100
AcDbLine
 62
7
  6
CONTINUOUS
 10
-40.6490339014
 20
3.4836036003
 11
37.2253233098
 21
-41.4800742585
  0
LINE
  5
2A4
100
AcDbEntity
  8
ASSI
100
AcDbLine
 62
7
  6
CONTINUOUS
 10
-40.6490339014
 20
3.4836036003
 11
37.2253233098
 21
-41.4800742585
  0
LINE
  5
2A5
100
AcDbEntity
  8
0
100
AcDbLine
 62
7
  6
CONTINUOUS
 10
34.2793974719
 20
-39.7294384649
 11
30.3903101754
 21
-37.4839282016
  0
LINE
  5
2A6
100
AcDbEntity
  8
0
100
AcDbLine
 62
7
  6
CONTINUOUS
 10
-29.3602128349
 20
-2.9847250654
 11
-33.2493001314
 21
-0.7392148021
  0
LINE
  5
2A7
100
AcDbEntity
  8
0
100
AcDbLine
 62
7
  6
CONTINUOUS
 10
34.5268848453
 20
-39.7090128988
 11
30.5317315316
 21
-37.4022732829
  0
LINE
  5
2A8
100
AcDbEntity
  8
0
100
AcDbLine
 62
7
  6
CONTINUOUS
 10
-33.1078787752
 20
-0.6575598834
 11
-29.1127254615
 21
-2.9642994993
  0
LINE
  5
2A9
100
AcDbEntity
  8
0
100
AcDbLine
 62
7
  6
CONTINUOUS
 10
34.6329508625
 20
-39.5253011682
 11
30.743863566
 21
-37.2797909049
  0
LINE
  5
2AA
100
AcDbEntity
  8
0
100
AcDbLine
 62
7
  6
CONTINUOUS
 10
-29.0066594443
 20
-2.7805877687
 11
-32.8957467408
 21
-0.5350775054
  0
LINE
  5
2AB
100
AcDbEntity
  8
0
100
AcDbLine
 62
7
  6
CONTINUOUS
 10
34.8804382359
 20
-39.5048756021
 11
30.8852849222
 21
-37.1981359863
  0
LINE
  5
2AC
100
AcDbEntity
  8
0
100
AcDbLine
 62
7
  6
CONTINUOUS
 10
-32.7543253846
 20
-0.4534225868
 11
-28.7591720709
 21
-2.7601622026
  0
LINE
  5
2AD
100
AcDbEntity
  8
0
100
AcDbLine
 62
7
  6
CONTINUOUS
 10
34.9865042531
 20
-39.3211638716
 11
31.0974169566
 21
-37.0756536083
  0
LINE
  5
2AE
100
AcDbEntity
  8
0
100
AcDbLine
 62
7
  6
CONTINUOUS
 10
-28.6531060537
 20
-2.5764504721
 11
-32.5421933502
 21
-0.3309402088
  0
LINE
  5
2AF
100
AcDbEntity
  8
0
100
AcDbLine
 62
7
  6
CONTINUOUS
 10
35.2339916265
 20
-39.3007383054
 11
31.2388383128
 21
-36.9939986896
  0
LINE
  5
2B0
100
AcDbEntity
  8
0
100
AcDbLine
 62
7
  6
CONTINUOUS
 10
-32.400771994
 20
-0.2492852901
 11
-28.4056186803
 21
-2.5560249059
  0
LINE
  5
2B1
100
AcDbEntity
  8
0
100
AcDbLine
 62
7
  6
CONTINUOUS
 10
35.3400576437
 20
-39.1170265749
 11
31.4509703472
 21
-36.8715163116
  0
LINE
  5
2B2
100
AcDbEntity
  8
0
100
AcDbLine
 62
7
  6
CONTINUOUS
 10
-28.2995526631
 20
-2.3723131754
 11
-32.1886399596
 21
-0.1268029121
  0
LINE
  5
2B3
100
AcDbEntity
  8
0
100
AcDbLine
 62
7
  6
CONTINUOUS
 10
35.5875450171
 20
-39.0966010088
 11
31.5923917034
 21
-36.7898613929
  0
LINE
  5
2B4
100
AcDbEntity
  8
0
100
AcDbLine
 62
7
  6
CONTINUOUS
 10
-32.0472186034
 20
-0.0451479934
 11
-28.0520652897
 21
-2.3518876093
  0
LINE
  5
2B5
100
AcDbEntity
  8
0
100
AcDbLine
 62
7
  6
CONTINUOUS
 10
35.6936110343
 20
-38.9128892782
 11
31.8045237378
 21
-36.6673790149
  0
LINE
  5
2B6
100
AcDbEntity
  8
0
100
AcDbLine
 62
7
  6
CONTINUOUS
 10
-27.9459992725
 20
-2.1681758788
 11
-31.835086569
 21
0.0773343846
  0
LINE
  5
2B7
100
AcDbEntity
  8
0
100
AcDbLine
 62
7
  6
CONTINUOUS
 10
35.9410984077
 20
-38.8924637121
 11
31.945945094
 21
-36.5857240963
  0
LINE
  5
2B8
100
AcDbEntity
  8
0
100
AcDbLine
 62
7
  6
CONTINUOUS
 10
-31.6936652128
 20
0.1589893032
 11
-27.6985118991
 21
-2.1477503126
  0
LINE
  5
2B9
100
AcDbEntity
  8
0
100
AcDbLine
 62
7
  6
CONTINUOUS
 10
36.0471644249
 20
-38.7087519816
 11
32.1580771284
 21
-36.4632417183
  0
LINE
  5
2BA
100
AcDbEntity
  8
0
100
AcDbLine
 62
7
  6
CONTINUOUS
 10
-27.5924458819
 20
-1.9640385821
 11
-31.4815331784
 21
0.2814716812
  0
LINE
  5
2BB
100
AcDbEntity
  8
0
100
AcDbLine
 62
7
  6
CONTINUOUS
 10
36.2946517983
 20
-38.6883264154
 11
32.2994984846
 21
-36.3815867996
  0
LINE
  5
2BC
100
AcDbEntity
  8
0
100
AcDbLine
 62
7
  6
CONTINUOUS
 10
-31.3401118222
 20
0.3631265999
 11
-27.3449585085
 21
-1.9436130159
  0
LINE
  5
2BD
100
AcDbEntity
  8
0
100
AcDbLine
 62
7
  6
CONTINUOUS
 10
36.4007178155
 20
-38.5046146849
 11
32.5116305189
 21
-36.2591044216
  0
LINE
  5
2BE
100
AcDbEntity
  8
0
100
AcDbLine
 62
7
  6
CONTINUOUS
 10
-27.2388924913
 20
-1.7599012854
 11
-31.1279797878
 21
0.4856089779
  0
LINE
  5
2BF
100
AcDbEntity
  8
0
100
AcDbLine
 62
7
  6
CONTINUOUS
 10
36.6482051889
 20
-38.4841891188
 11
32.6530518752
 21
-36.177449503
  0
LINE
  5
2C0
100
AcDbEntity
  8
0
100
AcDbLine
 62
7
  6
CONTINUOUS
 10
-30.9865584316
 20
0.5672638965
 11
-26.9914051179
 21
-1.7394757193
  0
LINE
  5
2C1
100
AcDbEntity
  8
0
100
AcDbLine
 62
250
  6
CONTINUOUS
 10
36.9329841361
 20
-38.5260329743
 11
32.6866468778
 21
-36.0742510605
  0
LINE
  5
2C2
100
AcDbEntity
  8
0
100
AcDbLine
 62
250
  6
CONTINUOUS
 10
-26.7066261707
 20
-1.7813195748
 11
-30.952963429
 21
0.670462339
  0
LINE
  5
2C3
100
AcDbEntity
  8
0
100
AcDbLine
 62
250
  6
CONTINUOUS
 10
36.9996564921
 20
-38.4873310629
 11
32.7606940308
 21
-36.0398072644
  0
LINE
  5
2C4
100
AcDbEntity
  8
0
100
AcDbLine
 62
250
  6
CONTINUOUS
 10
-26.6399538147
 20
-1.7426176634
 11
-30.878916276
 21
0.7049061351
  0
LINE
  5
2C5
100
AcDbEntity
  8
0
100
AcDbLine
 62
7
  6
CONTINUOUS
 10
-14.5183915661
 20
-8.6573612238
 11
-10.8265940316
 21
-10.7889588511
  0
LINE
  5
2C6
100
AcDbEntity
  8
0
100
AcDbLine
 62
7
  6
CONTINUOUS
 10
1.3915110106
 20
-17.8435395737
 11
5.0833085451
 21
-19.975137201
  0
LINE
  5
2C7
100
AcDbEntity
  8
0
100
AcDbLine
 62
7
  6
CONTINUOUS
 10
17.3014135873
 20
-27.0297179236
 11
20.9932111218
 21
-29.1613155509
  0
LINE
  5
2C8
100
AcDbEntity
  8
0
100
AcDbLine
 62
7
  6
CONTINUOUS
 10
-29.2933145428
 20
1.2227320883
 11
-25.4673131523
 21
-0.9863531636
  0
LINE
  5
2C9
100
AcDbEntity
  8
0
100
AcDbLine
 62
7
  6
CONTINUOUS
 10
34.346295764
 20
-35.5219813112
 11
37.2253233098
 21
-37.1842957335
  0
LINE
  5
2CA
100
AcDbEntity
  8
SMUSSO
100
AcDbLine
 62
7
  6
CONTINUOUS
 10
-58.2149620151
 20
66.9540888344
 11
-58.2145867076
 21
66.9534524729
  0
LINE
  5
2CB
100
AcDbEntity
  8
ASSI
100
AcDbLine
 62
7
  6
CONTINUOUS
 10
-58.2149620151
 20
66.9540888344
 11
-58.2145867076
 21
66.9534524729
  0
LINE
  5
2CC
100
AcDbEntity
  8
0
100
AcDbLine
 62
250
  6
CONTINUOUS
 10
-10.8157826183
 20
-11.0253198202
 11
-10.8157826183
 21
-11.4543425142
  0
LINE
  5
2CD
100
AcDbEntity
  8
0
100
AcDbLine
 62
7
  6
CONTINUOUS
 10
-10.738726066
 20
-10.9108151498
 11
-10.738726066
 21
-11.3088609346
  0
LINE
  5
2CE
100
AcDbEntity
  8
0
100
AcDbLine
 62
7
  6
CONTINUOUS
 10
-27.4592744446
 20
-2.8868093173
 11
-28.5349120602
 21
-3.5109385252
  0
LINE
  5
2CF
100
AcDbEntity
  8
0
100
AcDbLine
 62
7
  6
CONTINUOUS
 10
-25.4601055434
 20
-1.129802817
 11
-26.6399538147
 21
-1.7426176634
  0
LINE
  5
2D0
100
AcDbEntity
  8
SMUSSO
100
AcDbLine
 62
7
  6
CONTINUOUS
 10
52.7145685475
 20
1.7385957777
 11
54.1315276785
 21
2.0862140539
  0
LINE
  5
2D1
100
AcDbEntity
  8
ASSI
100
AcDbLine
 62
7
  6
CONTINUOUS
 10
52.7145685475
 20
1.7385957777
 11
54.1315276785
 21
2.0862140539
  0
LINE
  5
2D2
100
AcDbEntity
  8
0
100
AcDbLine
 62
7
  6
CONTINUOUS
 10
-12.0056325432
 20
-12.1536583565
 11
-12.3484132132
 21
-12.487060628
  0
LINE
  5
2D3
100
AcDbEntity
  8
0
100
AcDbLine
 62
250
  6
CONTINUOUS
 10
5.0941199584
 20
-20.21149817
 11
5.0941199584
 21
-20.6405208641
  0
LINE
  5
2D4
100
AcDbEntity
  8
0
100
AcDbLine
 62
7
  6
CONTINUOUS
 10
5.1711765107
 20
-20.0969934997
 11
5.1711765107
 21
-20.4950392845
  0
LINE
  5
2D5
100
AcDbEntity
  8
0
100
AcDbLine
 62
7
  6
CONTINUOUS
 10
-10.8157826183
 20
-11.0253198202
 11
-13.064462676
 21
-12.4433821094
  0
LINE
  5
2D6
100
AcDbEntity
  8
0
100
AcDbLine
 62
7
  6
CONTINUOUS
 10
-12.7792192723
 20
-12.6080780757
 11
-10.8251334637
 21
-11.4602104985
  0
LINE
  5
2D7
100
AcDbEntity
  8
0
100
AcDbLine
 62
7
  6
CONTINUOUS
 10
-12.5815371669
 20
-12.6684620875
 11
-12.6279727486
 21
-12.6954059229
  0
LINE
  5
2D8
100
AcDbEntity
  8
0
100
AcDbLine
 62
250
  6
CONTINUOUS
 10
-12.3484132132
 20
-12.487060628
 11
-12.667929542
 21
-12.6723353712
  0
LINE
  5
2D9
100
AcDbEntity
  8
0
100
AcDbLine
 62
7
  6
CONTINUOUS
 10
-17.4286749963
 20
-9.9235406121
 11
-14.9312627824
 21
-8.6490931525
  0
LINE
  5
2DA
100
AcDbEntity
  8
SMUSSO
100
AcDbLine
 62
7
  6
CONTINUOUS
 10
53.4451293308
 20
-69.8654584819
 11
53.4454917611
 21
-69.8660999196
  0
LINE
  5
2DB
100
AcDbEntity
  8
ASSI
100
AcDbLine
 62
7
  6
CONTINUOUS
 10
53.4451293308
 20
-69.8654584819
 11
53.4454917611
 21
-69.8660999196
  0
LINE
  5
2DC
100
AcDbEntity
  8
0
100
AcDbLine
 62
7
  6
CONTINUOUS
 10
3.9042700335
 20
-21.3398367064
 11
3.5614893635
 21
-21.6732389779
  0
LINE
  5
2DD
100
AcDbEntity
  8
0
100
AcDbLine
 62
7
  6
CONTINUOUS
 10
-1.5187724196
 20
-19.1097189619
 11
0.9786397943
 21
-17.8352715024
  0
LINE
  5
2DE
100
AcDbEntity
  8
0
100
AcDbLine
 62
7
  6
CONTINUOUS
 10
-42.2230972542
 20
39.7265016976
 11
36.8306452562
 21
-5.9181384518
  0
LINE
  5
2DF
100
AcDbEntity
  8
ASSI
100
AcDbLine
 62
7
  6
CONTINUOUS
 10
-42.2230972542
 20
39.7265016976
 11
36.8306452562
 21
-5.9181384518
  0
LINE
  5
2E0
100
AcDbEntity
  8
0
100
AcDbLine
 62
250
  6
CONTINUOUS
 10
-42.2645137784
 20
39.8180490698
 11
36.789228732
 21
-5.8265910795
  0
LINE
  5
2E1
100
AcDbEntity
  8
ASSI
100
AcDbLine
 62
250
  6
CONTINUOUS
 10
-42.2645137784
 20
39.8180490698
 11
36.789228732
 21
-5.8265910795
  0
LWPOLYLINE
  5
2E2
100
AcDbEntity
  8
0
100
AcDbPolyline
 62
7
  6
CONTINUOUS
 90
24
 70
0
 10
36.8306855273
 20
-5.9181616851
 10
36.8484026637
 20
-5.9289148288
 10
36.8724058387
 20
-5.9451111135
 10
36.8973315428
 20
-5.9638848104
 10
36.9227748462
 20
-5.9851140196
 10
36.9485043764
 20
-6.0087535108
 10
36.9743054221
 20
-6.0347473268
 10
36.9998343262
 20
-6.062870751
 10
37.0248698934
 20
-6.0929742583
 10
37.0492043811
 20
-6.124896569
 10
37.0725507209
 20
-6.1583282192
 10
37.0947279019
 20
-6.1930493568
 10
37.1155673811
 20
-6.2288277673
 10
37.1348513637
 20
-6.2652924156
 10
37.152458911
 20
-6.3021827771
 10
37.1682851349
 20
-6.339232186
 10
37.1821986219
 20
-6.376036984
 10
37.1941590426
 20
-6.4123365315
 10
37.2041420483
 20
-6.4478631272
 10
37.2121173909
 20
-6.4822045703
 10
37.2181385481
 20
-6.5151435722
 10
37.2222759626
 20
-6.5464556477
 10
37.2246183829
 20
-6.5757287508
 10
37.2253233322
 20
-6.6016806716
  0
LWPOLYLINE
  5
2E3
100
AcDbEntity
  8
ASSI
100
AcDbPolyline
 62
7
  6
CONTINUOUS
 90
24
 70
0
 10
36.8306855273
 20
-5.9181616851
 10
36.8484026637
 20
-5.9289148288
 10
36.8724058387
 20
-5.9451111135
 10
36.8973315428
 20
-5.9638848104
 10
36.9227748462
 20
-5.9851140196
 10
36.9485043764
 20
-6.0087535108
 10
36.9743054221
 20
-6.0347473268
 10
36.9998343262
 20
-6.062870751
 10
37.0248698934
 20
-6.0929742583
 10
37.0492043811
 20
-6.124896569
 10
37.0725507209
 20
-6.1583282192
 10
37.0947279019
 20
-6.1930493568
 10
37.1155673811
 20
-6.2288277673
 10
37.1348513637
 20
-6.2652924156
 10
37.152458911
 20
-6.3021827771
 10
37.1682851349
 20
-6.339232186
 10
37.1821986219
 20
-6.376036984
 10
37.1941590426
 20
-6.4123365315
 10
37.2041420483
 20
-6.4478631272
 10
37.2121173909
 20
-6.4822045703
 10
37.2181385481
 20
-6.5151435722
 10
37.2222759626
 20
-6.5464556477
 10
37.2246183829
 20
-6.5757287508
 10
37.2253233322
 20
-6.6016806716
  0
LINE
  5
2E4
100
AcDbEntity
  8
0
100
AcDbLine
 62
250
  6
CONTINUOUS
 10
21.0040225351
 20
-29.3976765199
 11
21.0040225351
 21
-29.826699214
  0
LINE
  5
2E5
100
AcDbEntity
  8
0
100
AcDbLine
 62
7
  6
CONTINUOUS
 10
21.0810790874
 20
-29.2831718496
 11
21.0810790874
 21
-29.6812176344
  0
LINE
  5
2E6
100
AcDbEntity
  8
0
100
AcDbLine
 62
7
  6
CONTINUOUS
 10
5.0941199584
 20
-20.21149817
 11
2.8454399007
 21
-21.6295604592
  0
LINE
  5
2E7
100
AcDbEntity
  8
0
100
AcDbLine
 62
7
  6
CONTINUOUS
 10
3.1306833044
 20
-21.7942564256
 11
5.0847691129
 21
-20.6463888484
  0
LINE
  5
2E8
100
AcDbEntity
  8
0
100
AcDbLine
 62
7
  6
CONTINUOUS
 10
3.3283654098
 20
-21.8546404374
 11
3.2819298281
 21
-21.8815842728
  0
LINE
  5
2E9
100
AcDbEntity
  8
0
100
AcDbLine
 62
250
  6
CONTINUOUS
 10
3.5614893635
 20
-21.6732389779
 11
3.2419730347
 21
-21.8585137211
  0
LINE
  5
2EA
100
AcDbEntity
  8
SMUSSO
100
AcDbLine
 62
7
  6
CONTINUOUS
 10
53.4454917611
 20
3.2997096038
 11
57.5074247458
 21
5.645003506
  0
LINE
  5
2EB
100
AcDbEntity
  8
ASSI
100
AcDbLine
 62
7
  6
CONTINUOUS
 10
53.4454917611
 20
3.2997096038
 11
57.5074247458
 21
5.645003506
  0
LINE
  5
2EC
100
AcDbEntity
  8
SMUSSO
100
AcDbLine
 62
7
  6
CONTINUOUS
 10
54.1530290304
 20
2.0742191065
 11
58.2149620151
 21
4.4195130086
  0
LINE
  5
2ED
100
AcDbEntity
  8
ASSI
100
AcDbLine
 62
7
  6
CONTINUOUS
 10
54.1530290304
 20
2.0742191065
 11
58.2149620151
 21
4.4195130086
  0
LINE
  5
2EE
100
AcDbEntity
  8
SMUSSO
100
AcDbLine
 62
7
  6
CONTINUOUS
 10
54.1315276785
 20
2.0862140539
 11
54.1530290304
 21
2.0742191065
  0
LINE
  5
2EF
100
AcDbEntity
  8
ASSI
100
AcDbLine
 62
7
  6
CONTINUOUS
 10
54.1315276785
 20
2.0862140539
 11
54.1530290304
 21
2.0742191065
  0
LINE
  5
2F0
100
AcDbEntity
  8
SMUSSO
100
AcDbLine
 62
7
  6
CONTINUOUS
 10
52.4355926134
 20
2.2217962692
 11
-57.9108776598
 21
65.9344652389
  0
LINE
  5
2F1
100
AcDbEntity
  8
ASSI
100
AcDbLine
 62
7
  6
CONTINUOUS
 10
52.4355926134
 20
2.2217962692
 11
-57.9108776598
 21
65.9344652389
  0
LINE
  5
2F2
100
AcDbEntity
  8
SMUSSO
100
AcDbLine
 62
7
  6
CONTINUOUS
 10
53.4454917611
 20
3.2997096038
 11
-57.5074247458
 21
67.3625330283
  0
LINE
  5
2F3
100
AcDbEntity
  8
ASSI
100
AcDbLine
 62
7
  6
CONTINUOUS
 10
53.4454917611
 20
3.2997096038
 11
-57.5074247458
 21
67.3625330283
  0
LINE
  5
2F4
100
AcDbEntity
  8
SMUSSO
100
AcDbLine
 62
7
  6
CONTINUOUS
 10
52.4355926134
 20
2.2217962692
 11
53.4451293308
 21
3.275090865
  0
LINE
  5
2F5
100
AcDbEntity
  8
ASSI
100
AcDbLine
 62
7
  6
CONTINUOUS
 10
52.4355926134
 20
2.2217962692
 11
53.4451293308
 21
3.275090865
  0
LINE
  5
2F6
100
AcDbEntity
  8
0
100
AcDbLine
 62
7
  6
CONTINUOUS
 10
19.8141726102
 20
-30.5260150562
 11
19.4713919402
 21
-30.8594173278
  0
LINE
  5
2F7
100
AcDbEntity
  8
0
100
AcDbLine
 62
7
  6
CONTINUOUS
 10
21.0040225351
 20
-29.3976765199
 11
18.7553424774
 21
-30.8157388091
  0
LINE
  5
2F8
100
AcDbEntity
  8
0
100
AcDbLine
 62
7
  6
CONTINUOUS
 10
19.0405858811
 20
-30.9804347755
 11
20.9946716896
 21
-29.8325671983
  0
LINE
  5
2F9
100
AcDbEntity
  8
0
100
AcDbLine
 62
7
  6
CONTINUOUS
 10
19.2382679865
 20
-31.0408187873
 11
19.1918324048
 21
-31.0677626227
  0
LINE
  5
2FA
100
AcDbEntity
  8
0
100
AcDbLine
 62
250
  6
CONTINUOUS
 10
19.4713919402
 20
-30.8594173278
 11
19.1518756114
 21
-31.044692071
  0
LINE
  5
2FB
100
AcDbEntity
  8
0
100
AcDbLine
 62
7
  6
CONTINUOUS
 10
14.3911301571
 20
-28.2958973118
 11
16.888542371
 21
-27.0214498523
  0
LINE
  5
2FC
100
AcDbEntity
  8
SMUSSO
100
AcDbLine
 62
7
  6
CONTINUOUS
 10
57.5074247458
 20
5.645003506
 11
-53.7196109586
 21
69.8660999196
  0
LINE
  5
2FD
100
AcDbEntity
  8
ASSI
100
AcDbLine
 62
7
  6
CONTINUOUS
 10
57.5074247458
 20
5.645003506
 11
-53.7196109586
 21
69.8660999196
  0
LINE
  5
2FE
100
AcDbEntity
  8
0
100
AcDbLine
 62
7
  6
CONTINUOUS
 10
37.2253233098
 20
-6.6017353129
 11
37.2253233098
 21
-42.7704498943
  0
LINE
  5
2FF
100
AcDbEntity
  8
ASSI
100
AcDbLine
 62
7
  6
CONTINUOUS
 10
37.2253233098
 20
-6.6017353129
 11
37.2253233098
 21
-42.7704498943
  0
LINE
  5
300
100
AcDbEntity
  8
0
100
AcDbLine
 62
250
  6
CONTINUOUS
 10
37.2839019536
 20
-6.6833902316
 11
37.2839019536
 21
-42.852104813
  0
LINE
  5
301
100
AcDbEntity
  8
ASSI
100
AcDbLine
 62
250
  6
CONTINUOUS
 10
37.2839019536
 20
-6.6833902316
 11
37.2839019536
 21
-42.852104813
  0
LWPOLYLINE
  5
302
100
AcDbEntity
  8
0
100
AcDbPolyline
 62
7
  6
CONTINUOUS
 90
13
 70
0
 10
37.2253233427
 20
-42.7705161736
 10
37.2250433363
 20
-42.7862418638
 10
37.2236677443
 20
-42.8080076076
 10
37.2211974995
 20
-42.8283009329
 10
37.2176996243
 20
-42.846991501
 10
37.213308849
 20
-42.8637724186
 10
37.2083096586
 20
-42.8781752799
 10
37.2030229583
 20
-42.8900195978
 10
37.197702734
 20
-42.8994443382
 10
37.1926150151
 20
-42.9066067374
 10
37.1879779568
 20
-42.9117564275
 10
37.1839530654
 20
-42.9152330303
 10
37.1819417649
 20
-42.9166404129
  0
LWPOLYLINE
  5
303
100
AcDbEntity
  8
ASSI
100
AcDbPolyline
 62
7
  6
CONTINUOUS
 90
13
 70
0
 10
37.2253233427
 20
-42.7705161736
 10
37.2250433363
 20
-42.7862418638
 10
37.2236677443
 20
-42.8080076076
 10
37.2211974995
 20
-42.8283009329
 10
37.2176996243
 20
-42.846991501
 10
37.213308849
 20
-42.8637724186
 10
37.2083096586
 20
-42.8781752799
 10
37.2030229583
 20
-42.8900195978
 10
37.197702734
 20
-42.8994443382
 10
37.1926150151
 20
-42.9066067374
 10
37.1879779568
 20
-42.9117564275
 10
37.1839530654
 20
-42.9152330303
 10
37.1819417649
 20
-42.9166404129
  0
LINE
  5
304
100
AcDbEntity
  8
0
100
AcDbLine
 62
7
  6
CONTINUOUS
 10
30.3687918969
 20
-37.5211989532
 11
30.3903101754
 21
-37.4839282016
  0
LINE
  5
305
100
AcDbEntity
  8
0
100
AcDbLine
 62
7
  6
CONTINUOUS
 10
30.6377975488
 20
-37.4635026355
 11
30.743863566
 21
-37.2797909049
  0
LINE
  5
306
100
AcDbEntity
  8
0
100
AcDbLine
 62
7
  6
CONTINUOUS
 10
30.9913509394
 20
-37.2593653388
 11
31.0974169566
 21
-37.0756536083
  0
LINE
  5
307
100
AcDbEntity
  8
0
100
AcDbLine
 62
7
  6
CONTINUOUS
 10
31.34490433
 20
-37.0552280421
 11
31.4509703472
 21
-36.8715163116
  0
LINE
  5
308
100
AcDbEntity
  8
0
100
AcDbLine
 62
7
  6
CONTINUOUS
 10
31.6984577206
 20
-36.8510907455
 11
31.8045237378
 21
-36.6673790149
  0
LINE
  5
309
100
AcDbEntity
  8
0
100
AcDbLine
 62
7
  6
CONTINUOUS
 10
32.0520111112
 20
-36.6469534488
 11
32.1580771284
 21
-36.4632417183
  0
LINE
  5
30A
100
AcDbEntity
  8
0
100
AcDbLine
 62
7
  6
CONTINUOUS
 10
32.4055645018
 20
-36.4428161521
 11
32.5116305189
 21
-36.2591044216
  0
LINE
  5
30B
100
AcDbEntity
  8
0
100
AcDbLine
 62
7
  6
CONTINUOUS
 10
30.3903101754
 20
-37.4839282016
 11
30.5317315316
 21
-37.4022732829
  0
LINE
  5
30C
100
AcDbEntity
  8
0
100
AcDbLine
 62
7
  6
CONTINUOUS
 10
30.743863566
 20
-37.2797909049
 11
30.8852849222
 21
-37.1981359863
  0
LINE
  5
30D
100
AcDbEntity
  8
0
100
AcDbLine
 62
7
  6
CONTINUOUS
 10
31.0974169566
 20
-37.0756536083
 11
31.2388383128
 21
-36.9939986896
  0
LINE
  5
30E
100
AcDbEntity
  8
0
100
AcDbLine
 62
7
  6
CONTINUOUS
 10
31.4509703472
 20
-36.8715163116
 11
31.5923917034
 21
-36.7898613929
  0
LINE
  5
30F
100
AcDbEntity
  8
0
100
AcDbLine
 62
7
  6
CONTINUOUS
 10
31.8045237378
 20
-36.6673790149
 11
31.945945094
 21
-36.5857240963
  0
LINE
  5
310
100
AcDbEntity
  8
0
100
AcDbLine
 62
7
  6
CONTINUOUS
 10
32.1580771284
 20
-36.4632417183
 11
32.2994984846
 21
-36.3815867996
  0
LINE
  5
311
100
AcDbEntity
  8
0
100
AcDbLine
 62
7
  6
CONTINUOUS
 10
32.5116305189
 20
-36.2591044216
 11
32.6530518752
 21
-36.177449503
  0
LINE
  5
312
100
AcDbEntity
  8
0
100
AcDbLine
 62
7
  6
CONTINUOUS
 10
30.1483020443
 20
-37.3938908757
 11
32.6866468778
 21
-36.0742510605
  0
LINE
  5
313
100
AcDbEntity
  8
0
100
AcDbLine
 62
7
  6
CONTINUOUS
 10
32.7606940308
 20
-36.0398072644
 11
34.0710482864
 21
-35.5023449377
  0
LINE
  5
314
100
AcDbEntity
  8
SMUSSO
100
AcDbLine
 62
7
  6
CONTINUOUS
 10
52.7145685475
 20
1.7385957777
 11
52.4355926134
 21
2.2217962692
  0
LINE
  5
315
100
AcDbEntity
  8
ASSI
100
AcDbLine
 62
7
  6
CONTINUOUS
 10
52.7145685475
 20
1.7385957777
 11
52.4355926134
 21
2.2217962692
  0
LINE
  5
316
100
AcDbEntity
  8
SMUSSO
100
AcDbLine
 62
7
  6
CONTINUOUS
 10
54.1315276785
 20
2.0862140539
 11
53.4451293308
 21
3.275090865
  0
LINE
  5
317
100
AcDbEntity
  8
ASSI
100
AcDbLine
 62
7
  6
CONTINUOUS
 10
54.1315276785
 20
2.0862140539
 11
53.4451293308
 21
3.275090865
  0
LINE
  5
318
100
AcDbEntity
  8
SMUSSO
100
AcDbLine
 62
7
  6
CONTINUOUS
 10
52.7145685475
 20
-69.0930378217
 11
52.7145685475
 21
1.7385957777
  0
LINE
  5
319
100
AcDbEntity
  8
ASSI
100
AcDbLine
 62
7
  6
CONTINUOUS
 10
52.7145685475
 20
-69.0930378217
 11
52.7145685475
 21
1.7385957777
  0
LINE
  5
31A
100
AcDbEntity
  8
SMUSSO
100
AcDbLine
 62
7
  6
CONTINUOUS
 10
54.1530290304
 20
-69.4576557258
 11
54.1530290304
 21
2.0742191065
  0
LINE
  5
31B
100
AcDbEntity
  8
ASSI
100
AcDbLine
 62
7
  6
CONTINUOUS
 10
54.1530290304
 20
-69.4576557258
 11
54.1530290304
 21
2.0742191065
  0
LINE
  5
31C
100
AcDbEntity
  8
CURVE
100
AcDbLine
 62
250
  6
CONTINUOUS
 10
55.2838724038
 20
-62.2599060725
 11
55.2838724038
 21
-62.6859345476
  0
LINE
  5
31D
100
AcDbEntity
  8
CURVE
100
AcDbLine
 62
250
  6
CONTINUOUS
 10
55.2839813755
 20
-64.5224841224
 11
55.2839813755
 21
-64.0596859084
  0
LINE
  5
31E
100
AcDbEntity
  8
CURVE
100
AcDbLine
 62
250
  6
CONTINUOUS
 10
55.2839813755
 20
-63.269713358
 11
55.2839813755
 21
-62.8439763627
  0
LINE
  5
31F
100
AcDbEntity
  8
CURVE
100
AcDbLine
 62
250
  6
CONTINUOUS
 10
55.2839813755
 20
-61.8462162092
 11
55.2839813755
 21
-61.4205404492
  0
LINE
  5
320
100
AcDbEntity
  8
CURVE
100
AcDbLine
 62
250
  6
CONTINUOUS
 10
55.2839813755
 20
-60.5729830666
 11
55.2839813755
 21
-60.1514696721
  0
LINE
  5
321
100
AcDbEntity
  8
CURVE
100
AcDbLine
 62
250
  6
CONTINUOUS
 10
55.2839813755
 20
-59.2535442382
 11
55.2839813755
 21
-58.8414129036
  0
LINE
  5
322
100
AcDbEntity
  8
SMUSSO
100
AcDbLine
 62
7
  6
CONTINUOUS
 10
53.4454917611
 20
3.2997096038
 11
53.4451293308
 21
3.275090865
  0
LINE
  5
323
100
AcDbEntity
  8
ASSI
100
AcDbLine
 62
7
  6
CONTINUOUS
 10
53.4454917611
 20
3.2997096038
 11
53.4451293308
 21
3.275090865
  0
LINE
  5
324
100
AcDbEntity
  8
0
100
AcDbLine
 62
7
  6
CONTINUOUS
 10
34.2578791934
 20
-39.7667092165
 11
34.2793974719
 21
-39.7294384649
  0
LINE
  5
325
100
AcDbEntity
  8
0
100
AcDbLine
 62
7
  6
CONTINUOUS
 10
34.5268848453
 20
-39.7090128988
 11
34.6329508625
 21
-39.5253011682
  0
LINE
  5
326
100
AcDbEntity
  8
0
100
AcDbLine
 62
7
  6
CONTINUOUS
 10
34.8804382359
 20
-39.5048756021
 11
34.9865042531
 21
-39.3211638716
  0
LINE
  5
327
100
AcDbEntity
  8
0
100
AcDbLine
 62
7
  6
CONTINUOUS
 10
35.2339916265
 20
-39.3007383054
 11
35.3400576437
 21
-39.1170265749
  0
LINE
  5
328
100
AcDbEntity
  8
0
100
AcDbLine
 62
7
  6
CONTINUOUS
 10
35.5875450171
 20
-39.0966010088
 11
35.6936110343
 21
-38.9128892782
  0
LINE
  5
329
100
AcDbEntity
  8
0
100
AcDbLine
 62
7
  6
CONTINUOUS
 10
35.9410984077
 20
-38.8924637121
 11
36.0471644249
 21
-38.7087519816
  0
LINE
  5
32A
100
AcDbEntity
  8
0
100
AcDbLine
 62
7
  6
CONTINUOUS
 10
36.2946517983
 20
-38.6883264154
 11
36.4007178155
 21
-38.5046146849
  0
LINE
  5
32B
100
AcDbEntity
  8
0
100
AcDbLine
 62
250
  6
CONTINUOUS
 10
36.2350253504
 20
-39.5535235079
 11
36.5709703154
 21
-39.2267699181
  0
LINE
  5
32C
100
AcDbEntity
  8
0
100
AcDbLine
 62
7
  6
CONTINUOUS
 10
36.2389502079
 20
-39.5870587086
 11
36.6679345886
 21
-39.1698112396
  0
LINE
  5
32D
100
AcDbEntity
  8
0
100
AcDbLine
 62
7
  6
CONTINUOUS
 10
36.9329841361
 20
-38.5260329743
 11
34.6474481822
 21
-39.9916414682
  0
LINE
  5
32E
100
AcDbEntity
  8
0
100
AcDbLine
 62
7
  6
CONTINUOUS
 10
34.960841244
 20
-40.1725906943
 11
37.2253233098
 21
-38.8423903872
  0
LINE
  5
32F
100
AcDbEntity
  8
0
100
AcDbLine
 62
7
  6
CONTINUOUS
 10
36.1803358622
 20
-39.6315227167
 11
35.1046982465
 21
-40.2556519247
  0
LINE
  5
330
100
AcDbEntity
  8
0
100
AcDbLine
 62
250
  6
CONTINUOUS
 10
36.2350253504
 20
-39.5535235079
 11
35.0643465272
 21
-40.2323533477
  0
LINE
  5
331
100
AcDbEntity
  8
0
100
AcDbLine
 62
7
  6
CONTINUOUS
 10
34.2793974719
 20
-39.7294384649
 11
34.4208188281
 21
-39.6477835462
  0
LINE
  5
332
100
AcDbEntity
  8
0
100
AcDbLine
 62
7
  6
CONTINUOUS
 10
34.6329508625
 20
-39.5253011682
 11
34.7743722187
 21
-39.4436462496
  0
LINE
  5
333
100
AcDbEntity
  8
0
100
AcDbLine
 62
7
  6
CONTINUOUS
 10
34.9865042531
 20
-39.3211638716
 11
35.1279256093
 21
-39.2395089529
  0
LINE
  5
334
100
AcDbEntity
  8
0
100
AcDbLine
 62
7
  6
CONTINUOUS
 10
35.3400576437
 20
-39.1170265749
 11
35.4814789999
 21
-39.0353716562
  0
LINE
  5
335
100
AcDbEntity
  8
0
100
AcDbLine
 62
7
  6
CONTINUOUS
 10
35.6936110343
 20
-38.9128892782
 11
35.8350323905
 21
-38.8312343596
  0
LINE
  5
336
100
AcDbEntity
  8
0
100
AcDbLine
 62
7
  6
CONTINUOUS
 10
36.0471644249
 20
-38.7087519816
 11
36.1885857811
 21
-38.6270970629
  0
LINE
  5
337
100
AcDbEntity
  8
0
100
AcDbLine
 62
7
  6
CONTINUOUS
 10
36.4007178155
 20
-38.5046146849
 11
36.5421391717
 21
-38.4229597663
  0
LINE
  5
338
100
AcDbEntity
  8
0
100
AcDbLine
 62
7
  6
CONTINUOUS
 10
36.6482051889
 20
-38.4841891188
 11
34.3424187615
 21
-39.8155213036
  0
LINE
  5
339
100
AcDbEntity
  8
0
100
AcDbLine
 62
7
  6
CONTINUOUS
 10
37.2253233098
 20
-38.3701194014
 11
36.9996564921
 21
-38.4873310629
  0
LINE
  5
33A
100
AcDbEntity
  8
SMUSSO
100
AcDbLine
 62
7
  6
CONTINUOUS
 10
57.5074247458
 20
5.645003506
 11
58.2149620151
 21
4.4195130086
  0
LINE
  5
33B
100
AcDbEntity
  8
ASSI
100
AcDbLine
 62
7
  6
CONTINUOUS
 10
57.5074247458
 20
5.645003506
 11
58.2149620151
 21
4.4195130086
  0
LINE
  5
33C
100
AcDbEntity
  8
CURVE
100
AcDbLine
 62
250
  6
CONTINUOUS
 10
56.0973061603
 20
-56.998521905
 11
56.0973061603
 21
-57.2419928962
  0
LINE
  5
33D
100
AcDbEntity
  8
CURVE
100
AcDbLine
 62
250
  6
CONTINUOUS
 10
56.3967196481
 20
-57.0666554706
 11
56.3967196481
 21
-56.8382292358
  0
LINE
  5
33E
100
AcDbEntity
  8
CURVE
100
AcDbLine
 62
250
  6
CONTINUOUS
 10
56.4647870317
 20
-58.6318372103
 11
56.4647870317
 21
-58.2239449894
  0
LINE
  5
33F
100
AcDbEntity
  8
CURVE
100
AcDbLine
 62
250
  6
CONTINUOUS
 10
56.7472007263
 20
-57.9867455748
 11
56.7472007263
 21
-58.5669252712
  0
LINE
  5
340
100
AcDbEntity
  8
CURVE
100
AcDbLine
 62
250
  6
CONTINUOUS
 10
57.1121725522
 20
-61.7015365679
 11
57.1121725522
 21
-61.2755080927
  0
LINE
  5
341
100
AcDbEntity
  8
CURVE
100
AcDbLine
 62
250
  6
CONTINUOUS
 10
57.1121725642
 20
-57.1057536725
 11
57.1121725642
 21
-56.681439506
  0
LINE
  5
342
100
AcDbEntity
  8
CURVE
100
AcDbLine
 62
250
  6
CONTINUOUS
 10
57.1121725642
 20
-56.0290358135
 11
57.1121725642
 21
-55.6192460354
  0
LINE
  5
343
100
AcDbEntity
  8
CURVE
100
AcDbLine
 62
250
  6
CONTINUOUS
 10
57.1121725522
 20
-57.2308564073
 11
57.1121725522
 21
-57.6798726031
  0
LINE
  5
344
100
AcDbEntity
  8
CURVE
100
AcDbLine
 62
250
  6
CONTINUOUS
 10
57.1121725522
 20
-58.4879740595
 11
57.1121725522
 21
-58.90937968
  0
LINE
  5
345
100
AcDbEntity
  8
CURVE
100
AcDbLine
 62
250
  6
CONTINUOUS
 10
57.1121725522
 20
-58.9762779886
 11
57.1121725522
 21
-59.3930468743
  0
LINE
  5
346
100
AcDbEntity
  8
CURVE
100
AcDbLine
 62
250
  6
CONTINUOUS
 10
57.1121725522
 20
-59.9871228948
 11
57.1121725522
 21
-60.0468738226
  0
LINE
  5
347
100
AcDbEntity
  8
CURVE
100
AcDbLine
 62
250
  6
CONTINUOUS
 10
57.1121725522
 20
-60.6385935098
 11
57.1121725522
 21
-61.0461640414
  0
LINE
  5
348
100
AcDbEntity
  8
CURVE
100
AcDbLine
 62
250
  6
CONTINUOUS
 10
57.1121725522
 20
-62.5156831702
 11
57.1121725522
 21
-62.8911206976
  0
LINE
  5
349
100
AcDbEntity
  8
SMUSSO
100
AcDbLine
 62
7
  6
CONTINUOUS
 10
58.2149620151
 20
-67.4288772115
 11
58.2149620151
 21
4.4195130086
  0
LINE
  5
34A
100
AcDbEntity
  8
ASSI
100
AcDbLine
 62
7
  6
CONTINUOUS
 10
58.2149620151
 20
-67.4288772115
 11
58.2149620151
 21
4.4195130086
  0
LINE
  5
34B
100
AcDbEntity
  8
0
100
AcDbLine
 62
250
  6
CONTINUOUS
 10
36.925714554
 20
-42.895667944
 11
37.2253233098
 21
-42.6976406377
  0
LINE
  5
34C
100
AcDbEntity
  8
ASSI
100
AcDbLine
 62
250
  6
CONTINUOUS
 10
36.925714554
 20
-42.895667944
 11
37.2253233098
 21
-42.6976406377
  0
LINE
  5
34D
100
AcDbEntity
  8
0
100
AcDbLine
 62
7
  6
CONTINUOUS
 10
37.1821973585
 20
-42.9164725513
 11
37.1819558541
 21
-42.9166318747
  0
LINE
  5
34E
100
AcDbEntity
  8
ASSI
100
AcDbLine
 62
7
  6
CONTINUOUS
 10
37.1821973585
 20
-42.9164725513
 11
37.1819558541
 21
-42.9166318747
  0
LINE
  5
34F
100
AcDbEntity
  8
CURVE
100
AcDbLine
 62
7
  6
CONTINUOUS
 10
55.362034083
 20
-56.915446649
 11
55.8887315239
 21
-56.388749208
  0
LINE
  5
350
100
AcDbEntity
  8
CURVE
100
AcDbLine
 62
7
  6
CONTINUOUS
 10
55.286340104
 20
-57.201151342
 11
56.1157960757
 21
-56.3716953703
  0
LINE
  5
351
100
AcDbEntity
  8
CURVE
100
AcDbLine
 62
250
  6
CONTINUOUS
 10
56.2587892864
 20
-56.4699363939
 11
56.2479862723
 21
-56.47575298
  0
LINE
  5
352
100
AcDbEntity
  8
CURVE
100
AcDbLine
 62
250
  6
CONTINUOUS
 10
57.1121725642
 20
-56.681439506
 11
56.3967196481
 21
-57.0666554706
  0
LINE
  5
353
100
AcDbEntity
  8
CURVE
100
AcDbLine
 62
250
  6
CONTINUOUS
 10
56.0973061603
 20
-57.2419928962
 11
55.5954321237
 21
-57.5122131816
  0
LINE
  5
354
100
AcDbEntity
  8
CURVE
100
AcDbLine
 62
250
  6
CONTINUOUS
 10
55.3053410338
 20
-58.0785924647
 11
57.1121725642
 21
-57.1057536725
  0
LINE
  5
355
100
AcDbEntity
  8
CURVE
100
AcDbLine
 62
250
  6
CONTINUOUS
 10
55.9183985321
 20
-61.1894113277
 11
57.1121725522
 21
-60.6385935098
  0
LINE
  5
356
100
AcDbEntity
  8
CURVE
100
AcDbLine
 62
250
  6
CONTINUOUS
 10
57.1121725522
 20
-61.0461640414
 11
55.2839813755
 21
-61.8462162092
  0
LINE
  5
357
100
AcDbEntity
  8
CURVE
100
AcDbLine
 62
7
  6
CONTINUOUS
 10
55.2657202257
 20
-57.4317819343
 11
55.6035328224
 21
-57.0939693376
  0
LINE
  5
358
100
AcDbEntity
  8
CURVE
100
AcDbLine
 62
7
  6
CONTINUOUS
 10
55.9153873575
 20
-56.7821148025
 11
56.2412496978
 21
-56.4562524622
  0
LINE
  5
359
100
AcDbEntity
  8
CURVE
100
AcDbLine
 62
7
  6
CONTINUOUS
 10
56.2775725351
 20
-56.4199296249
 11
56.9105487756
 21
-55.7869533844
  0
LINE
  5
35A
100
AcDbEntity
  8
CURVE
100
AcDbLine
 62
7
  6
CONTINUOUS
 10
55.2646680592
 20
-57.6428448148
 11
55.5783687267
 21
-57.3291441473
  0
LINE
  5
35B
100
AcDbEntity
  8
CURVE
100
AcDbLine
 62
7
  6
CONTINUOUS
 10
56.0663980041
 20
-56.8411148699
 11
57.1121725642
 21
-55.7953403098
  0
LINE
  5
35C
100
AcDbEntity
  8
CURVE
100
AcDbLine
 62
7
  6
CONTINUOUS
 10
55.2769516508
 20
-57.8405719372
 11
55.6168332606
 21
-57.5006903274
  0
LINE
  5
35D
100
AcDbEntity
  8
CURVE
100
AcDbLine
 62
7
  6
CONTINUOUS
 10
56.0973061603
 20
-57.0202174277
 11
56.4335446072
 21
-56.6839789808
  0
LINE
  5
35E
100
AcDbEntity
  8
CURVE
100
AcDbLine
 62
7
  6
CONTINUOUS
 10
56.9382071275
 20
-56.1793164605
 11
57.1121725642
 21
-56.0053510238
  0
LINE
  5
35F
100
AcDbEntity
  8
CURVE
100
AcDbLine
 62
7
  6
CONTINUOUS
 10
55.2987489342
 20
-58.0287853678
 11
56.0718180134
 21
-57.2557162886
  0
LINE
  5
360
100
AcDbEntity
  8
CURVE
100
AcDbLine
 62
7
  6
CONTINUOUS
 10
56.0973061603
 20
-57.2302281417
 11
56.3967196481
 21
-56.9308146539
  0
LINE
  5
361
100
AcDbEntity
  8
CURVE
100
AcDbLine
 62
7
  6
CONTINUOUS
 10
55.6381378563
 20
-57.8994071597
 11
56.557407509
 21
-56.980137507
  0
LINE
  5
362
100
AcDbEntity
  8
CURVE
100
AcDbLine
 62
7
  6
CONTINUOUS
 10
56.0931226091
 20
-57.6544331209
 11
57.0123922618
 21
-56.7351634683
  0
LINE
  5
363
100
AcDbEntity
  8
CURVE
100
AcDbLine
 62
7
  6
CONTINUOUS
 10
56.5481073619
 20
-57.4094590821
 11
57.1121725642
 21
-56.8453938798
  0
LINE
  5
364
100
AcDbEntity
  8
CURVE
100
AcDbLine
 62
7
  6
CONTINUOUS
 10
55.2839813755
 20
-58.8835957826
 11
55.6383291616
 21
-58.5292479965
  0
LINE
  5
365
100
AcDbEntity
  8
CURVE
100
AcDbLine
 62
7
  6
CONTINUOUS
 10
57.0030921147
 20
-57.1644850433
 11
57.1121725642
 21
-57.0554045939
  0
LINE
  5
366
100
AcDbEntity
  8
CURVE
100
AcDbLine
 62
7
  6
CONTINUOUS
 10
55.2839813755
 20
-59.0936064966
 11
57.1121725522
 21
-57.2654153199
  0
LINE
  5
367
100
AcDbEntity
  8
CURVE
100
AcDbLine
 62
7
  6
CONTINUOUS
 10
55.3456669041
 20
-59.241931682
 11
55.8073296338
 21
-58.7802689523
  0
LINE
  5
368
100
AcDbEntity
  8
CURVE
100
AcDbLine
 62
7
  6
CONTINUOUS
 10
55.8803195107
 20
-58.7072790754
 11
57.1121725522
 21
-57.4754260339
  0
LINE
  5
369
100
AcDbEntity
  8
CURVE
100
AcDbLine
 62
7
  6
CONTINUOUS
 10
55.6043817611
 20
-59.193227539
 11
56.0785794146
 21
-58.7190298856
  0
LINE
  5
36A
100
AcDbEntity
  8
CURVE
100
AcDbLine
 62
7
  6
CONTINUOUS
 10
56.4647870317
 20
-58.3328222684
 11
56.7472007263
 21
-58.0504085738
  0
LINE
  5
36B
100
AcDbEntity
  8
CURVE
100
AcDbLine
 62
7
  6
CONTINUOUS
 10
55.8630966181
 20
-59.1445233961
 11
56.3498291953
 21
-58.6577908188
  0
LINE
  5
36C
100
AcDbEntity
  8
CURVE
100
AcDbLine
 62
7
  6
CONTINUOUS
 10
56.4647870317
 20
-58.5428329824
 11
56.7472007263
 21
-58.2604192878
  0
LINE
  5
36D
100
AcDbEntity
  8
CURVE
100
AcDbLine
 62
7
  6
CONTINUOUS
 10
56.1218114751
 20
-59.0958192531
 11
56.7472007263
 21
-58.4704300018
  0
LINE
  5
36E
100
AcDbEntity
  8
CURVE
100
AcDbLine
 62
7
  6
CONTINUOUS
 10
56.380526332
 20
-59.0471151101
 11
56.8920502128
 21
-58.5355912293
  0
LINE
  5
36F
100
AcDbEntity
  8
CURVE
100
AcDbLine
 62
7
  6
CONTINUOUS
 10
55.2839813755
 20
-60.3536707807
 11
55.8500802568
 21
-59.7875718993
  0
LINE
  5
370
100
AcDbEntity
  8
CURVE
100
AcDbLine
 62
7
  6
CONTINUOUS
 10
56.639241189
 20
-58.9984109671
 11
57.1121725522
 21
-58.525479604
  0
LINE
  5
371
100
AcDbEntity
  8
CURVE
100
AcDbLine
 62
7
  6
CONTINUOUS
 10
55.2839813755
 20
-60.5636814947
 11
56.438043553
 21
-59.4096193172
  0
LINE
  5
372
100
AcDbEntity
  8
CURVE
100
AcDbLine
 62
7
  6
CONTINUOUS
 10
56.897956046
 20
-58.9497068242
 11
57.1121725522
 21
-58.735490318
  0
LINE
  5
373
100
AcDbEntity
  8
CURVE
100
AcDbLine
 62
7
  6
CONTINUOUS
 10
55.5117227804
 20
-60.5459508038
 11
55.9387491694
 21
-60.1189244148
  0
LINE
  5
374
100
AcDbEntity
  8
CURVE
100
AcDbLine
 62
7
  6
CONTINUOUS
 10
55.9585534961
 20
-60.0991200881
 11
57.0260068491
 21
-59.0316667351
  0
LINE
  5
375
100
AcDbEntity
  8
CURVE
100
AcDbLine
 62
7
  6
CONTINUOUS
 10
55.750018528
 20
-60.5176657702
 11
56.1753335685
 21
-60.0923507297
  0
LINE
  5
376
100
AcDbEntity
  8
CURVE
100
AcDbLine
 62
7
  6
CONTINUOUS
 10
56.4998887936
 20
-59.7677955046
 11
57.1121725522
 21
-59.155511746
  0
LINE
  5
377
100
AcDbEntity
  8
CURVE
100
AcDbLine
 62
7
  6
CONTINUOUS
 10
55.9883142755
 20
-60.4893807367
 11
56.4119179675
 21
-60.0657770447
  0
LINE
  5
378
100
AcDbEntity
  8
CURVE
100
AcDbLine
 62
7
  6
CONTINUOUS
 10
57.041224091
 20
-59.4364709212
 11
57.1121725522
 21
-59.3655224601
  0
LINE
  5
379
100
AcDbEntity
  8
CURVE
100
AcDbLine
 62
7
  6
CONTINUOUS
 10
56.2266100231
 20
-60.4610957031
 11
56.6485023666
 21
-60.0392033596
  0
LINE
  5
37A
100
AcDbEntity
  8
CURVE
100
AcDbLine
 62
7
  6
CONTINUOUS
 10
55.2839813755
 20
-61.6137350647
 11
56.8850867657
 21
-60.0126296746
  0
LINE
  5
37B
100
AcDbEntity
  8
CURVE
100
AcDbLine
 62
7
  6
CONTINUOUS
 10
55.2839813755
 20
-61.8237457788
 11
57.1121725522
 21
-59.9955546021
  0
LINE
  5
37C
100
AcDbEntity
  8
CURVE
100
AcDbLine
 62
7
  6
CONTINUOUS
 10
55.6174571884
 20
-61.7002806799
 11
56.3081709642
 21
-61.0095669041
  0
LINE
  5
37D
100
AcDbEntity
  8
CURVE
100
AcDbLine
 62
7
  6
CONTINUOUS
 10
55.9908889238
 20
-61.5368596585
 11
56.6980969552
 21
-60.8296516271
  0
LINE
  5
37E
100
AcDbEntity
  8
CURVE
100
AcDbLine
 62
7
  6
CONTINUOUS
 10
55.2838724038
 20
-62.4538868925
 11
55.7041286553
 21
-62.0336306409
  0
LINE
  5
37F
100
AcDbEntity
  8
CURVE
100
AcDbLine
 62
7
  6
CONTINUOUS
 10
56.3643206593
 20
-61.373438637
 11
57.0880229462
 21
-60.6497363501
  0
LINE
  5
380
100
AcDbEntity
  8
CURVE
100
AcDbLine
 62
7
  6
CONTINUOUS
 10
55.2838724038
 20
-62.6638976065
 11
56.1591134082
 21
-61.7886566022
  0
LINE
  5
381
100
AcDbEntity
  8
CURVE
100
AcDbLine
 62
7
  6
CONTINUOUS
 10
56.7377523947
 20
-61.2100176156
 11
57.1121725522
 21
-60.8355974581
  0
LINE
  5
382
100
AcDbEntity
  8
CURVE
100
AcDbLine
 62
7
  6
CONTINUOUS
 10
55.2839813755
 20
-62.8737993488
 11
55.3203319278
 21
-62.8374487965
  0
LINE
  5
383
100
AcDbEntity
  8
CURVE
100
AcDbLine
 62
7
  6
CONTINUOUS
 10
55.6911144867
 20
-62.4666662376
 11
56.614098161
 21
-61.5436825634
  0
LINE
  5
384
100
AcDbEntity
  8
CURVE
100
AcDbLine
 62
7
  6
CONTINUOUS
 10
57.1111841302
 20
-61.0465965941
 11
57.1121725522
 21
-61.0456081721
  0
LINE
  5
385
100
AcDbEntity
  8
CURVE
100
AcDbLine
 62
7
  6
CONTINUOUS
 10
55.2839813755
 20
-63.0838100628
 11
55.5763091598
 21
-62.7914822785
  0
LINE
  5
386
100
AcDbEntity
  8
CURVE
100
AcDbLine
 62
7
  6
CONTINUOUS
 10
56.1460992395
 20
-62.2216921988
 11
57.0690829138
 21
-61.2987085246
  0
LINE
  5
387
100
AcDbEntity
  8
CURVE
100
AcDbLine
 62
7
  6
CONTINUOUS
 10
55.3148812277
 20
-63.2629209247
 11
55.8322863919
 21
-62.7455157605
  0
LINE
  5
388
100
AcDbEntity
  8
CURVE
100
AcDbLine
 62
7
  6
CONTINUOUS
 10
56.6010839923
 20
-61.97671816
 11
57.1121725522
 21
-61.4656296002
  0
LINE
  5
389
100
AcDbEntity
  8
CURVE
100
AcDbLine
 62
7
  6
CONTINUOUS
 10
55.584063924
 20
-63.2037489423
 11
56.0882636239
 21
-62.6995492424
  0
LINE
  5
38A
100
AcDbEntity
  8
CURVE
100
AcDbLine
 62
7
  6
CONTINUOUS
 10
57.0560687451
 20
-61.7317441212
 11
57.1121725522
 21
-61.6756403142
  0
LINE
  5
38B
100
AcDbEntity
  8
CURVE
100
AcDbLine
 62
7
  6
CONTINUOUS
 10
55.8532466204
 20
-63.14457696
 11
56.344240856
 21
-62.6535827244
  0
LINE
  5
38C
100
AcDbEntity
  8
CURVE
100
AcDbLine
 62
7
  6
CONTINUOUS
 10
56.1224293167
 20
-63.0854049777
 11
56.6002180881
 21
-62.6076162063
  0
LINE
  5
38D
100
AcDbEntity
  8
CURVE
100
AcDbLine
 62
7
  6
CONTINUOUS
 10
55.2839813755
 20
-64.1338636329
 11
55.7706479394
 21
-63.647197069
  0
LINE
  5
38E
100
AcDbEntity
  8
CURVE
100
AcDbLine
 62
7
  6
CONTINUOUS
 10
56.3916120131
 20
-63.0262329953
 11
56.8561953201
 21
-62.5616496883
  0
LINE
  5
38F
100
AcDbEntity
  8
CURVE
100
AcDbLine
 62
7
  6
CONTINUOUS
 10
55.2839813755
 20
-64.3438743469
 11
57.1121725522
 21
-62.5156831702
  0
LINE
  5
390
100
AcDbEntity
  8
CURVE
100
AcDbLine
 62
7
  6
CONTINUOUS
 10
55.5756420693
 20
-64.2622243671
 11
57.1121725522
 21
-62.7256938842
  0
LINE
  5
391
100
AcDbEntity
  8
CURVE
100
AcDbLine
 62
250
  6
CONTINUOUS
 10
57.1121725522
 20
-60.0468738226
 11
55.9183985321
 21
-61.1894113277
  0
LINE
  5
392
100
AcDbEntity
  8
CURVE
100
AcDbLine
 62
250
  6
CONTINUOUS
 10
55.2839813755
 20
-61.4205404492
 11
56.2989986552
 21
-60.4525033766
  0
LINE
  5
393
100
AcDbEntity
  8
CURVE
100
AcDbLine
 62
250
  6
CONTINUOUS
 10
57.1121725522
 20
-62.8911206976
 11
55.2839813755
 21
-64.5224841224
  0
LINE
  5
394
100
AcDbEntity
  8
CURVE
100
AcDbLine
 62
250
  6
CONTINUOUS
 10
55.2839813755
 20
-58.8414129036
 11
57.1121725522
 21
-57.2308564073
  0
LINE
  5
395
100
AcDbEntity
  8
CURVE
100
AcDbLine
 62
250
  6
CONTINUOUS
 10
55.2839813755
 20
-64.0596859084
 11
56.5423821968
 21
-62.993090558
  0
LINE
  5
396
100
AcDbEntity
  8
CURVE
100
AcDbLine
 62
250
  6
CONTINUOUS
 10
57.1121725522
 20
-57.6798726031
 11
56.7472007263
 21
-57.9867455748
  0
LINE
  5
397
100
AcDbEntity
  8
CURVE
100
AcDbLine
 62
250
  6
CONTINUOUS
 10
56.4647870317
 20
-58.2239449894
 11
55.7863219044
 21
-58.7850117902
  0
LINE
  5
398
100
AcDbEntity
  8
CURVE
100
AcDbLine
 62
250
  6
CONTINUOUS
 10
55.2839813755
 20
-60.1514696721
 11
57.1121725522
 21
-58.9762779886
  0
LINE
  5
399
100
AcDbEntity
  8
CURVE
100
AcDbLine
 62
250
  6
CONTINUOUS
 10
57.1121725522
 20
-59.3930468743
 11
55.9233746627
 21
-60.1206513135
  0
LINE
  5
39A
100
AcDbEntity
  8
SMUSSO
100
AcDbLine
 62
7
  6
CONTINUOUS
 10
52.4355926134
 20
-69.2540838972
 11
52.7145685475
 21
-69.0930378217
  0
LINE
  5
39B
100
AcDbEntity
  8
ASSI
100
AcDbLine
 62
7
  6
CONTINUOUS
 10
52.4355926134
 20
-69.2540838972
 11
52.7145685475
 21
-69.0930378217
  0
LINE
  5
39C
100
AcDbEntity
  8
SMUSSO
100
AcDbLine
 62
7
  6
CONTINUOUS
 10
53.4451293308
 20
-69.8654584819
 11
54.1315276785
 21
-69.4692172775
  0
LINE
  5
39D
100
AcDbEntity
  8
ASSI
100
AcDbLine
 62
7
  6
CONTINUOUS
 10
53.4451293308
 20
-69.8654584819
 11
54.1315276785
 21
-69.4692172775
  0
LINE
  5
39E
100
AcDbEntity
  8
SMUSSO
100
AcDbLine
 62
7
  6
CONTINUOUS
 10
58.2149620151
 20
-67.4288772115
 11
57.5074247458
 21
-67.8373214053
  0
LINE
  5
39F
100
AcDbEntity
  8
ASSI
100
AcDbLine
 62
7
  6
CONTINUOUS
 10
58.2149620151
 20
-67.4288772115
 11
57.5074247458
 21
-67.8373214053
  0
LINE
  5
3A0
100
AcDbEntity
  8
CURVE
100
AcDbLine
 62
250
  6
CONTINUOUS
 10
57.1121725522
 20
-61.2755080927
 11
55.2838724038
 21
-62.2599060725
  0
LINE
  5
3A1
100
AcDbEntity
  8
CURVE
100
AcDbLine
 62
250
  6
CONTINUOUS
 10
55.2838724038
 20
-62.6859345476
 11
57.1121725522
 21
-61.7015365679
  0
LINE
  5
3A2
100
AcDbEntity
  8
SMUSSO
100
AcDbLine
 62
7
  6
CONTINUOUS
 10
54.1530290304
 20
-69.4576557258
 11
54.1315276785
 21
-69.4692172775
  0
LINE
  5
3A3
100
AcDbEntity
  8
ASSI
100
AcDbLine
 62
7
  6
CONTINUOUS
 10
54.1530290304
 20
-69.4576557258
 11
54.1315276785
 21
-69.4692172775
  0
LINE
  5
3A4
100
AcDbEntity
  8
SMUSSO
100
AcDbLine
 62
7
  6
CONTINUOUS
 10
54.1530290304
 20
-69.4576557258
 11
58.2149620151
 21
-67.4288772115
  0
LINE
  5
3A5
100
AcDbEntity
  8
ASSI
100
AcDbLine
 62
7
  6
CONTINUOUS
 10
54.1530290304
 20
-69.4576557258
 11
58.2149620151
 21
-67.4288772115
  0
LINE
  5
3A6
100
AcDbEntity
  8
SMUSSO
100
AcDbLine
 62
7
  6
CONTINUOUS
 10
53.4454917611
 20
-69.8660999196
 11
57.5074247458
 21
-67.8373214053
  0
LINE
  5
3A7
100
AcDbEntity
  8
ASSI
100
AcDbLine
 62
7
  6
CONTINUOUS
 10
53.4454917611
 20
-69.8660999196
 11
57.5074247458
 21
-67.8373214053
  0
ARC
  5
3A8
100
AcDbEntity
  8
0
100
AcDbCircle
 62
250
  6
CONTINUOUS
 10
255.6446258864
 20
22.400394567
 40
296.153022664
100
AcDbArc
 50
178.0060215196
 51
179.3320514359
  0
ARC
  5
3A9
100
AcDbEntity
  8
0
100
AcDbCircle
 62
250
  6
CONTINUOUS
 10
217.706556623
 20
22.6927618015
 40
258.2075131637
100
AcDbArc
 50
180.5420135478
 51
182.090713393
  0
ARC
  5
3AA
100
AcDbEntity
  8
0
100
AcDbCircle
 62
250
  6
CONTINUOUS
 10
-40.0362813357
 20
25.2625410326
 40
0.5150147059
100
AcDbArc
 50
158.1126013896
 51
165.9643540807
  0
ARC
  5
3AB
100
AcDbEntity
  8
0
100
AcDbCircle
 62
250
  6
CONTINUOUS
 10
-40.0542028898
 20
25.2694909105
 40
0.4957942215
100
AcDbArc
 50
153.2555777435
 51
158.085797016
  0
ARC
  5
3AC
100
AcDbEntity
  8
0
100
AcDbCircle
 62
250
  6
CONTINUOUS
 10
-40.0565411448
 20
25.2706234258
 40
0.4931964634
100
AcDbArc
 50
151.6440868693
 51
153.2508286546
  0
ARC
  5
3AD
100
AcDbEntity
  8
0
100
AcDbCircle
 62
7
  6
CONTINUOUS
 10
36.0296164598
 20
-39.371874791
 40
0.3
100
AcDbArc
 50
300.1089925867
 51
314.200140539
  0
ARC
  5
3AE
100
AcDbEntity
  8
0
100
AcDbCircle
 62
7
  6
CONTINUOUS
 10
-27.609993847
 20
-2.6271613915
 40
0.3
100
AcDbArc
 50
300.1089925867
 51
314.200140539
  0
ARC
  5
3AF
100
AcDbEntity
  8
0
100
AcDbCircle
 62
250
  6
CONTINUOUS
 10
-40.4606325971
 20
32.9279541251
 40
0.256709691
100
AcDbArc
 50
300.8294407255
 51
305.4018201432
  0
ARC
  5
3B0
100
AcDbEntity
  8
0
100
AcDbCircle
 62
7
  6
CONTINUOUS
 10
20.905244234
 20
-29.6786676555
 40
0.1779620607
100
AcDbArc
 50
303.714336485
 51
315.9708985531
  0
ARC
  5
3B1
100
AcDbEntity
  8
0
100
AcDbCircle
 62
7
  6
CONTINUOUS
 10
4.9953416573
 20
-20.4924893056
 40
0.1779620607
100
AcDbArc
 50
303.7143364849
 51
315.9708985531
  0
ARC
  5
3B2
100
AcDbEntity
  8
0
100
AcDbCircle
 62
7
  6
CONTINUOUS
 10
-10.9145609194
 20
-11.3063109558
 40
0.1779620607
100
AcDbArc
 50
303.7143364849
 51
315.9708985531
  0
ARC
  5
3B3
100
AcDbEntity
  8
0
100
AcDbCircle
 62
250
  6
CONTINUOUS
 10
-27.569199237
 20
-2.76498146
 40
0.1703490881
100
AcDbArc
 50
339.0197938757
 51
345.0908421798
  0
ARC
  5
3B4
100
AcDbEntity
  8
0
100
AcDbCircle
 62
250
  6
CONTINUOUS
 10
36.0704110698
 20
-39.5096948595
 40
0.1703490881
100
AcDbArc
 50
339.0197938758
 51
345.0908421798
  0
ARC
  5
3B5
100
AcDbEntity
  8
0
100
AcDbCircle
 62
250
  6
CONTINUOUS
 10
-40.3576636932
 20
13.3935335722
 40
0.1131678849
100
AcDbArc
 50
336.0827479263
 51
343.9672446397
  0
ARC
  5
3B6
100
AcDbEntity
  8
0
100
AcDbCircle
 62
250
  6
CONTINUOUS
 10
-27.5093530066
 20
-2.8004744389
 40
0.0998077211
100
AcDbArc
 50
300.1159512313
 51
302.51041354
  0
ARC
  5
3B7
100
AcDbEntity
  8
0
100
AcDbCircle
 62
250
  6
CONTINUOUS
 10
36.1302573002
 20
-39.5451878384
 40
0.0998077211
100
AcDbArc
 50
300.1159512313
 51
302.5104135399
  0
SPLINE
  5
3B8
100
AcDbEntity
  8
0
100
AcDbSpline
 62
7
  6
CONTINUOUS
 70
0
 71
3
 72
10
 73
6
 74
0
 42
0.0000001
 43
0.0000001
 44
0.0000000001
 40
0.0
 40
0.0
 40
0.0
 40
0.0
 40
0.2491445981
 40
0.499982265
 40
1.0
 40
1.0
 40
1.0
 40
1.0
 10
-40.4609163802
 20
25.5457959769
 30
0.0
 10
-40.4485905963
 20
25.568766352
 30
0.0
 10
-40.4308526482
 20
25.6185242513
 30
0.0
 10
-40.4096519593
 20
25.7210410632
 30
0.0
 10
-40.4042777154
 20
25.7998499551
 30
0.0
 10
-40.403733301
 20
25.852164844
 30
0.0
  0
SPLINE
  5
3B9
100
AcDbEntity
  8
0
100
AcDbSpline
 62
7
  6
CONTINUOUS
 70
0
 71
3
 72
9
 73
5
 74
0
 42
0.0000001
 43
0.0000001
 44
0.0000000001
 40
0.0
 40
0.0
 40
0.0
 40
0.0
 40
0.2613326185
 40
1.0
 40
1.0
 40
1.0
 40
1.0
 10
-40.403677284
 20
20.170963181
 30
0.0
 10
-40.4037534493
 20
20.1781842009
 30
0.0
 10
-40.4052900843
 20
20.2056720987
 30
0.0
 10
-40.4123840756
 20
20.2337408793
 30
0.0
 10
-40.4232403197
 20
20.2510260524
 30
0.0
  0
SPLINE
  5
3BA
100
AcDbEntity
  8
0
100
AcDbSpline
 62
7
  6
CONTINUOUS
 70
0
 71
3
 72
9
 73
5
 74
0
 42
0.0000001
 43
0.0000001
 44
0.0000000001
 40
0.0
 40
0.0
 40
0.0
 40
0.0
 40
0.5018288403
 40
1.0
 40
1.0
 40
1.0
 40
1.0
 10
-12.5815315818
 20
-12.6684720421
 30
0.0
 10
-12.5387121864
 20
-12.6436378795
 30
0.0
 10
-12.4576248039
 20
-12.5867847359
 30
0.0
 10
-12.3836383176
 20
-12.5213219818
 30
0.0
 10
-12.3484132132
 20
-12.487060628
 30
0.0
  0
SPLINE
  5
3BB
100
AcDbEntity
  8
0
100
AcDbSpline
 62
7
  6
CONTINUOUS
 70
0
 71
3
 72
9
 73
5
 74
0
 42
0.0000001
 43
0.0000001
 44
0.0000000001
 40
0.0
 40
0.0
 40
0.0
 40
0.0
 40
0.5018288403
 40
1.0
 40
1.0
 40
1.0
 40
1.0
 10
3.3283709949
 20
-21.8546503919
 30
0.0
 10
3.3711903903
 20
-21.8298162294
 30
0.0
 10
3.4522777728
 20
-21.7729630858
 30
0.0
 10
3.5262642591
 20
-21.7075003317
 30
0.0
 10
3.5614893635
 20
-21.6732389779
 30
0.0
  0
SPLINE
  5
3BC
100
AcDbEntity
  8
0
100
AcDbSpline
 62
7
  6
CONTINUOUS
 70
0
 71
3
 72
9
 73
5
 74
0
 42
0.0000001
 43
0.0000001
 44
0.0000000001
 40
0.0
 40
0.0
 40
0.0
 40
0.0
 40
0.5018288403
 40
1.0
 40
1.0
 40
1.0
 40
1.0
 10
19.2382735716
 20
-31.0408287418
 30
0.0
 10
19.281092967
 20
-31.0159945793
 30
0.0
 10
19.3621803495
 20
-30.9591414357
 30
0.0
 10
19.4361668358
 20
-30.8936786816
 30
0.0
 10
19.4713919402
 20
-30.8594173278
 30
0.0
  0
SPLINE
  5
3BD
100
AcDbEntity
  8
0
100
AcDbSpline
 62
7
  6
CONTINUOUS
 70
0
 71
3
 72
9
 73
5
 74
0
 42
0.0000001
 43
0.0000001
 44
0.0000000001
 40
0.0
 40
0.0
 40
0.0
 40
0.0
 40
0.4988041848
 40
1.0
 40
1.0
 40
1.0
 40
1.0
 10
21.0331966207
 20
-29.8023554956
 30
0.0
 10
21.0485298225
 20
-29.7864646986
 30
0.0
 10
21.0734990028
 20
-29.7482623736
 30
0.0
 10
21.0811449407
 20
-29.7034155538
 30
0.0
 10
21.0811324928
 20
-29.6812274575
 30
0.0
  0
SPLINE
  5
3BE
100
AcDbEntity
  8
0
100
AcDbSpline
 62
7
  6
CONTINUOUS
 70
0
 71
3
 72
9
 73
5
 74
0
 42
0.0000001
 43
0.0000001
 44
0.0000000001
 40
0.0
 40
0.0
 40
0.0
 40
0.0
 40
0.4988041848
 40
1.0
 40
1.0
 40
1.0
 40
1.0
 10
5.123294044
 20
-20.6161771458
 30
0.0
 10
5.1386272458
 20
-20.6002863487
 30
0.0
 10
5.1635964261
 20
-20.5620840238
 30
0.0
 10
5.171242364
 20
-20.5172372039
 30
0.0
 10
5.1712299161
 20
-20.4950491076
 30
0.0
  0
SPLINE
  5
3BF
100
AcDbEntity
  8
0
100
AcDbSpline
 62
7
  6
CONTINUOUS
 70
0
 71
3
 72
9
 73
5
 74
0
 42
0.0000001
 43
0.0000001
 44
0.0000000001
 40
0.0
 40
0.0
 40
0.0
 40
0.0
 40
0.4988041848
 40
1.0
 40
1.0
 40
1.0
 40
1.0
 10
-10.7866085327
 20
-11.4299987959
 30
0.0
 10
-10.7712753309
 20
-11.4141079989
 30
0.0
 10
-10.7463061506
 20
-11.3759056739
 30
0.0
 10
-10.7386602127
 20
-11.331058854
 30
0.0
 10
-10.7386726606
 20
-11.3088707577
 30
0.0
  0
SPLINE
  5
3C0
100
AcDbEntity
  8
0
100
AcDbSpline
 62
250
  6
CONTINUOUS
 70
0
 71
3
 72
13
 73
9
 74
0
 42
0.0000001
 43
0.0000001
 44
0.0000000001
 40
0.0
 40
0.0
 40
0.0
 40
0.0
 40
0.0289656103
 40
0.0863252146
 40
0.176586194
 40
0.3004482463
 40
0.6261469975
 40
1.0
 40
1.0
 40
1.0
 40
1.0
 10
-40.4880425034
 20
20.4707211215
 30
0.0
 10
-40.4880459573
 20
20.4694941661
 30
0.0
 10
-40.4891663418
 20
20.4659332177
 30
0.0
 10
-40.4917333977
 20
20.4589632717
 30
0.0
 10
-40.4962779784
 20
20.4483656862
 30
0.0
 10
-40.5054681054
 20
20.4274466808
 30
0.0
 10
-40.519712292
 20
20.3955914745
 30
0.0
 10
-40.5303837397
 20
20.3679296499
 30
0.0
 10
-40.5357062016
 20
20.3530147576
 30
0.0
  0
SPLINE
  5
3C1
100
AcDbEntity
  8
0
100
AcDbSpline
 62
7
  6
CONTINUOUS
 70
0
 71
3
 72
9
 73
5
 74
0
 42
0.0000001
 43
0.0000001
 44
0.0000000001
 40
0.0
 40
0.0
 40
0.0
 40
0.0
 40
0.500543719
 40
1.0
 40
1.0
 40
1.0
 40
1.0
 10
-40.489692468
 20
20.2799417448
 30
0.0
 10
-40.5034496571
 20
20.2769527951
 30
0.0
 10
-40.5309842271
 20
20.2712260224
 30
0.0
 10
-40.5584280453
 20
20.2650288364
 30
0.0
 10
-40.5722404112
 20
20.2624690718
 30
0.0
  0
SPLINE
  5
3C2
100
AcDbEntity
  8
0
100
AcDbSpline
 62
7
  6
CONTINUOUS
 70
0
 71
3
 72
9
 73
5
 74
0
 42
0.0000001
 43
0.0000001
 44
0.0000000001
 40
0.0
 40
0.0
 40
0.0
 40
0.0
 40
0.5006950291
 40
1.0
 40
1.0
 40
1.0
 40
1.0
 10
-40.5722404112
 20
25.4244777154
 30
0.0
 10
-40.5598394815
 20
25.4358597464
 30
0.0
 10
-40.5366765117
 20
25.4602729793
 30
0.0
 10
-40.5123634392
 20
25.4834888299
 30
0.0
 10
-40.500380615
 20
25.4952435983
 30
0.0
  0
LINE
  5
3C3
100
AcDbEntity
  8
0
100
AcDbLine
 62
7
  6
CONTINUOUS
 10
-40.500380615
 20
25.4952435983
 11
-40.4918657308
 21
25.5035827513
  0
SPLINE
  5
3C4
100
AcDbEntity
  8
0
100
AcDbSpline
 62
7
  6
CONTINUOUS
 70
0
 71
3
 72
10
 73
6
 74
0
 42
0.0000001
 43
0.0000001
 44
0.0000000001
 40
0.0
 40
0.0
 40
0.0
 40
0.0
 40
0.4333198848
 40
0.6822992366
 40
1.0
 40
1.0
 40
1.0
 40
1.0
 10
-40.4232403197
 20
20.2510260524
 30
0.0
 10
-40.4292119325
 20
20.260533978
 30
0.0
 10
-40.4420121214
 20
20.2741841271
 30
0.0
 10
-40.4670950095
 20
20.282627533
 30
0.0
 10
-40.4821548953
 20
20.2815641979
 30
0.0
 10
-40.4902073354
 20
20.2798547354
 30
0.0
  0
SPLINE
  5
3C5
100
AcDbEntity
  8
0
100
AcDbSpline
 62
250
  6
CONTINUOUS
 70
0
 71
3
 72
8
 73
4
 74
0
 42
0.0000001
 43
0.0000001
 44
0.0000000001
 40
0.0
 40
0.0
 40
0.0
 40
0.0
 40
1.0
 40
1.0
 40
1.0
 40
1.0
 10
-40.2451817588
 20
32.8104180104
 30
0.0
 10
-40.2454634778
 20
32.8024262684
 30
0.0
 10
-40.2468242134
 20
32.7944128559
 30
0.0
 10
-40.2491242466
 20
32.7867540601
 30
0.0
  0
SPLINE
  5
3C6
100
AcDbEntity
  8
0
100
AcDbSpline
 62
250
  6
CONTINUOUS
 70
0
 71
3
 72
9
 73
5
 74
0
 42
0.0000001
 43
0.0000001
 44
0.0000000001
 40
0.0
 40
0.0
 40
0.0
 40
0.0
 40
0.4542765262
 40
1.0
 40
1.0
 40
1.0
 40
1.0
 10
-40.2491242466
 20
32.7867540601
 30
0.0
 10
-40.2543431263
 20
32.7693759051
 30
0.0
 10
-40.2768849304
 20
32.7344204411
 30
0.0
 10
-40.3100840877
 20
32.7110715416
 30
0.0
 10
-40.3291954803
 20
32.7005889093
 30
0.0
  0
SPLINE
  5
3C7
100
AcDbEntity
  8
0
100
AcDbSpline
 62
250
  6
CONTINUOUS
 70
0
 71
3
 72
10
 73
6
 74
0
 42
0.0000001
 43
0.0000001
 44
0.0000000001
 40
0.0
 40
0.0
 40
0.0
 40
0.0
 40
0.360593694
 40
0.6415348192
 40
1.0
 40
1.0
 40
1.0
 40
1.0
 10
-27.4045849564
 20
-2.8088101084
 30
0.0
 10
-27.4028700348
 20
-2.8126473897
 30
0.0
 10
-27.4000728345
 20
-2.819693125
 30
0.0
 10
-27.3971232135
 20
-2.8306396264
 30
0.0
 10
-27.3976666597
 20
-2.8394318973
 30
0.0
 10
-27.4006610534
 20
-2.8423458897
 30
0.0
  0
SPLINE
  5
3C8
100
AcDbEntity
  8
0
100
AcDbSpline
 62
250
  6
CONTINUOUS
 70
0
 71
3
 72
10
 73
6
 74
0
 42
0.0000001
 43
0.0000001
 44
0.0000000001
 40
0.0
 40
0.0
 40
0.0
 40
0.0
 40
0.360593694
 40
0.6415348192
 40
1.0
 40
1.0
 40
1.0
 40
1.0
 10
36.2350253504
 20
-39.5535235079
 30
0.0
 10
36.236740272
 20
-39.5573607892
 30
0.0
 10
36.2395374723
 20
-39.5644065245
 30
0.0
 10
36.2424870933
 20
-39.5753530259
 30
0.0
 10
36.2419436471
 20
-39.5841452967
 30
0.0
 10
36.2389492534
 20
-39.5870592892
 30
0.0
  0
SPLINE
  5
3C9
100
AcDbEntity
  8
0
100
AcDbSpline
 62
250
  6
CONTINUOUS
 70
0
 71
3
 72
9
 73
5
 74
0
 42
0.0000001
 43
0.0000001
 44
0.0000000001
 40
0.0
 40
0.0
 40
0.0
 40
0.0
 40
0.2431222218
 40
1.0
 40
1.0
 40
1.0
 40
1.0
 10
-40.2451974249
 20
13.4082732873
 30
0.0
 10
-40.2449998829
 20
13.4028848784
 30
0.0
 10
-40.2458306153
 20
13.3806597651
 30
0.0
 10
-40.253555992
 20
13.3589559841
 30
0.0
 10
-40.2618952445
 20
13.3443877123
 30
0.0
  0
SPLINE
  5
3CA
100
AcDbEntity
  8
0
100
AcDbSpline
 62
250
  6
CONTINUOUS
 70
0
 71
3
 72
9
 73
5
 74
0
 42
0.0000001
 43
0.0000001
 44
0.0000000001
 40
0.0
 40
0.0
 40
0.0
 40
0.0
 40
0.2419191236
 40
1.0
 40
1.0
 40
1.0
 40
1.0
 10
-40.2618952445
 20
13.3443877123
 30
0.0
 10
-40.263331812
 20
13.3418780981
 30
0.0
 10
-40.2695779103
 20
13.3316816877
 30
0.0
 10
-40.276995021
 20
13.3222188069
 30
0.0
 10
-40.2830822871
 20
13.3155065037
 30
0.0
  0
SPLINE
  5
3CB
100
AcDbEntity
  8
0
100
AcDbSpline
 62
250
  6
CONTINUOUS
 70
0
 71
3
 72
9
 73
5
 74
0
 42
0.0000001
 43
0.0000001
 44
0.0000000001
 40
0.0
 40
0.0
 40
0.0
 40
0.0
 40
0.2381033943
 40
1.0
 40
1.0
 40
1.0
 40
1.0
 10
-40.2830822871
 20
13.3155065037
 30
0.0
 10
-40.2862908495
 20
13.311968488
 30
0.0
 10
-40.3003299244
 20
13.297622569
 30
0.0
 10
-40.3163653068
 20
13.2852970944
 30
0.0
 10
-40.3291952548
 20
13.2769922344
 30
0.0
  0
SPLINE
  5
3CC
100
AcDbEntity
  8
0
100
AcDbSpline
 62
250
  6
CONTINUOUS
 70
0
 71
3
 72
8
 73
4
 74
0
 42
0.0000001
 43
0.0000001
 44
0.0000000001
 40
0.0
 40
0.0
 40
0.0
 40
0.0
 40
1.0
 40
1.0
 40
1.0
 40
1.0
 10
-40.2448749556
 20
13.3905352688
 30
0.0
 10
-40.2448758027
 20
13.3810212456
 30
0.0
 10
-40.246279994
 20
13.3714249379
 30
0.0
 10
-40.2488975908
 20
13.3622780901
 30
0.0
  0
SPLINE
  5
3CD
100
AcDbEntity
  8
0
100
AcDbSpline
 62
250
  6
CONTINUOUS
 70
0
 71
3
 72
9
 73
5
 74
0
 42
0.0000001
 43
0.0000001
 44
0.0000000001
 40
0.0
 40
0.0
 40
0.0
 40
0.0
 40
0.2249279004
 40
1.0
 40
1.0
 40
1.0
 40
1.0
 10
-40.2542133168
 20
13.3476534041
 30
0.0
 10
-40.2575112349
 20
13.3401984598
 30
0.0
 10
-40.2756290264
 20
13.3085540482
 30
0.0
 10
-40.3049635435
 20
13.2846242231
 30
0.0
 10
-40.329072946
 20
13.2702091577
 30
0.0
  0
SPLINE
  5
3CE
100
AcDbEntity
  8
0
100
AcDbSpline
 62
250
  6
CONTINUOUS
 70
0
 71
3
 72
8
 73
4
 74
0
 42
0.0000001
 43
0.0000001
 44
0.0000000001
 40
0.0
 40
0.0
 40
0.0
 40
0.0
 40
1.0
 40
1.0
 40
1.0
 40
1.0
 10
-40.5357062016
 20
20.3530147576
 30
0.0
 10
-40.5464500349
 20
20.3222930677
 30
0.0
 10
-40.558328356
 20
20.2918919695
 30
0.0
 10
-40.5722404112
 20
20.2624690718
 30
0.0
  0
SPLINE
  5
3CF
100
AcDbEntity
  8
0
100
AcDbSpline
 62
250
  6
CONTINUOUS
 70
0
 71
3
 72
11
 73
7
 74
0
 42
0.0000001
 43
0.0000001
 44
0.0000000001
 40
0.0
 40
0.0
 40
0.0
 40
0.0
 40
0.2673481245
 40
0.5227960654
 40
0.7673160003
 40
1.0
 40
1.0
 40
1.0
 40
1.0
 10
-40.5722404112
 20
25.4244777154
 30
0.0
 10
-40.5692171407
 20
25.4209802406
 30
0.0
 10
-40.5625642225
 20
25.4148236837
 30
0.0
 10
-40.5530681771
 20
25.4055638274
 30
0.0
 10
-40.5443901645
 20
25.396329943
 30
0.0
 10
-40.538600562
 20
25.3904453464
 30
0.0
 10
-40.5359196333
 20
25.3874449895
 30
0.0
  0
SPLINE
  5
3D0
100
AcDbEntity
  8
0
100
AcDbSpline
 62
250
  6
CONTINUOUS
 70
0
 71
3
 72
13
 73
9
 74
0
 42
0.0000001
 43
0.0000001
 44
0.0000000001
 40
0.0
 40
0.0
 40
0.0
 40
0.0
 40
0.176422822
 40
0.2578969505
 40
0.3546432911
 40
0.4796990648
 40
0.6326909317
 40
1.0
 40
1.0
 40
1.0
 40
1.0
 10
-40.5359196333
 20
25.3874449895
 30
0.0
 10
-40.5315455933
 20
25.3826027847
 30
0.0
 10
-40.5224131572
 20
25.3761034543
 30
0.0
 10
-40.5090243845
 20
25.3797957967
 30
0.0
 10
-40.5009365669
 20
25.3880602827
 30
0.0
 10
-40.4949457264
 20
25.4007110583
 30
0.0
 10
-40.4890362856
 20
25.4239264458
 30
0.0
 10
-40.4880411317
 20
25.4433133327
 30
0.0
 10
-40.4880418732
 20
25.4568988286
 30
0.0
  0
SPLINE
  5
3D1
100
AcDbEntity
  8
0
100
AcDbSpline
 62
7
  6
CONTINUOUS
 70
0
 71
3
 72
9
 73
5
 74
0
 42
0.0000001
 43
0.0000001
 44
0.0000000001
 40
0.0
 40
0.0
 40
0.0
 40
0.0
 40
0.2431657759
 40
1.0
 40
1.0
 40
1.0
 40
1.0
 10
-40.4902066169
 20
25.50528329
 30
0.0
 10
-40.4872861626
 20
25.508106644
 30
0.0
 10
-40.4759376267
 20
25.5204041617
 30
0.0
 10
-40.4668942294
 20
25.5346556357
 30
0.0
 10
-40.4609163802
 20
25.5457959769
 30
0.0
  0
SPLINE
  5
3D2
100
AcDbEntity
  8
0
100
AcDbSpline
 62
250
  6
CONTINUOUS
 70
0
 71
3
 72
9
 73
5
 74
0
 42
0.0000001
 43
0.0000001
 44
0.0000000001
 40
0.0
 40
0.0
 40
0.0
 40
0.0
 40
0.2265799989
 40
1.0
 40
1.0
 40
1.0
 40
1.0
 10
-40.5357062016
 20
20.3530147576
 30
0.0
 10
-40.533026303
 20
20.3470854817
 30
0.0
 10
-40.5202052987
 20
20.3213656006
 30
0.0
 10
-40.5040472469
 20
20.2974154968
 30
0.0
 10
-40.4905860451
 20
20.2797489793
 30
0.0
  0
SPLINE
  5
3D3
100
AcDbEntity
  8
0
100
AcDbSpline
 62
250
  6
CONTINUOUS
 70
0
 71
3
 72
9
 73
5
 74
0
 42
0.0000001
 43
0.0000001
 44
0.0000000001
 40
0.0
 40
0.0
 40
0.0
 40
0.0
 40
0.2430437718
 40
1.0
 40
1.0
 40
1.0
 40
1.0
 10
-40.2448749556
 20
32.8278444776
 30
0.0
 10
-40.2448753888
 20
32.8229799928
 30
0.0
 10
-40.2463272004
 20
32.8029640188
 30
0.0
 10
-40.2538462569
 20
32.7836154627
 30
0.0
 10
-40.261696387
 20
32.7706574904
 30
0.0
  0
SPLINE
  5
3D4
100
AcDbEntity
  8
0
100
AcDbSpline
 62
250
  6
CONTINUOUS
 70
0
 71
3
 72
9
 73
5
 74
0
 42
0.0000001
 43
0.0000001
 44
0.0000000001
 40
0.0
 40
0.0
 40
0.0
 40
0.0
 40
0.2324099172
 40
1.0
 40
1.0
 40
1.0
 40
1.0
 10
-40.261696387
 20
32.7706574904
 30
0.0
 10
-40.2646086528
 20
32.7658503013
 30
0.0
 10
-40.2784361848
 20
32.7459488139
 30
0.0
 10
-40.2967968046
 20
32.7294740038
 30
0.0
 10
-40.3119188591
 20
32.7187076446
 30
0.0
  0
SPLINE
  5
3D5
100
AcDbEntity
  8
0
100
AcDbSpline
 62
250
  6
CONTINUOUS
 70
0
 71
3
 72
9
 73
5
 74
0
 42
0.0000001
 43
0.0000001
 44
0.0000000001
 40
0.0
 40
0.0
 40
0.0
 40
0.0
 40
0.4797908882
 40
1.0
 40
1.0
 40
1.0
 40
1.0
 10
-27.4557110588
 20
-2.884641669
 30
0.0
 10
-27.4455613755
 20
-2.8781731901
 30
0.0
 10
-27.4267938383
 20
-2.8606571795
 30
0.0
 10
-27.4148315119
 20
-2.8381526142
 30
0.0
 10
-27.4101435822
 20
-2.8259741684
 30
0.0
  0
SPLINE
  5
3D6
100
AcDbEntity
  8
0
100
AcDbSpline
 62
250
  6
CONTINUOUS
 70
0
 71
3
 72
9
 73
5
 74
0
 42
0.0000001
 43
0.0000001
 44
0.0000000001
 40
0.0
 40
0.0
 40
0.0
 40
0.0
 40
0.4797908882
 40
1.0
 40
1.0
 40
1.0
 40
1.0
 10
36.183899248
 20
-39.6293550685
 30
0.0
 10
36.1940489313
 20
-39.6228865896
 30
0.0
 10
36.2128164685
 20
-39.605370579
 30
0.0
 10
36.2247787949
 20
-39.5828660137
 30
0.0
 10
36.2294667246
 20
-39.5706875679
 30
0.0
  0
SPLINE
  5
3D7
100
AcDbEntity
  8
0
100
AcDbSpline
 62
250
  6
CONTINUOUS
 70
0
 71
3
 72
11
 73
7
 74
0
 42
0.0000001
 43
0.0000001
 44
0.0000000001
 40
0.0
 40
0.0
 40
0.0
 40
0.0
 40
0.2197198446
 40
0.45368206
 40
0.7123407119
 40
1.0
 40
1.0
 40
1.0
 40
1.0
 10
-40.6490481978
 20
3.4836113644
 30
0.0
 10
-40.664799053
 20
3.4927003714
 30
0.0
 10
-40.7007086644
 20
3.5060716672
 30
0.0
 10
-40.7603593048
 20
3.5088299044
 30
0.0
 10
-40.8240678646
 20
3.4952762658
 30
0.0
 10
-40.8657325385
 20
3.4769733576
 30
0.0
 10
-40.8867071461
 20
3.4657086146
 30
0.0
  0
SPLINE
  5
3D8
100
AcDbEntity
  8
0
100
AcDbSpline
 62
250
  6
CONTINUOUS
 70
0
 71
3
 72
9
 73
5
 74
0
 42
0.0000001
 43
0.0000001
 44
0.0000000001
 40
0.0
 40
0.0
 40
0.0
 40
0.0
 40
0.2393002099
 40
1.0
 40
1.0
 40
1.0
 40
1.0
 10
36.789228732
 20
-5.8265910795
 30
0.0
 10
36.8001568722
 20
-5.8329013849
 30
0.0
 10
36.8450610673
 20
-5.8605852609
 30
0.0
 10
36.8869222002
 20
-5.8930866673
 30
0.0
 10
36.9169508006
 20
-5.9196848076
 30
0.0
  0
SPLINE
  5
3D9
100
AcDbEntity
  8
0
100
AcDbSpline
 62
250
  6
CONTINUOUS
 70
0
 71
3
 72
11
 73
7
 74
0
 42
0.0000001
 43
0.0000001
 44
0.0000000001
 40
0.0
 40
0.0
 40
0.0
 40
0.0
 40
0.2442113572
 40
0.4998799654
 40
0.755609616
 40
1.0
 40
1.0
 40
1.0
 40
1.0
 10
36.9169508006
 20
-5.9196848076
 30
0.0
 10
36.960154841
 20
-5.9579532287
 30
0.0
 10
37.0414268977
 20
-6.0445932315
 30
0.0
 10
37.1423960199
 20
-6.1926501894
 30
0.0
 10
37.2204388929
 20
-6.3540194539
 30
0.0
 10
37.2550721241
 20
-6.4677085163
 30
0.0
 10
37.2667422364
 20
-6.5242748959
 30
0.0
  0
SPLINE
  5
3DA
100
AcDbEntity
  8
0
100
AcDbSpline
 62
250
  6
CONTINUOUS
 70
0
 71
3
 72
9
 73
5
 74
0
 42
0.0000001
 43
0.0000001
 44
0.0000000001
 40
0.0
 40
0.0
 40
0.0
 40
0.0
 40
0.2605199971
 40
1.0
 40
1.0
 40
1.0
 40
1.0
 10
37.2667422364
 20
-6.5242748959
 30
0.0
 10
37.2695529365
 20
-6.5378986835
 30
0.0
 10
37.2791548195
 20
-6.5904216563
 30
0.0
 10
37.2839004498
 20
-6.6439050254
 30
0.0
 10
37.2839019536
 20
-6.6833902316
 30
0.0
  0
SPLINE
  5
3DB
100
AcDbEntity
  8
0
100
AcDbSpline
 62
250
  6
CONTINUOUS
 70
0
 71
3
 72
11
 73
7
 74
0
 42
0.0000001
 43
0.0000001
 44
0.0000000001
 40
0.0
 40
0.0
 40
0.0
 40
0.0
 40
0.2188864051
 40
0.4510934855
 40
0.7095278057
 40
1.0
 40
1.0
 40
1.0
 40
1.0
 10
37.1819551342
 20
-42.9166315825
 30
0.0
 10
37.1654836908
 20
-42.9274798627
 30
0.0
 10
37.1271139017
 20
-42.9437373902
 30
0.0
 10
37.0622348874
 20
-42.9471255079
 30
0.0
 10
36.9930174152
 20
-42.9308441933
 30
0.0
 10
36.9482152498
 20
-42.9090378995
 30
0.0
 10
36.925714554
 20
-42.895667944
 30
0.0
  0
SPLINE
  5
3DC
100
AcDbEntity
  8
0
100
AcDbSpline
 62
250
  6
CONTINUOUS
 70
0
 71
3
 72
15
 73
11
 74
0
 42
0.0000001
 43
0.0000001
 44
0.0000000001
 40
0.0
 40
0.0
 40
0.0
 40
0.0
 40
0.1448937921
 40
0.2745231283
 40
0.3911130853
 40
0.4999919833
 40
0.6088714938
 40
0.7254590181
 40
0.8550922577
 40
1.0
 40
1.0
 40
1.0
 40
1.0
 10
-42.759187
 20
39.5324861547
 30
0.0
 10
-42.7591854107
 20
39.5679459197
 30
0.0
 10
-42.7538339355
 20
39.6353641983
 30
0.0
 10
-42.7265410362
 20
39.7279773912
 30
0.0
 10
-42.6805574077
 20
39.8031880156
 30
0.0
 10
-42.6167112705
 20
39.856897557
 30
0.0
 10
-42.538271412
 20
39.8853245514
 30
0.0
 10
-42.4501449844
 20
39.8875344939
 30
0.0
 10
-42.3562909696
 20
39.8648581543
 30
0.0
 10
-42.2952259729
 20
39.8357803466
 30
0.0
 10
-42.2645137784
 20
39.8180490698
 30
0.0
  0
SPLINE
  5
3DD
100
AcDbEntity
  8
0
100
AcDbSpline
 62
250
  6
CONTINUOUS
 70
0
 71
3
 72
11
 73
7
 74
0
 42
0.0000001
 43
0.0000001
 44
0.0000000001
 40
0.0
 40
0.0
 40
0.0
 40
0.0
 40
0.2372193767
 40
0.5000099441
 40
0.7627863646
 40
1.0
 40
1.0
 40
1.0
 40
1.0
 10
-42.2645137784
 20
2.5069724212
 30
0.0
 10
-42.3347357353
 20
2.5475218951
 30
0.0
 10
-42.4676617616
 20
2.6593490768
 30
0.0
 10
-42.6228000763
 20
2.8713218149
 30
0.0
 10
-42.7288037292
 20
3.1116599331
 30
0.0
 10
-42.7591832482
 20
3.2826848002
 30
0.0
 10
-42.759187
 20
3.3637715733
 30
0.0
  0
SPLINE
  5
3DE
100
AcDbEntity
  8
0
100
AcDbSpline
 62
250
  6
CONTINUOUS
 70
0
 71
3
 72
9
 73
5
 74
0
 42
0.0000001
 43
0.0000001
 44
0.0000000001
 40
0.0
 40
0.0
 40
0.0
 40
0.0
 40
0.259777256
 40
1.0
 40
1.0
 40
1.0
 40
1.0
 10
37.2839019536
 20
-42.852104813
 30
0.0
 10
37.2839016168
 20
-42.8612882023
 30
0.0
 10
37.2831582553
 20
-42.8966303459
 30
0.0
 10
37.2793703749
 20
-42.9319465131
 30
0.0
 10
37.2744827971
 20
-42.9576536355
 30
0.0
  0
SPLINE
  5
3DF
100
AcDbEntity
  8
0
100
AcDbSpline
 62
250
  6
CONTINUOUS
 70
0
 71
3
 72
15
 73
11
 74
0
 42
0.0000001
 43
0.0000001
 44
0.0000000001
 40
0.0
 40
0.0
 40
0.0
 40
0.0
 40
0.1335917826
 40
0.2550621807
 40
0.3681445009
 40
0.478468694
 40
0.592406333
 40
0.7153653537
 40
0.8508119226
 40
1.0
 40
1.0
 40
1.0
 40
1.0
 10
37.2744827971
 20
-42.9576536355
 30
0.0
 10
37.2692538718
 20
-42.9851561383
 30
0.0
 10
37.2546593157
 20
-43.0370108369
 30
0.0
 10
37.2174732589
 20
-43.1054656832
 30
0.0
 10
37.1666420401
 20
-43.1582496041
 30
0.0
 10
37.103721786
 20
-43.1928174784
 30
0.0
 10
37.0315027338
 20
-43.2077097395
 30
0.0
 10
36.9528670894
 20
-43.2030226277
 30
0.0
 10
36.870191384
 20
-43.1795590768
 30
0.0
 10
36.8163039932
 20
-43.1532989744
 30
0.0
 10
36.789228732
 20
-43.1376677281
 30
0.0
  0
SPLINE
  5
3E0
100
AcDbEntity
  8
0
100
AcDbSpline
 62
250
  6
CONTINUOUS
 70
0
 71
3
 72
10
 73
6
 74
0
 42
0.0000001
 43
0.0000001
 44
0.0000000001
 40
0.0
 40
0.0
 40
0.0
 40
0.0
 40
0.547727306
 40
0.7815844514
 40
1.0
 40
1.0
 40
1.0
 40
1.0
 10
-42.2645137784
 20
39.8180490698
 30
0.0
 10
-42.2645137784
 20
39.7989611118
 30
0.0
 10
-42.2604540065
 20
39.7708527702
 30
0.0
 10
-42.2420751719
 20
39.7407212631
 30
0.0
 10
-42.229733839
 20
39.730352813
 30
0.0
 10
-42.2231462125
 20
39.7265396325
 30
0.0
  0
SPLINE
  5
3E1
100
AcDbEntity
  8
0
100
AcDbSpline
 62
250
  6
CONTINUOUS
 70
0
 71
3
 72
11
 73
7
 74
0
 42
0.0000001
 43
0.0000001
 44
0.0000000001
 40
0.0
 40
0.0
 40
0.0
 40
0.0
 40
0.236230703
 40
0.4978396757
 40
0.7606189137
 40
1.0
 40
1.0
 40
1.0
 40
1.0
 10
-42.759187
 20
39.5324861547
 30
0.0
 10
-42.7395827814
 20
39.5211669246
 30
0.0
 10
-42.6940878278
 20
39.5044814811
 30
0.0
 10
-42.6211696879
 20
39.4960123976
 30
0.0
 10
-42.5477979049
 20
39.5030785656
 30
0.0
 10
-42.5015636555
 20
39.5188112933
 30
0.0
 10
-42.4813659717
 20
39.5296861811
 30
0.0
  0
SPLINE
  5
3E2
100
AcDbEntity
  8
0
100
AcDbSpline
 62
250
  6
CONTINUOUS
 70
0
 71
3
 72
11
 73
7
 74
0
 42
0.0000001
 43
0.0000001
 44
0.0000000001
 40
0.0
 40
0.0
 40
0.0
 40
0.0
 40
0.236230679
 40
0.4978396455
 40
0.7606188939
 40
1.0
 40
1.0
 40
1.0
 40
1.0
 10
-42.759187
 20
3.3637715733
 30
0.0
 10
-42.7395827834
 20
3.3524523444
 30
0.0
 10
-42.6940878329
 20
3.3357669014
 30
0.0
 10
-42.6211696951
 20
3.3272978163
 30
0.0
 10
-42.5477979096
 20
3.3343639826
 30
0.0
 10
-42.5015636571
 20
3.3500967109
 30
0.0
 10
-42.4813659717
 20
3.3609715997
 30
0.0
  0
SPLINE
  5
3E3
100
AcDbEntity
  8
0
100
AcDbSpline
 62
250
  6
CONTINUOUS
 70
0
 71
3
 72
11
 73
7
 74
0
 42
0.0000001
 43
0.0000001
 44
0.0000000001
 40
0.0
 40
0.0
 40
0.0
 40
0.0
 40
0.2362248426
 40
0.4978334523
 40
0.7606156893
 40
1.0
 40
1.0
 40
1.0
 40
1.0
 10
-42.2645137784
 20
2.5069724212
 30
0.0
 10
-42.2645137784
 20
2.5296090723
 30
0.0
 10
-42.2562151184
 20
2.5773503769
 30
0.0
 10
-42.2270900413
 20
2.6447326834
 30
0.0
 10
-42.1842852157
 20
2.70474176
 30
0.0
 10
-42.1475442204
 20
2.7369168296
 30
0.0
 10
-42.1280279563
 20
2.7489722054
 30
0.0
  0
SPLINE
  5
3E4
100
AcDbEntity
  8
0
100
AcDbSpline
 62
250
  6
CONTINUOUS
 70
0
 71
3
 72
11
 73
7
 74
0
 42
0.0000001
 43
0.0000001
 44
0.0000000001
 40
0.0
 40
0.0
 40
0.0
 40
0.0
 40
0.2362248186
 40
0.4978334222
 40
0.7606156699
 40
1.0
 40
1.0
 40
1.0
 40
1.0
 10
36.789228732
 20
-43.1376677281
 30
0.0
 10
36.789228732
 20
-43.1150310794
 30
0.0
 10
36.7975273909
 20
-43.0672897777
 30
0.0
 10
36.8266524654
 20
-42.9999074722
 30
0.0
 10
36.8694572913
 20
-42.9398983928
 30
0.0
 10
36.9061982884
 20
-42.9077233208
 30
0.0
 10
36.925714554
 20
-42.895667944
 30
0.0
  0
SPLINE
  5
3E5
100
AcDbEntity
  8
0
100
AcDbSpline
 62
250
  6
CONTINUOUS
 70
0
 71
3
 72
10
 73
6
 74
0
 42
0.0000001
 43
0.0000001
 44
0.0000000001
 40
0.0
 40
0.0
 40
0.0
 40
0.0
 40
0.5477195268
 40
0.7815801066
 40
1.0
 40
1.0
 40
1.0
 40
1.0
 10
37.2839019536
 20
-42.852104813
 30
0.0
 10
37.2673703156
 20
-42.8425596524
 30
0.0
 10
37.2450564936
 20
-42.8249874035
 30
0.0
 10
37.2281499655
 20
-42.794002321
 30
0.0
 10
37.2253405317
 20
-42.7781286461
 30
0.0
 10
37.2253316862
 20
-42.7705161704
 30
0.0
  0
SPLINE
  5
3E6
100
AcDbEntity
  8
0
100
AcDbSpline
 62
250
  6
CONTINUOUS
 70
0
 71
3
 72
10
 73
6
 74
0
 42
0.0000001
 43
0.0000001
 44
0.0000000001
 40
0.0
 40
0.0
 40
0.0
 40
0.0
 40
0.547730759
 40
0.7815768934
 40
1.0
 40
1.0
 40
1.0
 40
1.0
 10
37.2839019536
 20
-6.6833902316
 30
0.0
 10
37.2673597394
 20
-6.6738389644
 30
0.0
 10
37.245031911
 20
-6.6562527376
 30
0.0
 10
37.2281302964
 20
-6.6252388281
 30
0.0
 10
37.2253329639
 20
-6.6093526192
 30
0.0
 10
37.2253316418
 20
-6.6017353124
 30
0.0
  0
SPLINE
  5
3E7
100
AcDbEntity
  8
0
100
AcDbSpline
 62
250
  6
CONTINUOUS
 70
0
 71
3
 72
10
 73
6
 74
0
 42
0.0000001
 43
0.0000001
 44
0.0000000001
 40
0.0
 40
0.0
 40
0.0
 40
0.0
 40
0.5477377471
 40
0.7815815035
 40
1.0
 40
1.0
 40
1.0
 40
1.0
 10
36.789228732
 20
-5.8265910795
 30
0.0
 10
36.789228732
 20
-5.8456903471
 30
0.0
 10
36.7932932269
 20
-5.8738163934
 30
0.0
 10
36.8116974546
 20
-5.9039573052
 30
0.0
 10
36.8240544402
 20
-5.9143218529
 30
0.0
 10
36.8306494233
 20
-5.9181312354
 30
0.0
  0
SPLINE
  5
3E8
100
AcDbEntity
  8
0
100
AcDbSpline
 62
250
  6
CONTINUOUS
 70
0
 71
3
 72
11
 73
7
 74
0
 42
0.0000001
 43
0.0000001
 44
0.0000000001
 40
0.0
 40
0.0
 40
0.0
 40
0.0
 40
0.2376037075
 40
0.5000098387
 40
0.7624018658
 40
1.0
 40
1.0
 40
1.0
 40
1.0
 10
-42.1280279563
 20
2.7489722054
 30
0.0
 10
-42.1787245828
 20
2.7774145788
 30
0.0
 10
-42.2747227893
 20
2.8565442709
 30
0.0
 10
-42.3862435952
 20
3.0078956224
 30
0.0
 10
-42.4615566642
 20
3.1801497797
 30
0.0
 10
-42.4820839337
 20
3.3028472283
 30
0.0
 10
-42.4813659717
 20
3.3609715997
 30
0.0
  0
SPLINE
  5
3E9
100
AcDbEntity
  8
0
100
AcDbSpline
 62
250
  6
CONTINUOUS
 70
0
 71
3
 72
11
 73
7
 74
0
 42
0.0000001
 43
0.0000001
 44
0.0000000001
 40
0.0
 40
0.0
 40
0.0
 40
0.0
 40
0.2361269779
 40
0.4999756478
 40
0.7638388256
 40
1.0
 40
1.0
 40
1.0
 40
1.0
 10
-41.2400451615
 20
4.0777080089
 30
0.0
 10
-41.2383529025
 20
4.0203361352
 30
0.0
 10
-41.2139460689
 20
3.8994517473
 30
0.0
 10
-41.1372920457
 20
3.7290498061
 30
0.0
 10
-41.0280452108
 20
3.5774553115
 30
0.0
 10
-40.9355528296
 20
3.4958656886
 30
0.0
 10
-40.8867071461
 20
3.4657086146
 30
0.0
  0
SPLINE
  5
3EA
100
AcDbEntity
  8
0
100
AcDbSpline
 62
250
  6
CONTINUOUS
 70
0
 71
3
 72
11
 73
7
 74
0
 42
0.0000001
 43
0.0000001
 44
0.0000000001
 40
0.0
 40
0.0
 40
0.0
 40
0.0
 40
0.2904502293
 40
0.5488877918
 40
0.7811091084
 40
1.0
 40
1.0
 40
1.0
 40
1.0
 10
-42.4813659717
 20
39.5296861811
 30
0.0
 10
-42.4816936119
 20
39.5558518893
 30
0.0
 10
-42.4781768159
 20
39.6055464486
 30
0.0
 10
-42.4576699297
 20
39.673621381
 30
0.0
 10
-42.4222997981
 20
39.7281086203
 30
0.0
 10
-42.3890389217
 20
39.7532070346
 30
0.0
 10
-42.3714105899
 20
39.7620471843
 30
0.0
  0
SPLINE
  5
3EB
100
AcDbEntity
  8
0
100
AcDbSpline
 62
250
  6
CONTINUOUS
 70
0
 71
3
 72
11
 73
7
 74
0
 42
0.0000001
 43
0.0000001
 44
0.0000000001
 40
0.0
 40
0.0
 40
0.0
 40
0.0
 40
0.2197294853
 40
0.4536957931
 40
0.7123511461
 40
1.0
 40
1.0
 40
1.0
 40
1.0
 10
-41.1057224379
 20
4.2745854982
 30
0.0
 10
-41.1057265088
 20
4.2563994546
 30
0.0
 10
-41.1121005661
 20
4.2186138286
 30
0.0
 10
-41.1395344994
 20
4.1655731035
 30
0.0
 10
-41.183122961
 20
4.1171740329
 30
0.0
 10
-41.2198036612
 20
4.0902409842
 30
0.0
 10
-41.2400451615
 20
4.0777080089
 30
0.0
  0
SPLINE
  5
3EC
100
AcDbEntity
  8
ASSI
100
AcDbSpline
 62
250
  6
CONTINUOUS
 70
0
 71
3
 72
11
 73
7
 74
0
 42
0.0000001
 43
0.0000001
 44
0.0000000001
 40
0.0
 40
0.0
 40
0.0
 40
0.0
 40
0.2197294853
 40
0.4536957931
 40
0.7123511461
 40
1.0
 40
1.0
 40
1.0
 40
1.0
 10
-41.1057224379
 20
4.2745854982
 30
0.0
 10
-41.1057265088
 20
4.2563994546
 30
0.0
 10
-41.1121005661
 20
4.2186138286
 30
0.0
 10
-41.1395344994
 20
4.1655731035
 30
0.0
 10
-41.183122961
 20
4.1171740329
 30
0.0
 10
-41.2198036612
 20
4.0902409842
 30
0.0
 10
-41.2400451615
 20
4.0777080089
 30
0.0
  0
SPLINE
  5
3ED
100
AcDbEntity
  8
ASSI
100
AcDbSpline
 62
250
  6
CONTINUOUS
 70
0
 71
3
 72
11
 73
7
 74
0
 42
0.0000001
 43
0.0000001
 44
0.0000000001
 40
0.0
 40
0.0
 40
0.0
 40
0.0
 40
0.2197198446
 40
0.45368206
 40
0.7123407119
 40
1.0
 40
1.0
 40
1.0
 40
1.0
 10
-40.6490481978
 20
3.4836113644
 30
0.0
 10
-40.664799053
 20
3.4927003714
 30
0.0
 10
-40.7007086644
 20
3.5060716672
 30
0.0
 10
-40.7603593048
 20
3.5088299044
 30
0.0
 10
-40.8240678646
 20
3.4952762658
 30
0.0
 10
-40.8657325385
 20
3.4769733576
 30
0.0
 10
-40.8867071461
 20
3.4657086146
 30
0.0
  0
SPLINE
  5
3EE
100
AcDbEntity
  8
ASSI
100
AcDbSpline
 62
250
  6
CONTINUOUS
 70
0
 71
3
 72
11
 73
7
 74
0
 42
0.0000001
 43
0.0000001
 44
0.0000000001
 40
0.0
 40
0.0
 40
0.0
 40
0.0
 40
0.2372193767
 40
0.5000099441
 40
0.7627863646
 40
1.0
 40
1.0
 40
1.0
 40
1.0
 10
-42.2645137784
 20
2.5069724212
 30
0.0
 10
-42.3347357353
 20
2.5475218951
 30
0.0
 10
-42.4676617616
 20
2.6593490768
 30
0.0
 10
-42.6228000763
 20
2.8713218149
 30
0.0
 10
-42.7288037292
 20
3.1116599331
 30
0.0
 10
-42.7591832482
 20
3.2826848002
 30
0.0
 10
-42.759187
 20
3.3637715733
 30
0.0
  0
SPLINE
  5
3EF
100
AcDbEntity
  8
ASSI
100
AcDbSpline
 62
250
  6
CONTINUOUS
 70
0
 71
3
 72
9
 73
5
 74
0
 42
0.0000001
 43
0.0000001
 44
0.0000000001
 40
0.0
 40
0.0
 40
0.0
 40
0.0
 40
0.259777256
 40
1.0
 40
1.0
 40
1.0
 40
1.0
 10
37.2839019536
 20
-42.852104813
 30
0.0
 10
37.2839016168
 20
-42.8612882023
 30
0.0
 10
37.2831582553
 20
-42.8966303459
 30
0.0
 10
37.2793703749
 20
-42.9319465131
 30
0.0
 10
37.2744827971
 20
-42.9576536355
 30
0.0
  0
SPLINE
  5
3F0
100
AcDbEntity
  8
ASSI
100
AcDbSpline
 62
250
  6
CONTINUOUS
 70
0
 71
3
 72
15
 73
11
 74
0
 42
0.0000001
 43
0.0000001
 44
0.0000000001
 40
0.0
 40
0.0
 40
0.0
 40
0.0
 40
0.1335917826
 40
0.2550621807
 40
0.3681445009
 40
0.478468694
 40
0.592406333
 40
0.7153653537
 40
0.8508119226
 40
1.0
 40
1.0
 40
1.0
 40
1.0
 10
37.2744827971
 20
-42.9576536355
 30
0.0
 10
37.2692538718
 20
-42.9851561383
 30
0.0
 10
37.2546593157
 20
-43.0370108369
 30
0.0
 10
37.2174732589
 20
-43.1054656832
 30
0.0
 10
37.1666420401
 20
-43.1582496041
 30
0.0
 10
37.103721786
 20
-43.1928174784
 30
0.0
 10
37.0315027338
 20
-43.2077097395
 30
0.0
 10
36.9528670894
 20
-43.2030226277
 30
0.0
 10
36.870191384
 20
-43.1795590768
 30
0.0
 10
36.8163039932
 20
-43.1532989744
 30
0.0
 10
36.789228732
 20
-43.1376677281
 30
0.0
  0
SPLINE
  5
3F1
100
AcDbEntity
  8
ASSI
100
AcDbSpline
 62
250
  6
CONTINUOUS
 70
0
 71
3
 72
11
 73
7
 74
0
 42
0.0000001
 43
0.0000001
 44
0.0000000001
 40
0.0
 40
0.0
 40
0.0
 40
0.0
 40
0.2188864051
 40
0.4510934855
 40
0.7095278057
 40
1.0
 40
1.0
 40
1.0
 40
1.0
 10
37.1819551342
 20
-42.9166315825
 30
0.0
 10
37.1654836908
 20
-42.9274798627
 30
0.0
 10
37.1271139017
 20
-42.9437373902
 30
0.0
 10
37.0622348874
 20
-42.9471255079
 30
0.0
 10
36.9930174152
 20
-42.9308441933
 30
0.0
 10
36.9482152498
 20
-42.9090378995
 30
0.0
 10
36.925714554
 20
-42.895667944
 30
0.0
  0
SPLINE
  5
3F2
100
AcDbEntity
  8
ASSI
100
AcDbSpline
 62
250
  6
CONTINUOUS
 70
0
 71
3
 72
9
 73
5
 74
0
 42
0.0000001
 43
0.0000001
 44
0.0000000001
 40
0.0
 40
0.0
 40
0.0
 40
0.0
 40
0.2393002099
 40
1.0
 40
1.0
 40
1.0
 40
1.0
 10
36.789228732
 20
-5.8265910795
 30
0.0
 10
36.8001568722
 20
-5.8329013849
 30
0.0
 10
36.8450610673
 20
-5.8605852609
 30
0.0
 10
36.8869222002
 20
-5.8930866673
 30
0.0
 10
36.9169508006
 20
-5.9196848076
 30
0.0
  0
SPLINE
  5
3F3
100
AcDbEntity
  8
ASSI
100
AcDbSpline
 62
250
  6
CONTINUOUS
 70
0
 71
3
 72
11
 73
7
 74
0
 42
0.0000001
 43
0.0000001
 44
0.0000000001
 40
0.0
 40
0.0
 40
0.0
 40
0.0
 40
0.2442113572
 40
0.4998799654
 40
0.755609616
 40
1.0
 40
1.0
 40
1.0
 40
1.0
 10
36.9169508006
 20
-5.9196848076
 30
0.0
 10
36.960154841
 20
-5.9579532287
 30
0.0
 10
37.0414268977
 20
-6.0445932315
 30
0.0
 10
37.1423960199
 20
-6.1926501894
 30
0.0
 10
37.2204388929
 20
-6.3540194539
 30
0.0
 10
37.2550721241
 20
-6.4677085163
 30
0.0
 10
37.2667422364
 20
-6.5242748959
 30
0.0
  0
SPLINE
  5
3F4
100
AcDbEntity
  8
ASSI
100
AcDbSpline
 62
250
  6
CONTINUOUS
 70
0
 71
3
 72
9
 73
5
 74
0
 42
0.0000001
 43
0.0000001
 44
0.0000000001
 40
0.0
 40
0.0
 40
0.0
 40
0.0
 40
0.2605199971
 40
1.0
 40
1.0
 40
1.0
 40
1.0
 10
37.2667422364
 20
-6.5242748959
 30
0.0
 10
37.2695529365
 20
-6.5378986835
 30
0.0
 10
37.2791548195
 20
-6.5904216563
 30
0.0
 10
37.2839004498
 20
-6.6439050254
 30
0.0
 10
37.2839019536
 20
-6.6833902316
 30
0.0
  0
SPLINE
  5
3F5
100
AcDbEntity
  8
ASSI
100
AcDbSpline
 62
250
  6
CONTINUOUS
 70
0
 71
3
 72
11
 73
7
 74
0
 42
0.0000001
 43
0.0000001
 44
0.0000000001
 40
0.0
 40
0.0
 40
0.0
 40
0.0
 40
0.2904502293
 40
0.5488877918
 40
0.7811091084
 40
1.0
 40
1.0
 40
1.0
 40
1.0
 10
-42.4813659717
 20
39.5296861811
 30
0.0
 10
-42.4816936119
 20
39.5558518893
 30
0.0
 10
-42.4781768159
 20
39.6055464486
 30
0.0
 10
-42.4576699297
 20
39.673621381
 30
0.0
 10
-42.4222997981
 20
39.7281086203
 30
0.0
 10
-42.3890389217
 20
39.7532070346
 30
0.0
 10
-42.3714105899
 20
39.7620471843
 30
0.0
  0
SPLINE
  5
3F6
100
AcDbEntity
  8
ASSI
100
AcDbSpline
 62
250
  6
CONTINUOUS
 70
0
 71
3
 72
11
 73
7
 74
0
 42
0.0000001
 43
0.0000001
 44
0.0000000001
 40
0.0
 40
0.0
 40
0.0
 40
0.0
 40
0.2361269779
 40
0.4999756478
 40
0.7638388256
 40
1.0
 40
1.0
 40
1.0
 40
1.0
 10
-41.2400451615
 20
4.0777080089
 30
0.0
 10
-41.2383529025
 20
4.0203361352
 30
0.0
 10
-41.2139460689
 20
3.8994517473
 30
0.0
 10
-41.1372920457
 20
3.7290498061
 30
0.0
 10
-41.0280452108
 20
3.5774553115
 30
0.0
 10
-40.9355528296
 20
3.4958656886
 30
0.0
 10
-40.8867071461
 20
3.4657086146
 30
0.0
  0
SPLINE
  5
3F7
100
AcDbEntity
  8
ASSI
100
AcDbSpline
 62
250
  6
CONTINUOUS
 70
0
 71
3
 72
11
 73
7
 74
0
 42
0.0000001
 43
0.0000001
 44
0.0000000001
 40
0.0
 40
0.0
 40
0.0
 40
0.0
 40
0.2376037075
 40
0.5000098387
 40
0.7624018658
 40
1.0
 40
1.0
 40
1.0
 40
1.0
 10
-42.1280279563
 20
2.7489722054
 30
0.0
 10
-42.1787245828
 20
2.7774145788
 30
0.0
 10
-42.2747227893
 20
2.8565442709
 30
0.0
 10
-42.3862435952
 20
3.0078956224
 30
0.0
 10
-42.4615566642
 20
3.1801497797
 30
0.0
 10
-42.4820839337
 20
3.3028472283
 30
0.0
 10
-42.4813659717
 20
3.3609715997
 30
0.0
  0
SPLINE
  5
3F8
100
AcDbEntity
  8
ASSI
100
AcDbSpline
 62
250
  6
CONTINUOUS
 70
0
 71
3
 72
10
 73
6
 74
0
 42
0.0000001
 43
0.0000001
 44
0.0000000001
 40
0.0
 40
0.0
 40
0.0
 40
0.0
 40
0.5477377471
 40
0.7815815035
 40
1.0
 40
1.0
 40
1.0
 40
1.0
 10
36.789228732
 20
-5.8265910795
 30
0.0
 10
36.789228732
 20
-5.8456903471
 30
0.0
 10
36.7932932269
 20
-5.8738163934
 30
0.0
 10
36.8116974546
 20
-5.9039573052
 30
0.0
 10
36.8240544402
 20
-5.9143218529
 30
0.0
 10
36.8306494233
 20
-5.9181312354
 30
0.0
  0
SPLINE
  5
3F9
100
AcDbEntity
  8
ASSI
100
AcDbSpline
 62
250
  6
CONTINUOUS
 70
0
 71
3
 72
10
 73
6
 74
0
 42
0.0000001
 43
0.0000001
 44
0.0000000001
 40
0.0
 40
0.0
 40
0.0
 40
0.0
 40
0.547730759
 40
0.7815768934
 40
1.0
 40
1.0
 40
1.0
 40
1.0
 10
37.2839019536
 20
-6.6833902316
 30
0.0
 10
37.2673597394
 20
-6.6738389644
 30
0.0
 10
37.245031911
 20
-6.6562527376
 30
0.0
 10
37.2281302964
 20
-6.6252388281
 30
0.0
 10
37.2253329639
 20
-6.6093526192
 30
0.0
 10
37.2253316418
 20
-6.6017353124
 30
0.0
  0
SPLINE
  5
3FA
100
AcDbEntity
  8
ASSI
100
AcDbSpline
 62
250
  6
CONTINUOUS
 70
0
 71
3
 72
10
 73
6
 74
0
 42
0.0000001
 43
0.0000001
 44
0.0000000001
 40
0.0
 40
0.0
 40
0.0
 40
0.0
 40
0.5477195268
 40
0.7815801066
 40
1.0
 40
1.0
 40
1.0
 40
1.0
 10
37.2839019536
 20
-42.852104813
 30
0.0
 10
37.2673703156
 20
-42.8425596524
 30
0.0
 10
37.2450564936
 20
-42.8249874035
 30
0.0
 10
37.2281499655
 20
-42.794002321
 30
0.0
 10
37.2253405317
 20
-42.7781286461
 30
0.0
 10
37.2253316862
 20
-42.7705161704
 30
0.0
  0
SPLINE
  5
3FB
100
AcDbEntity
  8
ASSI
100
AcDbSpline
 62
250
  6
CONTINUOUS
 70
0
 71
3
 72
11
 73
7
 74
0
 42
0.0000001
 43
0.0000001
 44
0.0000000001
 40
0.0
 40
0.0
 40
0.0
 40
0.0
 40
0.2362248186
 40
0.4978334222
 40
0.7606156699
 40
1.0
 40
1.0
 40
1.0
 40
1.0
 10
36.789228732
 20
-43.1376677281
 30
0.0
 10
36.789228732
 20
-43.1150310794
 30
0.0
 10
36.7975273909
 20
-43.0672897777
 30
0.0
 10
36.8266524654
 20
-42.9999074722
 30
0.0
 10
36.8694572913
 20
-42.9398983928
 30
0.0
 10
36.9061982884
 20
-42.9077233208
 30
0.0
 10
36.925714554
 20
-42.895667944
 30
0.0
  0
SPLINE
  5
3FC
100
AcDbEntity
  8
ASSI
100
AcDbSpline
 62
250
  6
CONTINUOUS
 70
0
 71
3
 72
11
 73
7
 74
0
 42
0.0000001
 43
0.0000001
 44
0.0000000001
 40
0.0
 40
0.0
 40
0.0
 40
0.0
 40
0.2362248426
 40
0.4978334523
 40
0.7606156893
 40
1.0
 40
1.0
 40
1.0
 40
1.0
 10
-42.2645137784
 20
2.5069724212
 30
0.0
 10
-42.2645137784
 20
2.5296090723
 30
0.0
 10
-42.2562151184
 20
2.5773503769
 30
0.0
 10
-42.2270900413
 20
2.6447326834
 30
0.0
 10
-42.1842852157
 20
2.70474176
 30
0.0
 10
-42.1475442204
 20
2.7369168296
 30
0.0
 10
-42.1280279563
 20
2.7489722054
 30
0.0
  0
SPLINE
  5
3FD
100
AcDbEntity
  8
ASSI
100
AcDbSpline
 62
250
  6
CONTINUOUS
 70
0
 71
3
 72
11
 73
7
 74
0
 42
0.0000001
 43
0.0000001
 44
0.0000000001
 40
0.0
 40
0.0
 40
0.0
 40
0.0
 40
0.236230679
 40
0.4978396455
 40
0.7606188939
 40
1.0
 40
1.0
 40
1.0
 40
1.0
 10
-42.759187
 20
3.3637715733
 30
0.0
 10
-42.7395827834
 20
3.3524523444
 30
0.0
 10
-42.6940878329
 20
3.3357669014
 30
0.0
 10
-42.6211696951
 20
3.3272978163
 30
0.0
 10
-42.5477979096
 20
3.3343639826
 30
0.0
 10
-42.5015636571
 20
3.3500967109
 30
0.0
 10
-42.4813659717
 20
3.3609715997
 30
0.0
  0
SPLINE
  5
3FE
100
AcDbEntity
  8
ASSI
100
AcDbSpline
 62
250
  6
CONTINUOUS
 70
0
 71
3
 72
11
 73
7
 74
0
 42
0.0000001
 43
0.0000001
 44
0.0000000001
 40
0.0
 40
0.0
 40
0.0
 40
0.0
 40
0.236230703
 40
0.4978396757
 40
0.7606189137
 40
1.0
 40
1.0
 40
1.0
 40
1.0
 10
-42.759187
 20
39.5324861547
 30
0.0
 10
-42.7395827814
 20
39.5211669246
 30
0.0
 10
-42.6940878278
 20
39.5044814811
 30
0.0
 10
-42.6211696879
 20
39.4960123976
 30
0.0
 10
-42.5477979049
 20
39.5030785656
 30
0.0
 10
-42.5015636555
 20
39.5188112933
 30
0.0
 10
-42.4813659717
 20
39.5296861811
 30
0.0
  0
SPLINE
  5
3FF
100
AcDbEntity
  8
ASSI
100
AcDbSpline
 62
250
  6
CONTINUOUS
 70
0
 71
3
 72
10
 73
6
 74
0
 42
0.0000001
 43
0.0000001
 44
0.0000000001
 40
0.0
 40
0.0
 40
0.0
 40
0.0
 40
0.547727306
 40
0.7815844514
 40
1.0
 40
1.0
 40
1.0
 40
1.0
 10
-42.2645137784
 20
39.8180490698
 30
0.0
 10
-42.2645137784
 20
39.7989611118
 30
0.0
 10
-42.2604540065
 20
39.7708527702
 30
0.0
 10
-42.2420751719
 20
39.7407212631
 30
0.0
 10
-42.229733839
 20
39.730352813
 30
0.0
 10
-42.2231462125
 20
39.7265396325
 30
0.0
  0
SPLINE
  5
400
100
AcDbEntity
  8
ASSI
100
AcDbSpline
 62
250
  6
CONTINUOUS
 70
0
 71
3
 72
15
 73
11
 74
0
 42
0.0000001
 43
0.0000001
 44
0.0000000001
 40
0.0
 40
0.0
 40
0.0
 40
0.0
 40
0.1448937921
 40
0.2745231283
 40
0.3911130853
 40
0.4999919833
 40
0.6088714938
 40
0.7254590181
 40
0.8550922577
 40
1.0
 40
1.0
 40
1.0
 40
1.0
 10
-42.759187
 20
39.5324861547
 30
0.0
 10
-42.7591854107
 20
39.5679459197
 30
0.0
 10
-42.7538339355
 20
39.6353641983
 30
0.0
 10
-42.7265410362
 20
39.7279773912
 30
0.0
 10
-42.6805574077
 20
39.8031880156
 30
0.0
 10
-42.6167112705
 20
39.856897557
 30
0.0
 10
-42.538271412
 20
39.8853245514
 30
0.0
 10
-42.4501449844
 20
39.8875344939
 30
0.0
 10
-42.3562909696
 20
39.8648581543
 30
0.0
 10
-42.2952259729
 20
39.8357803466
 30
0.0
 10
-42.2645137784
 20
39.8180490698
 30
0.0
  0
SPLINE
  5
401
100
AcDbEntity
  8
CURVE
100
AcDbSpline
 62
250
  6
CONTINUOUS
 70
0
 71
3
 72
9
 73
5
 74
0
 42
0.0000001
 43
0.0000001
 44
0.0000000001
 40
0.0
 40
0.0
 40
0.0
 40
0.0
 40
0.5206208722
 40
1.0
 40
1.0
 40
1.0
 40
1.0
 10
55.8132060822
 20
-56.8205490608
 30
0.0
 10
55.8922398199
 20
-56.7766340717
 30
0.0
 10
56.0648882423
 20
-56.746007799
 30
0.0
 10
56.095680935
 20
-56.9181651076
 30
0.0
 10
56.0973061603
 20
-56.998521905
 30
0.0
  0
SPLINE
  5
402
100
AcDbEntity
  8
CURVE
100
AcDbSpline
 62
250
  6
CONTINUOUS
 70
0
 71
3
 72
9
 73
5
 74
0
 42
0.0000001
 43
0.0000001
 44
0.0000000001
 40
0.0
 40
0.0
 40
0.0
 40
0.0
 40
0.5013510385
 40
1.0
 40
1.0
 40
1.0
 40
1.0
 10
55.5846702378
 20
-57.184252789
 30
0.0
 10
55.5911637067
 20
-57.1183172183
 30
0.0
 10
55.6404182635
 20
-56.9655065949
 30
0.0
 10
55.7572106383
 20
-56.8516759922
 30
0.0
 10
55.8132060822
 20
-56.8205490608
 30
0.0
  0
SPLINE
  5
403
100
AcDbEntity
  8
CURVE
100
AcDbSpline
 62
250
  6
CONTINUOUS
 70
0
 71
3
 72
9
 73
5
 74
0
 42
0.0000001
 43
0.0000001
 44
0.0000000001
 40
0.0
 40
0.0
 40
0.0
 40
0.0
 40
0.2703953699
 40
1.0
 40
1.0
 40
1.0
 40
1.0
 10
55.5954321237
 20
-57.5122131816
 30
0.0
 10
55.5908872597
 20
-57.4849252956
 30
0.0
 10
55.5759395642
 20
-57.3826610237
 30
0.0
 10
55.5762640618
 20
-57.2696291514
 30
0.0
 10
55.5846702378
 20
-57.184252789
 30
0.0
  0
SPLINE
  5
404
100
AcDbEntity
  8
CURVE
100
AcDbSpline
 62
250
  6
CONTINUOUS
 70
0
 71
3
 72
9
 73
5
 74
0
 42
0.0000001
 43
0.0000001
 44
0.0000000001
 40
0.0
 40
0.0
 40
0.0
 40
0.0
 40
0.2957417834
 40
1.0
 40
1.0
 40
1.0
 40
1.0
 10
55.3245890438
 20
-57.0168560249
 30
0.0
 10
55.2928285391
 20
-57.132099711
 30
0.0
 10
55.2410570234
 20
-57.5127397475
 30
0.0
 10
55.2729429907
 20
-57.8501871281
 30
0.0
 10
55.3053410338
 20
-58.0785924647
 30
0.0
  0
SPLINE
  5
405
100
AcDbEntity
  8
CURVE
100
AcDbSpline
 62
250
  6
CONTINUOUS
 70
0
 71
3
 72
17
 73
13
 74
0
 42
0.0000001
 43
0.0000001
 44
0.0000000001
 40
0.0
 40
0.0
 40
0.0
 40
0.0
 40
0.0559780952
 40
0.1687540387
 40
0.321006234
 40
0.4122750837
 40
0.516613223
 40
0.6013931059
 40
0.6776022439
 40
0.8103422694
 40
0.9200404832
 40
1.0
 40
1.0
 40
1.0
 40
1.0
 10
56.2479862723
 20
-56.47575298
 30
0.0
 10
56.2452665328
 20
-56.4536862659
 30
0.0
 10
56.2030699435
 20
-56.4165928896
 30
0.0
 10
56.1226314725
 20
-56.3607099266
 30
0.0
 10
55.998808935
 20
-56.3543411925
 30
0.0
 10
55.8696340012
 20
-56.3913553193
 30
0.0
 10
55.7624215027
 20
-56.4460241981
 30
0.0
 10
55.6622858988
 20
-56.5160488505
 30
0.0
 10
55.5558840081
 20
-56.6123816501
 30
0.0
 10
55.4516078356
 20
-56.741858208
 30
0.0
 10
55.3700611294
 20
-56.8893037534
 30
0.0
 10
55.3348907819
 20
-56.9794297396
 30
0.0
 10
55.3245890438
 20
-57.0168560249
 30
0.0
  0
SPLINE
  5
406
100
AcDbEntity
  8
CURVE
100
AcDbSpline
 62
250
  6
CONTINUOUS
 70
0
 71
3
 72
9
 73
5
 74
0
 42
0.0000001
 43
0.0000001
 44
0.0000000001
 40
0.0
 40
0.0
 40
0.0
 40
0.0
 40
0.2426586216
 40
1.0
 40
1.0
 40
1.0
 40
1.0
 10
56.6173588731
 20
-56.0313066841
 30
0.0
 10
56.5841375705
 20
-56.0592975805
 30
0.0
 10
56.449981855
 20
-56.1701249913
 30
0.0
 10
56.2985924459
 20
-56.3370683852
 30
0.0
 10
56.2587892864
 20
-56.4699363939
 30
0.0
  0
SPLINE
  5
407
100
AcDbEntity
  8
CURVE
100
AcDbSpline
 62
250
  6
CONTINUOUS
 70
0
 71
3
 72
9
 73
5
 74
0
 42
0.0000001
 43
0.0000001
 44
0.0000000001
 40
0.0
 40
0.0
 40
0.0
 40
0.0
 40
0.1980141723
 40
1.0
 40
1.0
 40
1.0
 40
1.0
 10
57.1121725642
 20
-55.6192460354
 30
0.0
 10
57.0795772521
 20
-55.646679188
 30
0.0
 10
56.9145962439
 20
-55.7838820367
 30
0.0
 10
56.7493462309
 20
-55.9200974418
 30
0.0
 10
56.6173588731
 20
-56.0313066841
 30
0.0
  0
SPLINE
  5
408
100
AcDbEntity
  8
CURVE
100
AcDbSpline
 62
250
  6
CONTINUOUS
 70
0
 71
3
 72
9
 73
5
 74
0
 42
0.0000001
 43
0.0000001
 44
0.0000000001
 40
0.0
 40
0.0
 40
0.0
 40
0.0
 40
0.5586214172
 40
1.0
 40
1.0
 40
1.0
 40
1.0
 10
56.5578052013
 20
-56.513811422
 30
0.0
 10
56.6587240862
 20
-56.4171480985
 30
0.0
 10
56.8455973742
 20
-56.2608684336
 30
0.0
 10
57.0303091526
 20
-56.0993881568
 30
0.0
 10
57.1121725642
 20
-56.0290358135
 30
0.0
  0
SPLINE
  5
409
100
AcDbEntity
  8
CURVE
100
AcDbSpline
 62
250
  6
CONTINUOUS
 70
0
 71
3
 72
9
 73
5
 74
0
 42
0.0000001
 43
0.0000001
 44
0.0000000001
 40
0.0
 40
0.0
 40
0.0
 40
0.0
 40
0.3559141631
 40
1.0
 40
1.0
 40
1.0
 40
1.0
 10
56.3967196481
 20
-56.8382292358
 30
0.0
 10
56.3967196481
 20
-56.8011039369
 30
0.0
 10
56.4168566099
 20
-56.683462214
 30
0.0
 10
56.5014618123
 20
-56.567753863
 30
0.0
 10
56.5578052013
 20
-56.513811422
 30
0.0
  0
ELLIPSE
  5
40A
100
AcDbEntity
  8
0
100
AcDbEllipse
 62
7
  6
CONTINUOUS
 10
-25.6087345085
 20
-1.6230435109
 30
0.0
 11
0.1999995634
 21
0.1164181051
 31
0.0
 40
0.0035896273
 41
-0.7351277754
 42
-0.6748017824
  0
ELLIPSE
  5
40B
100
AcDbEntity
  8
0
100
AcDbEllipse
 62
7
  6
CONTINUOUS
 10
34.2048744077
 20
-35.5873068244
 30
0.0
 11
0.1998333781
 21
-0.0157785196
 31
0.0
 40
0.5172961965
 41
0.8262203412
 42
2.3446567905
  0
ELLIPSE
  5
40C
100
AcDbEntity
  8
0
100
AcDbEllipse
 62
7
  6
CONTINUOUS
 10
-29.4347358991
 20
1.1574065751
 30
0.0
 11
0.1998333781
 21
-0.0157785196
 31
0.0
 40
0.5172961965
 41
0.8262203412
 42
2.3446567905
  0
ELLIPSE
  5
40D
100
AcDbEntity
  8
0
100
AcDbEllipse
 62
7
  6
CONTINUOUS
 10
32.6866468778
 20
-36.8907213373
 30
0.0
 11
0.5413005334
 21
0.8416911418
 31
0.0
 40
0.6067084637
 41
0.7148472392
 42
0.8145158917
  0
ELLIPSE
  5
40E
100
AcDbEntity
  8
0
100
AcDbEllipse
 62
7
  6
CONTINUOUS
 10
-30.952963429
 20
-0.1460079378
 30
0.0
 11
0.5413005334
 21
0.8416911418
 31
0.0
 40
0.6067084637
 41
0.7148472392
 42
0.8145158917
  0
ELLIPSE
  5
40F
100
AcDbEntity
  8
0
100
AcDbEllipse
 62
7
  6
CONTINUOUS
 10
20.9935022403
 20
-29.4868492914
 30
0.0
 11
0.0858610644
 21
0.3627848639
 31
0.0
 40
0.5009985936
 41
-2.6944494219
 42
-2.6479073085
  0
ELLIPSE
  5
410
100
AcDbEntity
  8
0
100
AcDbEllipse
 62
7
  6
CONTINUOUS
 10
17.0892815529
 20
-27.1500627331
 30
0.0
 11
0.2999972416
 21
-0.0022477848
 31
0.0
 40
0.5723275643
 41
0.7896864073
 42
2.3081228565
  0
ELLIPSE
  5
411
100
AcDbEntity
  8
0
100
AcDbEllipse
 62
7
  6
CONTINUOUS
 10
5.0835996636
 20
-20.3006709415
 30
0.0
 11
0.0858610644
 21
0.3627848639
 31
0.0
 40
0.5009985936
 41
-2.6944494219
 42
-2.6479073085
  0
ELLIPSE
  5
412
100
AcDbEntity
  8
0
100
AcDbEllipse
 62
7
  6
CONTINUOUS
 10
1.1793789762
 20
-17.9638843832
 30
0.0
 11
0.2999972416
 21
-0.0022477848
 31
0.0
 40
0.5723275643
 41
0.7896864073
 42
2.3081228565
  0
ELLIPSE
  5
413
100
AcDbEntity
  8
0
100
AcDbEllipse
 62
7
  6
CONTINUOUS
 10
-10.8263029131
 20
-11.1144925917
 30
0.0
 11
0.0858610644
 21
0.3627848639
 31
0.0
 40
0.5009985936
 41
-2.6944494219
 42
-2.6479073085
  0
ELLIPSE
  5
414
100
AcDbEntity
  8
0
100
AcDbEllipse
 62
7
  6
CONTINUOUS
 10
-14.7305236005
 20
-8.7777060334
 30
0.0
 11
0.2999972416
 21
-0.0022477848
 31
0.0
 40
0.5723275643
 41
0.7896864073
 42
2.3081228565
  0
ELLIPSE
  5
415
100
AcDbEntity
  8
0
100
AcDbEllipse
 62
7
  6
CONTINUOUS
 10
20.7810790874
 20
-29.2816603604
 30
0.0
 11
0.2999972416
 21
-0.0022477848
 31
0.0
 40
0.5723275643
 41
-0.728750042
 42
0.7896864073
  0
ELLIPSE
  5
416
100
AcDbEntity
  8
0
100
AcDbEllipse
 62
7
  6
CONTINUOUS
 10
4.8711765107
 20
-20.0954820106
 30
0.0
 11
0.2999972416
 21
-0.0022477848
 31
0.0
 40
0.5723275643
 41
-0.728750042
 42
0.7896864073
  0
ELLIPSE
  5
417
100
AcDbEntity
  8
0
100
AcDbEllipse
 62
7
  6
CONTINUOUS
 10
-11.038726066
 20
-10.9093036607
 30
0.0
 11
0.2999972416
 21
-0.0022477848
 31
0.0
 40
0.5723275643
 41
-0.728750042
 42
0.7896864073
  0
ELLIPSE
  5
418
100
AcDbEntity
  8
0
100
AcDbEllipse
 62
7
  6
CONTINUOUS
 10
-25.6087345085
 20
-1.0516786767
 30
0.0
 11
0.1998333781
 21
-0.0157785196
 31
0.0
 40
0.5172961965
 41
-0.692216108
 42
0.8262203412
  0
ELLIPSE
  5
419
100
AcDbEntity
  8
0
100
AcDbEllipse
 62
7
  6
CONTINUOUS
 10
36.9329841361
 20
-39.3425032511
 30
0.0
 11
0.4625183445
 21
0.8873459255
 31
0.0
 40
0.5463614449
 41
0.662201126
 42
0.7618697785
  0
ELLIPSE
  5
41A
100
AcDbEntity
  8
0
100
AcDbEllipse
 62
7
  6
CONTINUOUS
 10
-26.7066261707
 20
-2.5977898516
 30
0.0
 11
0.4625183445
 21
0.8873459255
 31
0.0
 40
0.5463614449
 41
0.662201126
 42
0.7618697785
  0
ELLIPSE
  5
41B
100
AcDbEntity
  8
0
100
AcDbEllipse
 62
7
  6
CONTINUOUS
 10
-41.0979698961
 20
3.7516973471
 30
0.0
 11
-0.2500121243
 21
0.4330057017
 31
0.0
 40
0.5780352736
 41
0.7859587116
 42
2.3555370632
  0
ELLIPSE
  5
41C
100
AcDbEntity
  8
ASSI
100
AcDbEllipse
 62
7
  6
CONTINUOUS
 10
-41.0979698961
 20
3.7516973471
 30
0.0
 11
-0.2500121243
 21
0.4330057017
 31
0.0
 40
0.5780352736
 41
0.7859587116
 42
2.3555370632
  0
ENDSEC
  0
SECTION
  2
OBJECTS
  0
DICTIONARY
  5
C
100
AcDbDictionary
280
0
281
1
  3
ACAD_GROUP
350
D
  3
ACAD_MLINESTYLE
350
17
  3
ACAD_LAYOUT
350
1A
  3
ACAD_PLOTSETTINGS
350
19
  3
ACAD_PLOTSTYLENAME
350
E
  0
DICTIONARY
  5
D
102
{ACAD_REACTORS
330
C
102
}
100
AcDbDictionary
280
0
281
1
  0
ACDBDICTIONARYWDFLT
  5
E
102
{ACAD_REACTORS
330
C
102
}
100
AcDbDictionary
281
1
  3
Normal
350
F
100
AcDbDictionaryWithDefault
340
F
  0
DICTIONARY
  5
17
102
{ACAD_REACTORS
330
C
102
}
100
AcDbDictionary
280
0
281
1
  3
Standard
350
18
  0
DICTIONARY
  5
19
102
{ACAD_REACTORS
330
C
102
}
100
AcDbDictionary
281
1
  0
DICTIONARY
  5
1A
102
{ACAD_REACTORS
330
C
102
}
100
AcDbDictionary
281
1
  3
Model
350
41D
  3
Layout1
350
41E
  0
ACDBPLACEHOLDER
  5
F
102
{ACAD_REACTORS
330
E
102
}
  0
MLINESTYLE
  5
18
102
{ACAD_REACTORS
330
17
102
}
100
AcDbMlineStyle
  2
STANDARD
 70
0
  3

 62
256
 51
90.0
 52
90.0
 71
2
 49
0.5
 62
256
  6
BYLAYER
 49
-0.5
 62
256
  6
BYLAYER
  0
LAYOUT
  5
41D
102
{ACAD_REACTORS
330
1A
102
}
100
AcDbPlotSettings
  1

  2
none_device
  4
ISO_A4_(297.00_x_210.00_MM)
  6

 40
0.0
 41
0.0
 42
0.0
 43
0.0
 44
297.0
 45
210.0
 46
0.0
 47
0.0
 48
0.0
 49
0.0
140
0.0
141
0.0
142
1.0
143
1.0
 70
1024
 72
1
 73
0
 74
0
  7

 75
0
147
1.0
148
0.0
149
0.0
100
AcDbLayout
  1
Model
 70
0
 71
0
 10
0.0
 20
0.0
 11
297.0
 21
210.0
 12
0.0
 22
0.0
 32
0.0
 14
0.0
 24
0.0
 34
0.0
 15
0.0
 25
0.0
 35
0.0
146
0.0
 13
0.0
 23
0.0
 33
0.0
 16
1.0
 26
0.0
 36
0.0
 17
0.0
 27
1.0
 37
0.0
 76
0
330
21C
345
0
346
0
  0
LAYOUT
  5
41E
102
{ACAD_REACTORS
330
1A
102
}
100
AcDbPlotSettings
  1

  2
none_device
  4
ISO_A4_(297.00_x_210.00_MM)
  6

 40
0.0
 41
0.0
 42
0.0
 43
0.0
 44
297.0
 45
210.0
 46
0.0
 47
0.0
 48
0.0
 49
0.0
140
0.0
141
0.0
142
1.0
143
1.0
 70
0
 72
1
 73
0
 74
0
  7

 75
0
147
1.0
148
0.0
149
0.0
100
AcDbLayout
  1
Layout1
 70
0
 71
1
 10
0.0
 20
0.0
 11
297.0
 21
210.0
 12
0.0
 22
0.0
 32
0.0
 14
0.0
 24
0.0
 34
0.0
 15
0.0
 25
0.0
 35
0.0
146
0.0
 13
0.0
 23
0.0
 33
0.0
 16
1.0
 26
0.0
 36
0.0
 17
0.0
 27
1.0
 37
0.0
 76
0
330
21D
345
0
346
0
  0
ENDSEC
  0
EOF
