  0
SECTION
  2
HEADER
  9
$ACADVER
  1
AC1024
  9
$DWGCODEPAGE
  3
ANSI_1252
  9
$EXTMAX
 10
297.0
 20
210.0
 30
0.0
  9
$EXTMIN
 10
0.0
 20
0.0
 30
0.0
  9
$LIMMIN
 10
0.0
 20
0.0
  9
$LIMMAX
 10
297.0
 20
210.0
  9
$VIEWCTR
 10
148.5
 20
105.0
  9
$VIEWSIZE
 40
210.0
  9
$CLAYER
  8
0
  9
$LTSCALE
 40
16.335
  9
$CELTYPE
  6
BYLAYER
  9
$DIMSCALE
 40
1.0
  9
$DIMASZ
 40
3.0
  9
$DIMEXO
 40
0.5
  9
$DIMDLI
 40
11.286
  9
$DIMEXE
 40
1.5
  9
$DIMCEN
 40
2.673
  9
$DIMLFAC
 40
1.0
  9
$DIMBLK
  1
_FILLED
  9
$DIMALT
 70
0
  9
$DIMALTF
 40
0.0393700787
  9
$DIMTXT
 40
3.0
  9
$DIMTOL
 70
1
  9
$DIMLIM
 70
0
  9
$DIMTFAC
 40
1.0
  9
$DIMTP
 40
0.01
  9
$DIMTM
 40
0.01
  9
$DIMGAP
 40
0.625
  9
$DIMDSEP
 70
44
  9
$AUNITS
 70
0
  9
$PDMODE
 70
3
  9
$PDSIZE
 40
3.0
  9
$HANDSEED
  5
431
  9
$TILEMODE
 70
1
  9
$MEASUREMENT
 70
1
  9
$INSUNITS
 70
4
  0
ENDSEC
  0
SECTION
  2
CLASSES
  0
CLASS
  1
ACDBDICTIONARYWDFLT
  2
AcDbDictionaryWithDefault
  3
AutoCAD 2000
 90
0
 91
1
280
0
281
0
  0
CLASS
  1
ACDBPLACEHOLDER
  2
AcDbPlaceHolder
  3
AutoCAD 2000
 90
0
 91
1
280
0
281
0
  0
CLASS
  1
LAYOUT
  2
AcDbLayout
  3
AutoCAD 2000
 90
0
 91
0
280
0
281
0
  0
ENDSEC
  0
SECTION
  2
TABLES
  0
TABLE
  2
VPORT
  5
8
100
AcDbSymbolTable
 70
2
  0
VPORT
  5
1F4
100
AcDbSymbolTableRecord
100
AcDbViewportTableRecord
  2
*ACTIVE
 70
0
 10
0.0
 20
0.0
 11
1.0
 21
1.0
 12
148.5
 22
105.0
 13
0.0
 23
0.0
 14
1.0
 24
1.0
 15
0.0
 25
0.0
 16
0.0
 26
0.0
 36
1.0
 17
0.0
 27
0.0
 37
0.0
 40
210.0
 41
1.4142857143
 42
50.0
 43
0.0
 44
0.0
 50
0.0
 51
0.0
 71
0
 72
100
 73
1
 74
1
 75
0
 76
0
 77
0
 78
0
  0
ENDTAB
  0
TABLE
  2
LTYPE
  5
5
100
AcDbSymbolTable
 70
6
  0
LTYPE
  5
14
100
AcDbSymbolTableRecord
100
AcDbLinetypeTableRecord
  2
BYBLOCK
 70
0
  3

 72
65
 73
0
 40
0.0
  0
LTYPE
  5
15
100
AcDbSymbolTableRecord
100
AcDbLinetypeTableRecord
  2
BYLAYER
 70
0
  3

 72
65
 73
0
 40
0.0
  0
LTYPE
  5
16
100
AcDbSymbolTableRecord
100
AcDbLinetypeTableRecord
  2
CONTINUOUS
 70
64
  3
Solid line
 72
65
 73
0
 40
0.0
  0
LTYPE
  5
1F5
100
AcDbSymbolTableRecord
100
AcDbLinetypeTableRecord
  2
CENTER
 70
64
  3
____ _ ____ _ ____ _ ____ _ ____ _ ____ _ ____
 72
65
 73
4
 40
0.6
 49
0.375
 74
0
 49
-0.075
 74
0
 49
0.075
 74
0
 49
-0.075
 74
0
  0
LTYPE
  5
1F6
100
AcDbSymbolTableRecord
100
AcDbLinetypeTableRecord
  2
HIDDEN
 70
64
  3
- - - - - - - - - - - - - - - - - - - -
 72
65
 73
2
 40
0.2
 49
0.1
 74
0
 49
-0.1
 74
0
  0
LTYPE
  5
1F7
100
AcDbSymbolTableRecord
100
AcDbLinetypeTableRecord
  2
PHANTOM
 70
64
  3
_____ _ _ _____ _ _ _____ _ _ _____
 72
65
 73
6
 40
0.8
 49
0.45
 74
0
 49
-0.05
 74
0
 49
0.1
 74
0
 49
-0.05
 74
0
 49
0.1
 74
0
 49
-0.05
 74
0
  0
LTYPE
  5
1F8
100
AcDbSymbolTableRecord
100
AcDbLinetypeTableRecord
  2
DOT
 70
64
  3
. . . . . . . . . . . . . . . . . . . .
 72
65
 73
2
 40
0.2
 49
0.1
 74
0
 49
-0.1
 74
0
  0
LTYPE
  5
1F9
100
AcDbSymbolTableRecord
100
AcDbLinetypeTableRecord
  2
DASHED
 70
64
  3
- - - - - - - - - - - - - - - - - - - -
 72
65
 73
2
 40
0.2
 49
0.1
 74
0
 49
-0.1
 74
0
  0
ENDTAB
  0
TABLE
  2
LAYER
  5
2
100
AcDbSymbolTable
 70
36
  0
LAYER
  5
10
100
AcDbSymbolTableRecord
100
AcDbLayerTableRecord
  2
0
 70
0
 62
7
  6
CONTINUOUS
370
-3
390
F
  0
LAYER
  5
1FA
100
AcDbSymbolTableRecord
100
AcDbLayerTableRecord
  2
DEFAULT_1
 70
0
 62
7
  6
CENTER
370
-3
390
F
  0
LAYER
  5
1FB
100
AcDbSymbolTableRecord
100
AcDbLayerTableRecord
  2
DEFAULT_2
 70
0
 62
7
  6
HIDDEN
370
-3
390
F
  0
LAYER
  5
1FC
100
AcDbSymbolTableRecord
100
AcDbLayerTableRecord
  2
DEFAULT_3
 70
0
 62
7
  6
PHANTOM
370
-3
390
F
  0
LAYER
  5
1FD
100
AcDbSymbolTableRecord
100
AcDbLayerTableRecord
  2
ASSI
 70
0
 62
7
  6
CONTINUOUS
370
-3
390
F
  0
LAYER
  5
1FE
100
AcDbSymbolTableRecord
100
AcDbLayerTableRecord
  2
COORDINATE
 70
0
 62
7
  6
CONTINUOUS
370
-3
390
F
  0
LAYER
  5
1FF
100
AcDbSymbolTableRecord
100
AcDbLayerTableRecord
  2
COORD_ORIGINE
 70
0
 62
7
  6
CONTINUOUS
370
-3
390
F
  0
LAYER
  5
200
100
AcDbSymbolTableRecord
100
AcDbLayerTableRecord
  2
COPY_PUBLISH
 70
0
 62
7
  6
CONTINUOUS
370
-3
390
F
  0
LAYER
  5
201
100
AcDbSymbolTableRecord
100
AcDbLayerTableRecord
  2
COSMETIC
 70
0
 62
7
  6
CONTINUOUS
370
-3
390
F
  0
LAYER
  5
202
100
AcDbSymbolTableRecord
100
AcDbLayerTableRecord
  2
COSMETICI
 70
0
 62
7
  6
CONTINUOUS
370
-3
390
F
  0
LAYER
  5
203
100
AcDbSymbolTableRecord
100
AcDbLayerTableRecord
  2
CURVE
 70
0
 62
7
  6
CONTINUOUS
370
-3
390
F
  0
LAYER
  5
204
100
AcDbSymbolTableRecord
100
AcDbLayerTableRecord
  2
CURVE_COSTRUZIONE
 70
0
 62
7
  6
CONTINUOUS
370
-3
390
F
  0
LAYER
  5
205
100
AcDbSymbolTableRecord
100
AcDbLayerTableRecord
  2
CURVE_TASSELLI
 70
0
 62
7
  6
CONTINUOUS
370
-3
390
F
  0
LAYER
  5
206
100
AcDbSymbolTableRecord
100
AcDbLayerTableRecord
  2
DRAFT
 70
0
 62
7
  6
CONTINUOUS
370
-3
390
F
  0
LAYER
  5
207
100
AcDbSymbolTableRecord
100
AcDbLayerTableRecord
  2
IMPORT_IGES
 70
0
 62
7
  6
CONTINUOUS
370
-3
390
F
  0
LAYER
  5
208
100
AcDbSymbolTableRecord
100
AcDbLayerTableRecord
  2
INTFCLR_2
 70
0
 62
7
  6
CONTINUOUS
370
-3
390
F
  0
LAYER
  5
209
100
AcDbSymbolTableRecord
100
AcDbLayerTableRecord
  2
INTF_1
 70
0
 62
7
  6
CONTINUOUS
370
-3
390
F
  0
LAYER
  5
20A
100
AcDbSymbolTableRecord
100
AcDbLayerTableRecord
  2
INTF_21
 70
0
 62
7
  6
CONTINUOUS
370
-3
390
F
  0
LAYER
  5
20B
100
AcDbSymbolTableRecord
100
AcDbLayerTableRecord
  2
INTF_7
 70
0
 62
7
  6
CONTINUOUS
370
-3
390
F
  0
LAYER
  5
20C
100
AcDbSymbolTableRecord
100
AcDbLayerTableRecord
  2
INTF_CYAN
 70
0
 62
7
  6
CONTINUOUS
370
-3
390
F
  0
LAYER
  5
20D
100
AcDbSymbolTableRecord
100
AcDbLayerTableRecord
  2
NOTE
 70
0
 62
7
  6
CONTINUOUS
370
-3
390
F
  0
LAYER
  5
20E
100
AcDbSymbolTableRecord
100
AcDbLayerTableRecord
  2
PIANI
 70
0
 62
7
  6
CONTINUOUS
370
-3
390
F
  0
LAYER
  5
20F
100
AcDbSymbolTableRecord
100
AcDbLayerTableRecord
  2
PIANI_ORIGINE
 70
0
 62
7
  6
CONTINUOUS
370
-3
390
F
  0
LAYER
  5
210
100
AcDbSymbolTableRecord
100
AcDbLayerTableRecord
  2
PIANI_RIFERIMENTO
 70
0
 62
7
  6
CONTINUOUS
370
-3
390
F
  0
LAYER
  5
211
100
AcDbSymbolTableRecord
100
AcDbLayerTableRecord
  2
PUNTI
 70
0
 62
7
  6
CONTINUOUS
370
-3
390
F
  0
LAYER
  5
212
100
AcDbSymbolTableRecord
100
AcDbLayerTableRecord
  2
RACCORDO
 70
0
 62
7
  6
CONTINUOUS
370
-3
390
F
  0
LAYER
  5
213
100
AcDbSymbolTableRecord
100
AcDbLayerTableRecord
  2
RGB__255__255__255__
 70
0
 62
7
  6
CONTINUOUS
370
-3
390
F
  0
LAYER
  5
214
100
AcDbSymbolTableRecord
100
AcDbLayerTableRecord
  2
RGB____0____0____0__
 70
0
 62
7
  6
CONTINUOUS
370
-3
390
F
  0
LAYER
  5
215
100
AcDbSymbolTableRecord
100
AcDbLayerTableRecord
  2
SIMBOLI
 70
0
 62
7
  6
CONTINUOUS
370
-3
390
F
  0
LAYER
  5
216
100
AcDbSymbolTableRecord
100
AcDbLayerTableRecord
  2
SMUSSO
 70
0
 62
7
  6
CONTINUOUS
370
-3
390
F
  0
LAYER
  5
217
100
AcDbSymbolTableRecord
100
AcDbLayerTableRecord
  2
SNAPLINE
 70
0
 62
7
  6
CONTINUOUS
370
-3
390
F
  0
LAYER
  5
218
100
AcDbSymbolTableRecord
100
AcDbLayerTableRecord
  2
SUPERFICI
 70
0
 62
7
  6
CONTINUOUS
370
-3
390
F
  0
LAYER
  5
219
100
AcDbSymbolTableRecord
100
AcDbLayerTableRecord
  2
TRASH
 70
0
 62
7
  6
CONTINUOUS
370
-3
390
F
  0
LAYER
  5
21A
100
AcDbSymbolTableRecord
100
AcDbLayerTableRecord
  2
XSEC_DATUMS
 70
0
 62
7
  6
CONTINUOUS
370
-3
390
F
  0
ENDTAB
  0
TABLE
  2
STYLE
  5
3
100
AcDbSymbolTable
 70
1
  0
STYLE
  5
11
100
AcDbSymbolTableRecord
100
AcDbTextStyleTableRecord
  2
STANDARD
 70
0
 40
0.0
 41
0.8
 50
0.0
 71
0
 42
0.2
  3
txt
  4

  0
STYLE
  5
21B
100
AcDbSymbolTableRecord
100
AcDbTextStyleTableRecord
  2
TEXTSTYLE_1
 70
0
 40
0.0
 41
0.8
 50
0.0
 71
0
 42
0.2
  3
gdt
  4

  0
ENDTAB
  0
TABLE
  2
VIEW
  5
6
100
AcDbSymbolTable
 70
0
  0
ENDTAB
  0
TABLE
  2
UCS
  5
7
100
AcDbSymbolTable
 70
0
  0
ENDTAB
  0
TABLE
  2
APPID
  5
9
100
AcDbSymbolTable
 70
1
  0
APPID
  5
21C
100
AcDbSymbolTableRecord
100
AcDbRegAppTableRecord
  2
ACAD
 70
0
  0
ENDTAB
  0
TABLE
  2
BLOCK_RECORD
  5
1
100
AcDbSymbolTable
 70
0
  0
BLOCK_RECORD
  5
21D
100
AcDbSymbolTableRecord
100
AcDbBlockTableRecord
  2
*Model_Space
  0
BLOCK_RECORD
  5
21E
100
AcDbSymbolTableRecord
100
AcDbBlockTableRecord
  2
*Paper_Space
  0
BLOCK_RECORD
  5
21F
100
AcDbSymbolTableRecord
100
AcDbBlockTableRecord
  2
_FILLED
  0
ENDTAB
  0
TABLE
  2
DIMSTYLE
  5
A
100
AcDbSymbolTable
 70
1
100
AcDbDimStyleTable
 71
0
  0
DIMSTYLE
105
220
100
AcDbSymbolTableRecord
100
AcDbDimStyleTableRecord
  2
STANDARD
 70
0
  3

  4

 40
1.0
 41
3.0
 42
0.5
 43
0.38
 44
1.5
 45
0.0
 46
0.0
 47
0.01
 48
0.01
140
3.0
141
0.09
142
0.0
143
25.4
144
1.0
145
0.0
146
1.0
147
0.625
 71
1
 72
0
 73
0
 74
0
 75
0
 76
0
 77
1
 78
8
 79
2
170
0
171
1
172
0
173
0
174
0
175
0
176
0
177
0
178
0
270
2
179
2
271
2
272
2
273
2
274
2
275
0
280
0
281
0
282
0
283
1
284
8
285
0
286
0
287
3
288
0
340
11
278
44
341
21F
342
21F
343
21F
344
21F
  0
ENDTAB
  0
ENDSEC
  0
SECTION
  2
BLOCKS
  0
BLOCK
  5
20
100
AcDbEntity
  8
0
100
AcDbBlockBegin
  2
*Model_Space
 70
0
 10
0.0
 20
0.0
 30
0.0
  3
*Model_Space
  1

  0
ENDBLK
  5
21
100
AcDbEntity
  8
0
100
AcDbBlockEnd
  0
BLOCK
  5
1C
100
AcDbEntity
  8
0
100
AcDbBlockBegin
  2
*Paper_Space
 70
0
 10
0.0
 20
0.0
 30
0.0
  3
*Paper_Space
  1

  0
ENDBLK
  5
1D
100
AcDbEntity
  8
0
100
AcDbBlockEnd
  0
BLOCK
  5
221
100
AcDbEntity
  8
0
100
AcDbBlockBegin
  2
_FILLED
 70
64
 10
0.0
 20
0.0
  3
_FILLED
  1

  0
SOLID
  5
222
100
AcDbEntity
  8
0
  6
BYBLOCK
 62
0
100
AcDbTrace
 10
0.0
 20
0.0
 11
-1.0
 21
0.3166666667
 12
-1.0
 22
-0.3166666667
 13
-1.0
 23
-0.3166666667
  0
ENDBLK
  5
223
100
AcDbEntity
  8
0
  6
BYBLOCK
 62
0
100
AcDbBlockEnd
  0
ENDSEC
  0
SECTION
  2
ENTITIES
  0
LINE
  5
224
100
AcDbEntity
  8
SMUSSO
100
AcDbLine
 62
250
  6
CONTINUOUS
 10
-58.1241774135
 20
67.0215405279
 11
-57.4170706323
 21
68.246285398
  0
LINE
  5
225
100
AcDbEntity
  8
RACCORDO
100
AcDbLine
 62
7
  6
CONTINUOUS
 10
-57.9170947925
 20
68.2958265757
 11
-56.8564346207
 21
68.9082384657
  0
LINE
  5
226
100
AcDbEntity
  8
SMUSSO
100
AcDbLine
 62
250
  6
CONTINUOUS
 10
-57.4170706323
 20
68.246285398
 11
-56.3564104606
 21
68.858697288
  0
LINE
  5
227
100
AcDbEntity
  8
0
100
AcDbLine
 62
250
  6
CONTINUOUS
 10
-53.3512066405
 20
69.4507506852
 11
-55.401816306
 21
68.3080838355
  0
LINE
  5
228
100
AcDbEntity
  8
ASSI
100
AcDbLine
 62
250
  6
CONTINUOUS
 10
-53.3512066405
 20
69.4507506852
 11
-55.401816306
 21
68.3080838355
  0
LINE
  5
229
100
AcDbEntity
  8
0
100
AcDbLine
 62
7
  6
CONTINUOUS
 10
-53.829478794
 20
69.5123255672
 11
-55.7046586996
 21
68.4824234445
  0
LINE
  5
22A
100
AcDbEntity
  8
ASSI
100
AcDbLine
 62
7
  6
CONTINUOUS
 10
-53.829478794
 20
69.5123255672
 11
-55.7046586996
 21
68.4824234445
  0
LINE
  5
22B
100
AcDbEntity
  8
0
100
AcDbLine
 62
250
  6
CONTINUOUS
 10
55.9393692428
 20
-61.7346063006
 11
56.847928349
 21
-61.4960900286
  0
LINE
  5
22C
100
AcDbEntity
  8
0
100
AcDbLine
 62
250
  6
CONTINUOUS
 10
57.2593142033
 20
-61.1204472522
 11
55.9393692428
 21
-61.4110383135
  0
LINE
  5
22D
100
AcDbEntity
  8
0
100
AcDbLine
 62
250
  6
CONTINUOUS
 10
56.7919046493
 20
-58.1832000139
 11
56.3020562963
 21
-58.3148612132
  0
LINE
  5
22E
100
AcDbEntity
  8
0
100
AcDbLine
 62
250
  6
CONTINUOUS
 10
57.2593142033
 20
-58.0593132128
 11
56.995806127
 21
-58.127519752
  0
LINE
  5
22F
100
AcDbEntity
  8
0
100
AcDbLine
 62
250
  6
CONTINUOUS
 10
55.9393692428
 20
-58.6822427849
 11
57.2593142033
 21
-58.3795900083
  0
LINE
  5
230
100
AcDbEntity
  8
0
100
AcDbLine
 62
250
  6
CONTINUOUS
 10
55.9393692428
 20
-59.6850413765
 11
56.6722065066
 21
-59.5706655966
  0
LINE
  5
231
100
AcDbEntity
  8
0
100
AcDbLine
 62
250
  6
CONTINUOUS
 10
57.2593142033
 20
-59.1986950347
 11
56.4010080855
 21
-59.3268920249
  0
LINE
  5
232
100
AcDbEntity
  8
SMUSSO
100
AcDbLine
 62
250
  6
CONTINUOUS
 10
53.1037192671
 20
-69.0494373604
 11
54.5179328295
 21
-69.0494373604
  0
LINE
  5
233
100
AcDbEntity
  8
SMUSSO
100
AcDbLine
 62
7
  6
CONTINUOUS
 10
-58.1241774135
 20
-4.8278438299
 11
-58.1241774135
 21
67.8380897145
  0
LINE
  5
234
100
AcDbEntity
  8
RACCORDO
100
AcDbLine
 62
250
  6
CONTINUOUS
 10
-42.3556961931
 20
39.5872593827
 11
-41.5072090597
 21
40.0771652194
  0
LINE
  5
235
100
AcDbEntity
  8
RACCORDO
100
AcDbLine
 62
7
  6
CONTINUOUS
 10
-42.3556961931
 20
39.5872593827
 11
-42.3556961931
 21
4.3973904529
  0
LWPOLYLINE
  5
236
100
AcDbEntity
  8
0
100
AcDbPolyline
 62
7
  6
CONTINUOUS
 90
10
 70
0
 10
-39.5582499775
 20
10.2996950493
 10
-39.6106814992
 20
11.3465748311
 10
-39.6616164375
 20
12.4603179282
 10
-39.707721915
 20
13.5772363794
 10
-39.7489969375
 20
14.6972948549
 10
-39.7854408887
 20
15.8204650013
 10
-39.8170532871
 20
16.9467261912
 10
-39.843833289
 20
18.0760502236
 10
-39.8657798529
 20
19.2084012147
 10
-39.8821115694
 20
20.2838888526
  0
LWPOLYLINE
  5
237
100
AcDbEntity
  8
ASSI
100
AcDbPolyline
 62
7
  6
CONTINUOUS
 90
10
 70
0
 10
-39.5582499775
 20
10.2996950493
 10
-39.6106814992
 20
11.3465748311
 10
-39.6616164375
 20
12.4603179282
 10
-39.707721915
 20
13.5772363794
 10
-39.7489969375
 20
14.6972948549
 10
-39.7854408887
 20
15.8204650013
 10
-39.8170532871
 20
16.9467261912
 10
-39.843833289
 20
18.0760502236
 10
-39.8657798529
 20
19.2084012147
 10
-39.8821115694
 20
20.2838888526
  0
LINE
  5
238
100
AcDbEntity
  8
RACCORDO
100
AcDbLine
 62
7
  6
CONTINUOUS
 10
-40.2343758495
 20
39.3421999348
 11
-40.2343758495
 21
5.6222142329
  0
LINE
  5
239
100
AcDbEntity
  8
0
100
AcDbLine
 62
250
  6
CONTINUOUS
 10
-40.0588986
 20
20.480522169
 11
-40.0588986
 21
26.82120293
  0
LINE
  5
23A
100
AcDbEntity
  8
ASSI
100
AcDbLine
 62
250
  6
CONTINUOUS
 10
-40.0588986
 20
20.480522169
 11
-40.0588986
 21
26.82120293
  0
LINE
  5
23B
100
AcDbEntity
  8
0
100
AcDbLine
 62
7
  6
CONTINUOUS
 10
-39.9747005401
 20
20.6008482801
 11
-39.9747005401
 21
26.9415290411
  0
LINE
  5
23C
100
AcDbEntity
  8
ASSI
100
AcDbLine
 62
7
  6
CONTINUOUS
 10
-39.9747005401
 20
20.6008482801
 11
-39.9747005401
 21
26.9415290411
  0
LINE
  5
23D
100
AcDbEntity
  8
0
100
AcDbLine
 62
250
  6
CONTINUOUS
 10
-39.6420400882
 20
4.3465240587
 11
-39.6420400882
 21
10.1637292342
  0
LINE
  5
23E
100
AcDbEntity
  8
ASSI
100
AcDbLine
 62
250
  6
CONTINUOUS
 10
-39.6420400882
 20
4.3465240587
 11
-39.6420400882
 21
10.1637292342
  0
LINE
  5
23F
100
AcDbEntity
  8
0
100
AcDbLine
 62
250
  6
CONTINUOUS
 10
-39.6420400882
 20
37.636470615
 11
-39.6420400882
 21
39.00019269
  0
LINE
  5
240
100
AcDbEntity
  8
ASSI
100
AcDbLine
 62
250
  6
CONTINUOUS
 10
-39.6420400882
 20
37.636470615
 11
-39.6420400882
 21
39.00019269
  0
LINE
  5
241
100
AcDbEntity
  8
0
100
AcDbLine
 62
7
  6
CONTINUOUS
 10
-39.5578420283
 20
4.2725971183
 11
-39.5578420283
 21
10.2840553452
  0
LINE
  5
242
100
AcDbEntity
  8
ASSI
100
AcDbLine
 62
7
  6
CONTINUOUS
 10
-39.5578420283
 20
4.2725971183
 11
-39.5578420283
 21
10.2840553452
  0
LINE
  5
243
100
AcDbEntity
  8
0
100
AcDbLine
 62
7
  6
CONTINUOUS
 10
-39.5578420283
 20
37.7567967264
 11
-39.5578420283
 21
38.9515777854
  0
LINE
  5
244
100
AcDbEntity
  8
ASSI
100
AcDbLine
 62
7
  6
CONTINUOUS
 10
-39.5578420283
 20
37.7567967264
 11
-39.5578420283
 21
38.9515777854
  0
LWPOLYLINE
  5
245
100
AcDbEntity
  8
0
100
AcDbPolyline
 62
7
  6
CONTINUOUS
 90
25
 70
0
 10
-39.9746989457
 20
26.9415289327
 10
-39.9746250279
 20
26.9527217839
 10
-39.9744220744
 20
26.9631848445
 10
-39.9740917864
 20
26.9735742141
 10
-39.9736337295
 20
26.9839332549
 10
-39.9730493835
 20
26.9942645957
 10
-39.972340985
 20
27.0045549189
 10
-39.9715073605
 20
27.0148268867
 10
-39.9705488455
 20
27.0250662998
 10
-39.9694632275
 20
27.0352774709
 10
-39.968241969
 20
27.0455123087
 10
-39.9668817355
 20
27.0557859356
 10
-39.9653841762
 20
27.0660715479
 10
-39.9637477892
 20
27.0763588548
 10
-39.9619716939
 20
27.08662518
 10
-39.9600482439
 20
27.0968780634
 10
-39.9579673418
 20
27.1071513114
 10
-39.9557300503
 20
27.1174316298
 10
-39.9533343305
 20
27.1277065121
 10
-39.9507629016
 20
27.1380069661
 10
-39.9480052511
 20
27.1483138981
 10
-39.9450614247
 20
27.1586052743
 10
-39.9419238308
 20
27.1688989798
 10
-39.9385934728
 20
27.1791513652
 10
-39.9374952867
 20
27.1823887548
  0
LWPOLYLINE
  5
246
100
AcDbEntity
  8
ASSI
100
AcDbPolyline
 62
7
  6
CONTINUOUS
 90
25
 70
0
 10
-39.9746989457
 20
26.9415289327
 10
-39.9746250279
 20
26.9527217839
 10
-39.9744220744
 20
26.9631848445
 10
-39.9740917864
 20
26.9735742141
 10
-39.9736337295
 20
26.9839332549
 10
-39.9730493835
 20
26.9942645957
 10
-39.972340985
 20
27.0045549189
 10
-39.9715073605
 20
27.0148268867
 10
-39.9705488455
 20
27.0250662998
 10
-39.9694632275
 20
27.0352774709
 10
-39.968241969
 20
27.0455123087
 10
-39.9668817355
 20
27.0557859356
 10
-39.9653841762
 20
27.0660715479
 10
-39.9637477892
 20
27.0763588548
 10
-39.9619716939
 20
27.08662518
 10
-39.9600482439
 20
27.0968780634
 10
-39.9579673418
 20
27.1071513114
 10
-39.9557300503
 20
27.1174316298
 10
-39.9533343305
 20
27.1277065121
 10
-39.9507629016
 20
27.1380069661
 10
-39.9480052511
 20
27.1483138981
 10
-39.9450614247
 20
27.1586052743
 10
-39.9419238308
 20
27.1688989798
 10
-39.9385934728
 20
27.1791513652
 10
-39.9374952867
 20
27.1823887548
  0
LWPOLYLINE
  5
247
100
AcDbEntity
  8
0
100
AcDbPolyline
 62
7
  6
CONTINUOUS
 90
10
 70
0
 10
-39.8821106899
 20
27.3693049351
 10
-39.8658707795
 20
28.4588952078
 10
-39.8439456538
 20
29.617570554
 10
-39.817186309
 20
30.7790155473
 10
-39.785593487
 20
31.9431951925
 10
-39.7491677914
 20
33.1100800532
 10
-39.7079095719
 20
34.2796463184
 10
-39.6618193337
 20
35.4518650002
 10
-39.6108982361
 20
36.6267041082
 10
-39.5582035318
 20
37.742073695
  0
LWPOLYLINE
  5
248
100
AcDbEntity
  8
ASSI
100
AcDbPolyline
 62
7
  6
CONTINUOUS
 90
10
 70
0
 10
-39.8821106899
 20
27.3693049351
 10
-39.8658707795
 20
28.4588952078
 10
-39.8439456538
 20
29.617570554
 10
-39.817186309
 20
30.7790155473
 10
-39.785593487
 20
31.9431951925
 10
-39.7491677914
 20
33.1100800532
 10
-39.7079095719
 20
34.2796463184
 10
-39.6618193337
 20
35.4518650002
 10
-39.6108982361
 20
36.6267041082
 10
-39.5582035318
 20
37.742073695
  0
LINE
  5
249
100
AcDbEntity
  8
SMUSSO
100
AcDbLine
 62
7
  6
CONTINUOUS
 10
53.1037192671
 20
-69.0494373604
 11
53.8108260483
 21
-69.4576330438
  0
LINE
  5
24A
100
AcDbEntity
  8
SMUSSO
100
AcDbLine
 62
7
  6
CONTINUOUS
 10
-58.1241774135
 20
-4.8278438299
 11
53.1037192671
 21
-69.0494373604
  0
LINE
  5
24B
100
AcDbEntity
  8
0
100
AcDbLine
 62
250
  6
CONTINUOUS
 10
-24.949849381
 20
-0.3206320667
 11
-24.949849381
 21
-0.7280017046
  0
LINE
  5
24C
100
AcDbEntity
  8
ASSI
100
AcDbLine
 62
250
  6
CONTINUOUS
 10
-24.949849381
 20
-0.3206320667
 11
-24.949849381
 21
-0.7280017046
  0
LINE
  5
24D
100
AcDbEntity
  8
0
100
AcDbLine
 62
7
  6
CONTINUOUS
 10
-24.898478346
 20
-0.2540545599
 11
-24.898478346
 21
-0.6974564098
  0
LINE
  5
24E
100
AcDbEntity
  8
ASSI
100
AcDbLine
 62
7
  6
CONTINUOUS
 10
-24.898478346
 20
-0.2540545599
 11
-24.898478346
 21
-0.6974564098
  0
LINE
  5
24F
100
AcDbEntity
  8
0
100
AcDbLine
 62
7
  6
CONTINUOUS
 10
-32.4562832607
 20
0.1514767223
 11
-32.3854905783
 21
0.2740932448
  0
LINE
  5
250
100
AcDbEntity
  8
ASSI
100
AcDbLine
 62
7
  6
CONTINUOUS
 10
-32.4562832607
 20
0.1514767223
 11
-32.3854905783
 21
0.2740932448
  0
LINE
  5
251
100
AcDbEntity
  8
0
100
AcDbLine
 62
7
  6
CONTINUOUS
 10
-32.1380032049
 20
0.2945188109
 11
-32.0319371878
 21
0.4782305415
  0
LINE
  5
252
100
AcDbEntity
  8
ASSI
100
AcDbLine
 62
7
  6
CONTINUOUS
 10
-32.1380032049
 20
0.2945188109
 11
-32.0319371878
 21
0.4782305415
  0
LINE
  5
253
100
AcDbEntity
  8
0
100
AcDbLine
 62
7
  6
CONTINUOUS
 10
-31.7844498143
 20
0.4986561076
 11
-31.6783837972
 21
0.6823678381
  0
LINE
  5
254
100
AcDbEntity
  8
ASSI
100
AcDbLine
 62
7
  6
CONTINUOUS
 10
-31.7844498143
 20
0.4986561076
 11
-31.6783837972
 21
0.6823678381
  0
LINE
  5
255
100
AcDbEntity
  8
0
100
AcDbLine
 62
7
  6
CONTINUOUS
 10
-31.4308964237
 20
0.7027934043
 11
-31.3248304066
 21
0.8865051348
  0
LINE
  5
256
100
AcDbEntity
  8
ASSI
100
AcDbLine
 62
7
  6
CONTINUOUS
 10
-31.4308964237
 20
0.7027934043
 11
-31.3248304066
 21
0.8865051348
  0
LINE
  5
257
100
AcDbEntity
  8
0
100
AcDbLine
 62
7
  6
CONTINUOUS
 10
-31.0773430331
 20
0.9069307009
 11
-30.971277016
 21
1.0906424315
  0
LINE
  5
258
100
AcDbEntity
  8
ASSI
100
AcDbLine
 62
7
  6
CONTINUOUS
 10
-31.0773430331
 20
0.9069307009
 11
-30.971277016
 21
1.0906424315
  0
LINE
  5
259
100
AcDbEntity
  8
0
100
AcDbLine
 62
7
  6
CONTINUOUS
 10
-30.7237896426
 20
1.1110679976
 11
-30.6177236254
 21
1.2947797281
  0
LINE
  5
25A
100
AcDbEntity
  8
ASSI
100
AcDbLine
 62
7
  6
CONTINUOUS
 10
-30.7237896426
 20
1.1110679976
 11
-30.6177236254
 21
1.2947797281
  0
LINE
  5
25B
100
AcDbEntity
  8
0
100
AcDbLine
 62
7
  6
CONTINUOUS
 10
-28.5671959642
 20
-2.094033541
 11
-28.4964032818
 21
-1.9714170185
  0
LINE
  5
25C
100
AcDbEntity
  8
ASSI
100
AcDbLine
 62
7
  6
CONTINUOUS
 10
-28.5671959642
 20
-2.094033541
 11
-28.4964032818
 21
-1.9714170185
  0
LINE
  5
25D
100
AcDbEntity
  8
0
100
AcDbLine
 62
7
  6
CONTINUOUS
 10
-28.2489159084
 20
-1.9509914524
 11
-28.1428498912
 21
-1.7672797218
  0
LINE
  5
25E
100
AcDbEntity
  8
ASSI
100
AcDbLine
 62
7
  6
CONTINUOUS
 10
-28.2489159084
 20
-1.9509914524
 11
-28.1428498912
 21
-1.7672797218
  0
LINE
  5
25F
100
AcDbEntity
  8
RACCORDO
100
AcDbLine
 62
250
  6
CONTINUOUS
 10
-42.3556961931
 20
4.3973904529
 11
-40.2343758495
 21
5.6222142329
  0
LWPOLYLINE
  5
260
100
AcDbEntity
  8
0
100
AcDbPolyline
 62
7
  6
CONTINUOUS
 90
19
 70
0
 10
-39.959819231
 20
20.473387377
 10
-39.9598369758
 20
20.4734290835
 10
-39.9602232789
 20
20.4744187062
 10
-39.9609889613
 20
20.4765960161
 10
-39.9620109012
 20
20.4798281074
 10
-39.9632212034
 20
20.4841081761
 10
-39.9645497794
 20
20.4894114739
 10
-39.9659014959
 20
20.4955235175
 10
-39.9672361339
 20
20.5023723206
 10
-39.9685299072
 20
20.5099581269
 10
-39.9697412807
 20
20.518165824
 10
-39.9708491643
 20
20.5269569307
 10
-39.9718416066
 20
20.5363170715
 10
-39.9727020738
 20
20.5461761149
 10
-39.9734197639
 20
20.5565039064
 10
-39.9739849719
 20
20.5672854629
 10
-39.974389273
 20
20.5784795355
 10
-39.9746285364
 20
20.5900694846
 10
-39.9746991283
 20
20.6008487169
  0
LWPOLYLINE
  5
261
100
AcDbEntity
  8
ASSI
100
AcDbPolyline
 62
7
  6
CONTINUOUS
 90
19
 70
0
 10
-39.959819231
 20
20.473387377
 10
-39.9598369758
 20
20.4734290835
 10
-39.9602232789
 20
20.4744187062
 10
-39.9609889613
 20
20.4765960161
 10
-39.9620109012
 20
20.4798281074
 10
-39.9632212034
 20
20.4841081761
 10
-39.9645497794
 20
20.4894114739
 10
-39.9659014959
 20
20.4955235175
 10
-39.9672361339
 20
20.5023723206
 10
-39.9685299072
 20
20.5099581269
 10
-39.9697412807
 20
20.518165824
 10
-39.9708491643
 20
20.5269569307
 10
-39.9718416066
 20
20.5363170715
 10
-39.9727020738
 20
20.5461761149
 10
-39.9734197639
 20
20.5565039064
 10
-39.9739849719
 20
20.5672854629
 10
-39.974389273
 20
20.5784795355
 10
-39.9746285364
 20
20.5900694846
 10
-39.9746991283
 20
20.6008487169
  0
LINE
  5
262
100
AcDbEntity
  8
0
100
AcDbLine
 62
7
  6
CONTINUOUS
 10
-27.8953625178
 20
-1.7468541557
 11
-27.7892965006
 21
-1.5631424252
  0
LINE
  5
263
100
AcDbEntity
  8
ASSI
100
AcDbLine
 62
7
  6
CONTINUOUS
 10
-27.8953625178
 20
-1.7468541557
 11
-27.7892965006
 21
-1.5631424252
  0
LINE
  5
264
100
AcDbEntity
  8
0
100
AcDbLine
 62
7
  6
CONTINUOUS
 10
-27.5418091272
 20
-1.542716859
 11
-27.43574311
 21
-1.3590051285
  0
LINE
  5
265
100
AcDbEntity
  8
ASSI
100
AcDbLine
 62
7
  6
CONTINUOUS
 10
-27.5418091272
 20
-1.542716859
 11
-27.43574311
 21
-1.3590051285
  0
LINE
  5
266
100
AcDbEntity
  8
0
100
AcDbLine
 62
7
  6
CONTINUOUS
 10
-27.1882557366
 20
-1.3385795624
 11
-27.0821897194
 21
-1.1548678318
  0
LINE
  5
267
100
AcDbEntity
  8
ASSI
100
AcDbLine
 62
7
  6
CONTINUOUS
 10
-27.1882557366
 20
-1.3385795624
 11
-27.0821897194
 21
-1.1548678318
  0
LINE
  5
268
100
AcDbEntity
  8
0
100
AcDbLine
 62
7
  6
CONTINUOUS
 10
-26.834702346
 20
-1.1344422657
 11
-26.7286363289
 21
-0.9507305352
  0
LINE
  5
269
100
AcDbEntity
  8
ASSI
100
AcDbLine
 62
7
  6
CONTINUOUS
 10
-26.834702346
 20
-1.1344422657
 11
-26.7286363289
 21
-0.9507305352
  0
LINE
  5
26A
100
AcDbEntity
  8
0
100
AcDbLine
 62
250
  6
CONTINUOUS
 10
-26.8943287939
 20
-1.9996393582
 11
-26.558383829
 21
-1.6728857684
  0
LINE
  5
26B
100
AcDbEntity
  8
ASSI
100
AcDbLine
 62
250
  6
CONTINUOUS
 10
-26.8943287939
 20
-1.9996393582
 11
-26.558383829
 21
-1.6728857684
  0
LINE
  5
26C
100
AcDbEntity
  8
RACCORDO
100
AcDbLine
 62
250
  6
CONTINUOUS
 10
-41.5071680557
 20
2.9276966087
 11
-39.3858477121
 21
4.1525203887
  0
LINE
  5
26D
100
AcDbEntity
  8
RACCORDO
100
AcDbLine
 62
7
  6
CONTINUOUS
 10
-41.5071680557
 20
2.9276966087
 11
36.4867099092
 21
-42.1049910353
  0
LINE
  5
26E
100
AcDbEntity
  8
0
100
AcDbLine
 62
7
  6
CONTINUOUS
 10
-26.890403929
 20
-2.0331745516
 11
-26.4614195557
 21
-1.6159270898
  0
LINE
  5
26F
100
AcDbEntity
  8
ASSI
100
AcDbLine
 62
7
  6
CONTINUOUS
 10
-26.890403929
 20
-2.0331745516
 11
-26.4614195557
 21
-1.6159270898
  0
LINE
  5
270
100
AcDbEntity
  8
0
100
AcDbLine
 62
7
  6
CONTINUOUS
 10
-26.1963700082
 20
-0.9721488246
 11
-28.2402610908
 21
-2.2828016394
  0
LINE
  5
271
100
AcDbEntity
  8
ASSI
100
AcDbLine
 62
7
  6
CONTINUOUS
 10
-26.1963700082
 20
-0.9721488246
 11
-28.2402610908
 21
-2.2828016394
  0
LINE
  5
272
100
AcDbEntity
  8
0
100
AcDbLine
 62
7
  6
CONTINUOUS
 10
-27.9156997937
 20
-2.4701992646
 11
-24.949849381
 21
-0.7280017046
  0
LINE
  5
273
100
AcDbEntity
  8
ASSI
100
AcDbLine
 62
7
  6
CONTINUOUS
 10
-27.9156997937
 20
-2.4701992646
 11
-24.949849381
 21
-0.7280017046
  0
LINE
  5
274
100
AcDbEntity
  8
0
100
AcDbLine
 62
7
  6
CONTINUOUS
 10
-26.9490182755
 20
-2.0776385632
 11
-27.7702751795
 21
-2.5541656142
  0
LINE
  5
275
100
AcDbEntity
  8
ASSI
100
AcDbLine
 62
7
  6
CONTINUOUS
 10
-26.9490182755
 20
-2.0776385632
 11
-27.7702751795
 21
-2.5541656142
  0
LINE
  5
276
100
AcDbEntity
  8
0
100
AcDbLine
 62
250
  6
CONTINUOUS
 10
-26.8943287939
 20
-1.9996393582
 11
-27.8105431193
 21
-2.5309154105
  0
LINE
  5
277
100
AcDbEntity
  8
ASSI
100
AcDbLine
 62
250
  6
CONTINUOUS
 10
-26.8943287939
 20
-1.9996393582
 11
-27.8105431193
 21
-2.5309154105
  0
LINE
  5
278
100
AcDbEntity
  8
0
100
AcDbLine
 62
7
  6
CONTINUOUS
 10
-32.3854905783
 20
0.2740932448
 11
-32.2440692221
 21
0.3557481635
  0
LINE
  5
279
100
AcDbEntity
  8
ASSI
100
AcDbLine
 62
7
  6
CONTINUOUS
 10
-32.3854905783
 20
0.2740932448
 11
-32.2440692221
 21
0.3557481635
  0
LINE
  5
27A
100
AcDbEntity
  8
0
100
AcDbLine
 62
7
  6
CONTINUOUS
 10
-32.0319371878
 20
0.4782305415
 11
-31.8905158315
 21
0.5598854601
  0
LINE
  5
27B
100
AcDbEntity
  8
ASSI
100
AcDbLine
 62
7
  6
CONTINUOUS
 10
-32.0319371878
 20
0.4782305415
 11
-31.8905158315
 21
0.5598854601
  0
LINE
  5
27C
100
AcDbEntity
  8
0
100
AcDbLine
 62
7
  6
CONTINUOUS
 10
-31.6783837972
 20
0.6823678381
 11
-31.5369624409
 21
0.7640227568
  0
LINE
  5
27D
100
AcDbEntity
  8
ASSI
100
AcDbLine
 62
7
  6
CONTINUOUS
 10
-31.6783837972
 20
0.6823678381
 11
-31.5369624409
 21
0.7640227568
  0
LINE
  5
27E
100
AcDbEntity
  8
0
100
AcDbLine
 62
7
  6
CONTINUOUS
 10
-31.3248304066
 20
0.8865051348
 11
-31.1834090503
 21
0.9681600535
  0
LINE
  5
27F
100
AcDbEntity
  8
ASSI
100
AcDbLine
 62
7
  6
CONTINUOUS
 10
-31.3248304066
 20
0.8865051348
 11
-31.1834090503
 21
0.9681600535
  0
LINE
  5
280
100
AcDbEntity
  8
0
100
AcDbLine
 62
7
  6
CONTINUOUS
 10
-30.971277016
 20
1.0906424315
 11
-30.8298556597
 21
1.1722973501
  0
LINE
  5
281
100
AcDbEntity
  8
ASSI
100
AcDbLine
 62
7
  6
CONTINUOUS
 10
-30.971277016
 20
1.0906424315
 11
-30.8298556597
 21
1.1722973501
  0
LINE
  5
282
100
AcDbEntity
  8
0
100
AcDbLine
 62
7
  6
CONTINUOUS
 10
-30.6177236254
 20
1.2947797281
 11
-30.4763022691
 21
1.3764346468
  0
LINE
  5
283
100
AcDbEntity
  8
ASSI
100
AcDbLine
 62
7
  6
CONTINUOUS
 10
-30.6177236254
 20
1.2947797281
 11
-30.4763022691
 21
1.3764346468
  0
LINE
  5
284
100
AcDbEntity
  8
0
100
AcDbLine
 62
7
  6
CONTINUOUS
 10
-28.4964032818
 20
-1.9714170185
 11
-28.3549819256
 21
-1.8897620998
  0
LINE
  5
285
100
AcDbEntity
  8
ASSI
100
AcDbLine
 62
7
  6
CONTINUOUS
 10
-28.4964032818
 20
-1.9714170185
 11
-28.3549819256
 21
-1.8897620998
  0
LINE
  5
286
100
AcDbEntity
  8
0
100
AcDbLine
 62
7
  6
CONTINUOUS
 10
-28.1428498912
 20
-1.7672797218
 11
-28.001428535
 21
-1.6856248032
  0
LINE
  5
287
100
AcDbEntity
  8
ASSI
100
AcDbLine
 62
7
  6
CONTINUOUS
 10
-28.1428498912
 20
-1.7672797218
 11
-28.001428535
 21
-1.6856248032
  0
LINE
  5
288
100
AcDbEntity
  8
0
100
AcDbLine
 62
7
  6
CONTINUOUS
 10
-27.7892965006
 20
-1.5631424252
 11
-27.6478751444
 21
-1.4814875065
  0
LINE
  5
289
100
AcDbEntity
  8
ASSI
100
AcDbLine
 62
7
  6
CONTINUOUS
 10
-27.7892965006
 20
-1.5631424252
 11
-27.6478751444
 21
-1.4814875065
  0
LINE
  5
28A
100
AcDbEntity
  8
0
100
AcDbLine
 62
7
  6
CONTINUOUS
 10
-27.43574311
 20
-1.3590051285
 11
-27.2943217538
 21
-1.2773502098
  0
LINE
  5
28B
100
AcDbEntity
  8
ASSI
100
AcDbLine
 62
7
  6
CONTINUOUS
 10
-27.43574311
 20
-1.3590051285
 11
-27.2943217538
 21
-1.2773502098
  0
LINE
  5
28C
100
AcDbEntity
  8
0
100
AcDbLine
 62
7
  6
CONTINUOUS
 10
-27.0821897194
 20
-1.1548678318
 11
-26.9407683632
 21
-1.0732129132
  0
LINE
  5
28D
100
AcDbEntity
  8
ASSI
100
AcDbLine
 62
7
  6
CONTINUOUS
 10
-27.0821897194
 20
-1.1548678318
 11
-26.9407683632
 21
-1.0732129132
  0
LINE
  5
28E
100
AcDbEntity
  8
0
100
AcDbLine
 62
7
  6
CONTINUOUS
 10
-26.7286363289
 20
-0.9507305352
 11
-26.5872149726
 21
-0.8690756165
  0
LINE
  5
28F
100
AcDbEntity
  8
ASSI
100
AcDbLine
 62
7
  6
CONTINUOUS
 10
-26.7286363289
 20
-0.9507305352
 11
-26.5872149726
 21
-0.8690756165
  0
LINE
  5
290
100
AcDbEntity
  8
0
100
AcDbLine
 62
7
  6
CONTINUOUS
 10
-26.4811489554
 20
-0.930304969
 11
-28.5319260381
 21
-2.1143979543
  0
LINE
  5
291
100
AcDbEntity
  8
ASSI
100
AcDbLine
 62
7
  6
CONTINUOUS
 10
-26.4811489554
 20
-0.930304969
 11
-28.5319260381
 21
-2.1143979543
  0
LINE
  5
292
100
AcDbEntity
  8
0
100
AcDbLine
 62
7
  6
CONTINUOUS
 10
-32.7126782818
 20
0.2995159941
 11
-30.4427072665
 21
1.4796330893
  0
LINE
  5
293
100
AcDbEntity
  8
ASSI
100
AcDbLine
 62
7
  6
CONTINUOUS
 10
-32.7126782818
 20
0.2995159941
 11
-30.4427072665
 21
1.4796330893
  0
LINE
  5
294
100
AcDbEntity
  8
0
100
AcDbLine
 62
7
  6
CONTINUOUS
 10
-30.3686601136
 20
1.5140768853
 11
-29.0583058579
 21
2.051539212
  0
LINE
  5
295
100
AcDbEntity
  8
ASSI
100
AcDbLine
 62
7
  6
CONTINUOUS
 10
-30.3686601136
 20
1.5140768853
 11
-29.0583058579
 21
2.051539212
  0
LINE
  5
296
100
AcDbEntity
  8
RACCORDO
100
AcDbLine
 62
7
  6
CONTINUOUS
 10
-39.3858477121
 20
4.1525203887
 11
37.3352380466
 21
-40.1452729873
  0
LINE
  5
297
100
AcDbEntity
  8
0
100
AcDbLine
 62
7
  6
CONTINUOUS
 10
35.143207025
 20
-38.716130418
 11
31.2541197284
 21
-36.4706201547
  0
LINE
  5
298
100
AcDbEntity
  8
ASSI
100
AcDbLine
 62
7
  6
CONTINUOUS
 10
35.143207025
 20
-38.716130418
 11
31.2541197284
 21
-36.4706201547
  0
LINE
  5
299
100
AcDbEntity
  8
0
100
AcDbLine
 62
7
  6
CONTINUOUS
 10
-28.4964032818
 20
-1.9714170185
 11
-32.3854905783
 21
0.2740932448
  0
LINE
  5
29A
100
AcDbEntity
  8
ASSI
100
AcDbLine
 62
7
  6
CONTINUOUS
 10
-28.4964032818
 20
-1.9714170185
 11
-32.3854905783
 21
0.2740932448
  0
LINE
  5
29B
100
AcDbEntity
  8
0
100
AcDbLine
 62
7
  6
CONTINUOUS
 10
35.3906943984
 20
-38.6957048519
 11
31.3955410847
 21
-36.388965236
  0
LINE
  5
29C
100
AcDbEntity
  8
ASSI
100
AcDbLine
 62
7
  6
CONTINUOUS
 10
35.3906943984
 20
-38.6957048519
 11
31.3955410847
 21
-36.388965236
  0
LINE
  5
29D
100
AcDbEntity
  8
0
100
AcDbLine
 62
7
  6
CONTINUOUS
 10
-32.2440692221
 20
0.3557481635
 11
-28.2489159084
 21
-1.9509914524
  0
LINE
  5
29E
100
AcDbEntity
  8
ASSI
100
AcDbLine
 62
7
  6
CONTINUOUS
 10
-32.2440692221
 20
0.3557481635
 11
-28.2489159084
 21
-1.9509914524
  0
LINE
  5
29F
100
AcDbEntity
  8
0
100
AcDbLine
 62
7
  6
CONTINUOUS
 10
35.4967604156
 20
-38.5119931213
 11
31.607673119
 21
-36.266482858
  0
LINE
  5
2A0
100
AcDbEntity
  8
ASSI
100
AcDbLine
 62
7
  6
CONTINUOUS
 10
35.4967604156
 20
-38.5119931213
 11
31.607673119
 21
-36.266482858
  0
LINE
  5
2A1
100
AcDbEntity
  8
0
100
AcDbLine
 62
7
  6
CONTINUOUS
 10
-28.1428498912
 20
-1.7672797218
 11
-32.0319371878
 21
0.4782305415
  0
LINE
  5
2A2
100
AcDbEntity
  8
ASSI
100
AcDbLine
 62
7
  6
CONTINUOUS
 10
-28.1428498912
 20
-1.7672797218
 11
-32.0319371878
 21
0.4782305415
  0
LINE
  5
2A3
100
AcDbEntity
  8
0
100
AcDbLine
 62
7
  6
CONTINUOUS
 10
35.744247789
 20
-38.4915675552
 11
31.7490944753
 21
-36.1848279394
  0
LINE
  5
2A4
100
AcDbEntity
  8
ASSI
100
AcDbLine
 62
7
  6
CONTINUOUS
 10
35.744247789
 20
-38.4915675552
 11
31.7490944753
 21
-36.1848279394
  0
LINE
  5
2A5
100
AcDbEntity
  8
0
100
AcDbLine
 62
7
  6
CONTINUOUS
 10
-31.8905158315
 20
0.5598854601
 11
-27.8953625178
 21
-1.7468541557
  0
LINE
  5
2A6
100
AcDbEntity
  8
ASSI
100
AcDbLine
 62
7
  6
CONTINUOUS
 10
-31.8905158315
 20
0.5598854601
 11
-27.8953625178
 21
-1.7468541557
  0
LINE
  5
2A7
100
AcDbEntity
  8
0
100
AcDbLine
 62
7
  6
CONTINUOUS
 10
35.8503138062
 20
-38.3078558247
 11
31.9612265096
 21
-36.0623455614
  0
LINE
  5
2A8
100
AcDbEntity
  8
ASSI
100
AcDbLine
 62
7
  6
CONTINUOUS
 10
35.8503138062
 20
-38.3078558247
 11
31.9612265096
 21
-36.0623455614
  0
LINE
  5
2A9
100
AcDbEntity
  8
0
100
AcDbLine
 62
7
  6
CONTINUOUS
 10
-27.7892965006
 20
-1.5631424252
 11
-31.6783837972
 21
0.6823678381
  0
LINE
  5
2AA
100
AcDbEntity
  8
ASSI
100
AcDbLine
 62
7
  6
CONTINUOUS
 10
-27.7892965006
 20
-1.5631424252
 11
-31.6783837972
 21
0.6823678381
  0
LINE
  5
2AB
100
AcDbEntity
  8
0
100
AcDbLine
 62
7
  6
CONTINUOUS
 10
36.0978011796
 20
-38.2874302585
 11
32.1026478659
 21
-35.9806906427
  0
LINE
  5
2AC
100
AcDbEntity
  8
ASSI
100
AcDbLine
 62
7
  6
CONTINUOUS
 10
36.0978011796
 20
-38.2874302585
 11
32.1026478659
 21
-35.9806906427
  0
LINE
  5
2AD
100
AcDbEntity
  8
0
100
AcDbLine
 62
7
  6
CONTINUOUS
 10
-31.5369624409
 20
0.7640227568
 11
-27.5418091272
 21
-1.542716859
  0
LINE
  5
2AE
100
AcDbEntity
  8
ASSI
100
AcDbLine
 62
7
  6
CONTINUOUS
 10
-31.5369624409
 20
0.7640227568
 11
-27.5418091272
 21
-1.542716859
  0
LINE
  5
2AF
100
AcDbEntity
  8
0
100
AcDbLine
 62
7
  6
CONTINUOUS
 10
36.2038671968
 20
-38.103718528
 11
32.3147799002
 21
-35.8582082647
  0
LINE
  5
2B0
100
AcDbEntity
  8
ASSI
100
AcDbLine
 62
7
  6
CONTINUOUS
 10
36.2038671968
 20
-38.103718528
 11
32.3147799002
 21
-35.8582082647
  0
LINE
  5
2B1
100
AcDbEntity
  8
0
100
AcDbLine
 62
7
  6
CONTINUOUS
 10
-27.43574311
 20
-1.3590051285
 11
-31.3248304066
 21
0.8865051348
  0
LINE
  5
2B2
100
AcDbEntity
  8
ASSI
100
AcDbLine
 62
7
  6
CONTINUOUS
 10
-27.43574311
 20
-1.3590051285
 11
-31.3248304066
 21
0.8865051348
  0
LINE
  5
2B3
100
AcDbEntity
  8
0
100
AcDbLine
 62
7
  6
CONTINUOUS
 10
36.4513545702
 20
-38.0832929619
 11
32.4562012565
 21
-35.776553346
  0
LINE
  5
2B4
100
AcDbEntity
  8
ASSI
100
AcDbLine
 62
7
  6
CONTINUOUS
 10
36.4513545702
 20
-38.0832929619
 11
32.4562012565
 21
-35.776553346
  0
LINE
  5
2B5
100
AcDbEntity
  8
0
100
AcDbLine
 62
7
  6
CONTINUOUS
 10
-31.1834090503
 20
0.9681600535
 11
-27.1882557366
 21
-1.3385795624
  0
LINE
  5
2B6
100
AcDbEntity
  8
ASSI
100
AcDbLine
 62
7
  6
CONTINUOUS
 10
-31.1834090503
 20
0.9681600535
 11
-27.1882557366
 21
-1.3385795624
  0
LINE
  5
2B7
100
AcDbEntity
  8
0
100
AcDbLine
 62
7
  6
CONTINUOUS
 10
36.5574205873
 20
-37.8995812313
 11
32.6683332908
 21
-35.654070968
  0
LINE
  5
2B8
100
AcDbEntity
  8
ASSI
100
AcDbLine
 62
7
  6
CONTINUOUS
 10
36.5574205873
 20
-37.8995812313
 11
32.6683332908
 21
-35.654070968
  0
LINE
  5
2B9
100
AcDbEntity
  8
0
100
AcDbLine
 62
7
  6
CONTINUOUS
 10
-27.0821897194
 20
-1.1548678318
 11
-30.971277016
 21
1.0906424315
  0
LINE
  5
2BA
100
AcDbEntity
  8
ASSI
100
AcDbLine
 62
7
  6
CONTINUOUS
 10
-27.0821897194
 20
-1.1548678318
 11
-30.971277016
 21
1.0906424315
  0
LINE
  5
2BB
100
AcDbEntity
  8
0
100
AcDbLine
 62
7
  6
CONTINUOUS
 10
36.8049079608
 20
-37.8791556652
 11
32.8097546471
 21
-35.5724160494
  0
LINE
  5
2BC
100
AcDbEntity
  8
ASSI
100
AcDbLine
 62
7
  6
CONTINUOUS
 10
36.8049079608
 20
-37.8791556652
 11
32.8097546471
 21
-35.5724160494
  0
LINE
  5
2BD
100
AcDbEntity
  8
0
100
AcDbLine
 62
7
  6
CONTINUOUS
 10
-30.8298556597
 20
1.1722973501
 11
-26.834702346
 21
-1.1344422657
  0
LINE
  5
2BE
100
AcDbEntity
  8
ASSI
100
AcDbLine
 62
7
  6
CONTINUOUS
 10
-30.8298556597
 20
1.1722973501
 11
-26.834702346
 21
-1.1344422657
  0
LINE
  5
2BF
100
AcDbEntity
  8
0
100
AcDbLine
 62
7
  6
CONTINUOUS
 10
36.9109739779
 20
-37.6954439347
 11
33.0218866814
 21
-35.4499336714
  0
LINE
  5
2C0
100
AcDbEntity
  8
ASSI
100
AcDbLine
 62
7
  6
CONTINUOUS
 10
36.9109739779
 20
-37.6954439347
 11
33.0218866814
 21
-35.4499336714
  0
LINE
  5
2C1
100
AcDbEntity
  8
0
100
AcDbLine
 62
7
  6
CONTINUOUS
 10
-26.7286363289
 20
-0.9507305352
 11
-30.6177236254
 21
1.2947797281
  0
LINE
  5
2C2
100
AcDbEntity
  8
ASSI
100
AcDbLine
 62
7
  6
CONTINUOUS
 10
-26.7286363289
 20
-0.9507305352
 11
-30.6177236254
 21
1.2947797281
  0
LINE
  5
2C3
100
AcDbEntity
  8
0
100
AcDbLine
 62
7
  6
CONTINUOUS
 10
37.1584613514
 20
-37.6750183685
 11
33.1633080376
 21
-35.3682787527
  0
LINE
  5
2C4
100
AcDbEntity
  8
ASSI
100
AcDbLine
 62
7
  6
CONTINUOUS
 10
37.1584613514
 20
-37.6750183685
 11
33.1633080376
 21
-35.3682787527
  0
LINE
  5
2C5
100
AcDbEntity
  8
0
100
AcDbLine
 62
7
  6
CONTINUOUS
 10
-30.4763022691
 20
1.3764346468
 11
-26.4811489554
 21
-0.930304969
  0
LINE
  5
2C6
100
AcDbEntity
  8
ASSI
100
AcDbLine
 62
7
  6
CONTINUOUS
 10
-30.4763022691
 20
1.3764346468
 11
-26.4811489554
 21
-0.930304969
  0
LINE
  5
2C7
100
AcDbEntity
  8
0
100
AcDbLine
 62
250
  6
CONTINUOUS
 10
37.3352380466
 20
-37.6545030774
 11
33.1969030403
 21
-35.2650803102
  0
LINE
  5
2C8
100
AcDbEntity
  8
ASSI
100
AcDbLine
 62
250
  6
CONTINUOUS
 10
37.3352380466
 20
-37.6545030774
 11
33.1969030403
 21
-35.2650803102
  0
LINE
  5
2C9
100
AcDbEntity
  8
0
100
AcDbLine
 62
250
  6
CONTINUOUS
 10
-26.1963700082
 20
-0.9721488246
 11
-30.4427072665
 21
1.4796330893
  0
LINE
  5
2CA
100
AcDbEntity
  8
ASSI
100
AcDbLine
 62
250
  6
CONTINUOUS
 10
-26.1963700082
 20
-0.9721488246
 11
-30.4427072665
 21
1.4796330893
  0
LINE
  5
2CB
100
AcDbEntity
  8
0
100
AcDbLine
 62
250
  6
CONTINUOUS
 10
37.3352380466
 20
-37.5773053832
 11
33.2709501932
 21
-35.2306365142
  0
LINE
  5
2CC
100
AcDbEntity
  8
ASSI
100
AcDbLine
 62
250
  6
CONTINUOUS
 10
37.3352380466
 20
-37.5773053832
 11
33.2709501932
 21
-35.2306365142
  0
LINE
  5
2CD
100
AcDbEntity
  8
0
100
AcDbLine
 62
250
  6
CONTINUOUS
 10
-26.1296976522
 20
-0.9334469132
 11
-30.3686601136
 21
1.5140768853
  0
LINE
  5
2CE
100
AcDbEntity
  8
ASSI
100
AcDbLine
 62
250
  6
CONTINUOUS
 10
-26.1296976522
 20
-0.9334469132
 11
-30.3686601136
 21
1.5140768853
  0
LINE
  5
2CF
100
AcDbEntity
  8
0
100
AcDbLine
 62
7
  6
CONTINUOUS
 10
-14.0081354037
 20
-7.8481904736
 11
-10.3163378692
 21
-9.9797881009
  0
LINE
  5
2D0
100
AcDbEntity
  8
ASSI
100
AcDbLine
 62
7
  6
CONTINUOUS
 10
-14.0081354037
 20
-7.8481904736
 11
-10.3163378692
 21
-9.9797881009
  0
LINE
  5
2D1
100
AcDbEntity
  8
0
100
AcDbLine
 62
7
  6
CONTINUOUS
 10
1.901767173
 20
-17.0343688234
 11
5.5935647075
 21
-19.1659664508
  0
LINE
  5
2D2
100
AcDbEntity
  8
ASSI
100
AcDbLine
 62
7
  6
CONTINUOUS
 10
1.901767173
 20
-17.0343688234
 11
5.5935647075
 21
-19.1659664508
  0
LINE
  5
2D3
100
AcDbEntity
  8
0
100
AcDbLine
 62
7
  6
CONTINUOUS
 10
17.8116697497
 20
-26.2205471733
 11
21.5034672842
 21
-28.3521448007
  0
LINE
  5
2D4
100
AcDbEntity
  8
ASSI
100
AcDbLine
 62
7
  6
CONTINUOUS
 10
17.8116697497
 20
-26.2205471733
 11
21.5034672842
 21
-28.3521448007
  0
LINE
  5
2D5
100
AcDbEntity
  8
0
100
AcDbLine
 62
7
  6
CONTINUOUS
 10
-28.7830583804
 20
2.0319028385
 11
-24.9570569898
 21
-0.1771824133
  0
LINE
  5
2D6
100
AcDbEntity
  8
ASSI
100
AcDbLine
 62
7
  6
CONTINUOUS
 10
-28.7830583804
 20
2.0319028385
 11
-24.9570569898
 21
-0.1771824133
  0
LINE
  5
2D7
100
AcDbEntity
  8
0
100
AcDbLine
 62
7
  6
CONTINUOUS
 10
34.8565519264
 20
-34.712810561
 11
37.3352380466
 21
-36.1439728616
  0
LINE
  5
2D8
100
AcDbEntity
  8
ASSI
100
AcDbLine
 62
7
  6
CONTINUOUS
 10
34.8565519264
 20
-34.712810561
 11
37.3352380466
 21
-36.1439728616
  0
LINE
  5
2D9
100
AcDbEntity
  8
0
100
AcDbLine
 62
250
  6
CONTINUOUS
 10
-10.3055264559
 20
-10.2161490699
 11
-10.3055264559
 21
-10.6455468819
  0
LINE
  5
2DA
100
AcDbEntity
  8
ASSI
100
AcDbLine
 62
250
  6
CONTINUOUS
 10
-10.3055264559
 20
-10.2161490699
 11
-10.3055264559
 21
-10.6455468819
  0
LINE
  5
2DB
100
AcDbEntity
  8
0
100
AcDbLine
 62
7
  6
CONTINUOUS
 10
-10.2284699035
 20
-10.1016443996
 11
-10.2284699035
 21
-10.5997289397
  0
LINE
  5
2DC
100
AcDbEntity
  8
ASSI
100
AcDbLine
 62
7
  6
CONTINUOUS
 10
-10.2284699035
 20
-10.1016443996
 11
-10.2284699035
 21
-10.5997289397
  0
LINE
  5
2DD
100
AcDbEntity
  8
0
100
AcDbLine
 62
7
  6
CONTINUOUS
 10
-24.949849381
 20
-0.3206320667
 11
-26.1296976522
 21
-0.9334469132
  0
LINE
  5
2DE
100
AcDbEntity
  8
ASSI
100
AcDbLine
 62
7
  6
CONTINUOUS
 10
-24.949849381
 20
-0.3206320667
 11
-26.1296976522
 21
-0.9334469132
  0
LINE
  5
2DF
100
AcDbEntity
  8
0
100
AcDbLine
 62
250
  6
CONTINUOUS
 10
-11.9749973988
 20
-11.6741610435
 11
-11.8505627803
 21
-11.5531309269
  0
LINE
  5
2E0
100
AcDbEntity
  8
ASSI
100
AcDbLine
 62
250
  6
CONTINUOUS
 10
-11.9749973988
 20
-11.6741610435
 11
-11.8505627803
 21
-11.5531309269
  0
LINE
  5
2E1
100
AcDbEntity
  8
0
100
AcDbLine
 62
7
  6
CONTINUOUS
 10
-11.9508993295
 20
-11.6880749667
 11
-11.753598507
 21
-11.4961722483
  0
LINE
  5
2E2
100
AcDbEntity
  8
ASSI
100
AcDbLine
 62
7
  6
CONTINUOUS
 10
-11.9508993295
 20
-11.6880749667
 11
-11.753598507
 21
-11.4961722483
  0
LINE
  5
2E3
100
AcDbEntity
  8
0
100
AcDbLine
 62
7
  6
CONTINUOUS
 10
-16.6476825643
 20
-8.9762111915
 11
-14.4210066199
 21
-7.8399224023
  0
LINE
  5
2E4
100
AcDbEntity
  8
ASSI
100
AcDbLine
 62
7
  6
CONTINUOUS
 10
-16.6476825643
 20
-8.9762111915
 11
-14.4210066199
 21
-7.8399224023
  0
LINE
  5
2E5
100
AcDbEntity
  8
0
100
AcDbLine
 62
250
  6
CONTINUOUS
 10
5.6043761208
 20
-19.4023274198
 11
5.6043761208
 21
-19.8317252317
  0
LINE
  5
2E6
100
AcDbEntity
  8
ASSI
100
AcDbLine
 62
250
  6
CONTINUOUS
 10
5.6043761208
 20
-19.4023274198
 11
5.6043761208
 21
-19.8317252317
  0
LINE
  5
2E7
100
AcDbEntity
  8
0
100
AcDbLine
 62
7
  6
CONTINUOUS
 10
5.6814326732
 20
-19.2878227495
 11
5.6814326732
 21
-19.7859072896
  0
LINE
  5
2E8
100
AcDbEntity
  8
ASSI
100
AcDbLine
 62
7
  6
CONTINUOUS
 10
5.6814326732
 20
-19.2878227495
 11
5.6814326732
 21
-19.7859072896
  0
LINE
  5
2E9
100
AcDbEntity
  8
0
100
AcDbLine
 62
7
  6
CONTINUOUS
 10
-10.3055264559
 20
-10.2161490699
 11
-12.3104344815
 21
-11.480483876
  0
LINE
  5
2EA
100
AcDbEntity
  8
ASSI
100
AcDbLine
 62
7
  6
CONTINUOUS
 10
-10.3055264559
 20
-10.2161490699
 11
-12.3104344815
 21
-11.480483876
  0
LINE
  5
2EB
100
AcDbEntity
  8
0
100
AcDbLine
 62
7
  6
CONTINUOUS
 10
-12.0161500031
 20
-11.6504000455
 11
-10.3055264559
 21
-10.6455468819
  0
LINE
  5
2EC
100
AcDbEntity
  8
ASSI
100
AcDbLine
 62
7
  6
CONTINUOUS
 10
-12.0161500031
 20
-11.6504000455
 11
-10.3055264559
 21
-10.6455468819
  0
LINE
  5
2ED
100
AcDbEntity
  8
SMUSSO
100
AcDbLine
 62
250
  6
CONTINUOUS
 10
53.1037192671
 20
2.7999469974
 11
54.5179328295
 21
2.7999469974
  0
LINE
  5
2EE
100
AcDbEntity
  8
0
100
AcDbLine
 62
250
  6
CONTINUOUS
 10
3.9349051779
 20
-20.8603393934
 11
4.0593397964
 21
-20.7393092768
  0
LINE
  5
2EF
100
AcDbEntity
  8
ASSI
100
AcDbLine
 62
250
  6
CONTINUOUS
 10
3.9349051779
 20
-20.8603393934
 11
4.0593397964
 21
-20.7393092768
  0
LINE
  5
2F0
100
AcDbEntity
  8
0
100
AcDbLine
 62
7
  6
CONTINUOUS
 10
3.9590032472
 20
-20.8742533166
 11
4.1563040697
 21
-20.6823505982
  0
LINE
  5
2F1
100
AcDbEntity
  8
ASSI
100
AcDbLine
 62
7
  6
CONTINUOUS
 10
3.9590032472
 20
-20.8742533166
 11
4.1563040697
 21
-20.6823505982
  0
LINE
  5
2F2
100
AcDbEntity
  8
0
100
AcDbLine
 62
7
  6
CONTINUOUS
 10
-0.7377799876
 20
-18.1623895413
 11
1.4888959568
 21
-17.0261007522
  0
LINE
  5
2F3
100
AcDbEntity
  8
ASSI
100
AcDbLine
 62
7
  6
CONTINUOUS
 10
-0.7377799876
 20
-18.1623895413
 11
1.4888959568
 21
-17.0261007522
  0
LINE
  5
2F4
100
AcDbEntity
  8
RACCORDO
100
AcDbLine
 62
7
  6
CONTINUOUS
 10
36.4867099092
 20
-4.9555934412
 11
-41.5071680557
 21
40.0770942028
  0
LINE
  5
2F5
100
AcDbEntity
  8
0
100
AcDbLine
 62
250
  6
CONTINUOUS
 10
21.5142786975
 20
-28.5885057697
 11
21.5142786975
 21
-29.0179035816
  0
LINE
  5
2F6
100
AcDbEntity
  8
ASSI
100
AcDbLine
 62
250
  6
CONTINUOUS
 10
21.5142786975
 20
-28.5885057697
 11
21.5142786975
 21
-29.0179035816
  0
LINE
  5
2F7
100
AcDbEntity
  8
0
100
AcDbLine
 62
7
  6
CONTINUOUS
 10
21.5913352499
 20
-28.4740010994
 11
21.5913352499
 21
-28.9720856394
  0
LINE
  5
2F8
100
AcDbEntity
  8
ASSI
100
AcDbLine
 62
7
  6
CONTINUOUS
 10
21.5913352499
 20
-28.4740010994
 11
21.5913352499
 21
-28.9720856394
  0
LINE
  5
2F9
100
AcDbEntity
  8
0
100
AcDbLine
 62
7
  6
CONTINUOUS
 10
5.6043761208
 20
-19.4023274198
 11
3.5994680952
 21
-20.6666622258
  0
LINE
  5
2FA
100
AcDbEntity
  8
ASSI
100
AcDbLine
 62
7
  6
CONTINUOUS
 10
5.6043761208
 20
-19.4023274198
 11
3.5994680952
 21
-20.6666622258
  0
LINE
  5
2FB
100
AcDbEntity
  8
0
100
AcDbLine
 62
7
  6
CONTINUOUS
 10
3.8937525736
 20
-20.8365783954
 11
5.6043761208
 21
-19.8317252317
  0
LINE
  5
2FC
100
AcDbEntity
  8
ASSI
100
AcDbLine
 62
7
  6
CONTINUOUS
 10
3.8937525736
 20
-20.8365783954
 11
5.6043761208
 21
-19.8317252317
  0
LINE
  5
2FD
100
AcDbEntity
  8
SMUSSO
100
AcDbLine
 62
250
  6
CONTINUOUS
 10
53.8108260483
 20
4.0246918675
 11
54.8714862201
 21
4.6371037575
  0
LINE
  5
2FE
100
AcDbEntity
  8
SMUSSO
100
AcDbLine
 62
250
  6
CONTINUOUS
 10
54.5179328295
 20
2.7999469974
 11
55.5785930013
 21
3.4123588874
  0
LINE
  5
2FF
100
AcDbEntity
  8
0
100
AcDbLine
 62
250
  6
CONTINUOUS
 10
54.836130881
 20
4.6580747357
 11
56.8867405465
 21
5.8007415854
  0
LINE
  5
300
100
AcDbEntity
  8
ASSI
100
AcDbLine
 62
250
  6
CONTINUOUS
 10
54.836130881
 20
4.6580747357
 11
56.8867405465
 21
5.8007415854
  0
LINE
  5
301
100
AcDbEntity
  8
0
100
AcDbLine
 62
250
  6
CONTINUOUS
 10
56.9160503715
 20
5.7839889632
 11
57.7623581767
 21
5.5402303876
  0
LINE
  5
302
100
AcDbEntity
  8
ASSI
100
AcDbLine
 62
250
  6
CONTINUOUS
 10
56.9160503715
 20
5.7839889632
 11
57.7623581767
 21
5.5402303876
  0
LINE
  5
303
100
AcDbEntity
  8
0
100
AcDbLine
 62
250
  6
CONTINUOUS
 10
55.5790311871
 20
3.371333662
 11
57.5938473276
 21
4.5759967153
  0
LINE
  5
304
100
AcDbEntity
  8
ASSI
100
AcDbLine
 62
250
  6
CONTINUOUS
 10
55.5790311871
 20
3.371333662
 11
57.5938473276
 21
4.5759967153
  0
LINE
  5
305
100
AcDbEntity
  8
SMUSSO
100
AcDbLine
 62
7
  6
CONTINUOUS
 10
53.1037192671
 20
2.7999469974
 11
-58.1241774135
 21
67.0215405279
  0
LINE
  5
306
100
AcDbEntity
  8
SMUSSO
100
AcDbLine
 62
7
  6
CONTINUOUS
 10
53.8108260483
 20
4.0246918675
 11
-57.4170706323
 21
68.246285398
  0
LINE
  5
307
100
AcDbEntity
  8
0
100
AcDbLine
 62
250
  6
CONTINUOUS
 10
19.8448077546
 20
-30.0465177433
 11
19.9692423731
 21
-29.9254876267
  0
LINE
  5
308
100
AcDbEntity
  8
ASSI
100
AcDbLine
 62
250
  6
CONTINUOUS
 10
19.8448077546
 20
-30.0465177433
 11
19.9692423731
 21
-29.9254876267
  0
LINE
  5
309
100
AcDbEntity
  8
0
100
AcDbLine
 62
7
  6
CONTINUOUS
 10
19.8689058239
 20
-30.0604316665
 11
20.0662066464
 21
-29.8685289481
  0
LINE
  5
30A
100
AcDbEntity
  8
ASSI
100
AcDbLine
 62
7
  6
CONTINUOUS
 10
19.8689058239
 20
-30.0604316665
 11
20.0662066464
 21
-29.8685289481
  0
LINE
  5
30B
100
AcDbEntity
  8
0
100
AcDbLine
 62
7
  6
CONTINUOUS
 10
21.5142786975
 20
-28.5885057697
 11
19.5093706719
 21
-29.8528405757
  0
LINE
  5
30C
100
AcDbEntity
  8
ASSI
100
AcDbLine
 62
7
  6
CONTINUOUS
 10
21.5142786975
 20
-28.5885057697
 11
19.5093706719
 21
-29.8528405757
  0
LINE
  5
30D
100
AcDbEntity
  8
0
100
AcDbLine
 62
7
  6
CONTINUOUS
 10
19.8036551502
 20
-30.0227567453
 11
21.5142786975
 21
-29.0179035816
  0
LINE
  5
30E
100
AcDbEntity
  8
ASSI
100
AcDbLine
 62
7
  6
CONTINUOUS
 10
19.8036551502
 20
-30.0227567453
 11
21.5142786975
 21
-29.0179035816
  0
LINE
  5
30F
100
AcDbEntity
  8
0
100
AcDbLine
 62
7
  6
CONTINUOUS
 10
15.1721225891
 20
-27.3485678912
 11
17.3987985335
 21
-26.212279102
  0
LINE
  5
310
100
AcDbEntity
  8
ASSI
100
AcDbLine
 62
7
  6
CONTINUOUS
 10
15.1721225891
 20
-27.3485678912
 11
17.3987985335
 21
-26.212279102
  0
LINE
  5
311
100
AcDbEntity
  8
SMUSSO
100
AcDbLine
 62
7
  6
CONTINUOUS
 10
-56.3564104606
 20
68.858697288
 11
55.2250396107
 21
4.4330059158
  0
LINE
  5
312
100
AcDbEntity
  8
0
100
AcDbLine
 62
7
  6
CONTINUOUS
 10
-53.3512066405
 20
69.4507506852
 11
56.8867405465
 21
5.8007415854
  0
LINE
  5
313
100
AcDbEntity
  8
ASSI
100
AcDbLine
 62
7
  6
CONTINUOUS
 10
-53.3512066405
 20
69.4507506852
 11
56.8867405465
 21
5.8007415854
  0
LINE
  5
314
100
AcDbEntity
  8
0
100
AcDbLine
 62
7
  6
CONTINUOUS
 10
-52.1055039272
 20
68.9765569987
 11
57.7623581767
 21
5.5402303876
  0
LINE
  5
315
100
AcDbEntity
  8
ASSI
100
AcDbLine
 62
7
  6
CONTINUOUS
 10
-52.1055039272
 20
68.9765569987
 11
57.7623581767
 21
5.5402303876
  0
LINE
  5
316
100
AcDbEntity
  8
RACCORDO
100
AcDbLine
 62
7
  6
CONTINUOUS
 10
37.3352380466
 20
-41.6151562151
 11
37.3352380466
 21
-6.4252872854
  0
LINE
  5
317
100
AcDbEntity
  8
SMUSSO
100
AcDbLine
 62
250
  6
CONTINUOUS
 10
53.1037192671
 20
2.7999469974
 11
53.8108260483
 21
4.0246918675
  0
LINE
  5
318
100
AcDbEntity
  8
0
100
AcDbLine
 62
7
  6
CONTINUOUS
 10
31.1833270461
 20
-36.5932366772
 11
31.2541197284
 21
-36.4706201547
  0
LINE
  5
319
100
AcDbEntity
  8
ASSI
100
AcDbLine
 62
7
  6
CONTINUOUS
 10
31.1833270461
 20
-36.5932366772
 11
31.2541197284
 21
-36.4706201547
  0
LINE
  5
31A
100
AcDbEntity
  8
0
100
AcDbLine
 62
7
  6
CONTINUOUS
 10
31.5016071019
 20
-36.4501945886
 11
31.607673119
 21
-36.266482858
  0
LINE
  5
31B
100
AcDbEntity
  8
ASSI
100
AcDbLine
 62
7
  6
CONTINUOUS
 10
31.5016071019
 20
-36.4501945886
 11
31.607673119
 21
-36.266482858
  0
LINE
  5
31C
100
AcDbEntity
  8
0
100
AcDbLine
 62
7
  6
CONTINUOUS
 10
31.8551604925
 20
-36.2460572919
 11
31.9612265096
 21
-36.0623455614
  0
LINE
  5
31D
100
AcDbEntity
  8
ASSI
100
AcDbLine
 62
7
  6
CONTINUOUS
 10
31.8551604925
 20
-36.2460572919
 11
31.9612265096
 21
-36.0623455614
  0
LINE
  5
31E
100
AcDbEntity
  8
0
100
AcDbLine
 62
7
  6
CONTINUOUS
 10
32.208713883
 20
-36.0419199952
 11
32.3147799002
 21
-35.8582082647
  0
LINE
  5
31F
100
AcDbEntity
  8
ASSI
100
AcDbLine
 62
7
  6
CONTINUOUS
 10
32.208713883
 20
-36.0419199952
 11
32.3147799002
 21
-35.8582082647
  0
LINE
  5
320
100
AcDbEntity
  8
0
100
AcDbLine
 62
7
  6
CONTINUOUS
 10
32.5622672736
 20
-35.8377826986
 11
32.6683332908
 21
-35.654070968
  0
LINE
  5
321
100
AcDbEntity
  8
ASSI
100
AcDbLine
 62
7
  6
CONTINUOUS
 10
32.5622672736
 20
-35.8377826986
 11
32.6683332908
 21
-35.654070968
  0
LINE
  5
322
100
AcDbEntity
  8
0
100
AcDbLine
 62
7
  6
CONTINUOUS
 10
32.9158206642
 20
-35.6336454019
 11
33.0218866814
 21
-35.4499336714
  0
LINE
  5
323
100
AcDbEntity
  8
ASSI
100
AcDbLine
 62
7
  6
CONTINUOUS
 10
32.9158206642
 20
-35.6336454019
 11
33.0218866814
 21
-35.4499336714
  0
LINE
  5
324
100
AcDbEntity
  8
0
100
AcDbLine
 62
7
  6
CONTINUOUS
 10
31.2541197284
 20
-36.4706201547
 11
31.3955410847
 21
-36.388965236
  0
LINE
  5
325
100
AcDbEntity
  8
ASSI
100
AcDbLine
 62
7
  6
CONTINUOUS
 10
31.2541197284
 20
-36.4706201547
 11
31.3955410847
 21
-36.388965236
  0
LINE
  5
326
100
AcDbEntity
  8
0
100
AcDbLine
 62
7
  6
CONTINUOUS
 10
31.607673119
 20
-36.266482858
 11
31.7490944753
 21
-36.1848279394
  0
LINE
  5
327
100
AcDbEntity
  8
ASSI
100
AcDbLine
 62
7
  6
CONTINUOUS
 10
31.607673119
 20
-36.266482858
 11
31.7490944753
 21
-36.1848279394
  0
LINE
  5
328
100
AcDbEntity
  8
0
100
AcDbLine
 62
7
  6
CONTINUOUS
 10
31.9612265096
 20
-36.0623455614
 11
32.1026478659
 21
-35.9806906427
  0
LINE
  5
329
100
AcDbEntity
  8
ASSI
100
AcDbLine
 62
7
  6
CONTINUOUS
 10
31.9612265096
 20
-36.0623455614
 11
32.1026478659
 21
-35.9806906427
  0
LINE
  5
32A
100
AcDbEntity
  8
0
100
AcDbLine
 62
7
  6
CONTINUOUS
 10
32.3147799002
 20
-35.8582082647
 11
32.4562012565
 21
-35.776553346
  0
LINE
  5
32B
100
AcDbEntity
  8
ASSI
100
AcDbLine
 62
7
  6
CONTINUOUS
 10
32.3147799002
 20
-35.8582082647
 11
32.4562012565
 21
-35.776553346
  0
LINE
  5
32C
100
AcDbEntity
  8
0
100
AcDbLine
 62
7
  6
CONTINUOUS
 10
32.6683332908
 20
-35.654070968
 11
32.8097546471
 21
-35.5724160494
  0
LINE
  5
32D
100
AcDbEntity
  8
ASSI
100
AcDbLine
 62
7
  6
CONTINUOUS
 10
32.6683332908
 20
-35.654070968
 11
32.8097546471
 21
-35.5724160494
  0
LINE
  5
32E
100
AcDbEntity
  8
0
100
AcDbLine
 62
7
  6
CONTINUOUS
 10
33.0218866814
 20
-35.4499336714
 11
33.1633080376
 21
-35.3682787527
  0
LINE
  5
32F
100
AcDbEntity
  8
ASSI
100
AcDbLine
 62
7
  6
CONTINUOUS
 10
33.0218866814
 20
-35.4499336714
 11
33.1633080376
 21
-35.3682787527
  0
LINE
  5
330
100
AcDbEntity
  8
0
100
AcDbLine
 62
7
  6
CONTINUOUS
 10
30.926932025
 20
-36.4451974054
 11
33.1969030403
 21
-35.2650803102
  0
LINE
  5
331
100
AcDbEntity
  8
ASSI
100
AcDbLine
 62
7
  6
CONTINUOUS
 10
30.926932025
 20
-36.4451974054
 11
33.1969030403
 21
-35.2650803102
  0
LINE
  5
332
100
AcDbEntity
  8
0
100
AcDbLine
 62
7
  6
CONTINUOUS
 10
33.2709501932
 20
-35.2306365142
 11
34.5813044489
 21
-34.6931741875
  0
LINE
  5
333
100
AcDbEntity
  8
ASSI
100
AcDbLine
 62
7
  6
CONTINUOUS
 10
33.2709501932
 20
-35.2306365142
 11
34.5813044489
 21
-34.6931741875
  0
LINE
  5
334
100
AcDbEntity
  8
0
100
AcDbLine
 62
250
  6
CONTINUOUS
 10
-53.3790405282
 20
69.4669921265
 11
-52.1055039272
 21
68.9765569987
  0
LINE
  5
335
100
AcDbEntity
  8
ASSI
100
AcDbLine
 62
250
  6
CONTINUOUS
 10
-53.3790405282
 20
69.4669921265
 11
-52.1055039272
 21
68.9765569987
  0
LINE
  5
336
100
AcDbEntity
  8
0
100
AcDbLine
 62
7
  6
CONTINUOUS
 10
-52.1125280585
 20
68.9799689064
 11
-53.4815055908
 21
69.5173879757
  0
LINE
  5
337
100
AcDbEntity
  8
ASSI
100
AcDbLine
 62
7
  6
CONTINUOUS
 10
-52.1125280585
 20
68.9799689064
 11
-53.4815055908
 21
69.5173879757
  0
LINE
  5
338
100
AcDbEntity
  8
SMUSSO
100
AcDbLine
 62
7
  6
CONTINUOUS
 10
53.1037192671
 20
-69.0494373604
 11
53.1037192671
 21
2.7999469974
  0
LINE
  5
339
100
AcDbEntity
  8
SMUSSO
100
AcDbLine
 62
7
  6
CONTINUOUS
 10
54.5179328295
 20
-69.0494373604
 11
54.5179328295
 21
2.7999469974
  0
LINE
  5
33A
100
AcDbEntity
  8
0
100
AcDbLine
 62
250
  6
CONTINUOUS
 10
57.5939949214
 20
4.6097545593
 11
57.805979362
 21
5.4646762785
  0
LINE
  5
33B
100
AcDbEntity
  8
ASSI
100
AcDbLine
 62
250
  6
CONTINUOUS
 10
57.5939949214
 20
4.6097545593
 11
57.805979362
 21
5.4646762785
  0
LINE
  5
33C
100
AcDbEntity
  8
0
100
AcDbLine
 62
7
  6
CONTINUOUS
 10
35.0724143426
 20
-38.8387469405
 11
35.143207025
 21
-38.716130418
  0
LINE
  5
33D
100
AcDbEntity
  8
ASSI
100
AcDbLine
 62
7
  6
CONTINUOUS
 10
35.0724143426
 20
-38.8387469405
 11
35.143207025
 21
-38.716130418
  0
LINE
  5
33E
100
AcDbEntity
  8
0
100
AcDbLine
 62
7
  6
CONTINUOUS
 10
35.3906943984
 20
-38.6957048519
 11
35.4967604156
 21
-38.5119931213
  0
LINE
  5
33F
100
AcDbEntity
  8
ASSI
100
AcDbLine
 62
7
  6
CONTINUOUS
 10
35.3906943984
 20
-38.6957048519
 11
35.4967604156
 21
-38.5119931213
  0
LINE
  5
340
100
AcDbEntity
  8
0
100
AcDbLine
 62
7
  6
CONTINUOUS
 10
35.744247789
 20
-38.4915675552
 11
35.8503138062
 21
-38.3078558247
  0
LINE
  5
341
100
AcDbEntity
  8
ASSI
100
AcDbLine
 62
7
  6
CONTINUOUS
 10
35.744247789
 20
-38.4915675552
 11
35.8503138062
 21
-38.3078558247
  0
LINE
  5
342
100
AcDbEntity
  8
0
100
AcDbLine
 62
7
  6
CONTINUOUS
 10
36.0978011796
 20
-38.2874302585
 11
36.2038671968
 21
-38.103718528
  0
LINE
  5
343
100
AcDbEntity
  8
ASSI
100
AcDbLine
 62
7
  6
CONTINUOUS
 10
36.0978011796
 20
-38.2874302585
 11
36.2038671968
 21
-38.103718528
  0
LINE
  5
344
100
AcDbEntity
  8
0
100
AcDbLine
 62
7
  6
CONTINUOUS
 10
36.4513545702
 20
-38.0832929619
 11
36.5574205873
 21
-37.8995812313
  0
LINE
  5
345
100
AcDbEntity
  8
ASSI
100
AcDbLine
 62
7
  6
CONTINUOUS
 10
36.4513545702
 20
-38.0832929619
 11
36.5574205873
 21
-37.8995812313
  0
LINE
  5
346
100
AcDbEntity
  8
0
100
AcDbLine
 62
7
  6
CONTINUOUS
 10
36.8049079608
 20
-37.8791556652
 11
36.9109739779
 21
-37.6954439347
  0
LINE
  5
347
100
AcDbEntity
  8
ASSI
100
AcDbLine
 62
7
  6
CONTINUOUS
 10
36.8049079608
 20
-37.8791556652
 11
36.9109739779
 21
-37.6954439347
  0
LINE
  5
348
100
AcDbEntity
  8
0
100
AcDbLine
 62
250
  6
CONTINUOUS
 10
36.7452815128
 20
-38.7443527577
 11
37.0812264778
 21
-38.4175991679
  0
LINE
  5
349
100
AcDbEntity
  8
ASSI
100
AcDbLine
 62
250
  6
CONTINUOUS
 10
36.7452815128
 20
-38.7443527577
 11
37.0812264778
 21
-38.4175991679
  0
LINE
  5
34A
100
AcDbEntity
  8
0
100
AcDbLine
 62
7
  6
CONTINUOUS
 10
36.7492063778
 20
-38.7778879511
 11
37.1781907511
 21
-38.3606404893
  0
LINE
  5
34B
100
AcDbEntity
  8
ASSI
100
AcDbLine
 62
7
  6
CONTINUOUS
 10
36.7492063778
 20
-38.7778879511
 11
37.1781907511
 21
-38.3606404893
  0
LINE
  5
34C
100
AcDbEntity
  8
0
100
AcDbLine
 62
7
  6
CONTINUOUS
 10
37.3352380466
 20
-37.7861190728
 11
35.399349216
 21
-39.0275150389
  0
LINE
  5
34D
100
AcDbEntity
  8
ASSI
100
AcDbLine
 62
7
  6
CONTINUOUS
 10
37.3352380466
 20
-37.7861190728
 11
35.399349216
 21
-39.0275150389
  0
LINE
  5
34E
100
AcDbEntity
  8
0
100
AcDbLine
 62
7
  6
CONTINUOUS
 10
35.7239105131
 20
-39.2149126641
 11
37.3352380466
 21
-38.2683878882
  0
LINE
  5
34F
100
AcDbEntity
  8
ASSI
100
AcDbLine
 62
7
  6
CONTINUOUS
 10
35.7239105131
 20
-39.2149126641
 11
37.3352380466
 21
-38.2683878882
  0
LINE
  5
350
100
AcDbEntity
  8
0
100
AcDbLine
 62
7
  6
CONTINUOUS
 10
36.6905920313
 20
-38.8223519627
 11
35.8693351272
 21
-39.2988790137
  0
LINE
  5
351
100
AcDbEntity
  8
ASSI
100
AcDbLine
 62
7
  6
CONTINUOUS
 10
36.6905920313
 20
-38.8223519627
 11
35.8693351272
 21
-39.2988790137
  0
LINE
  5
352
100
AcDbEntity
  8
0
100
AcDbLine
 62
250
  6
CONTINUOUS
 10
36.7452815128
 20
-38.7443527577
 11
35.8290671875
 21
-39.27562881
  0
LINE
  5
353
100
AcDbEntity
  8
ASSI
100
AcDbLine
 62
250
  6
CONTINUOUS
 10
36.7452815128
 20
-38.7443527577
 11
35.8290671875
 21
-39.27562881
  0
LINE
  5
354
100
AcDbEntity
  8
0
100
AcDbLine
 62
7
  6
CONTINUOUS
 10
35.143207025
 20
-38.716130418
 11
35.2846283812
 21
-38.6344754993
  0
LINE
  5
355
100
AcDbEntity
  8
ASSI
100
AcDbLine
 62
7
  6
CONTINUOUS
 10
35.143207025
 20
-38.716130418
 11
35.2846283812
 21
-38.6344754993
  0
LINE
  5
356
100
AcDbEntity
  8
0
100
AcDbLine
 62
7
  6
CONTINUOUS
 10
35.4967604156
 20
-38.5119931213
 11
35.6381817718
 21
-38.4303382027
  0
LINE
  5
357
100
AcDbEntity
  8
ASSI
100
AcDbLine
 62
7
  6
CONTINUOUS
 10
35.4967604156
 20
-38.5119931213
 11
35.6381817718
 21
-38.4303382027
  0
LINE
  5
358
100
AcDbEntity
  8
0
100
AcDbLine
 62
7
  6
CONTINUOUS
 10
35.8503138062
 20
-38.3078558247
 11
35.9917351624
 21
-38.226200906
  0
LINE
  5
359
100
AcDbEntity
  8
ASSI
100
AcDbLine
 62
7
  6
CONTINUOUS
 10
35.8503138062
 20
-38.3078558247
 11
35.9917351624
 21
-38.226200906
  0
LINE
  5
35A
100
AcDbEntity
  8
0
100
AcDbLine
 62
7
  6
CONTINUOUS
 10
36.2038671968
 20
-38.103718528
 11
36.345288553
 21
-38.0220636093
  0
LINE
  5
35B
100
AcDbEntity
  8
ASSI
100
AcDbLine
 62
7
  6
CONTINUOUS
 10
36.2038671968
 20
-38.103718528
 11
36.345288553
 21
-38.0220636093
  0
LINE
  5
35C
100
AcDbEntity
  8
0
100
AcDbLine
 62
7
  6
CONTINUOUS
 10
36.5574205873
 20
-37.8995812313
 11
36.6988419436
 21
-37.8179263127
  0
LINE
  5
35D
100
AcDbEntity
  8
ASSI
100
AcDbLine
 62
7
  6
CONTINUOUS
 10
36.5574205873
 20
-37.8995812313
 11
36.6988419436
 21
-37.8179263127
  0
LINE
  5
35E
100
AcDbEntity
  8
0
100
AcDbLine
 62
7
  6
CONTINUOUS
 10
36.9109739779
 20
-37.6954439347
 11
37.0523953342
 21
-37.613789016
  0
LINE
  5
35F
100
AcDbEntity
  8
ASSI
100
AcDbLine
 62
7
  6
CONTINUOUS
 10
36.9109739779
 20
-37.6954439347
 11
37.0523953342
 21
-37.613789016
  0
LINE
  5
360
100
AcDbEntity
  8
0
100
AcDbLine
 62
7
  6
CONTINUOUS
 10
37.1584613514
 20
-37.6750183685
 11
35.1076842687
 21
-38.8591113538
  0
LINE
  5
361
100
AcDbEntity
  8
ASSI
100
AcDbLine
 62
7
  6
CONTINUOUS
 10
37.1584613514
 20
-37.6750183685
 11
35.1076842687
 21
-38.8591113538
  0
LINE
  5
362
100
AcDbEntity
  8
RACCORDO
100
AcDbLine
 62
250
  6
CONTINUOUS
 10
36.4867099092
 20
-42.1049910353
 11
37.3351970426
 21
-41.6150851986
  0
LINE
  5
363
100
AcDbEntity
  8
SMUSSO
100
AcDbLine
 62
7
  6
CONTINUOUS
 10
55.5785930013
 20
3.8206334807
 11
55.5785930013
 21
-68.4370254704
  0
LINE
  5
364
100
AcDbEntity
  8
0
100
AcDbLine
 62
250
  6
CONTINUOUS
 10
55.9392900397
 20
-61.290926555
 11
55.9392900397
 21
-60.9671373044
  0
LINE
  5
365
100
AcDbEntity
  8
0
100
AcDbLine
 62
250
  6
CONTINUOUS
 10
55.9393692428
 20
-58.3690153938
 11
55.9393692428
 21
-58.6822427849
  0
LINE
  5
366
100
AcDbEntity
  8
0
100
AcDbLine
 62
250
  6
CONTINUOUS
 10
55.9393692428
 20
-59.364682934
 11
55.9393692428
 21
-59.6850413765
  0
LINE
  5
367
100
AcDbEntity
  8
0
100
AcDbLine
 62
250
  6
CONTINUOUS
 10
55.9393692428
 20
-60.3292005002
 11
55.9393692428
 21
-60.6527219486
  0
LINE
  5
368
100
AcDbEntity
  8
0
100
AcDbLine
 62
250
  6
CONTINUOUS
 10
55.9393692428
 20
-61.4110383135
 11
55.9393692428
 21
-61.7346063006
  0
LINE
  5
369
100
AcDbEntity
  8
0
100
AcDbLine
 62
250
  6
CONTINUOUS
 10
55.9393692428
 20
-62.3350001681
 11
55.9393692428
 21
-62.6867355633
  0
LINE
  5
36A
100
AcDbEntity
  8
0
100
AcDbLine
 62
250
  6
CONTINUOUS
 10
56.5265855063
 20
-57.1351502258
 11
56.5265855063
 21
-56.9501077269
  0
LINE
  5
36B
100
AcDbEntity
  8
0
100
AcDbLine
 62
250
  6
CONTINUOUS
 10
56.7427605625
 20
-56.8215541023
 11
56.7427605625
 21
-56.9951623054
  0
LINE
  5
36C
100
AcDbEntity
  8
0
100
AcDbLine
 62
250
  6
CONTINUOUS
 10
56.7919046493
 20
-57.8731944145
 11
56.7919046493
 21
-58.1832000139
  0
LINE
  5
36D
100
AcDbEntity
  8
0
100
AcDbLine
 62
250
  6
CONTINUOUS
 10
56.995806127
 20
-58.127519752
 11
56.995806127
 21
-57.6865719155
  0
LINE
  5
36E
100
AcDbEntity
  8
0
100
AcDbLine
 62
250
  6
CONTINUOUS
 10
57.2593142033
 20
-61.4057872846
 11
57.2593142033
 21
-61.1204472522
  0
LINE
  5
36F
100
AcDbEntity
  8
0
100
AcDbLine
 62
250
  6
CONTINUOUS
 10
57.2593142033
 20
-60.0035853135
 11
57.2593142033
 21
-59.6938246552
  0
LINE
  5
370
100
AcDbEntity
  8
0
100
AcDbLine
 62
250
  6
CONTINUOUS
 10
57.2593142033
 20
-59.244106295
 11
57.2593142033
 21
-59.1986950347
  0
LINE
  5
371
100
AcDbEntity
  8
0
100
AcDbLine
 62
250
  6
CONTINUOUS
 10
57.2593142033
 20
-58.7471853387
 11
57.2593142033
 21
-58.4304332454
  0
LINE
  5
372
100
AcDbEntity
  8
0
100
AcDbLine
 62
250
  6
CONTINUOUS
 10
57.2593142033
 20
-58.3795900083
 11
57.2593142033
 21
-58.0593132128
  0
LINE
  5
373
100
AcDbEntity
  8
0
100
AcDbLine
 62
250
  6
CONTINUOUS
 10
57.2593142033
 20
-57.4451414095
 11
57.2593142033
 21
-57.1038805114
  0
LINE
  5
374
100
AcDbEntity
  8
0
100
AcDbLine
 62
250
  6
CONTINUOUS
 10
57.2593140268
 20
-55.8790269712
 11
57.2593140268
 21
-56.1904748532
  0
LINE
  5
375
100
AcDbEntity
  8
0
100
AcDbLine
 62
250
  6
CONTINUOUS
 10
57.2593140268
 20
-56.6863138398
 11
57.2593140268
 21
-57.0088005281
  0
LINE
  5
376
100
AcDbEntity
  8
0
100
AcDbLine
 62
250
  6
CONTINUOUS
 10
57.2593142033
 20
-60.17789192
 11
57.2593142033
 21
-60.5016811706
  0
LINE
  5
377
100
AcDbEntity
  8
0
100
AcDbLine
 62
7
  6
CONTINUOUS
 10
57.5938473276
 20
4.5759967153
 11
57.5938473276
 21
-66.130329255
  0
LINE
  5
378
100
AcDbEntity
  8
ASSI
100
AcDbLine
 62
7
  6
CONTINUOUS
 10
57.5938473276
 20
4.5759967153
 11
57.5938473276
 21
-66.130329255
  0
LINE
  5
379
100
AcDbEntity
  8
0
100
AcDbLine
 62
7
  6
CONTINUOUS
 10
57.805979362
 20
5.4646762785
 11
57.805979362
 21
-64.8143260142
  0
LINE
  5
37A
100
AcDbEntity
  8
ASSI
100
AcDbLine
 62
7
  6
CONTINUOUS
 10
57.805979362
 20
5.4646762785
 11
57.805979362
 21
-64.8143260142
  0
LINE
  5
37B
100
AcDbEntity
  8
0
100
AcDbLine
 62
7
  6
CONTINUOUS
 10
57.8054224389
 20
-64.8221107174
 11
57.586411015
 21
-66.2764244463
  0
LINE
  5
37C
100
AcDbEntity
  8
ASSI
100
AcDbLine
 62
7
  6
CONTINUOUS
 10
57.8054224389
 20
-64.8221107174
 11
57.586411015
 21
-66.2764244463
  0
LINE
  5
37D
100
AcDbEntity
  8
0
100
AcDbLine
 62
250
  6
CONTINUOUS
 10
57.5939949214
 20
-66.162553161
 11
57.805979362
 21
-64.8143260142
  0
LINE
  5
37E
100
AcDbEntity
  8
ASSI
100
AcDbLine
 62
250
  6
CONTINUOUS
 10
57.5939949214
 20
-66.162553161
 11
57.805979362
 21
-64.8143260142
  0
LINE
  5
37F
100
AcDbEntity
  8
0
100
AcDbLine
 62
250
  6
CONTINUOUS
 10
56.6353758013
 20
-56.5494076094
 11
56.643175524
 21
-56.5447441378
  0
LINE
  5
380
100
AcDbEntity
  8
0
100
AcDbLine
 62
250
  6
CONTINUOUS
 10
56.7427605625
 20
-56.9951623054
 11
57.2593140268
 21
-56.6863138398
  0
LINE
  5
381
100
AcDbEntity
  8
0
100
AcDbLine
 62
250
  6
CONTINUOUS
 10
56.1642349358
 20
-57.3518004381
 11
56.5265855063
 21
-57.1351502258
  0
LINE
  5
382
100
AcDbEntity
  8
0
100
AcDbLine
 62
250
  6
CONTINUOUS
 10
57.2593140268
 20
-57.0088005281
 11
55.9547906047
 21
-57.7887779847
  0
LINE
  5
383
100
AcDbEntity
  8
0
100
AcDbLine
 62
250
  6
CONTINUOUS
 10
57.2593142033
 20
-59.6938246552
 11
56.3974147652
 21
-60.1392819042
  0
LINE
  5
384
100
AcDbEntity
  8
0
100
AcDbLine
 62
250
  6
CONTINUOUS
 10
55.9393692428
 20
-60.6527219486
 11
57.2593142033
 21
-60.0035853135
  0
LINE
  5
385
100
AcDbEntity
  8
0
100
AcDbLine
 62
250
  6
CONTINUOUS
 10
56.3974147652
 20
-60.1392819042
 11
57.2593142033
 21
-59.244106295
  0
LINE
  5
386
100
AcDbEntity
  8
0
100
AcDbLine
 62
250
  6
CONTINUOUS
 10
56.6722065066
 20
-59.5706655966
 11
55.9393692428
 21
-60.3292005002
  0
LINE
  5
387
100
AcDbEntity
  8
0
100
AcDbLine
 62
250
  6
CONTINUOUS
 10
55.9393692428
 20
-62.6867355633
 11
57.2593142033
 21
-61.4057872846
  0
LINE
  5
388
100
AcDbEntity
  8
0
100
AcDbLine
 62
250
  6
CONTINUOUS
 10
57.2593142033
 20
-57.1038805114
 11
55.9393692428
 21
-58.3690153938
  0
LINE
  5
389
100
AcDbEntity
  8
0
100
AcDbLine
 62
250
  6
CONTINUOUS
 10
56.847928349
 20
-61.4960900286
 11
55.9393692428
 21
-62.3350001681
  0
LINE
  5
38A
100
AcDbEntity
  8
0
100
AcDbLine
 62
250
  6
CONTINUOUS
 10
56.995806127
 20
-57.6865719155
 11
57.2593142033
 21
-57.4451414095
  0
LINE
  5
38B
100
AcDbEntity
  8
0
100
AcDbLine
 62
250
  6
CONTINUOUS
 10
56.3020562963
 20
-58.3148612132
 11
56.7919046493
 21
-57.8731944145
  0
LINE
  5
38C
100
AcDbEntity
  8
0
100
AcDbLine
 62
250
  6
CONTINUOUS
 10
57.2593142033
 20
-58.4304332454
 11
55.9393692428
 21
-59.364682934
  0
LINE
  5
38D
100
AcDbEntity
  8
0
100
AcDbLine
 62
250
  6
CONTINUOUS
 10
56.4010080855
 20
-59.3268920249
 11
57.2593142033
 21
-58.7471853387
  0
LINE
  5
38E
100
AcDbEntity
  8
0
100
AcDbLine
 62
7
  6
CONTINUOUS
 10
55.5785930013
 20
-67.6843599674
 11
57.4080614217
 21
-66.5752440299
  0
LINE
  5
38F
100
AcDbEntity
  8
ASSI
100
AcDbLine
 62
7
  6
CONTINUOUS
 10
55.5785930013
 20
-67.6843599674
 11
57.4080614217
 21
-66.5752440299
  0
LINE
  5
390
100
AcDbEntity
  8
0
100
AcDbLine
 62
250
  6
CONTINUOUS
 10
55.9392900397
 20
-60.9671373044
 11
57.2593142033
 21
-60.17789192
  0
LINE
  5
391
100
AcDbEntity
  8
0
100
AcDbLine
 62
250
  6
CONTINUOUS
 10
57.2593142033
 20
-60.5016811706
 11
55.9392900397
 21
-61.290926555
  0
LINE
  5
392
100
AcDbEntity
  8
0
100
AcDbLine
 62
250
  6
CONTINUOUS
 10
55.5790311871
 20
-67.3349923083
 11
57.5938473276
 21
-66.130329255
  0
LINE
  5
393
100
AcDbEntity
  8
ASSI
100
AcDbLine
 62
250
  6
CONTINUOUS
 10
55.5790311871
 20
-67.3349923083
 11
57.5938473276
 21
-66.130329255
  0
LINE
  5
394
100
AcDbEntity
  8
SMUSSO
100
AcDbLine
 62
250
  6
CONTINUOUS
 10
54.5179328295
 20
-69.0494373604
 11
55.5785930013
 21
-68.4370254704
  0
LINE
  5
395
100
AcDbEntity
  8
RACCORDO
100
AcDbLine
 62
7
  6
CONTINUOUS
 10
54.3108502084
 20
-69.5071742215
 11
55.3715103802
 21
-68.8947623315
  0
ARC
  5
396
100
AcDbEntity
  8
0
100
AcDbCircle
 62
250
  6
CONTINUOUS
 10
245.9022952765
 20
23.5230586629
 40
285.8929097683
100
AcDbArc
 50
177.1703819299
 51
179.2524901588
  0
ARC
  5
397
100
AcDbEntity
  8
ASSI
100
AcDbCircle
 62
250
  6
CONTINUOUS
 10
245.9022952765
 20
23.5230586629
 40
285.8929097683
100
AcDbArc
 50
177.1703819299
 51
179.2524901588
  0
ARC
  5
398
100
AcDbEntity
  8
0
100
AcDbCircle
 62
250
  6
CONTINUOUS
 10
214.9803033378
 20
23.426295798
 40
254.9675144868
100
AcDbArc
 50
180.7341013856
 51
182.9816825317
  0
ARC
  5
399
100
AcDbEntity
  8
ASSI
100
AcDbCircle
 62
250
  6
CONTINUOUS
 10
214.9803033378
 20
23.426295798
 40
254.9675144868
100
AcDbArc
 50
180.7341013856
 51
182.9816825317
  0
ARC
  5
39A
100
AcDbEntity
  8
0
100
AcDbCircle
 62
250
  6
CONTINUOUS
 10
-39.3526675382
 20
26.9426462047
 40
0.6875925977
100
AcDbArc
 50
154.8519814592
 51
156.5663287688
  0
ARC
  5
39B
100
AcDbEntity
  8
ASSI
100
AcDbCircle
 62
250
  6
CONTINUOUS
 10
-39.3526675382
 20
26.9426462047
 40
0.6875925977
100
AcDbArc
 50
154.8519814592
 51
156.5663287688
  0
ARC
  5
39C
100
AcDbEntity
  8
0
100
AcDbCircle
 62
250
  6
CONTINUOUS
 10
-39.3934591668
 20
26.9617999347
 40
0.6425279517
100
AcDbArc
 50
153.0644891621
 51
154.8522906357
  0
ARC
  5
39D
100
AcDbEntity
  8
ASSI
100
AcDbCircle
 62
250
  6
CONTINUOUS
 10
-39.3934591668
 20
26.9617999347
 40
0.6425279517
100
AcDbArc
 50
153.0644891621
 51
154.8522906357
  0
ARC
  5
39E
100
AcDbEntity
  8
0
100
AcDbCircle
 62
7
  6
CONTINUOUS
 10
-39.8578420283
 20
10.2840553452
 40
0.3
100
AcDbArc
 50
359.9999695719
 51
2.9883509906
  0
ARC
  5
39F
100
AcDbEntity
  8
0
100
AcDbCircle
 62
7
  6
CONTINUOUS
 10
-39.8578420283
 20
37.7567967264
 40
0.3
100
AcDbArc
 50
357.1869536691
 51
0.0000276221
  0
ARC
  5
3A0
100
AcDbEntity
  8
0
100
AcDbCircle
 62
7
  6
CONTINUOUS
 10
-40.1820856211
 20
27.3731831562
 40
0.3
100
AcDbArc
 50
325.8024834956
 51
359.2647577886
  0
ARC
  5
3A1
100
AcDbEntity
  8
0
100
AcDbCircle
 62
7
  6
CONTINUOUS
 10
-40.1820856979
 20
20.279943649
 40
0.3
100
AcDbArc
 50
0.700832293
 51
43.2479844087
  0
ARC
  5
3A2
100
AcDbEntity
  8
0
100
AcDbCircle
 62
7
  6
CONTINUOUS
 10
36.5398726289
 20
-38.5627040329
 40
0.3
100
AcDbArc
 50
300.1089936051
 51
314.2001405101
  0
ARC
  5
3A3
100
AcDbEntity
  8
0
100
AcDbCircle
 62
7
  6
CONTINUOUS
 10
-27.0997376779
 20
-1.8179906334
 40
0.3
100
AcDbArc
 50
300.1089936051
 51
314.2001405101
  0
ARC
  5
3A4
100
AcDbEntity
  8
ASSI
100
AcDbCircle
 62
7
  6
CONTINUOUS
 10
-39.8578420283
 20
10.2840553452
 40
0.3
100
AcDbArc
 50
359.9999695719
 51
2.9883509906
  0
ARC
  5
3A5
100
AcDbEntity
  8
ASSI
100
AcDbCircle
 62
7
  6
CONTINUOUS
 10
-39.8578420283
 20
37.7567967264
 40
0.3
100
AcDbArc
 50
357.1869536691
 51
0.0000276221
  0
ARC
  5
3A6
100
AcDbEntity
  8
ASSI
100
AcDbCircle
 62
7
  6
CONTINUOUS
 10
-40.1820856211
 20
27.3731831562
 40
0.3
100
AcDbArc
 50
322.0832140272
 51
359.2647409131
  0
ARC
  5
3A7
100
AcDbEntity
  8
ASSI
100
AcDbCircle
 62
7
  6
CONTINUOUS
 10
-40.1820856979
 20
20.279943649
 40
0.3
100
AcDbArc
 50
0.7008323015
 51
43.2479848174
  0
ARC
  5
3A8
100
AcDbEntity
  8
ASSI
100
AcDbCircle
 62
7
  6
CONTINUOUS
 10
36.5398726289
 20
-38.5627040329
 40
0.3
100
AcDbArc
 50
300.1089936364
 51
314.2001405099
  0
ARC
  5
3A9
100
AcDbEntity
  8
ASSI
100
AcDbCircle
 62
7
  6
CONTINUOUS
 10
-27.0997376779
 20
-1.8179906334
 40
0.3
100
AcDbArc
 50
300.1089936364
 51
314.2001405099
  0
ARC
  5
3AA
100
AcDbEntity
  8
0
100
AcDbCircle
 62
250
  6
CONTINUOUS
 10
-39.7740503193
 20
37.8576919506
 40
0.2576151787
100
AcDbArc
 50
300.8259524377
 51
305.3756089584
  0
ARC
  5
3AB
100
AcDbEntity
  8
ASSI
100
AcDbCircle
 62
250
  6
CONTINUOUS
 10
-39.7740503193
 20
37.8576919506
 40
0.2576151787
100
AcDbArc
 50
300.8259524377
 51
305.3756089584
  0
ARC
  5
3AC
100
AcDbEntity
  8
0
100
AcDbCircle
 62
250
  6
CONTINUOUS
 10
-27.0589431705
 20
-1.9558106919
 40
0.1703491854
100
AcDbArc
 50
339.0198037554
 51
345.090844654
  0
ARC
  5
3AD
100
AcDbEntity
  8
0
100
AcDbCircle
 62
250
  6
CONTINUOUS
 10
36.5806671363
 20
-38.7005240914
 40
0.1703491854
100
AcDbArc
 50
339.0198037554
 51
345.090844654
  0
ARC
  5
3AE
100
AcDbEntity
  8
ASSI
100
AcDbCircle
 62
250
  6
CONTINUOUS
 10
-27.0589431705
 20
-1.9558106919
 40
0.1703491854
100
AcDbArc
 50
339.0198037554
 51
345.090844654
  0
ARC
  5
3AF
100
AcDbEntity
  8
ASSI
100
AcDbCircle
 62
250
  6
CONTINUOUS
 10
36.5806671363
 20
-38.7005240914
 40
0.1703491854
100
AcDbArc
 50
339.0198037554
 51
345.090844654
  0
ARC
  5
3B0
100
AcDbEntity
  8
0
100
AcDbCircle
 62
250
  6
CONTINUOUS
 10
-39.6701530935
 20
10.2938504325
 40
0.1120555786
100
AcDbArc
 50
0.9563913034
 51
2.9897994402
  0
ARC
  5
3B1
100
AcDbEntity
  8
ASSI
100
AcDbCircle
 62
250
  6
CONTINUOUS
 10
-39.6701530935
 20
10.2938504325
 40
0.1120555786
100
AcDbArc
 50
0.9563913034
 51
2.9897994402
  0
ARC
  5
3B2
100
AcDbEntity
  8
0
100
AcDbCircle
 62
250
  6
CONTINUOUS
 10
-26.999096857
 20
-1.9913036518
 40
0.0998077594
100
AcDbArc
 50
300.1159511914
 51
302.5106295567
  0
ARC
  5
3B3
100
AcDbEntity
  8
0
100
AcDbCircle
 62
250
  6
CONTINUOUS
 10
36.6405134498
 20
-38.7360170513
 40
0.0998077594
100
AcDbArc
 50
300.1159511915
 51
302.5106295566
  0
ARC
  5
3B4
100
AcDbEntity
  8
ASSI
100
AcDbCircle
 62
250
  6
CONTINUOUS
 10
-26.999096857
 20
-1.9913036518
 40
0.0998077594
100
AcDbArc
 50
300.1159511914
 51
302.5106295567
  0
ARC
  5
3B5
100
AcDbEntity
  8
ASSI
100
AcDbCircle
 62
250
  6
CONTINUOUS
 10
36.6405134498
 20
-38.7360170513
 40
0.0998077594
100
AcDbArc
 50
300.1159511915
 51
302.5106295566
  0
SPLINE
  5
3B6
100
AcDbEntity
  8
0
100
AcDbSpline
 62
7
  6
CONTINUOUS
 70
0
 71
3
 72
10
 73
6
 74
0
 42
0.0000001
 43
0.0000001
 44
0.0000000001
 40
0.0
 40
0.0
 40
0.0
 40
0.0
 40
0.5278413137
 40
0.7672927049
 40
1.0
 40
1.0
 40
1.0
 40
1.0
 10
-53.4815053104
 20
69.5173850028
 30
0.0
 10
-53.5401551649
 20
69.5404179102
 30
0.0
 10
-53.6325774237
 20
69.5615485811
 30
0.0
 10
-53.752006488
 20
69.5466174789
 30
0.0
 10
-53.8051295682
 20
69.5256970691
 30
0.0
 10
-53.8294787167
 20
69.5123253941
 30
0.0
  0
SPLINE
  5
3B7
100
AcDbEntity
  8
0
100
AcDbSpline
 62
7
  6
CONTINUOUS
 70
0
 71
3
 72
10
 73
6
 74
0
 42
0.0000001
 43
0.0000001
 44
0.0000000001
 40
0.0
 40
0.0
 40
0.0
 40
0.0
 40
0.2327075462
 40
0.4721590482
 40
1.0
 40
1.0
 40
1.0
 40
1.0
 10
57.4080613088
 20
-66.5752438741
 30
0.0
 10
57.4318143834
 20
-66.5608419448
 30
0.0
 10
57.4764899044
 20
-66.5252952074
 30
0.0
 10
57.5491275252
 20
-66.4293323122
 30
0.0
 10
57.5770337822
 20
-66.3387293574
 30
0.0
 10
57.5864085737
 20
-66.2764227123
 30
0.0
  0
SPLINE
  5
3B8
100
AcDbEntity
  8
0
100
AcDbSpline
 62
250
  6
CONTINUOUS
 70
0
 71
3
 72
9
 73
5
 74
0
 42
0.0000001
 43
0.0000001
 44
0.0000000001
 40
0.0
 40
0.0
 40
0.0
 40
0.0
 40
0.4797909555
 40
1.0
 40
1.0
 40
1.0
 40
1.0
 10
-26.9454545713
 20
-2.075470712
 30
0.0
 10
-26.9353049604
 20
-2.0690022255
 30
0.0
 10
-26.9165375671
 20
-2.0514862541
 30
0.0
 10
-26.9045753185
 20
-2.0289817933
 30
0.0
 10
-26.8998874143
 20
-2.0168034076
 30
0.0
  0
SPLINE
  5
3B9
100
AcDbEntity
  8
0
100
AcDbSpline
 62
7
  6
CONTINUOUS
 70
0
 71
3
 72
11
 73
7
 74
0
 42
0.0000001
 43
0.0000001
 44
0.0000000001
 40
0.0
 40
0.0
 40
0.0
 40
0.0
 40
0.2398899887
 40
0.4999946019
 40
0.7601021498
 40
1.0
 40
1.0
 40
1.0
 40
1.0
 10
57.5939949214
 20
4.6097545593
 30
0.0
 10
57.594958986
 20
4.7224645539
 30
0.0
 10
57.5572514977
 20
4.9581770419
 30
0.0
 10
57.4141725843
 20
5.2887493429
 30
0.0
 10
57.1994254173
 20
5.5779480957
 30
0.0
 10
57.0141439748
 20
5.7284646442
 30
0.0
 10
56.9160503715
 20
5.7839889632
 30
0.0
  0
SPLINE
  5
3BA
100
AcDbEntity
  8
0
100
AcDbSpline
 62
7
  6
CONTINUOUS
 70
0
 71
3
 72
9
 73
5
 74
0
 42
0.0000001
 43
0.0000001
 44
0.0000000001
 40
0.0
 40
0.0
 40
0.0
 40
0.0
 40
0.2581073391
 40
1.0
 40
1.0
 40
1.0
 40
1.0
 10
-53.3790405282
 20
69.4669921265
 30
0.0
 10
-53.3875066717
 20
69.4719869676
 30
0.0
 10
-53.4206514638
 20
69.4907436336
 30
0.0
 10
-53.4552064185
 20
69.5070569305
 30
0.0
 10
-53.4815053104
 20
69.5173850028
 30
0.0
  0
SPLINE
  5
3BB
100
AcDbEntity
  8
0
100
AcDbSpline
 62
250
  6
CONTINUOUS
 70
0
 71
3
 72
10
 73
6
 74
0
 42
0.0000001
 43
0.0000001
 44
0.0000000001
 40
0.0
 40
0.0
 40
0.0
 40
0.0
 40
0.3605932853
 40
0.6415347606
 40
1.0
 40
1.0
 40
1.0
 40
1.0
 10
-26.8943287939
 20
-1.9996393582
 30
0.0
 10
-26.8926138742
 20
-2.0034766344
 30
0.0
 10
-26.8898165916
 20
-2.0105223406
 30
0.0
 10
-26.8868670757
 20
-2.0214688616
 30
0.0
 10
-26.8874104722
 20
-2.0302611415
 30
0.0
 10
-26.8904048707
 20
-2.033175129
 30
0.0
  0
SPLINE
  5
3BC
100
AcDbEntity
  8
0
100
AcDbSpline
 62
250
  6
CONTINUOUS
 70
0
 71
3
 72
9
 73
5
 74
0
 42
0.0000001
 43
0.0000001
 44
0.0000000001
 40
0.0
 40
0.0
 40
0.0
 40
0.0
 40
0.4797909555
 40
1.0
 40
1.0
 40
1.0
 40
1.0
 10
36.6941557355
 20
-38.8201841115
 30
0.0
 10
36.7043053464
 20
-38.813715625
 30
0.0
 10
36.7230727397
 20
-38.7961996535
 30
0.0
 10
36.7350349883
 20
-38.7736951928
 30
0.0
 10
36.7397228925
 20
-38.7615168071
 30
0.0
  0
SPLINE
  5
3BD
100
AcDbEntity
  8
0
100
AcDbSpline
 62
250
  6
CONTINUOUS
 70
0
 71
3
 72
10
 73
6
 74
0
 42
0.0000001
 43
0.0000001
 44
0.0000000001
 40
0.0
 40
0.0
 40
0.0
 40
0.0
 40
0.3605932853
 40
0.6415347606
 40
1.0
 40
1.0
 40
1.0
 40
1.0
 10
36.7452815128
 20
-38.7443527577
 30
0.0
 10
36.7469964326
 20
-38.7481900339
 30
0.0
 10
36.7497937152
 20
-38.7552357401
 30
0.0
 10
36.7527432311
 20
-38.7661822611
 30
0.0
 10
36.7521998346
 20
-38.774974541
 30
0.0
 10
36.749205436
 20
-38.7778885285
 30
0.0
  0
SPLINE
  5
3BE
100
AcDbEntity
  8
0
100
AcDbSpline
 62
250
  6
CONTINUOUS
 70
0
 71
3
 72
8
 73
4
 74
0
 42
0.0000001
 43
0.0000001
 44
0.0000000001
 40
0.0
 40
0.0
 40
0.0
 40
0.0
 40
1.0
 40
1.0
 40
1.0
 40
1.0
 10
-39.5582036715
 20
37.7420735741
 30
0.0
 10
-39.5586866093
 20
37.7322512289
 30
0.0
 10
-39.5608911128
 20
37.7224023931
 30
0.0
 10
-39.5644791081
 20
37.7132460846
 30
0.0
  0
SPLINE
  5
3BF
100
AcDbEntity
  8
0
100
AcDbSpline
 62
250
  6
CONTINUOUS
 70
0
 71
3
 72
8
 73
4
 74
0
 42
0.0000001
 43
0.0000001
 44
0.0000000001
 40
0.0
 40
0.0
 40
0.0
 40
0.0
 40
1.0
 40
1.0
 40
1.0
 40
1.0
 10
-39.5644791081
 20
37.7132460846
 30
0.0
 10
-39.5672043759
 20
37.7062913953
 30
0.0
 10
-39.5707434285
 20
37.6996209264
 30
0.0
 10
-39.574850991
 20
37.693382119
 30
0.0
  0
SPLINE
  5
3C0
100
AcDbEntity
  8
0
100
AcDbSpline
 62
250
  6
CONTINUOUS
 70
0
 71
3
 72
9
 73
5
 74
0
 42
0.0000001
 43
0.0000001
 44
0.0000000001
 40
0.0
 40
0.0
 40
0.0
 40
0.0
 40
0.2255815582
 40
1.0
 40
1.0
 40
1.0
 40
1.0
 10
-39.574850991
 20
37.693382119
 30
0.0
 10
-39.5785146384
 20
37.6878175559
 30
0.0
 10
-39.5968463389
 20
37.6645144039
 30
0.0
 10
-39.6218142986
 20
37.6471491912
 30
0.0
 10
-39.6420400882
 20
37.6364706153
 30
0.0
  0
SPLINE
  5
3C1
100
AcDbEntity
  8
0
100
AcDbSpline
 62
250
  6
CONTINUOUS
 70
0
 71
3
 72
9
 73
5
 74
0
 42
0.0000001
 43
0.0000001
 44
0.0000000001
 40
0.0
 40
0.0
 40
0.0
 40
0.0
 40
0.4753493101
 40
1.0
 40
1.0
 40
1.0
 40
1.0
 10
-40.0588986
 20
26.82120293
 30
0.0
 10
-40.0588983764
 20
26.8852141854
 30
0.0
 10
-40.0477138114
 20
27.0199721711
 30
0.0
 10
-40.011655836
 20
27.1512745829
 30
0.0
 10
-39.9835482368
 20
27.2160929538
 30
0.0
  0
SPLINE
  5
3C2
100
AcDbEntity
  8
0
100
AcDbSpline
 62
250
  6
CONTINUOUS
 70
0
 71
3
 72
11
 73
7
 74
0
 42
0.0000001
 43
0.0000001
 44
0.0000000001
 40
0.0
 40
0.0
 40
0.0
 40
0.0
 40
0.2128263098
 40
0.4529720998
 40
0.7169824141
 40
1.0
 40
1.0
 40
1.0
 40
1.0
 10
-39.9662837268
 20
20.1596174093
 30
0.0
 10
-39.9855553237
 20
20.1744443595
 30
0.0
 10
-40.01642038
 20
20.2184757562
 30
0.0
 10
-40.0422672247
 20
20.2964651417
 30
0.0
 10
-40.0563176376
 20
20.3856501613
 30
0.0
 10
-40.0588982406
 20
20.4481875757
 30
0.0
 10
-40.0588986
 20
20.480522169
 30
0.0
  0
SPLINE
  5
3C3
100
AcDbEntity
  8
0
100
AcDbSpline
 62
250
  6
CONTINUOUS
 70
0
 71
3
 72
9
 73
5
 74
0
 42
0.0000001
 43
0.0000001
 44
0.0000000001
 40
0.0
 40
0.0
 40
0.0
 40
0.0
 40
0.4839024496
 40
1.0
 40
1.0
 40
1.0
 40
1.0
 10
-39.5578420408
 20
37.7567967264
 30
0.0
 10
-39.5578422207
 20
37.7457487312
 30
0.0
 10
-39.5617595
 20
37.7227834998
 30
0.0
 10
-39.5725258272
 20
37.7022607104
 30
0.0
 10
-39.579227539
 20
37.6925691081
 30
0.0
  0
SPLINE
  5
3C4
100
AcDbEntity
  8
0
100
AcDbSpline
 62
250
  6
CONTINUOUS
 70
0
 71
3
 72
9
 73
5
 74
0
 42
0.0000001
 43
0.0000001
 44
0.0000000001
 40
0.0
 40
0.0
 40
0.0
 40
0.0
 40
0.2344836347
 40
1.0
 40
1.0
 40
1.0
 40
1.0
 10
-39.579227539
 20
37.6925691081
 30
0.0
 10
-39.5820842849
 20
37.6884378582
 30
0.0
 10
-39.5951904211
 20
37.6714576925
 30
0.0
 10
-39.6115462467
 20
37.6571443176
 30
0.0
 10
-39.6249081034
 20
37.6476391484
 30
0.0
  0
SPLINE
  5
3C5
100
AcDbEntity
  8
0
100
AcDbSpline
 62
250
  6
CONTINUOUS
 70
0
 71
3
 72
11
 73
7
 74
0
 42
0.0000001
 43
0.0000001
 44
0.0000000001
 40
0.0
 40
0.0
 40
0.0
 40
0.0
 40
0.2887894662
 40
0.5476638952
 40
0.7812548101
 40
1.0
 40
1.0
 40
1.0
 40
1.0
 10
-39.6420400882
 20
10.1637292341
 30
0.0
 10
-39.6293840638
 20
10.1712962993
 30
0.0
 10
-39.6064407798
 20
10.1876015915
 30
0.0
 10
-39.5791122954
 20
10.2171375401
 30
0.0
 10
-39.5618592037
 20
10.2496385152
 30
0.0
 10
-39.5578422603
 20
10.2728859794
 30
0.0
 10
-39.5578420438
 20
10.2840551859
 30
0.0
  0
SPLINE
  5
3C6
100
AcDbEntity
  8
0
100
AcDbSpline
 62
7
  6
CONTINUOUS
 70
0
 71
3
 72
9
 73
5
 74
0
 42
0.0000001
 43
0.0000001
 44
0.0000000001
 40
0.0
 40
0.0
 40
0.0
 40
0.0
 40
0.2420561751
 40
1.0
 40
1.0
 40
1.0
 40
1.0
 10
57.5864085737
 20
-66.2764227123
 30
0.0
 10
57.5877794286
 20
-66.2673117502
 30
0.0
 10
57.5926159598
 20
-66.2295493065
 30
0.0
 10
57.5942657553
 20
-66.1914019179
 30
0.0
 10
57.5939949214
 20
-66.162553161
 30
0.0
  0
SPLINE
  5
3C7
100
AcDbEntity
  8
0
100
AcDbSpline
 62
250
  6
CONTINUOUS
 70
0
 71
3
 72
11
 73
7
 74
0
 42
0.0000001
 43
0.0000001
 44
0.0000000001
 40
0.0
 40
0.0
 40
0.0
 40
0.0
 40
0.2878624892
 40
0.5465778272
 40
0.7805768354
 40
1.0
 40
1.0
 40
1.0
 40
1.0
 10
-39.9662836603
 20
20.1596175862
 30
0.0
 10
-39.9535148831
 20
20.16748225
 30
0.0
 10
-39.9303837526
 20
20.1844096331
 30
0.0
 10
-39.9029676493
 20
20.2149228931
 30
0.0
 10
-39.885813059
 20
20.2483670666
 30
0.0
 10
-39.8819888075
 20
20.2721826707
 30
0.0
 10
-39.8821088589
 20
20.2836131112
 30
0.0
  0
SPLINE
  5
3C8
100
AcDbEntity
  8
0
100
AcDbSpline
 62
7
  6
CONTINUOUS
 70
0
 71
3
 72
11
 73
7
 74
0
 42
0.0000001
 43
0.0000001
 44
0.0000000001
 40
0.0
 40
0.0
 40
0.0
 40
0.0
 40
0.2579650145
 40
0.5189068469
 40
0.7696058048
 40
1.0
 40
1.0
 40
1.0
 40
1.0
 10
-39.9662836603
 20
20.1596175862
 30
0.0
 10
-39.9583794763
 20
20.1851015228
 30
0.0
 10
-39.9457723068
 20
20.2375791692
 30
0.0
 10
-39.9421419056
 20
20.3175145066
 30
0.0
 10
-39.9504755914
 20
20.3941007618
 30
0.0
 10
-39.9656766424
 20
20.4420802477
 30
0.0
 10
-39.9760322591
 20
20.4635424425
 30
0.0
  0
SPLINE
  5
3C9
100
AcDbEntity
  8
0
100
AcDbSpline
 62
250
  6
CONTINUOUS
 70
0
 71
3
 72
10
 73
6
 74
0
 42
0.0000001
 43
0.0000001
 44
0.0000000001
 40
0.0
 40
0.0
 40
0.0
 40
0.0
 40
0.5420300124
 40
0.778131129
 40
1.0
 40
1.0
 40
1.0
 40
1.0
 10
-39.6420400882
 20
10.1637292341
 30
0.0
 10
-39.6176646491
 20
10.1800080348
 30
0.0
 10
-39.5852488173
 20
10.2094436391
 30
0.0
 10
-39.5616019794
 20
10.2587416908
 30
0.0
 10
-39.5579128774
 20
10.2837244255
 30
0.0
 10
-39.5581131254
 20
10.2957207972
 30
0.0
  0
SPLINE
  5
3CA
100
AcDbEntity
  8
0
100
AcDbSpline
 62
250
  6
CONTINUOUS
 70
0
 71
3
 72
9
 73
5
 74
0
 42
0.0000001
 43
0.0000001
 44
0.0000000001
 40
0.0
 40
0.0
 40
0.0
 40
0.0
 40
0.5420668107
 40
1.0
 40
1.0
 40
1.0
 40
1.0
 10
-40.0588986
 20
20.480522169
 30
0.0
 10
-40.0396318636
 20
20.4920417936
 30
0.0
 10
-40.0062033501
 20
20.5175920974
 30
0.0
 10
-39.9839409917
 20
20.5543587021
 30
0.0
 10
-39.9787233875
 20
20.5725906034
 30
0.0
  0
SPLINE
  5
3CB
100
AcDbEntity
  8
0
100
AcDbSpline
 62
250
  6
CONTINUOUS
 70
0
 71
3
 72
8
 73
4
 74
0
 42
0.0000001
 43
0.0000001
 44
0.0000000001
 40
0.0
 40
0.0
 40
0.0
 40
0.0
 40
1.0
 40
1.0
 40
1.0
 40
1.0
 10
-39.9787233875
 20
20.5725906034
 30
0.0
 10
-39.9761056998
 20
20.5817376031
 30
0.0
 10
-39.9747014565
 20
20.5913340859
 30
0.0
 10
-39.9747006097
 20
20.6008482801
 30
0.0
  0
SPLINE
  5
3CC
100
AcDbEntity
  8
0
100
AcDbSpline
 62
250
  6
CONTINUOUS
 70
0
 71
3
 72
11
 73
7
 74
0
 42
0.0000001
 43
0.0000001
 44
0.0000000001
 40
0.0
 40
0.0
 40
0.0
 40
0.0
 40
0.2886828633
 40
0.5476994509
 40
0.7812427788
 40
1.0
 40
1.0
 40
1.0
 40
1.0
 10
-40.0588986
 20
26.82120293
 30
0.0
 10
-40.0462473869
 20
26.8287671185
 30
0.0
 10
-40.0233080768
 20
26.8450790017
 30
0.0
 10
-39.9959704232
 20
26.8746058798
 30
0.0
 10
-39.9787216599
 20
26.9071150754
 30
0.0
 10
-39.9747016164
 20
26.930359235
 30
0.0
 10
-39.9747006097
 20
26.9415289326
 30
0.0
  0
SPLINE
  5
3CD
100
AcDbEntity
  8
0
100
AcDbSpline
 62
7
  6
CONTINUOUS
 70
0
 71
3
 72
11
 73
7
 74
0
 42
0.0000001
 43
0.0000001
 44
0.0000000001
 40
0.0
 40
0.0
 40
0.0
 40
0.0
 40
0.3864852313
 40
0.6809120088
 40
0.8845931916
 40
1.0
 40
1.0
 40
1.0
 40
1.0
 10
-39.9662836611
 20
27.2528568711
 30
0.0
 10
-39.9623630817
 20
27.2449033797
 30
0.0
 10
-39.9553057494
 20
27.2310375225
 30
0.0
 10
-39.9470519228
 20
27.2122407106
 30
0.0
 10
-39.9436670097
 20
27.1989024887
 30
0.0
 10
-39.9438807425
 20
27.1907972398
 30
0.0
 10
-39.9455130595
 20
27.1887124051
 30
0.0
  0
SPLINE
  5
3CE
100
AcDbEntity
  8
0
100
AcDbSpline
 62
250
  6
CONTINUOUS
 70
0
 71
3
 72
11
 73
7
 74
0
 42
0.0000001
 43
0.0000001
 44
0.0000000001
 40
0.0
 40
0.0
 40
0.0
 40
0.0
 40
0.2896889021
 40
0.5487909506
 40
0.782005403
 40
1.0
 40
1.0
 40
1.0
 40
1.0
 10
-39.9662836611
 20
27.2528568711
 30
0.0
 10
-39.9537648974
 20
27.2601161937
 30
0.0
 10
-39.9310489821
 20
27.2757769878
 30
0.0
 10
-39.90384564
 20
27.3042834235
 30
0.0
 10
-39.8864934345
 20
27.3357749636
 30
0.0
 10
-39.8822516551
 20
27.3584101436
 30
0.0
 10
-39.8821111592
 20
27.3692990411
 30
0.0
  0
SPLINE
  5
3CF
100
AcDbEntity
  8
ASSI
100
AcDbSpline
 62
7
  6
CONTINUOUS
 70
0
 71
3
 72
10
 73
6
 74
0
 42
0.0000001
 43
0.0000001
 44
0.0000000001
 40
0.0
 40
0.0
 40
0.0
 40
0.0
 40
0.5278413137
 40
0.7672927049
 40
1.0
 40
1.0
 40
1.0
 40
1.0
 10
-53.4815053104
 20
69.5173850028
 30
0.0
 10
-53.5401551649
 20
69.5404179102
 30
0.0
 10
-53.6325774237
 20
69.5615485811
 30
0.0
 10
-53.752006488
 20
69.5466174789
 30
0.0
 10
-53.8051295682
 20
69.5256970691
 30
0.0
 10
-53.8294787167
 20
69.5123253941
 30
0.0
  0
SPLINE
  5
3D0
100
AcDbEntity
  8
ASSI
100
AcDbSpline
 62
7
  6
CONTINUOUS
 70
0
 71
3
 72
10
 73
6
 74
0
 42
0.0000001
 43
0.0000001
 44
0.0000000001
 40
0.0
 40
0.0
 40
0.0
 40
0.0
 40
0.2327075462
 40
0.4721590482
 40
1.0
 40
1.0
 40
1.0
 40
1.0
 10
57.4080613088
 20
-66.5752438741
 30
0.0
 10
57.4318143834
 20
-66.5608419448
 30
0.0
 10
57.4764899044
 20
-66.5252952074
 30
0.0
 10
57.5491275252
 20
-66.4293323122
 30
0.0
 10
57.5770337822
 20
-66.3387293574
 30
0.0
 10
57.5864085737
 20
-66.2764227123
 30
0.0
  0
SPLINE
  5
3D1
100
AcDbEntity
  8
ASSI
100
AcDbSpline
 62
7
  6
CONTINUOUS
 70
0
 71
3
 72
9
 73
5
 74
0
 42
0.0000001
 43
0.0000001
 44
0.0000000001
 40
0.0
 40
0.0
 40
0.0
 40
0.0
 40
0.2420561751
 40
1.0
 40
1.0
 40
1.0
 40
1.0
 10
57.5864085737
 20
-66.2764227123
 30
0.0
 10
57.5877794286
 20
-66.2673117502
 30
0.0
 10
57.5926159598
 20
-66.2295493065
 30
0.0
 10
57.5942657553
 20
-66.1914019179
 30
0.0
 10
57.5939949214
 20
-66.162553161
 30
0.0
  0
SPLINE
  5
3D2
100
AcDbEntity
  8
ASSI
100
AcDbSpline
 62
7
  6
CONTINUOUS
 70
0
 71
3
 72
11
 73
7
 74
0
 42
0.0000001
 43
0.0000001
 44
0.0000000001
 40
0.0
 40
0.0
 40
0.0
 40
0.0
 40
0.2398899887
 40
0.4999946019
 40
0.7601021498
 40
1.0
 40
1.0
 40
1.0
 40
1.0
 10
57.5939949214
 20
4.6097545593
 30
0.0
 10
57.594958986
 20
4.7224645539
 30
0.0
 10
57.5572514977
 20
4.9581770419
 30
0.0
 10
57.4141725843
 20
5.2887493429
 30
0.0
 10
57.1994254173
 20
5.5779480957
 30
0.0
 10
57.0141439748
 20
5.7284646442
 30
0.0
 10
56.9160503715
 20
5.7839889632
 30
0.0
  0
SPLINE
  5
3D3
100
AcDbEntity
  8
ASSI
100
AcDbSpline
 62
7
  6
CONTINUOUS
 70
0
 71
3
 72
9
 73
5
 74
0
 42
0.0000001
 43
0.0000001
 44
0.0000000001
 40
0.0
 40
0.0
 40
0.0
 40
0.0
 40
0.2581073391
 40
1.0
 40
1.0
 40
1.0
 40
1.0
 10
-53.3790405282
 20
69.4669921265
 30
0.0
 10
-53.3875066717
 20
69.4719869676
 30
0.0
 10
-53.4206514638
 20
69.4907436336
 30
0.0
 10
-53.4552064185
 20
69.5070569305
 30
0.0
 10
-53.4815053104
 20
69.5173850028
 30
0.0
  0
SPLINE
  5
3D4
100
AcDbEntity
  8
ASSI
100
AcDbSpline
 62
250
  6
CONTINUOUS
 70
0
 71
3
 72
10
 73
6
 74
0
 42
0.0000001
 43
0.0000001
 44
0.0000000001
 40
0.0
 40
0.0
 40
0.0
 40
0.0
 40
0.3605932853
 40
0.6415347606
 40
1.0
 40
1.0
 40
1.0
 40
1.0
 10
-26.8943287939
 20
-1.9996393582
 30
0.0
 10
-26.8926138742
 20
-2.0034766344
 30
0.0
 10
-26.8898165916
 20
-2.0105223406
 30
0.0
 10
-26.8868670757
 20
-2.0214688616
 30
0.0
 10
-26.8874104722
 20
-2.0302611415
 30
0.0
 10
-26.8904048707
 20
-2.033175129
 30
0.0
  0
SPLINE
  5
3D5
100
AcDbEntity
  8
ASSI
100
AcDbSpline
 62
250
  6
CONTINUOUS
 70
0
 71
3
 72
10
 73
6
 74
0
 42
0.0000001
 43
0.0000001
 44
0.0000000001
 40
0.0
 40
0.0
 40
0.0
 40
0.0
 40
0.3605932853
 40
0.6415347606
 40
1.0
 40
1.0
 40
1.0
 40
1.0
 10
36.7452815128
 20
-38.7443527577
 30
0.0
 10
36.7469964326
 20
-38.7481900339
 30
0.0
 10
36.7497937152
 20
-38.7552357401
 30
0.0
 10
36.7527432311
 20
-38.7661822611
 30
0.0
 10
36.7521998346
 20
-38.774974541
 30
0.0
 10
36.749205436
 20
-38.7778885285
 30
0.0
  0
SPLINE
  5
3D6
100
AcDbEntity
  8
ASSI
100
AcDbSpline
 62
250
  6
CONTINUOUS
 70
0
 71
3
 72
8
 73
4
 74
0
 42
0.0000001
 43
0.0000001
 44
0.0000000001
 40
0.0
 40
0.0
 40
0.0
 40
0.0
 40
1.0
 40
1.0
 40
1.0
 40
1.0
 10
-39.5582036715
 20
37.7420735741
 30
0.0
 10
-39.5586866093
 20
37.7322512289
 30
0.0
 10
-39.5608911128
 20
37.7224023931
 30
0.0
 10
-39.5644791081
 20
37.7132460846
 30
0.0
  0
SPLINE
  5
3D7
100
AcDbEntity
  8
ASSI
100
AcDbSpline
 62
250
  6
CONTINUOUS
 70
0
 71
3
 72
8
 73
4
 74
0
 42
0.0000001
 43
0.0000001
 44
0.0000000001
 40
0.0
 40
0.0
 40
0.0
 40
0.0
 40
1.0
 40
1.0
 40
1.0
 40
1.0
 10
-39.5644791081
 20
37.7132460846
 30
0.0
 10
-39.5672043759
 20
37.7062913953
 30
0.0
 10
-39.5707434285
 20
37.6996209264
 30
0.0
 10
-39.574850991
 20
37.693382119
 30
0.0
  0
SPLINE
  5
3D8
100
AcDbEntity
  8
ASSI
100
AcDbSpline
 62
250
  6
CONTINUOUS
 70
0
 71
3
 72
9
 73
5
 74
0
 42
0.0000001
 43
0.0000001
 44
0.0000000001
 40
0.0
 40
0.0
 40
0.0
 40
0.0
 40
0.2255815582
 40
1.0
 40
1.0
 40
1.0
 40
1.0
 10
-39.574850991
 20
37.693382119
 30
0.0
 10
-39.5785146384
 20
37.6878175559
 30
0.0
 10
-39.5968463389
 20
37.6645144039
 30
0.0
 10
-39.6218142986
 20
37.6471491912
 30
0.0
 10
-39.6420400882
 20
37.6364706153
 30
0.0
  0
SPLINE
  5
3D9
100
AcDbEntity
  8
ASSI
100
AcDbSpline
 62
250
  6
CONTINUOUS
 70
0
 71
3
 72
9
 73
5
 74
0
 42
0.0000001
 43
0.0000001
 44
0.0000000001
 40
0.0
 40
0.0
 40
0.0
 40
0.0
 40
0.4753493101
 40
1.0
 40
1.0
 40
1.0
 40
1.0
 10
-40.0588986
 20
26.82120293
 30
0.0
 10
-40.0588983764
 20
26.8852141854
 30
0.0
 10
-40.0477138114
 20
27.0199721711
 30
0.0
 10
-40.011655836
 20
27.1512745829
 30
0.0
 10
-39.9835482368
 20
27.2160929538
 30
0.0
  0
SPLINE
  5
3DA
100
AcDbEntity
  8
ASSI
100
AcDbSpline
 62
250
  6
CONTINUOUS
 70
0
 71
3
 72
9
 73
5
 74
0
 42
0.0000001
 43
0.0000001
 44
0.0000000001
 40
0.0
 40
0.0
 40
0.0
 40
0.0
 40
0.4839024496
 40
1.0
 40
1.0
 40
1.0
 40
1.0
 10
-39.5578420408
 20
37.7567967264
 30
0.0
 10
-39.5578422207
 20
37.7457487312
 30
0.0
 10
-39.5617595
 20
37.7227834998
 30
0.0
 10
-39.5725258272
 20
37.7022607104
 30
0.0
 10
-39.579227539
 20
37.6925691081
 30
0.0
  0
SPLINE
  5
3DB
100
AcDbEntity
  8
ASSI
100
AcDbSpline
 62
250
  6
CONTINUOUS
 70
0
 71
3
 72
9
 73
5
 74
0
 42
0.0000001
 43
0.0000001
 44
0.0000000001
 40
0.0
 40
0.0
 40
0.0
 40
0.0
 40
0.2344836347
 40
1.0
 40
1.0
 40
1.0
 40
1.0
 10
-39.579227539
 20
37.6925691081
 30
0.0
 10
-39.5820842849
 20
37.6884378582
 30
0.0
 10
-39.5951904211
 20
37.6714576925
 30
0.0
 10
-39.6115462467
 20
37.6571443176
 30
0.0
 10
-39.6249081034
 20
37.6476391484
 30
0.0
  0
SPLINE
  5
3DC
100
AcDbEntity
  8
ASSI
100
AcDbSpline
 62
250
  6
CONTINUOUS
 70
0
 71
3
 72
11
 73
7
 74
0
 42
0.0000001
 43
0.0000001
 44
0.0000000001
 40
0.0
 40
0.0
 40
0.0
 40
0.0
 40
0.2128263098
 40
0.4529720998
 40
0.7169824141
 40
1.0
 40
1.0
 40
1.0
 40
1.0
 10
-39.9662837268
 20
20.1596174093
 30
0.0
 10
-39.9855553237
 20
20.1744443595
 30
0.0
 10
-40.01642038
 20
20.2184757562
 30
0.0
 10
-40.0422672247
 20
20.2964651417
 30
0.0
 10
-40.0563176376
 20
20.3856501613
 30
0.0
 10
-40.0588982406
 20
20.4481875757
 30
0.0
 10
-40.0588986
 20
20.480522169
 30
0.0
  0
SPLINE
  5
3DD
100
AcDbEntity
  8
ASSI
100
AcDbSpline
 62
250
  6
CONTINUOUS
 70
0
 71
3
 72
11
 73
7
 74
0
 42
0.0000001
 43
0.0000001
 44
0.0000000001
 40
0.0
 40
0.0
 40
0.0
 40
0.0
 40
0.2887894662
 40
0.5476638952
 40
0.7812548101
 40
1.0
 40
1.0
 40
1.0
 40
1.0
 10
-39.6420400882
 20
10.1637292341
 30
0.0
 10
-39.6293840638
 20
10.1712962993
 30
0.0
 10
-39.6064407798
 20
10.1876015915
 30
0.0
 10
-39.5791122954
 20
10.2171375401
 30
0.0
 10
-39.5618592037
 20
10.2496385152
 30
0.0
 10
-39.5578422603
 20
10.2728859794
 30
0.0
 10
-39.5578420438
 20
10.2840551859
 30
0.0
  0
SPLINE
  5
3DE
100
AcDbEntity
  8
ASSI
100
AcDbSpline
 62
250
  6
CONTINUOUS
 70
0
 71
3
 72
11
 73
7
 74
0
 42
0.0000001
 43
0.0000001
 44
0.0000000001
 40
0.0
 40
0.0
 40
0.0
 40
0.0
 40
0.2878624892
 40
0.5465778273
 40
0.7805768354
 40
1.0
 40
1.0
 40
1.0
 40
1.0
 10
-39.9662836603
 20
20.1596175862
 30
0.0
 10
-39.9535148831
 20
20.16748225
 30
0.0
 10
-39.9303837526
 20
20.1844096331
 30
0.0
 10
-39.9029676492
 20
20.2149228931
 30
0.0
 10
-39.885813059
 20
20.2483670666
 30
0.0
 10
-39.8819888075
 20
20.2721826708
 30
0.0
 10
-39.8821088589
 20
20.2836131113
 30
0.0
  0
SPLINE
  5
3DF
100
AcDbEntity
  8
ASSI
100
AcDbSpline
 62
7
  6
CONTINUOUS
 70
0
 71
3
 72
11
 73
7
 74
0
 42
0.0000001
 43
0.0000001
 44
0.0000000001
 40
0.0
 40
0.0
 40
0.0
 40
0.0
 40
0.2579650145
 40
0.5189068469
 40
0.7696058048
 40
1.0
 40
1.0
 40
1.0
 40
1.0
 10
-39.9662836603
 20
20.1596175862
 30
0.0
 10
-39.9583794763
 20
20.1851015228
 30
0.0
 10
-39.9457723068
 20
20.2375791692
 30
0.0
 10
-39.9421419056
 20
20.3175145066
 30
0.0
 10
-39.9504755914
 20
20.3941007618
 30
0.0
 10
-39.9656766424
 20
20.4420802477
 30
0.0
 10
-39.9760322591
 20
20.4635424425
 30
0.0
  0
SPLINE
  5
3E0
100
AcDbEntity
  8
ASSI
100
AcDbSpline
 62
250
  6
CONTINUOUS
 70
0
 71
3
 72
10
 73
6
 74
0
 42
0.0000001
 43
0.0000001
 44
0.0000000001
 40
0.0
 40
0.0
 40
0.0
 40
0.0
 40
0.5420300124
 40
0.778131129
 40
1.0
 40
1.0
 40
1.0
 40
1.0
 10
-39.6420400882
 20
10.1637292341
 30
0.0
 10
-39.6176646491
 20
10.1800080348
 30
0.0
 10
-39.5852488173
 20
10.2094436391
 30
0.0
 10
-39.5616019794
 20
10.2587416908
 30
0.0
 10
-39.5579128774
 20
10.2837244255
 30
0.0
 10
-39.5581131254
 20
10.2957207972
 30
0.0
  0
SPLINE
  5
3E1
100
AcDbEntity
  8
ASSI
100
AcDbSpline
 62
250
  6
CONTINUOUS
 70
0
 71
3
 72
9
 73
5
 74
0
 42
0.0000001
 43
0.0000001
 44
0.0000000001
 40
0.0
 40
0.0
 40
0.0
 40
0.0
 40
0.5420668107
 40
1.0
 40
1.0
 40
1.0
 40
1.0
 10
-40.0588986
 20
20.480522169
 30
0.0
 10
-40.0396318636
 20
20.4920417936
 30
0.0
 10
-40.0062033501
 20
20.5175920974
 30
0.0
 10
-39.9839409917
 20
20.5543587021
 30
0.0
 10
-39.9787233875
 20
20.5725906034
 30
0.0
  0
SPLINE
  5
3E2
100
AcDbEntity
  8
ASSI
100
AcDbSpline
 62
250
  6
CONTINUOUS
 70
0
 71
3
 72
8
 73
4
 74
0
 42
0.0000001
 43
0.0000001
 44
0.0000000001
 40
0.0
 40
0.0
 40
0.0
 40
0.0
 40
1.0
 40
1.0
 40
1.0
 40
1.0
 10
-39.9787233875
 20
20.5725906034
 30
0.0
 10
-39.9761056998
 20
20.5817376031
 30
0.0
 10
-39.9747014565
 20
20.5913340859
 30
0.0
 10
-39.9747006097
 20
20.6008482801
 30
0.0
  0
SPLINE
  5
3E3
100
AcDbEntity
  8
ASSI
100
AcDbSpline
 62
250
  6
CONTINUOUS
 70
0
 71
3
 72
11
 73
7
 74
0
 42
0.0000001
 43
0.0000001
 44
0.0000000001
 40
0.0
 40
0.0
 40
0.0
 40
0.0
 40
0.2886828633
 40
0.5476994509
 40
0.7812427788
 40
1.0
 40
1.0
 40
1.0
 40
1.0
 10
-40.0588986
 20
26.82120293
 30
0.0
 10
-40.0462473869
 20
26.8287671185
 30
0.0
 10
-40.0233080768
 20
26.8450790017
 30
0.0
 10
-39.9959704232
 20
26.8746058798
 30
0.0
 10
-39.9787216599
 20
26.9071150754
 30
0.0
 10
-39.9747016164
 20
26.930359235
 30
0.0
 10
-39.9747006097
 20
26.9415289326
 30
0.0
  0
SPLINE
  5
3E4
100
AcDbEntity
  8
ASSI
100
AcDbSpline
 62
7
  6
CONTINUOUS
 70
0
 71
3
 72
11
 73
7
 74
0
 42
0.0000001
 43
0.0000001
 44
0.0000000001
 40
0.0
 40
0.0
 40
0.0
 40
0.0
 40
0.386485097
 40
0.6809118347
 40
0.8845930732
 40
1.0
 40
1.0
 40
1.0
 40
1.0
 10
-39.9662836611
 20
27.2528568711
 30
0.0
 10
-39.9623630839
 20
27.244903384
 30
0.0
 10
-39.9553057552
 20
27.2310375325
 30
0.0
 10
-39.9470519289
 20
27.2122407291
 30
0.0
 10
-39.9436670137
 20
27.198902505
 30
0.0
 10
-39.9438807385
 20
27.1907972579
 30
0.0
 10
-39.9455130505
 20
27.1887124166
 30
0.0
  0
SPLINE
  5
3E5
100
AcDbEntity
  8
ASSI
100
AcDbSpline
 62
250
  6
CONTINUOUS
 70
0
 71
3
 72
11
 73
7
 74
0
 42
0.0000001
 43
0.0000001
 44
0.0000000001
 40
0.0
 40
0.0
 40
0.0
 40
0.0
 40
0.2896889021
 40
0.5487909506
 40
0.782005403
 40
1.0
 40
1.0
 40
1.0
 40
1.0
 10
-39.9662836611
 20
27.2528568711
 30
0.0
 10
-39.9537648974
 20
27.2601161937
 30
0.0
 10
-39.9310489821
 20
27.2757769878
 30
0.0
 10
-39.90384564
 20
27.3042834235
 30
0.0
 10
-39.8864934345
 20
27.3357749636
 30
0.0
 10
-39.8822516551
 20
27.3584101436
 30
0.0
 10
-39.8821111592
 20
27.3692990411
 30
0.0
  0
SPLINE
  5
3E6
100
AcDbEntity
  8
ASSI
100
AcDbSpline
 62
250
  6
CONTINUOUS
 70
0
 71
3
 72
9
 73
5
 74
0
 42
0.0000001
 43
0.0000001
 44
0.0000000001
 40
0.0
 40
0.0
 40
0.0
 40
0.0
 40
0.4797909555
 40
1.0
 40
1.0
 40
1.0
 40
1.0
 10
-26.9454545713
 20
-2.075470712
 30
0.0
 10
-26.9353049604
 20
-2.0690022255
 30
0.0
 10
-26.9165375671
 20
-2.0514862541
 30
0.0
 10
-26.9045753185
 20
-2.0289817933
 30
0.0
 10
-26.8998874143
 20
-2.0168034076
 30
0.0
  0
SPLINE
  5
3E7
100
AcDbEntity
  8
ASSI
100
AcDbSpline
 62
250
  6
CONTINUOUS
 70
0
 71
3
 72
9
 73
5
 74
0
 42
0.0000001
 43
0.0000001
 44
0.0000000001
 40
0.0
 40
0.0
 40
0.0
 40
0.0
 40
0.4797909555
 40
1.0
 40
1.0
 40
1.0
 40
1.0
 10
36.6941557355
 20
-38.8201841115
 30
0.0
 10
36.7043053464
 20
-38.813715625
 30
0.0
 10
36.7230727397
 20
-38.7961996535
 30
0.0
 10
36.7350349883
 20
-38.7736951928
 30
0.0
 10
36.7397228925
 20
-38.7615168071
 30
0.0
  0
SPLINE
  5
3E8
100
AcDbEntity
  8
0
100
AcDbSpline
 62
250
  6
CONTINUOUS
 70
0
 71
3
 72
12
 73
8
 74
0
 42
0.0000001
 43
0.0000001
 44
0.0000000001
 40
0.0
 40
0.0
 40
0.0
 40
0.0
 40
0.3333333333
 40
0.5
 40
0.6666666667
 40
0.8333333333
 40
1.0
 40
1.0
 40
1.0
 40
1.0
 10
56.1564638247
 20
-57.1027978604
 30
0.0
 10
56.1537179535
 20
-57.1322434418
 30
0.0
 10
56.1514202925
 20
-57.1755026515
 30
0.0
 10
56.1519405797
 20
-57.2311359271
 30
0.0
 10
56.1541232398
 20
-57.272010643
 30
0.0
 10
56.1582743275
 20
-57.3122699944
 30
0.0
 10
56.1621376571
 20
-57.3386102418
 30
0.0
 10
56.1642349358
 20
-57.3518004381
 30
0.0
  0
SPLINE
  5
3E9
100
AcDbEntity
  8
0
100
AcDbSpline
 62
250
  6
CONTINUOUS
 70
0
 71
3
 72
19
 73
15
 74
0
 42
0.0000001
 43
0.0000001
 44
0.0000000001
 40
0.0
 40
0.0
 40
0.0
 40
0.0
 40
0.1
 40
0.2
 40
0.25
 40
0.3
 40
0.4
 40
0.5
 40
0.6
 40
0.7
 40
0.75
 40
0.8
 40
0.9
 40
1.0
 40
1.0
 40
1.0
 40
1.0
 10
56.3215391191
 20
-56.8211844962
 30
0.0
 10
56.3135593078
 20
-56.8260979425
 30
0.0
 10
56.2980951325
 20
-56.8370124413
 30
0.0
 10
56.2788236746
 20
-56.8538175761
 30
0.0
 10
56.263770854
 20
-56.8689212002
 30
0.0
 10
56.2489436559
 20
-56.8851764911
 30
0.0
 10
56.2312639212
 20
-56.9072336605
 30
0.0
 10
56.2114271566
 20
-56.9369175998
 30
0.0
 10
56.1942367214
 20
-56.9688641301
 30
0.0
 10
56.1824722584
 20
-56.996308209
 30
0.0
 10
56.1744687811
 20
-57.0187951173
 30
0.0
 10
56.1675168274
 20
-57.0412944088
 30
0.0
 10
56.1607448323
 20
-57.0695392547
 30
0.0
 10
56.1575072088
 20
-57.0916070822
 30
0.0
 10
56.1564635539
 20
-57.1028007638
 30
0.0
  0
SPLINE
  5
3EA
100
AcDbEntity
  8
0
100
AcDbSpline
 62
250
  6
CONTINUOUS
 70
0
 71
3
 72
17
 73
13
 74
0
 42
0.0000001
 43
0.0000001
 44
0.0000000001
 40
0.0
 40
0.0
 40
0.0
 40
0.0
 40
0.1428571429
 40
0.2857142857
 40
0.3571428571
 40
0.4285714286
 40
0.5
 40
0.5714285714
 40
0.6428571429
 40
0.7142857143
 40
0.8571428571
 40
1.0
 40
1.0
 40
1.0
 40
1.0
 10
56.5265855063
 20
-56.9501077269
 30
0.0
 10
56.5261620131
 20
-56.928079189
 30
0.0
 10
56.5228940948
 20
-56.8884778407
 30
0.0
 10
56.5136453
 20
-56.8508473201
 30
0.0
 10
56.5024603821
 20
-56.8259778429
 30
0.0
 10
56.4920224003
 20
-56.8104806203
 30
0.0
 10
56.4788019333
 20
-56.7981166808
 30
0.0
 10
56.4627983412
 20
-56.7898915709
 30
0.0
 10
56.4443519584
 20
-56.7854755853
 30
0.0
 10
56.4167128551
 20
-56.784564957
 30
0.0
 10
56.3774275714
 20
-56.7924979091
 30
0.0
 10
56.3409807481
 20
-56.8092114965
 30
0.0
 10
56.321502888
 20
-56.8212068174
 30
0.0
  0
SPLINE
  5
3EB
100
AcDbEntity
  8
0
100
AcDbSpline
 62
250
  6
CONTINUOUS
 70
0
 71
3
 72
17
 73
13
 74
0
 42
0.0000001
 43
0.0000001
 44
0.0000000001
 40
0.0
 40
0.0
 40
0.0
 40
0.0
 40
0.1
 40
0.2
 40
0.3
 40
0.4
 40
0.5
 40
0.6
 40
0.7
 40
0.8
 40
0.9
 40
1.0
 40
1.0
 40
1.0
 40
1.0
 10
56.8590358431
 20
-56.5713994811
 30
0.0
 10
56.8520375161
 20
-56.5786715905
 30
0.0
 10
56.8387267891
 20
-56.5934798478
 30
0.0
 10
56.8197932939
 20
-56.6173330623
 30
0.0
 10
56.8022575505
 20
-56.6424431466
 30
0.0
 10
56.7865038418
 20
-56.6683419871
 30
0.0
 10
56.7728730778
 20
-56.6946203298
 30
0.0
 10
56.7615731883
 20
-56.7210447502
 30
0.0
 10
56.7528131479
 20
-56.7478628829
 30
0.0
 10
56.7468478353
 20
-56.7740539675
 30
0.0
 10
56.7434926767
 20
-56.7986069717
 30
0.0
 10
56.7427605625
 20
-56.8139420654
 30
0.0
 10
56.7427605625
 20
-56.8215541023
 30
0.0
  0
SPLINE
  5
3EC
100
AcDbEntity
  8
0
100
AcDbSpline
 62
250
  6
CONTINUOUS
 70
0
 71
3
 72
12
 73
8
 74
0
 42
0.0000001
 43
0.0000001
 44
0.0000000001
 40
0.0
 40
0.0
 40
0.0
 40
0.0
 40
0.1666666667
 40
0.3333333333
 40
0.5
 40
0.6666666667
 40
1.0
 40
1.0
 40
1.0
 40
1.0
 10
57.2593140268
 20
-56.1904748532
 30
0.0
 10
57.2350209654
 20
-56.2132075731
 30
0.0
 10
57.1871499325
 20
-56.2583020574
 30
0.0
 10
57.1173690519
 20
-56.3241952056
 30
0.0
 10
57.0493576501
 20
-56.3876357297
 30
0.0
 10
56.9612426742
 20
-56.4695312998
 30
0.0
 10
56.8986731529
 20
-56.5301978286
 30
0.0
 10
56.8590081582
 20
-56.571428269
 30
0.0
  0
SPLINE
  5
3ED
100
AcDbEntity
  8
0
100
AcDbSpline
 62
250
  6
CONTINUOUS
 70
0
 71
3
 72
10
 73
6
 74
0
 42
0.0000001
 43
0.0000001
 44
0.0000000001
 40
0.0
 40
0.0
 40
0.0
 40
0.0
 40
0.3333333333
 40
0.6666666667
 40
1.0
 40
1.0
 40
1.0
 40
1.0
 10
56.9020892329
 20
-56.2032939247
 30
0.0
 10
56.9431663248
 20
-56.1655823231
 30
0.0
 10
57.0244862467
 20
-56.0916189781
 30
0.0
 10
57.1436007853
 20
-55.9840213253
 30
0.0
 10
57.22114265
 20
-55.9140330526
 30
0.0
 10
57.2593140268
 20
-55.8790269712
 30
0.0
  0
SPLINE
  5
3EE
100
AcDbEntity
  8
0
100
AcDbSpline
 62
250
  6
CONTINUOUS
 70
0
 71
3
 72
16
 73
12
 74
0
 42
0.0000001
 43
0.0000001
 44
0.0000000001
 40
0.0
 40
0.0
 40
0.0
 40
0.0
 40
0.1111111111
 40
0.2222222222
 40
0.3333333333
 40
0.4444444444
 40
0.5555555556
 40
0.6666666667
 40
0.7777777778
 40
0.8888888889
 40
1.0
 40
1.0
 40
1.0
 40
1.0
 10
56.643175524
 20
-56.5447441378
 30
0.0
 10
56.6473355101
 20
-56.5299967693
 30
0.0
 10
56.657844742
 20
-56.5007670747
 30
0.0
 10
56.6797630809
 20
-56.4568869567
 30
0.0
 10
56.7052597833
 20
-56.4159297172
 30
0.0
 10
56.7332299723
 20
-56.3774718668
 30
0.0
 10
56.7621316309
 20
-56.3421688016
 30
0.0
 10
56.7926839461
 20
-56.3081943933
 30
0.0
 10
56.8254670474
 20
-56.2745754277
 30
0.0
 10
56.8613620278
 20
-56.2404409796
 30
0.0
 10
56.8881412264
 20
-56.2160991562
 30
0.0
 10
56.9020892329
 20
-56.2032939249
 30
0.0
  0
SPLINE
  5
3EF
100
AcDbEntity
  8
0
100
AcDbSpline
 62
250
  6
CONTINUOUS
 70
0
 71
3
 72
30
 73
26
 74
0
 42
0.0000001
 43
0.0000001
 44
0.0000000001
 40
0.0
 40
0.0
 40
0.0
 40
0.0
 40
0.0526315789
 40
0.1052631579
 40
0.1578947368
 40
0.2105263158
 40
0.2631578947
 40
0.3157894737
 40
0.3684210526
 40
0.4210526316
 40
0.4736842105
 40
0.5263157895
 40
0.5789473684
 40
0.6315789474
 40
0.6842105263
 40
0.7368421053
 40
0.7894736842
 40
0.8157894737
 40
0.8421052632
 40
0.8684210526
 40
0.8947368421
 40
0.9210526316
 40
0.9473684211
 40
0.9736842105
 40
1.0
 40
1.0
 40
1.0
 40
1.0
 10
55.9686875726
 20
-56.9814059407
 30
0.0
 10
55.9746602215
 20
-56.9583786212
 30
0.0
 10
55.99146413
 20
-56.9090125122
 30
0.0
 10
56.0333675375
 20
-56.8196476502
 30
0.0
 10
56.0886110415
 20
-56.7305780826
 30
0.0
 10
56.1541495687
 20
-56.649464006
 30
0.0
 10
56.2201254457
 20
-56.5867375262
 30
0.0
 10
56.2830333392
 20
-56.5399963451
 30
0.0
 10
56.3388223515
 20
-56.5070193287
 30
0.0
 10
56.3881362459
 20
-56.4850354083
 30
0.0
 10
56.4313681326
 20
-56.4720021303
 30
0.0
 10
56.4695293677
 20
-56.46603009
 30
0.0
 10
56.5023620275
 20
-56.4656623689
 30
0.0
 10
56.5305781399
 20
-56.4696435977
 30
0.0
 10
56.554383058
 20
-56.4770940165
 30
0.0
 10
56.5744260358
 20
-56.4871150333
 30
0.0
 10
56.5886831057
 20
-56.4963852378
 30
0.0
 10
56.5989573766
 20
-56.5039004755
 30
0.0
 10
56.6061920603
 20
-56.5095287029
 30
0.0
 10
56.6129652331
 20
-56.515051913
 30
0.0
 10
56.6193976382
 20
-56.5204610567
 30
0.0
 10
56.6253473814
 20
-56.5263994265
 30
0.0
 10
56.6302219367
 20
-56.5330411493
 30
0.0
 10
56.6337167099
 20
-56.5405583838
 30
0.0
 10
56.6350144321
 20
-56.5463324613
 30
0.0
 10
56.6353758013
 20
-56.5494076094
 30
0.0
  0
SPLINE
  5
3F0
100
AcDbEntity
  8
0
100
AcDbSpline
 62
250
  6
CONTINUOUS
 70
0
 71
3
 72
15
 73
11
 74
0
 42
0.0000001
 43
0.0000001
 44
0.0000000001
 40
0.0
 40
0.0
 40
0.0
 40
0.0
 40
0.125
 40
0.25
 40
0.375
 40
0.5
 40
0.625
 40
0.75
 40
0.875
 40
1.0
 40
1.0
 40
1.0
 40
1.0
 10
55.9547906047
 20
-57.7887779847
 30
0.0
 10
55.9497313079
 20
-57.751389104
 30
0.0
 10
55.9403881258
 20
-57.6790909517
 30
0.0
 10
55.9299254455
 20
-57.5783915379
 30
0.0
 10
55.9232098239
 20
-57.4815205777
 30
0.0
 10
55.920610654
 20
-57.3862055828
 30
0.0
 10
55.9227151283
 20
-57.2893150897
 30
0.0
 10
55.9304559216
 20
-57.1897403946
 30
0.0
 10
55.9448777249
 20
-57.0872602482
 30
0.0
 10
55.9594177874
 20
-57.017101479
 30
0.0
 10
55.9686875726
 20
-56.9814059408
 30
0.0
  0
SPLINE
  5
3F1
100
AcDbEntity
  8
SMUSSO
100
AcDbSpline
 62
7
  6
CONTINUOUS
 70
0
 71
3
 72
11
 73
7
 74
0
 42
0.0000001
 43
0.0000001
 44
0.0000000001
 40
0.0
 40
0.0
 40
0.0
 40
0.0
 40
0.2177671711
 40
0.4509440243
 40
0.7101952095
 40
1.0
 40
1.0
 40
1.0
 40
1.0
 10
-56.8564346207
 20
68.9082384657
 30
0.0
 10
-56.8234493398
 20
68.9272837648
 30
0.0
 10
-56.74765269
 20
68.9548124723
 30
0.0
 10
-56.6217725355
 20
68.9579622896
 30
0.0
 10
-56.4875878896
 20
68.9255984696
 30
0.0
 10
-56.4003073152
 20
68.8840427817
 30
0.0
 10
-56.3564104606
 20
68.858697288
 30
0.0
  0
SPLINE
  5
3F2
100
AcDbEntity
  8
SMUSSO
100
AcDbSpline
 62
7
  6
CONTINUOUS
 70
0
 71
3
 72
11
 73
7
 74
0
 42
0.0000001
 43
0.0000001
 44
0.0000000001
 40
0.0
 40
0.0
 40
0.0
 40
0.0
 40
0.2177702367
 40
0.4509592576
 40
0.7101782618
 40
1.0
 40
1.0
 40
1.0
 40
1.0
 10
-57.9170936463
 20
68.2958241316
 30
0.0
 10
-57.9500742693
 20
68.2767815382
 30
0.0
 10
-58.0118031843
 20
68.2249090871
 30
0.0
 10
-58.0774641588
 20
68.1174895071
 30
0.0
 10
-58.1165095692
 20
67.9851186572
 30
0.0
 10
-58.1241774135
 20
67.8887733343
 30
0.0
 10
-58.1241774135
 20
67.8380897145
 30
0.0
  0
SPLINE
  5
3F3
100
AcDbEntity
  8
RACCORDO
100
AcDbSpline
 62
7
  6
CONTINUOUS
 70
0
 71
3
 72
11
 73
7
 74
0
 42
0.0000001
 43
0.0000001
 44
0.0000000001
 40
0.0
 40
0.0
 40
0.0
 40
0.0
 40
0.2177664648
 40
0.4509472453
 40
0.7101858544
 40
1.0
 40
1.0
 40
1.0
 40
1.0
 10
-42.1071954339
 20
40.1365408208
 30
0.0
 10
-42.0676133213
 20
40.1593950306
 30
0.0
 10
-41.9766575282
 20
40.1924317924
 30
0.0
 10
-41.8256036259
 20
40.1962081459
 30
0.0
 10
-41.6645811822
 20
40.157378175
 30
0.0
 10
-41.5598458424
 20
40.1075096967
 30
0.0
 10
-41.5071680557
 20
40.0770942028
 30
0.0
  0
SPLINE
  5
3F4
100
AcDbEntity
  8
SMUSSO
100
AcDbSpline
 62
7
  6
CONTINUOUS
 70
0
 71
3
 72
11
 73
7
 74
0
 42
0.0000001
 43
0.0000001
 44
0.0000000001
 40
0.0
 40
0.0
 40
0.0
 40
0.0
 40
0.2372289802
 40
0.5000061088
 40
0.7627799118
 40
1.0
 40
1.0
 40
1.0
 40
1.0
 10
55.2250396107
 20
4.4330059158
 30
0.0
 10
55.2752309635
 20
4.4040260577
 30
0.0
 10
55.3702192184
 20
4.3240824527
 30
0.0
 10
55.4810819196
 20
4.1725792193
 30
0.0
 10
55.5568556058
 20
4.0008198032
 30
0.0
 10
55.5785930012
 20
3.878588224
 30
0.0
 10
55.5785930013
 20
3.8206334807
 30
0.0
  0
SPLINE
  5
3F5
100
AcDbEntity
  8
RACCORDO
100
AcDbSpline
 62
7
  6
CONTINUOUS
 70
0
 71
3
 72
11
 73
7
 74
0
 42
0.0000001
 43
0.0000001
 44
0.0000000001
 40
0.0
 40
0.0
 40
0.0
 40
0.0
 40
0.2372212891
 40
0.5000061068
 40
0.7627876004
 40
1.0
 40
1.0
 40
1.0
 40
1.0
 10
36.4867099092
 20
-4.9555934412
 30
0.0
 10
36.6071652072
 20
-5.0251428206
 30
0.0
 10
36.8351345523
 20
-5.2170091661
 30
0.0
 10
37.1012160712
 20
-5.5806148421
 30
0.0
 10
37.2830655973
 20
-5.9928459569
 30
0.0
 10
37.3352380466
 20
-6.2862004599
 30
0.0
 10
37.3352380466
 20
-6.4252872854
 30
0.0
  0
SPLINE
  5
3F6
100
AcDbEntity
  8
SMUSSO
100
AcDbSpline
 62
7
  6
CONTINUOUS
 70
0
 71
3
 72
11
 73
7
 74
0
 42
0.0000001
 43
0.0000001
 44
0.0000000001
 40
0.0
 40
0.0
 40
0.0
 40
0.0
 40
0.2898288658
 40
0.5490499742
 40
0.7822376363
 40
1.0
 40
1.0
 40
1.0
 40
1.0
 10
53.8108260483
 20
-69.4576330438
 30
0.0
 10
53.8547262444
 20
-69.4829804666
 30
0.0
 10
53.9420116181
 20
-69.5245204461
 30
0.0
 10
54.076191383
 20
-69.5569000133
 30
0.0
 10
54.2020676986
 20
-69.5537450032
 30
0.0
 10
54.2778643344
 20
-69.5262167409
 30
0.0
 10
54.3108486648
 20
-69.5071720069
 30
0.0
  0
SPLINE
  5
3F7
100
AcDbEntity
  8
RACCORDO
100
AcDbSpline
 62
7
  6
CONTINUOUS
 70
0
 71
3
 72
11
 73
7
 74
0
 42
0.0000001
 43
0.0000001
 44
0.0000000001
 40
0.0
 40
0.0
 40
0.0
 40
0.0
 40
0.2898086042
 40
0.549045169
 40
0.7822281919
 40
1.0
 40
1.0
 40
1.0
 40
1.0
 10
37.3352380466
 20
-41.6151562151
 30
0.0
 10
37.3352380466
 20
-41.6759740073
 30
0.0
 10
37.3260562067
 20
-41.7915925433
 30
0.0
 10
37.2791770679
 20
-41.9504312032
 30
0.0
 10
37.2003907538
 20
-42.079340787
 30
0.0
 10
37.1263144538
 20
-42.1415862995
 30
0.0
 10
37.0867372875
 20
-42.1644376533
 30
0.0
  0
SPLINE
  5
3F8
100
AcDbEntity
  8
RACCORDO
100
AcDbSpline
 62
7
  6
CONTINUOUS
 70
0
 71
3
 72
11
 73
7
 74
0
 42
0.0000001
 43
0.0000001
 44
0.0000000001
 40
0.0
 40
0.0
 40
0.0
 40
0.0
 40
0.2372123996
 40
0.4999938932
 40
0.7627787109
 40
1.0
 40
1.0
 40
1.0
 40
1.0
 10
-40.2343758495
 20
5.6222142329
 30
0.0
 10
-40.2343758495
 20
5.4831274074
 30
0.0
 10
-40.1822034002
 20
5.1897729044
 30
0.0
 10
-40.0003538741
 20
4.7775417896
 30
0.0
 10
-39.7342723552
 20
4.4139361136
 30
0.0
 10
-39.50630301
 20
4.2220697681
 30
0.0
 10
-39.3858477121
 20
4.1525203887
 30
0.0
  0
SPLINE
  5
3F9
100
AcDbEntity
  8
SMUSSO
100
AcDbSpline
 62
7
  6
CONTINUOUS
 70
0
 71
3
 72
11
 73
7
 74
0
 42
0.0000001
 43
0.0000001
 44
0.0000000001
 40
0.0
 40
0.0
 40
0.0
 40
0.0
 40
0.289799239
 40
0.5490483965
 40
0.7822274816
 40
1.0
 40
1.0
 40
1.0
 40
1.0
 10
55.5785930013
 20
-68.4370254704
 30
0.0
 10
55.5785930012
 20
-68.4877054598
 30
0.0
 10
55.5709397109
 20
-68.5840545265
 30
0.0
 10
55.5318788981
 20
-68.7164222011
 30
0.0
 10
55.4662202149
 20
-68.8238470868
 30
0.0
 10
55.4044915398
 20
-68.875719412
 30
0.0
 10
55.3715103802
 20
-68.8947623315
 30
0.0
  0
SPLINE
  5
3FA
100
AcDbEntity
  8
RACCORDO
100
AcDbSpline
 62
7
  6
CONTINUOUS
 70
0
 71
3
 72
11
 73
7
 74
0
 42
0.0000001
 43
0.0000001
 44
0.0000000001
 40
0.0
 40
0.0
 40
0.0
 40
0.0
 40
0.2898086042
 40
0.549045169
 40
0.7822281919
 40
1.0
 40
1.0
 40
1.0
 40
1.0
 10
-42.3556961931
 20
39.5872593827
 30
0.0
 10
-42.3556961931
 20
39.6480771748
 30
0.0
 10
-42.3465143531
 20
39.7636957108
 30
0.0
 10
-42.2996352143
 20
39.9225343707
 30
0.0
 10
-42.2208489002
 20
40.0514439545
 30
0.0
 10
-42.1467726003
 20
40.113689467
 30
0.0
 10
-42.1071954339
 20
40.1365408208
 30
0.0
  0
SPLINE
  5
3FB
100
AcDbEntity
  8
SMUSSO
100
AcDbSpline
 62
7
  6
CONTINUOUS
 70
0
 71
3
 72
11
 73
7
 74
0
 42
0.0000001
 43
0.0000001
 44
0.0000000001
 40
0.0
 40
0.0
 40
0.0
 40
0.0
 40
0.2897994248
 40
0.5490555345
 40
0.782229434
 40
1.0
 40
1.0
 40
1.0
 40
1.0
 10
-57.4170706323
 20
68.246285398
 30
0.0
 10
-57.4609667475
 20
68.271630465
 30
0.0
 10
-57.5482402727
 20
68.3132046159
 30
0.0
 10
-57.682431247
 20
68.3455416672
 30
0.0
 10
-57.8083114359
 20
68.3424027546
 30
0.0
 10
-57.8841077889
 20
68.3148697473
 30
0.0
 10
-57.9170936463
 20
68.2958241316
 30
0.0
  0
SPLINE
  5
3FC
100
AcDbEntity
  8
RACCORDO
100
AcDbSpline
 62
7
  6
CONTINUOUS
 70
0
 71
3
 72
11
 73
7
 74
0
 42
0.0000001
 43
0.0000001
 44
0.0000000001
 40
0.0
 40
0.0
 40
0.0
 40
0.0
 40
0.2177664648
 40
0.4509472453
 40
0.7101858544
 40
1.0
 40
1.0
 40
1.0
 40
1.0
 10
37.0867372875
 20
-42.1644376533
 30
0.0
 10
37.0471551749
 20
-42.1872918631
 30
0.0
 10
36.9561993818
 20
-42.2203286249
 30
0.0
 10
36.8051454794
 20
-42.2241049784
 30
0.0
 10
36.6441230358
 20
-42.1852750075
 30
0.0
 10
36.539387696
 20
-42.1354065292
 30
0.0
 10
36.4867099092
 20
-42.1049910353
 30
0.0
  0
SPLINE
  5
3FD
100
AcDbEntity
  8
SMUSSO
100
AcDbSpline
 62
7
  6
CONTINUOUS
 70
0
 71
3
 72
11
 73
7
 74
0
 42
0.0000001
 43
0.0000001
 44
0.0000000001
 40
0.0
 40
0.0
 40
0.0
 40
0.0
 40
0.2177733798
 40
0.4509504049
 40
0.7102045303
 40
1.0
 40
1.0
 40
1.0
 40
1.0
 10
54.3108486648
 20
-69.5071720069
 30
0.0
 10
54.3438299858
 20
-69.4881290105
 30
0.0
 10
54.4055615709
 20
-69.4362589406
 30
0.0
 10
54.4712111203
 20
-69.3288292137
 30
0.0
 10
54.5102976074
 20
-69.1964689641
 30
0.0
 10
54.5179328295
 20
-69.1001167275
 30
0.0
 10
54.5179328295
 20
-69.0494373604
 30
0.0
  0
SPLINE
  5
3FE
100
AcDbEntity
  8
RACCORDO
100
AcDbSpline
 62
7
  6
CONTINUOUS
 70
0
 71
3
 72
11
 73
7
 74
0
 42
0.0000001
 43
0.0000001
 44
0.0000000001
 40
0.0
 40
0.0
 40
0.0
 40
0.0
 40
0.2372212891
 40
0.5000061068
 40
0.7627876004
 40
1.0
 40
1.0
 40
1.0
 40
1.0
 10
-41.5071680557
 20
2.9276966087
 30
0.0
 10
-41.6276233536
 20
2.9972459881
 30
0.0
 10
-41.8555926987
 20
3.1891123336
 30
0.0
 10
-42.1216742177
 20
3.5527180096
 30
0.0
 10
-42.3035237437
 20
3.9649491244
 30
0.0
 10
-42.3556961931
 20
4.2583036274
 30
0.0
 10
-42.3556961931
 20
4.3973904529
 30
0.0
  0
SPLINE
  5
3FF
100
AcDbEntity
  8
SMUSSO
100
AcDbSpline
 62
7
  6
CONTINUOUS
 70
0
 71
3
 72
11
 73
7
 74
0
 42
0.0000001
 43
0.0000001
 44
0.0000000001
 40
0.0
 40
0.0
 40
0.0
 40
0.0
 40
0.2372223372
 40
0.5000061073
 40
0.7627865538
 40
1.0
 40
1.0
 40
1.0
 40
1.0
 10
54.8714862201
 20
4.6371037575
 30
0.0
 10
54.9718661509
 20
4.5791456434
 30
0.0
 10
55.161841963
 20
4.4192583488
 30
0.0
 10
55.3835757197
 20
4.1162531845
 30
0.0
 10
55.5351177882
 20
3.7727277683
 30
0.0
 10
55.5785930012
 20
3.5282651703
 30
0.0
 10
55.5785930013
 20
3.4123588874
 30
0.0
  0
SPLINE
  5
400
100
AcDbEntity
  8
SMUSSO
100
AcDbSpline
 62
7
  6
CONTINUOUS
 70
0
 71
3
 72
11
 73
7
 74
0
 42
0.0000001
 43
0.0000001
 44
0.0000000001
 40
0.0
 40
0.0
 40
0.0
 40
0.0
 40
0.2372122791
 40
0.4999939823
 40
0.7627790924
 40
1.0
 40
1.0
 40
1.0
 40
1.0
 10
54.5179328295
 20
2.7999469974
 30
0.0
 10
54.51793283
 20
2.9158525616
 30
0.0
 10
54.4744539095
 20
3.1603140507
 30
0.0
 10
54.3229154579
 20
3.5038414028
 30
0.0
 10
54.1011770518
 20
3.8068429291
 30
0.0
 10
53.9112052458
 20
3.9667341771
 30
0.0
 10
53.8108260483
 20
4.0246918675
 30
0.0
  0
ELLIPSE
  5
401
100
AcDbEntity
  8
0
100
AcDbEllipse
 62
7
  6
CONTINUOUS
 10
57.7612503848
 20
-64.7872209366
 30
0.0
 11
-0.0320188688
 21
0.0554549875
 31
0.0
 40
0.5632057935
 41
-2.5265952341
 42
-2.3686251639
  0
ELLIPSE
  5
402
100
AcDbEntity
  8
0
100
AcDbEllipse
 62
7
  6
CONTINUOUS
 10
57.7612503848
 20
5.4892231026
 30
0.0
 11
-0.0312356712
 21
0.0540980115
 31
0.0
 40
0.5918118391
 41
-2.3438606673
 42
-0.7978336343
  0
ELLIPSE
  5
403
100
AcDbEntity
  8
0
100
AcDbEllipse
 62
7
  6
CONTINUOUS
 10
-52.1043961353
 20
68.9242704634
 30
0.0
 11
-0.0320188688
 21
0.0554549875
 31
0.0
 40
0.5632057935
 41
-0.7730595434
 42
-0.6150059205
  0
ELLIPSE
  5
404
100
AcDbEntity
  8
0
100
AcDbEllipse
 62
7
  6
CONTINUOUS
 10
-10.5284699035
 20
-10.774353466
 30
0.0
 11
0.2999993451
 21
0.1746271577
 31
0.0
 40
0.0035896273
 41
-0.7351277754
 42
-0.0020894543
  0
ELLIPSE
  5
405
100
AcDbEntity
  8
0
100
AcDbEllipse
 62
7
  6
CONTINUOUS
 10
5.3814326732
 20
-19.9605318159
 30
0.0
 11
0.2999993451
 21
0.1746271577
 31
0.0
 40
0.0035896273
 41
-0.7351277754
 42
-0.0020894543
  0
ELLIPSE
  5
406
100
AcDbEntity
  8
0
100
AcDbEllipse
 62
7
  6
CONTINUOUS
 10
21.2913352499
 20
-29.1467101658
 30
0.0
 11
0.2999993451
 21
0.1746271577
 31
0.0
 40
0.0035896273
 41
-0.7351277754
 42
-0.0020894543
  0
ELLIPSE
  5
407
100
AcDbEntity
  8
0
100
AcDbEllipse
 62
7
  6
CONTINUOUS
 10
-25.098478346
 20
-0.8138727607
 30
0.0
 11
0.1999995634
 21
0.1164181051
 31
0.0
 40
0.0035896273
 41
-0.7351277754
 42
-0.6748017824
  0
ELLIPSE
  5
408
100
AcDbEntity
  8
0
100
AcDbEllipse
 62
7
  6
CONTINUOUS
 10
34.7151305702
 20
-34.7781360741
 30
0.0
 11
0.1998333781
 21
-0.0157785196
 31
0.0
 40
0.5172961965
 41
0.8262203412
 42
2.3446567905
  0
ELLIPSE
  5
409
100
AcDbEntity
  8
0
100
AcDbEllipse
 62
7
  6
CONTINUOUS
 10
-28.9244797366
 20
1.9665773254
 30
0.0
 11
0.1998333781
 21
-0.0157785196
 31
0.0
 40
0.5172961965
 41
0.8262203412
 42
2.3446567905
  0
ELLIPSE
  5
40A
100
AcDbEntity
  8
0
100
AcDbEllipse
 62
7
  6
CONTINUOUS
 10
17.5995377154
 20
-26.3408919829
 30
0.0
 11
0.2999972416
 21
-0.0022477848
 31
0.0
 40
0.5723275643
 41
0.7896864073
 42
2.3081228565
  0
ELLIPSE
  5
40B
100
AcDbEntity
  8
0
100
AcDbEllipse
 62
7
  6
CONTINUOUS
 10
1.6896351387
 20
-17.154713633
 30
0.0
 11
0.2999972416
 21
-0.0022477848
 31
0.0
 40
0.5723275643
 41
0.7896864073
 42
2.3081228565
  0
ELLIPSE
  5
40C
100
AcDbEntity
  8
0
100
AcDbEllipse
 62
7
  6
CONTINUOUS
 10
-14.220267438
 20
-7.9685352831
 30
0.0
 11
0.2999972416
 21
-0.0022477848
 31
0.0
 40
0.5723275643
 41
0.7896864073
 42
2.3081228565
  0
ELLIPSE
  5
40D
100
AcDbEntity
  8
0
100
AcDbEllipse
 62
7
  6
CONTINUOUS
 10
33.1969030403
 20
-36.081550587
 30
0.0
 11
0.5413005334
 21
0.8416911418
 31
0.0
 40
0.6067084637
 41
0.7148472392
 42
0.8145158917
  0
ELLIPSE
  5
40E
100
AcDbEntity
  8
0
100
AcDbEllipse
 62
7
  6
CONTINUOUS
 10
-30.4427072665
 20
0.6631628125
 30
0.0
 11
0.5413005334
 21
0.8416911418
 31
0.0
 40
0.6067084637
 41
0.7148472392
 42
0.8145158917
  0
ELLIPSE
  5
40F
100
AcDbEntity
  8
0
100
AcDbEllipse
 62
7
  6
CONTINUOUS
 10
-10.5284699035
 20
-10.1001329105
 30
0.0
 11
0.2999972416
 21
-0.0022477848
 31
0.0
 40
0.5723275643
 41
-0.728750042
 42
0.7896864073
  0
ELLIPSE
  5
410
100
AcDbEntity
  8
0
100
AcDbEllipse
 62
7
  6
CONTINUOUS
 10
-26.1963700082
 20
-1.7886191014
 30
0.0
 11
0.4625183445
 21
0.8873459255
 31
0.0
 40
0.5463614449
 41
0.662201126
 42
0.7618697785
  0
ELLIPSE
  5
411
100
AcDbEntity
  8
0
100
AcDbEllipse
 62
7
  6
CONTINUOUS
 10
57.7517505165
 20
5.501151261
 30
0.0
 11
1.1066889452
 21
-0.4882482052
 31
0.0
 40
0.0945009384
 41
-2.4253001261
 42
-2.3839902126
  0
ELLIPSE
  5
412
100
AcDbEntity
  8
0
100
AcDbEllipse
 62
7
  6
CONTINUOUS
 10
-52.4861966705
 20
69.1511603608
 30
0.0
 11
1.1066889452
 21
-0.4882482052
 31
0.0
 40
0.0945009384
 41
-2.4666100396
 42
-2.4253001261
  0
ELLIPSE
  5
413
100
AcDbEntity
  8
0
100
AcDbEllipse
 62
7
  6
CONTINUOUS
 10
57.7668493216
 20
-65.231326607
 30
0.0
 11
0.1304932868
 21
1.2025842266
 31
0.0
 40
0.0944494463
 41
-3.8578203675
 42
-3.816510454
  0
ELLIPSE
  5
414
100
AcDbEntity
  8
0
100
AcDbEllipse
 62
7
  6
CONTINUOUS
 10
57.7668493216
 20
5.4749993633
 30
0.0
 11
0.1304932868
 21
1.2025842266
 31
0.0
 40
0.0944494463
 41
-3.899130281
 42
-3.8578203675
  0
ELLIPSE
  5
415
100
AcDbEntity
  8
0
100
AcDbEllipse
 62
7
  6
CONTINUOUS
 10
-25.098478346
 20
-0.2425079265
 30
0.0
 11
0.1998333781
 21
-0.0157785196
 31
0.0
 40
0.5172961965
 41
-0.692216108
 42
0.8262203412
  0
ELLIPSE
  5
416
100
AcDbEntity
  8
0
100
AcDbEllipse
 62
7
  6
CONTINUOUS
 10
21.2913352499
 20
-28.4724896102
 30
0.0
 11
0.2999972416
 21
-0.0022477848
 31
0.0
 40
0.5723275643
 41
-0.728750042
 42
0.7896864073
  0
ELLIPSE
  5
417
100
AcDbEntity
  8
0
100
AcDbEllipse
 62
7
  6
CONTINUOUS
 10
5.3814326732
 20
-19.2863112603
 30
0.0
 11
0.2999972416
 21
-0.0022477848
 31
0.0
 40
0.5723275643
 41
-0.728750042
 42
0.7896864073
  0
ELLIPSE
  5
418
100
AcDbEntity
  8
ASSI
100
AcDbEllipse
 62
7
  6
CONTINUOUS
 10
57.7612503848
 20
-64.7872209366
 30
0.0
 11
-0.0320188688
 21
0.0554549875
 31
0.0
 40
0.5632057935
 41
-2.5265952341
 42
-2.3686251639
  0
ELLIPSE
  5
419
100
AcDbEntity
  8
ASSI
100
AcDbEllipse
 62
7
  6
CONTINUOUS
 10
57.7612503848
 20
5.4892231026
 30
0.0
 11
-0.0312356712
 21
0.0540980115
 31
0.0
 40
0.5918118391
 41
-2.3438606673
 42
-0.7978336343
  0
ELLIPSE
  5
41A
100
AcDbEntity
  8
ASSI
100
AcDbEllipse
 62
7
  6
CONTINUOUS
 10
-52.1043961353
 20
68.9242704634
 30
0.0
 11
-0.0320188688
 21
0.0554549875
 31
0.0
 40
0.5632057935
 41
-0.7730595434
 42
-0.6150059205
  0
ELLIPSE
  5
41B
100
AcDbEntity
  8
ASSI
100
AcDbEllipse
 62
7
  6
CONTINUOUS
 10
-10.5284699035
 20
-10.774353466
 30
0.0
 11
0.2999993451
 21
0.1746271577
 31
0.0
 40
0.0035896273
 41
-0.7351277754
 42
-0.0020894543
  0
ELLIPSE
  5
41C
100
AcDbEntity
  8
ASSI
100
AcDbEllipse
 62
7
  6
CONTINUOUS
 10
5.3814326732
 20
-19.9605318159
 30
0.0
 11
0.2999993451
 21
0.1746271577
 31
0.0
 40
0.0035896273
 41
-0.7351277754
 42
-0.0020894543
  0
ELLIPSE
  5
41D
100
AcDbEntity
  8
ASSI
100
AcDbEllipse
 62
7
  6
CONTINUOUS
 10
21.2913352499
 20
-29.1467101658
 30
0.0
 11
0.2999993451
 21
0.1746271577
 31
0.0
 40
0.0035896273
 41
-0.7351277754
 42
-0.0020894543
  0
ELLIPSE
  5
41E
100
AcDbEntity
  8
ASSI
100
AcDbEllipse
 62
7
  6
CONTINUOUS
 10
-25.098478346
 20
-0.8138727607
 30
0.0
 11
0.1999995634
 21
0.1164181051
 31
0.0
 40
0.0035896273
 41
-0.7351277754
 42
-0.6748017824
  0
ELLIPSE
  5
41F
100
AcDbEntity
  8
ASSI
100
AcDbEllipse
 62
7
  6
CONTINUOUS
 10
34.7151305702
 20
-34.7781360741
 30
0.0
 11
0.1998333781
 21
-0.0157785196
 31
0.0
 40
0.5172961965
 41
0.8262203412
 42
2.3446567905
  0
ELLIPSE
  5
420
100
AcDbEntity
  8
ASSI
100
AcDbEllipse
 62
7
  6
CONTINUOUS
 10
-28.9244797366
 20
1.9665773254
 30
0.0
 11
0.1998333781
 21
-0.0157785196
 31
0.0
 40
0.5172961965
 41
0.8262203412
 42
2.3446567905
  0
ELLIPSE
  5
421
100
AcDbEntity
  8
ASSI
100
AcDbEllipse
 62
7
  6
CONTINUOUS
 10
17.5995377154
 20
-26.3408919829
 30
0.0
 11
0.2999972416
 21
-0.0022477848
 31
0.0
 40
0.5723275643
 41
0.7896864073
 42
2.3081228565
  0
ELLIPSE
  5
422
100
AcDbEntity
  8
ASSI
100
AcDbEllipse
 62
7
  6
CONTINUOUS
 10
1.6896351387
 20
-17.154713633
 30
0.0
 11
0.2999972416
 21
-0.0022477848
 31
0.0
 40
0.5723275643
 41
0.7896864073
 42
2.3081228565
  0
ELLIPSE
  5
423
100
AcDbEntity
  8
ASSI
100
AcDbEllipse
 62
7
  6
CONTINUOUS
 10
-14.220267438
 20
-7.9685352831
 30
0.0
 11
0.2999972416
 21
-0.0022477848
 31
0.0
 40
0.5723275643
 41
0.7896864073
 42
2.3081228565
  0
ELLIPSE
  5
424
100
AcDbEntity
  8
ASSI
100
AcDbEllipse
 62
7
  6
CONTINUOUS
 10
33.1969030403
 20
-36.081550587
 30
0.0
 11
0.5413005334
 21
0.8416911418
 31
0.0
 40
0.6067084637
 41
0.7148472392
 42
0.8145158917
  0
ELLIPSE
  5
425
100
AcDbEntity
  8
ASSI
100
AcDbEllipse
 62
7
  6
CONTINUOUS
 10
-30.4427072665
 20
0.6631628125
 30
0.0
 11
0.5413005334
 21
0.8416911418
 31
0.0
 40
0.6067084637
 41
0.7148472392
 42
0.8145158917
  0
ELLIPSE
  5
426
100
AcDbEntity
  8
ASSI
100
AcDbEllipse
 62
7
  6
CONTINUOUS
 10
-10.5284699035
 20
-10.1001329105
 30
0.0
 11
0.2999972416
 21
-0.0022477848
 31
0.0
 40
0.5723275643
 41
-0.728750042
 42
0.7896864073
  0
ELLIPSE
  5
427
100
AcDbEntity
  8
ASSI
100
AcDbEllipse
 62
7
  6
CONTINUOUS
 10
-26.1963700082
 20
-1.7886191014
 30
0.0
 11
0.4625183445
 21
0.8873459255
 31
0.0
 40
0.5463614449
 41
0.662201126
 42
0.7618697785
  0
ELLIPSE
  5
428
100
AcDbEntity
  8
ASSI
100
AcDbEllipse
 62
7
  6
CONTINUOUS
 10
5.3814326732
 20
-19.2863112603
 30
0.0
 11
0.2999972416
 21
-0.0022477848
 31
0.0
 40
0.5723275643
 41
-0.728750042
 42
0.7896864073
  0
ELLIPSE
  5
429
100
AcDbEntity
  8
ASSI
100
AcDbEllipse
 62
7
  6
CONTINUOUS
 10
57.7517505165
 20
5.501151261
 30
0.0
 11
1.1066889452
 21
-0.4882482052
 31
0.0
 40
0.0945009384
 41
-2.4253001261
 42
-2.3839902126
  0
ELLIPSE
  5
42A
100
AcDbEntity
  8
ASSI
100
AcDbEllipse
 62
7
  6
CONTINUOUS
 10
-52.4861966705
 20
69.1511603608
 30
0.0
 11
1.1066889452
 21
-0.4882482052
 31
0.0
 40
0.0945009384
 41
-2.4666100396
 42
-2.4253001261
  0
ELLIPSE
  5
42B
100
AcDbEntity
  8
ASSI
100
AcDbEllipse
 62
7
  6
CONTINUOUS
 10
57.7668493216
 20
-65.231326607
 30
0.0
 11
0.1304932868
 21
1.2025842266
 31
0.0
 40
0.0944494463
 41
-3.8578203675
 42
-3.816510454
  0
ELLIPSE
  5
42C
100
AcDbEntity
  8
ASSI
100
AcDbEllipse
 62
7
  6
CONTINUOUS
 10
57.7668493216
 20
5.4749993633
 30
0.0
 11
0.1304932868
 21
1.2025842266
 31
0.0
 40
0.0944494463
 41
-3.899130281
 42
-3.8578203675
  0
ELLIPSE
  5
42D
100
AcDbEntity
  8
ASSI
100
AcDbEllipse
 62
7
  6
CONTINUOUS
 10
-25.098478346
 20
-0.2425079265
 30
0.0
 11
0.1998333781
 21
-0.0157785196
 31
0.0
 40
0.5172961965
 41
-0.692216108
 42
0.8262203412
  0
ELLIPSE
  5
42E
100
AcDbEntity
  8
ASSI
100
AcDbEllipse
 62
7
  6
CONTINUOUS
 10
21.2913352499
 20
-28.4724896102
 30
0.0
 11
0.2999972416
 21
-0.0022477848
 31
0.0
 40
0.5723275643
 41
-0.728750042
 42
0.7896864073
  0
ENDSEC
  0
SECTION
  2
OBJECTS
  0
DICTIONARY
  5
C
100
AcDbDictionary
280
0
281
1
  3
ACAD_GROUP
350
D
  3
ACAD_MLINESTYLE
350
17
  3
ACAD_LAYOUT
350
1A
  3
ACAD_PLOTSETTINGS
350
19
  3
ACAD_PLOTSTYLENAME
350
E
  0
DICTIONARY
  5
D
102
{ACAD_REACTORS
330
C
102
}
100
AcDbDictionary
280
0
281
1
  0
ACDBDICTIONARYWDFLT
  5
E
102
{ACAD_REACTORS
330
C
102
}
100
AcDbDictionary
281
1
  3
Normal
350
F
100
AcDbDictionaryWithDefault
340
F
  0
DICTIONARY
  5
17
102
{ACAD_REACTORS
330
C
102
}
100
AcDbDictionary
280
0
281
1
  3
Standard
350
18
  0
DICTIONARY
  5
19
102
{ACAD_REACTORS
330
C
102
}
100
AcDbDictionary
281
1
  0
DICTIONARY
  5
1A
102
{ACAD_REACTORS
330
C
102
}
100
AcDbDictionary
281
1
  3
Model
350
42F
  3
Layout1
350
430
  0
ACDBPLACEHOLDER
  5
F
102
{ACAD_REACTORS
330
E
102
}
  0
MLINESTYLE
  5
18
102
{ACAD_REACTORS
330
17
102
}
100
AcDbMlineStyle
  2
STANDARD
 70
0
  3

 62
256
 51
90.0
 52
90.0
 71
2
 49
0.5
 62
256
  6
BYLAYER
 49
-0.5
 62
256
  6
BYLAYER
  0
LAYOUT
  5
42F
102
{ACAD_REACTORS
330
1A
102
}
100
AcDbPlotSettings
  1

  2
none_device
  4
ISO_A4_(297.00_x_210.00_MM)
  6

 40
0.0
 41
0.0
 42
0.0
 43
0.0
 44
297.0
 45
210.0
 46
0.0
 47
0.0
 48
0.0
 49
0.0
140
0.0
141
0.0
142
1.0
143
1.0
 70
1024
 72
1
 73
0
 74
0
  7

 75
0
147
1.0
148
0.0
149
0.0
100
AcDbLayout
  1
Model
 70
0
 71
0
 10
0.0
 20
0.0
 11
297.0
 21
210.0
 12
0.0
 22
0.0
 32
0.0
 14
0.0
 24
0.0
 34
0.0
 15
0.0
 25
0.0
 35
0.0
146
0.0
 13
0.0
 23
0.0
 33
0.0
 16
1.0
 26
0.0
 36
0.0
 17
0.0
 27
1.0
 37
0.0
 76
0
330
21D
345
0
346
0
  0
LAYOUT
  5
430
102
{ACAD_REACTORS
330
1A
102
}
100
AcDbPlotSettings
  1

  2
none_device
  4
ISO_A4_(297.00_x_210.00_MM)
  6

 40
0.0
 41
0.0
 42
0.0
 43
0.0
 44
297.0
 45
210.0
 46
0.0
 47
0.0
 48
0.0
 49
0.0
140
0.0
141
0.0
142
1.0
143
1.0
 70
0
 72
1
 73
0
 74
0
  7

 75
0
147
1.0
148
0.0
149
0.0
100
AcDbLayout
  1
Layout1
 70
0
 71
1
 10
0.0
 20
0.0
 11
297.0
 21
210.0
 12
0.0
 22
0.0
 32
0.0
 14
0.0
 24
0.0
 34
0.0
 15
0.0
 25
0.0
 35
0.0
146
0.0
 13
0.0
 23
0.0
 33
0.0
 16
1.0
 26
0.0
 36
0.0
 17
0.0
 27
1.0
 37
0.0
 76
0
330
21E
345
0
346
0
  0
ENDSEC
  0
EOF
