  0
SECTION
  2
HEADER
  9
$ACADVER
  1
AC1024
  9
$DWGCODEPAGE
  3
ANSI_1252
  9
$EXTMAX
 10
297.0
 20
210.0
 30
0.0
  9
$EXTMIN
 10
0.0
 20
0.0
 30
0.0
  9
$LIMMIN
 10
0.0
 20
0.0
  9
$LIMMAX
 10
297.0
 20
210.0
  9
$VIEWCTR
 10
148.5
 20
105.0
  9
$VIEWSIZE
 40
210.0
  9
$CLAYER
  8
0
  9
$LTSCALE
 40
16.335
  9
$CELTYPE
  6
BYLAYER
  9
$DIMSCALE
 40
1.0
  9
$DIMASZ
 40
3.0
  9
$DIMEXO
 40
0.5
  9
$DIMDLI
 40
11.286
  9
$DIMEXE
 40
1.5
  9
$DIMCEN
 40
2.673
  9
$DIMLFAC
 40
1.0
  9
$DIMBLK
  1
_FILLED
  9
$DIMALT
 70
0
  9
$DIMALTF
 40
0.0393700787
  9
$DIMTXT
 40
3.0
  9
$DIMTOL
 70
1
  9
$DIMLIM
 70
0
  9
$DIMTFAC
 40
1.0
  9
$DIMTP
 40
0.01
  9
$DIMTM
 40
0.01
  9
$DIMGAP
 40
0.625
  9
$DIMDSEP
 70
44
  9
$AUNITS
 70
0
  9
$PDMODE
 70
3
  9
$PDSIZE
 40
3.0
  9
$HANDSEED
  5
424
  9
$TILEMODE
 70
1
  9
$MEASUREMENT
 70
1
  9
$INSUNITS
 70
4
  0
ENDSEC
  0
SECTION
  2
CLASSES
  0
CLASS
  1
ACDBDICTIONARYWDFLT
  2
AcDbDictionaryWithDefault
  3
AutoCAD 2000
 90
0
 91
1
280
0
281
0
  0
CLASS
  1
ACDBPLACEHOLDER
  2
AcDbPlaceHolder
  3
AutoCAD 2000
 90
0
 91
1
280
0
281
0
  0
CLASS
  1
LAYOUT
  2
AcDbLayout
  3
AutoCAD 2000
 90
0
 91
0
280
0
281
0
  0
ENDSEC
  0
SECTION
  2
TABLES
  0
TABLE
  2
VPORT
  5
8
100
AcDbSymbolTable
 70
2
  0
VPORT
  5
1F4
100
AcDbSymbolTableRecord
100
AcDbViewportTableRecord
  2
*ACTIVE
 70
0
 10
0.0
 20
0.0
 11
1.0
 21
1.0
 12
148.5
 22
105.0
 13
0.0
 23
0.0
 14
1.0
 24
1.0
 15
0.0
 25
0.0
 16
0.0
 26
0.0
 36
1.0
 17
0.0
 27
0.0
 37
0.0
 40
210.0
 41
1.4142857143
 42
50.0
 43
0.0
 44
0.0
 50
0.0
 51
0.0
 71
0
 72
100
 73
1
 74
1
 75
0
 76
0
 77
0
 78
0
  0
ENDTAB
  0
TABLE
  2
LTYPE
  5
5
100
AcDbSymbolTable
 70
6
  0
LTYPE
  5
14
100
AcDbSymbolTableRecord
100
AcDbLinetypeTableRecord
  2
BYBLOCK
 70
0
  3

 72
65
 73
0
 40
0.0
  0
LTYPE
  5
15
100
AcDbSymbolTableRecord
100
AcDbLinetypeTableRecord
  2
BYLAYER
 70
0
  3

 72
65
 73
0
 40
0.0
  0
LTYPE
  5
16
100
AcDbSymbolTableRecord
100
AcDbLinetypeTableRecord
  2
CONTINUOUS
 70
64
  3
Solid line
 72
65
 73
0
 40
0.0
  0
LTYPE
  5
1F5
100
AcDbSymbolTableRecord
100
AcDbLinetypeTableRecord
  2
CENTER
 70
64
  3
____ _ ____ _ ____ _ ____ _ ____ _ ____ _ ____
 72
65
 73
4
 40
0.6
 49
0.375
 74
0
 49
-0.075
 74
0
 49
0.075
 74
0
 49
-0.075
 74
0
  0
LTYPE
  5
1F6
100
AcDbSymbolTableRecord
100
AcDbLinetypeTableRecord
  2
HIDDEN
 70
64
  3
- - - - - - - - - - - - - - - - - - - -
 72
65
 73
2
 40
0.2
 49
0.1
 74
0
 49
-0.1
 74
0
  0
LTYPE
  5
1F7
100
AcDbSymbolTableRecord
100
AcDbLinetypeTableRecord
  2
PHANTOM
 70
64
  3
_____ _ _ _____ _ _ _____ _ _ _____
 72
65
 73
6
 40
0.8
 49
0.45
 74
0
 49
-0.05
 74
0
 49
0.1
 74
0
 49
-0.05
 74
0
 49
0.1
 74
0
 49
-0.05
 74
0
  0
LTYPE
  5
1F8
100
AcDbSymbolTableRecord
100
AcDbLinetypeTableRecord
  2
DOT
 70
64
  3
. . . . . . . . . . . . . . . . . . . .
 72
65
 73
2
 40
0.2
 49
0.1
 74
0
 49
-0.1
 74
0
  0
LTYPE
  5
1F9
100
AcDbSymbolTableRecord
100
AcDbLinetypeTableRecord
  2
DASHED
 70
64
  3
- - - - - - - - - - - - - - - - - - - -
 72
65
 73
2
 40
0.2
 49
0.1
 74
0
 49
-0.1
 74
0
  0
ENDTAB
  0
TABLE
  2
LAYER
  5
2
100
AcDbSymbolTable
 70
36
  0
LAYER
  5
10
100
AcDbSymbolTableRecord
100
AcDbLayerTableRecord
  2
0
 70
0
 62
7
  6
CONTINUOUS
370
-3
390
F
  0
LAYER
  5
1FA
100
AcDbSymbolTableRecord
100
AcDbLayerTableRecord
  2
DEFAULT_1
 70
0
 62
7
  6
CENTER
370
-3
390
F
  0
LAYER
  5
1FB
100
AcDbSymbolTableRecord
100
AcDbLayerTableRecord
  2
DEFAULT_2
 70
0
 62
7
  6
HIDDEN
370
-3
390
F
  0
LAYER
  5
1FC
100
AcDbSymbolTableRecord
100
AcDbLayerTableRecord
  2
DEFAULT_3
 70
0
 62
7
  6
PHANTOM
370
-3
390
F
  0
LAYER
  5
1FD
100
AcDbSymbolTableRecord
100
AcDbLayerTableRecord
  2
ASSI
 70
0
 62
7
  6
CONTINUOUS
370
-3
390
F
  0
LAYER
  5
1FE
100
AcDbSymbolTableRecord
100
AcDbLayerTableRecord
  2
COORDINATE
 70
0
 62
7
  6
CONTINUOUS
370
-3
390
F
  0
LAYER
  5
1FF
100
AcDbSymbolTableRecord
100
AcDbLayerTableRecord
  2
COORD_ORIGINE
 70
0
 62
7
  6
CONTINUOUS
370
-3
390
F
  0
LAYER
  5
200
100
AcDbSymbolTableRecord
100
AcDbLayerTableRecord
  2
COPY_PUBLISH
 70
0
 62
7
  6
CONTINUOUS
370
-3
390
F
  0
LAYER
  5
201
100
AcDbSymbolTableRecord
100
AcDbLayerTableRecord
  2
COSMETIC
 70
0
 62
7
  6
CONTINUOUS
370
-3
390
F
  0
LAYER
  5
202
100
AcDbSymbolTableRecord
100
AcDbLayerTableRecord
  2
COSMETICI
 70
0
 62
7
  6
CONTINUOUS
370
-3
390
F
  0
LAYER
  5
203
100
AcDbSymbolTableRecord
100
AcDbLayerTableRecord
  2
CURVE
 70
0
 62
7
  6
CONTINUOUS
370
-3
390
F
  0
LAYER
  5
204
100
AcDbSymbolTableRecord
100
AcDbLayerTableRecord
  2
CURVE_COSTRUZIONE
 70
0
 62
7
  6
CONTINUOUS
370
-3
390
F
  0
LAYER
  5
205
100
AcDbSymbolTableRecord
100
AcDbLayerTableRecord
  2
CURVE_TASSELLI
 70
0
 62
7
  6
CONTINUOUS
370
-3
390
F
  0
LAYER
  5
206
100
AcDbSymbolTableRecord
100
AcDbLayerTableRecord
  2
DRAFT
 70
0
 62
7
  6
CONTINUOUS
370
-3
390
F
  0
LAYER
  5
207
100
AcDbSymbolTableRecord
100
AcDbLayerTableRecord
  2
IMPORT_IGES
 70
0
 62
7
  6
CONTINUOUS
370
-3
390
F
  0
LAYER
  5
208
100
AcDbSymbolTableRecord
100
AcDbLayerTableRecord
  2
INTFCLR_2
 70
0
 62
7
  6
CONTINUOUS
370
-3
390
F
  0
LAYER
  5
209
100
AcDbSymbolTableRecord
100
AcDbLayerTableRecord
  2
INTF_1
 70
0
 62
7
  6
CONTINUOUS
370
-3
390
F
  0
LAYER
  5
20A
100
AcDbSymbolTableRecord
100
AcDbLayerTableRecord
  2
INTF_21
 70
0
 62
7
  6
CONTINUOUS
370
-3
390
F
  0
LAYER
  5
20B
100
AcDbSymbolTableRecord
100
AcDbLayerTableRecord
  2
INTF_7
 70
0
 62
7
  6
CONTINUOUS
370
-3
390
F
  0
LAYER
  5
20C
100
AcDbSymbolTableRecord
100
AcDbLayerTableRecord
  2
INTF_CYAN
 70
0
 62
7
  6
CONTINUOUS
370
-3
390
F
  0
LAYER
  5
20D
100
AcDbSymbolTableRecord
100
AcDbLayerTableRecord
  2
NOTE
 70
0
 62
7
  6
CONTINUOUS
370
-3
390
F
  0
LAYER
  5
20E
100
AcDbSymbolTableRecord
100
AcDbLayerTableRecord
  2
PIANI
 70
0
 62
7
  6
CONTINUOUS
370
-3
390
F
  0
LAYER
  5
20F
100
AcDbSymbolTableRecord
100
AcDbLayerTableRecord
  2
PIANI_ORIGINE
 70
0
 62
7
  6
CONTINUOUS
370
-3
390
F
  0
LAYER
  5
210
100
AcDbSymbolTableRecord
100
AcDbLayerTableRecord
  2
PIANI_RIFERIMENTO
 70
0
 62
7
  6
CONTINUOUS
370
-3
390
F
  0
LAYER
  5
211
100
AcDbSymbolTableRecord
100
AcDbLayerTableRecord
  2
PUNTI
 70
0
 62
7
  6
CONTINUOUS
370
-3
390
F
  0
LAYER
  5
212
100
AcDbSymbolTableRecord
100
AcDbLayerTableRecord
  2
RACCORDO
 70
0
 62
7
  6
CONTINUOUS
370
-3
390
F
  0
LAYER
  5
213
100
AcDbSymbolTableRecord
100
AcDbLayerTableRecord
  2
RGB__255__255__255__
 70
0
 62
7
  6
CONTINUOUS
370
-3
390
F
  0
LAYER
  5
214
100
AcDbSymbolTableRecord
100
AcDbLayerTableRecord
  2
RGB____0____0____0__
 70
0
 62
7
  6
CONTINUOUS
370
-3
390
F
  0
LAYER
  5
215
100
AcDbSymbolTableRecord
100
AcDbLayerTableRecord
  2
SIMBOLI
 70
0
 62
7
  6
CONTINUOUS
370
-3
390
F
  0
LAYER
  5
216
100
AcDbSymbolTableRecord
100
AcDbLayerTableRecord
  2
SMUSSO
 70
0
 62
7
  6
CONTINUOUS
370
-3
390
F
  0
LAYER
  5
217
100
AcDbSymbolTableRecord
100
AcDbLayerTableRecord
  2
SNAPLINE
 70
0
 62
7
  6
CONTINUOUS
370
-3
390
F
  0
LAYER
  5
218
100
AcDbSymbolTableRecord
100
AcDbLayerTableRecord
  2
SUPERFICI
 70
0
 62
7
  6
CONTINUOUS
370
-3
390
F
  0
LAYER
  5
219
100
AcDbSymbolTableRecord
100
AcDbLayerTableRecord
  2
TRASH
 70
0
 62
7
  6
CONTINUOUS
370
-3
390
F
  0
LAYER
  5
21A
100
AcDbSymbolTableRecord
100
AcDbLayerTableRecord
  2
XSEC_DATUMS
 70
0
 62
7
  6
CONTINUOUS
370
-3
390
F
  0
ENDTAB
  0
TABLE
  2
STYLE
  5
3
100
AcDbSymbolTable
 70
1
  0
STYLE
  5
11
100
AcDbSymbolTableRecord
100
AcDbTextStyleTableRecord
  2
STANDARD
 70
0
 40
0.0
 41
0.8
 50
0.0
 71
0
 42
0.2
  3
txt
  4

  0
STYLE
  5
21B
100
AcDbSymbolTableRecord
100
AcDbTextStyleTableRecord
  2
TEXTSTYLE_1
 70
0
 40
0.0
 41
0.8
 50
0.0
 71
0
 42
0.2
  3
gdt
  4

  0
ENDTAB
  0
TABLE
  2
VIEW
  5
6
100
AcDbSymbolTable
 70
0
  0
ENDTAB
  0
TABLE
  2
UCS
  5
7
100
AcDbSymbolTable
 70
0
  0
ENDTAB
  0
TABLE
  2
APPID
  5
9
100
AcDbSymbolTable
 70
1
  0
APPID
  5
21C
100
AcDbSymbolTableRecord
100
AcDbRegAppTableRecord
  2
ACAD
 70
0
  0
ENDTAB
  0
TABLE
  2
BLOCK_RECORD
  5
1
100
AcDbSymbolTable
 70
0
  0
BLOCK_RECORD
  5
21D
100
AcDbSymbolTableRecord
100
AcDbBlockTableRecord
  2
*Model_Space
  0
BLOCK_RECORD
  5
21E
100
AcDbSymbolTableRecord
100
AcDbBlockTableRecord
  2
*Paper_Space
  0
BLOCK_RECORD
  5
21F
100
AcDbSymbolTableRecord
100
AcDbBlockTableRecord
  2
_FILLED
  0
ENDTAB
  0
TABLE
  2
DIMSTYLE
  5
A
100
AcDbSymbolTable
 70
1
100
AcDbDimStyleTable
 71
0
  0
DIMSTYLE
105
220
100
AcDbSymbolTableRecord
100
AcDbDimStyleTableRecord
  2
STANDARD
 70
0
  3

  4

 40
1.0
 41
3.0
 42
0.5
 43
0.38
 44
1.5
 45
0.0
 46
0.0
 47
0.01
 48
0.01
140
3.0
141
0.09
142
0.0
143
25.4
144
1.0
145
0.0
146
1.0
147
0.625
 71
1
 72
0
 73
0
 74
0
 75
0
 76
0
 77
1
 78
8
 79
2
170
0
171
1
172
0
173
0
174
0
175
0
176
0
177
0
178
0
270
2
179
2
271
2
272
2
273
2
274
2
275
0
280
0
281
0
282
0
283
1
284
8
285
0
286
0
287
3
288
0
340
11
278
44
341
21F
342
21F
343
21F
344
21F
  0
ENDTAB
  0
ENDSEC
  0
SECTION
  2
BLOCKS
  0
BLOCK
  5
20
100
AcDbEntity
  8
0
100
AcDbBlockBegin
  2
*Model_Space
 70
0
 10
0.0
 20
0.0
 30
0.0
  3
*Model_Space
  1

  0
ENDBLK
  5
21
100
AcDbEntity
  8
0
100
AcDbBlockEnd
  0
BLOCK
  5
1C
100
AcDbEntity
  8
0
100
AcDbBlockBegin
  2
*Paper_Space
 70
0
 10
0.0
 20
0.0
 30
0.0
  3
*Paper_Space
  1

  0
ENDBLK
  5
1D
100
AcDbEntity
  8
0
100
AcDbBlockEnd
  0
BLOCK
  5
221
100
AcDbEntity
  8
0
100
AcDbBlockBegin
  2
_FILLED
 70
64
 10
0.0
 20
0.0
  3
_FILLED
  1

  0
SOLID
  5
222
100
AcDbEntity
  8
0
  6
BYBLOCK
 62
0
100
AcDbTrace
 10
0.0
 20
0.0
 11
-1.0
 21
0.3166666667
 12
-1.0
 22
-0.3166666667
 13
-1.0
 23
-0.3166666667
  0
ENDBLK
  5
223
100
AcDbEntity
  8
0
  6
BYBLOCK
 62
0
100
AcDbBlockEnd
  0
ENDSEC
  0
SECTION
  2
ENTITIES
  0
LINE
  5
224
100
AcDbEntity
  8
SMUSSO
100
AcDbLine
 62
7
  6
CONTINUOUS
 10
-58.1241774135
 20
67.7906941303
 11
-56.3564104606
 21
68.8113411587
  0
LINE
  5
225
100
AcDbEntity
  8
0
100
AcDbLine
 62
250
  6
CONTINUOUS
 10
-53.3512066405
 20
69.403394556
 11
-55.401816306
 21
68.2607277062
  0
LINE
  5
226
100
AcDbEntity
  8
ASSI
100
AcDbLine
 62
250
  6
CONTINUOUS
 10
-53.3512066405
 20
69.403394556
 11
-55.401816306
 21
68.2607277062
  0
LINE
  5
227
100
AcDbEntity
  8
0
100
AcDbLine
 62
7
  6
CONTINUOUS
 10
-53.829478794
 20
69.464969438
 11
-55.7046586996
 21
68.4350673153
  0
LINE
  5
228
100
AcDbEntity
  8
ASSI
100
AcDbLine
 62
7
  6
CONTINUOUS
 10
-53.829478794
 20
69.464969438
 11
-55.7046586996
 21
68.4350673153
  0
LINE
  5
229
100
AcDbEntity
  8
0
100
AcDbLine
 62
250
  6
CONTINUOUS
 10
55.9393692428
 20
-61.7819624299
 11
56.847928349
 21
-61.5434461579
  0
LINE
  5
22A
100
AcDbEntity
  8
0
100
AcDbLine
 62
250
  6
CONTINUOUS
 10
57.2593142033
 20
-61.1678033815
 11
55.9393692428
 21
-61.4583944427
  0
LINE
  5
22B
100
AcDbEntity
  8
0
100
AcDbLine
 62
250
  6
CONTINUOUS
 10
56.7919046493
 20
-58.2305561432
 11
56.3020562963
 21
-58.3622173424
  0
LINE
  5
22C
100
AcDbEntity
  8
0
100
AcDbLine
 62
250
  6
CONTINUOUS
 10
57.2593142033
 20
-58.1066693421
 11
56.995806127
 21
-58.1748758813
  0
LINE
  5
22D
100
AcDbEntity
  8
0
100
AcDbLine
 62
250
  6
CONTINUOUS
 10
55.9393692428
 20
-58.7295989142
 11
57.2593142033
 21
-58.4269461376
  0
LINE
  5
22E
100
AcDbEntity
  8
0
100
AcDbLine
 62
250
  6
CONTINUOUS
 10
55.9393692428
 20
-59.7323975058
 11
56.6722065066
 21
-59.6180217258
  0
LINE
  5
22F
100
AcDbEntity
  8
0
100
AcDbLine
 62
250
  6
CONTINUOUS
 10
57.2593142033
 20
-59.2460511639
 11
56.4010080855
 21
-59.3742481542
  0
LINE
  5
230
100
AcDbEntity
  8
SMUSSO
100
AcDbLine
 62
7
  6
CONTINUOUS
 10
-58.1241774135
 20
67.7906941303
 11
-58.1241774135
 21
-4.8751999591
  0
LINE
  5
231
100
AcDbEntity
  8
RACCORDO
100
AcDbLine
 62
250
  6
CONTINUOUS
 10
-42.3556961931
 20
39.4174327119
 11
-41.5072090597
 21
39.9073385486
  0
LINE
  5
232
100
AcDbEntity
  8
RACCORDO
100
AcDbLine
 62
7
  6
CONTINUOUS
 10
-42.3556961931
 20
39.4174327119
 11
-42.3556961931
 21
4.4725048652
  0
LWPOLYLINE
  5
233
100
AcDbEntity
  8
0
100
AcDbPolyline
 62
7
  6
CONTINUOUS
 90
10
 70
0
 10
-39.5582499775
 20
10.2523389201
 10
-39.6106814992
 20
11.2992187018
 10
-39.6616164375
 20
12.412961799
 10
-39.707721915
 20
13.5298802501
 10
-39.7489969375
 20
14.6499387256
 10
-39.7854408887
 20
15.7731088721
 10
-39.8170532871
 20
16.899370062
 10
-39.843833289
 20
18.0286940944
 10
-39.8657798529
 20
19.1610450854
 10
-39.8821115694
 20
20.2365327234
  0
LWPOLYLINE
  5
234
100
AcDbEntity
  8
ASSI
100
AcDbPolyline
 62
7
  6
CONTINUOUS
 90
10
 70
0
 10
-39.5582499775
 20
10.2523389201
 10
-39.6106814992
 20
11.2992187018
 10
-39.6616164375
 20
12.412961799
 10
-39.707721915
 20
13.5298802501
 10
-39.7489969375
 20
14.6499387256
 10
-39.7854408887
 20
15.7731088721
 10
-39.8170532871
 20
16.899370062
 10
-39.843833289
 20
18.0286940944
 10
-39.8657798529
 20
19.1610450854
 10
-39.8821115694
 20
20.2365327234
  0
LINE
  5
235
100
AcDbEntity
  8
RACCORDO
100
AcDbLine
 62
7
  6
CONTINUOUS
 10
-40.2343758495
 20
39.1723732641
 11
-40.2343758495
 21
5.6973286451
  0
LINE
  5
236
100
AcDbEntity
  8
0
100
AcDbLine
 62
250
  6
CONTINUOUS
 10
-40.0588986
 20
20.4331660398
 11
-40.0588986
 21
26.7738468008
  0
LINE
  5
237
100
AcDbEntity
  8
ASSI
100
AcDbLine
 62
250
  6
CONTINUOUS
 10
-40.0588986
 20
20.4331660398
 11
-40.0588986
 21
26.7738468008
  0
LINE
  5
238
100
AcDbEntity
  8
0
100
AcDbLine
 62
7
  6
CONTINUOUS
 10
-39.9747005401
 20
20.5534921509
 11
-39.9747005401
 21
26.8941729118
  0
LINE
  5
239
100
AcDbEntity
  8
ASSI
100
AcDbLine
 62
7
  6
CONTINUOUS
 10
-39.9747005401
 20
20.5534921509
 11
-39.9747005401
 21
26.8941729118
  0
LINE
  5
23A
100
AcDbEntity
  8
0
100
AcDbLine
 62
250
  6
CONTINUOUS
 10
-39.6420400882
 20
4.421638471
 11
-39.6420400882
 21
10.1163731049
  0
LINE
  5
23B
100
AcDbEntity
  8
ASSI
100
AcDbLine
 62
250
  6
CONTINUOUS
 10
-39.6420400882
 20
4.421638471
 11
-39.6420400882
 21
10.1163731049
  0
LINE
  5
23C
100
AcDbEntity
  8
0
100
AcDbLine
 62
250
  6
CONTINUOUS
 10
-39.6420400882
 20
37.5891144857
 11
-39.6420400882
 21
38.8303660192
  0
LINE
  5
23D
100
AcDbEntity
  8
ASSI
100
AcDbLine
 62
250
  6
CONTINUOUS
 10
-39.6420400882
 20
37.5891144857
 11
-39.6420400882
 21
38.8303660192
  0
LINE
  5
23E
100
AcDbEntity
  8
0
100
AcDbLine
 62
7
  6
CONTINUOUS
 10
-39.5578420283
 20
4.3477115305
 11
-39.5578420283
 21
10.236699216
  0
LINE
  5
23F
100
AcDbEntity
  8
ASSI
100
AcDbLine
 62
7
  6
CONTINUOUS
 10
-39.5578420283
 20
4.3477115305
 11
-39.5578420283
 21
10.236699216
  0
LINE
  5
240
100
AcDbEntity
  8
0
100
AcDbLine
 62
7
  6
CONTINUOUS
 10
-39.5578420283
 20
37.7094405972
 11
-39.5578420283
 21
38.7817511147
  0
LINE
  5
241
100
AcDbEntity
  8
ASSI
100
AcDbLine
 62
7
  6
CONTINUOUS
 10
-39.5578420283
 20
37.7094405972
 11
-39.5578420283
 21
38.7817511147
  0
LWPOLYLINE
  5
242
100
AcDbEntity
  8
0
100
AcDbPolyline
 62
7
  6
CONTINUOUS
 90
25
 70
0
 10
-39.9746989457
 20
26.8941728035
 10
-39.9746250279
 20
26.9053656547
 10
-39.9744220744
 20
26.9158287153
 10
-39.9740917864
 20
26.9262180849
 10
-39.9736337295
 20
26.9365771256
 10
-39.9730493835
 20
26.9469084665
 10
-39.972340985
 20
26.9571987897
 10
-39.9715073605
 20
26.9674707575
 10
-39.9705488455
 20
26.9777101705
 10
-39.9694632275
 20
26.9879213417
 10
-39.968241969
 20
26.9981561794
 10
-39.9668817355
 20
27.0084298063
 10
-39.9653841762
 20
27.0187154187
 10
-39.9637477892
 20
27.0290027255
 10
-39.9619716939
 20
27.0392690507
 10
-39.9600482439
 20
27.0495219342
 10
-39.9579673418
 20
27.0597951821
 10
-39.9557300503
 20
27.0700755006
 10
-39.9533343305
 20
27.0803503829
 10
-39.9507629016
 20
27.0906508368
 10
-39.9480052511
 20
27.1009577689
 10
-39.9450614247
 20
27.111249145
 10
-39.9419238308
 20
27.1215428505
 10
-39.9385934728
 20
27.1317952359
 10
-39.9374952867
 20
27.1350326255
  0
LWPOLYLINE
  5
243
100
AcDbEntity
  8
ASSI
100
AcDbPolyline
 62
7
  6
CONTINUOUS
 90
25
 70
0
 10
-39.9746989457
 20
26.8941728035
 10
-39.9746250279
 20
26.9053656547
 10
-39.9744220744
 20
26.9158287153
 10
-39.9740917864
 20
26.9262180849
 10
-39.9736337295
 20
26.9365771256
 10
-39.9730493835
 20
26.9469084665
 10
-39.972340985
 20
26.9571987897
 10
-39.9715073605
 20
26.9674707575
 10
-39.9705488455
 20
26.9777101705
 10
-39.9694632275
 20
26.9879213417
 10
-39.968241969
 20
26.9981561794
 10
-39.9668817355
 20
27.0084298063
 10
-39.9653841762
 20
27.0187154187
 10
-39.9637477892
 20
27.0290027255
 10
-39.9619716939
 20
27.0392690507
 10
-39.9600482439
 20
27.0495219342
 10
-39.9579673418
 20
27.0597951821
 10
-39.9557300503
 20
27.0700755006
 10
-39.9533343305
 20
27.0803503829
 10
-39.9507629016
 20
27.0906508368
 10
-39.9480052511
 20
27.1009577689
 10
-39.9450614247
 20
27.111249145
 10
-39.9419238308
 20
27.1215428505
 10
-39.9385934728
 20
27.1317952359
 10
-39.9374952867
 20
27.1350326255
  0
LWPOLYLINE
  5
244
100
AcDbEntity
  8
0
100
AcDbPolyline
 62
7
  6
CONTINUOUS
 90
10
 70
0
 10
-39.8821106899
 20
27.3219488058
 10
-39.8658707795
 20
28.4115390785
 10
-39.8439456538
 20
29.5702144248
 10
-39.817186309
 20
30.7316594181
 10
-39.785593487
 20
31.8958390633
 10
-39.7491677914
 20
33.062723924
 10
-39.7079095719
 20
34.2322901891
 10
-39.6618193337
 20
35.4045088709
 10
-39.6108982361
 20
36.5793479789
 10
-39.5582035318
 20
37.6947175657
  0
LWPOLYLINE
  5
245
100
AcDbEntity
  8
ASSI
100
AcDbPolyline
 62
7
  6
CONTINUOUS
 90
10
 70
0
 10
-39.8821106899
 20
27.3219488058
 10
-39.8658707795
 20
28.4115390785
 10
-39.8439456538
 20
29.5702144248
 10
-39.817186309
 20
30.7316594181
 10
-39.785593487
 20
31.8958390633
 10
-39.7491677914
 20
33.062723924
 10
-39.7079095719
 20
34.2322901891
 10
-39.6618193337
 20
35.4045088709
 10
-39.6108982361
 20
36.5793479789
 10
-39.5582035318
 20
37.6947175657
  0
LINE
  5
246
100
AcDbEntity
  8
SMUSSO
100
AcDbLine
 62
7
  6
CONTINUOUS
 10
-58.1241774135
 20
-4.8751999591
 11
53.8108260483
 21
-69.505028628
  0
LINE
  5
247
100
AcDbEntity
  8
0
100
AcDbLine
 62
250
  6
CONTINUOUS
 10
-24.949849381
 20
-0.367988196
 11
-24.949849381
 21
-0.7753578338
  0
LINE
  5
248
100
AcDbEntity
  8
ASSI
100
AcDbLine
 62
250
  6
CONTINUOUS
 10
-24.949849381
 20
-0.367988196
 11
-24.949849381
 21
-0.7753578338
  0
LINE
  5
249
100
AcDbEntity
  8
0
100
AcDbLine
 62
7
  6
CONTINUOUS
 10
-24.898478346
 20
-0.3014106891
 11
-24.898478346
 21
-0.7448125391
  0
LINE
  5
24A
100
AcDbEntity
  8
ASSI
100
AcDbLine
 62
7
  6
CONTINUOUS
 10
-24.898478346
 20
-0.3014106891
 11
-24.898478346
 21
-0.7448125391
  0
LINE
  5
24B
100
AcDbEntity
  8
0
100
AcDbLine
 62
7
  6
CONTINUOUS
 10
-32.4032528147
 20
0.1959720197
 11
-32.3854905783
 21
0.2267371156
  0
LINE
  5
24C
100
AcDbEntity
  8
ASSI
100
AcDbLine
 62
7
  6
CONTINUOUS
 10
-32.4032528147
 20
0.1959720197
 11
-32.3854905783
 21
0.2267371156
  0
LINE
  5
24D
100
AcDbEntity
  8
0
100
AcDbLine
 62
7
  6
CONTINUOUS
 10
-32.1380032049
 20
0.2471626817
 11
-32.0319371878
 21
0.4308744122
  0
LINE
  5
24E
100
AcDbEntity
  8
ASSI
100
AcDbLine
 62
7
  6
CONTINUOUS
 10
-32.1380032049
 20
0.2471626817
 11
-32.0319371878
 21
0.4308744122
  0
LINE
  5
24F
100
AcDbEntity
  8
0
100
AcDbLine
 62
7
  6
CONTINUOUS
 10
-31.7844498143
 20
0.4512999784
 11
-31.6783837972
 21
0.6350117089
  0
LINE
  5
250
100
AcDbEntity
  8
ASSI
100
AcDbLine
 62
7
  6
CONTINUOUS
 10
-31.7844498143
 20
0.4512999784
 11
-31.6783837972
 21
0.6350117089
  0
LINE
  5
251
100
AcDbEntity
  8
0
100
AcDbLine
 62
7
  6
CONTINUOUS
 10
-31.4308964237
 20
0.655437275
 11
-31.3248304066
 21
0.8391490055
  0
LINE
  5
252
100
AcDbEntity
  8
ASSI
100
AcDbLine
 62
7
  6
CONTINUOUS
 10
-31.4308964237
 20
0.655437275
 11
-31.3248304066
 21
0.8391490055
  0
LINE
  5
253
100
AcDbEntity
  8
0
100
AcDbLine
 62
7
  6
CONTINUOUS
 10
-31.0773430331
 20
0.8595745717
 11
-30.971277016
 21
1.0432863022
  0
LINE
  5
254
100
AcDbEntity
  8
ASSI
100
AcDbLine
 62
7
  6
CONTINUOUS
 10
-31.0773430331
 20
0.8595745717
 11
-30.971277016
 21
1.0432863022
  0
LINE
  5
255
100
AcDbEntity
  8
0
100
AcDbLine
 62
7
  6
CONTINUOUS
 10
-30.7237896426
 20
1.0637118684
 11
-30.6177236254
 21
1.2474235989
  0
LINE
  5
256
100
AcDbEntity
  8
ASSI
100
AcDbLine
 62
7
  6
CONTINUOUS
 10
-30.7237896426
 20
1.0637118684
 11
-30.6177236254
 21
1.2474235989
  0
LINE
  5
257
100
AcDbEntity
  8
0
100
AcDbLine
 62
7
  6
CONTINUOUS
 10
-28.5141655182
 20
-2.0495382436
 11
-28.4964032818
 21
-2.0187731477
  0
LINE
  5
258
100
AcDbEntity
  8
ASSI
100
AcDbLine
 62
7
  6
CONTINUOUS
 10
-28.5141655182
 20
-2.0495382436
 11
-28.4964032818
 21
-2.0187731477
  0
LINE
  5
259
100
AcDbEntity
  8
0
100
AcDbLine
 62
7
  6
CONTINUOUS
 10
-28.2489159084
 20
-1.9983475816
 11
-28.1428498912
 21
-1.8146358511
  0
LINE
  5
25A
100
AcDbEntity
  8
ASSI
100
AcDbLine
 62
7
  6
CONTINUOUS
 10
-28.2489159084
 20
-1.9983475816
 11
-28.1428498912
 21
-1.8146358511
  0
LINE
  5
25B
100
AcDbEntity
  8
RACCORDO
100
AcDbLine
 62
250
  6
CONTINUOUS
 10
-42.3556961931
 20
4.4725048652
 11
-40.2343758495
 21
5.6973286451
  0
LINE
  5
25C
100
AcDbEntity
  8
RACCORDO
100
AcDbLine
 62
250
  6
CONTINUOUS
 10
-41.5071680557
 20
3.002811021
 11
-39.3858477121
 21
4.227634801
  0
LWPOLYLINE
  5
25D
100
AcDbEntity
  8
0
100
AcDbPolyline
 62
7
  6
CONTINUOUS
 90
19
 70
0
 10
-39.959819231
 20
20.4260312477
 10
-39.9598369758
 20
20.4260729543
 10
-39.9602232789
 20
20.427062577
 10
-39.9609889613
 20
20.4292398868
 10
-39.9620109012
 20
20.4324719782
 10
-39.9632212034
 20
20.4367520469
 10
-39.9645497794
 20
20.4420553447
 10
-39.9659014959
 20
20.4481673882
 10
-39.9672361339
 20
20.4550161913
 10
-39.9685299072
 20
20.4626019977
 10
-39.9697412807
 20
20.4708096947
 10
-39.9708491643
 20
20.4796008014
 10
-39.9718416066
 20
20.4889609423
 10
-39.9727020738
 20
20.4988199857
 10
-39.9734197639
 20
20.5091477771
 10
-39.9739849719
 20
20.5199293337
 10
-39.974389273
 20
20.5311234063
 10
-39.9746285364
 20
20.5427133554
 10
-39.9746991283
 20
20.5534925876
  0
LWPOLYLINE
  5
25E
100
AcDbEntity
  8
ASSI
100
AcDbPolyline
 62
7
  6
CONTINUOUS
 90
19
 70
0
 10
-39.959819231
 20
20.4260312477
 10
-39.9598369758
 20
20.4260729543
 10
-39.9602232789
 20
20.427062577
 10
-39.9609889613
 20
20.4292398868
 10
-39.9620109012
 20
20.4324719782
 10
-39.9632212034
 20
20.4367520469
 10
-39.9645497794
 20
20.4420553447
 10
-39.9659014959
 20
20.4481673882
 10
-39.9672361339
 20
20.4550161913
 10
-39.9685299072
 20
20.4626019977
 10
-39.9697412807
 20
20.4708096947
 10
-39.9708491643
 20
20.4796008014
 10
-39.9718416066
 20
20.4889609423
 10
-39.9727020738
 20
20.4988199857
 10
-39.9734197639
 20
20.5091477771
 10
-39.9739849719
 20
20.5199293337
 10
-39.974389273
 20
20.5311234063
 10
-39.9746285364
 20
20.5427133554
 10
-39.9746991283
 20
20.5534925876
  0
LINE
  5
25F
100
AcDbEntity
  8
0
100
AcDbLine
 62
7
  6
CONTINUOUS
 10
-27.8953625178
 20
-1.7942102849
 11
-27.7892965006
 21
-1.6104985544
  0
LINE
  5
260
100
AcDbEntity
  8
ASSI
100
AcDbLine
 62
7
  6
CONTINUOUS
 10
-27.8953625178
 20
-1.7942102849
 11
-27.7892965006
 21
-1.6104985544
  0
LINE
  5
261
100
AcDbEntity
  8
0
100
AcDbLine
 62
7
  6
CONTINUOUS
 10
-27.5418091272
 20
-1.5900729883
 11
-27.43574311
 21
-1.4063612578
  0
LINE
  5
262
100
AcDbEntity
  8
ASSI
100
AcDbLine
 62
7
  6
CONTINUOUS
 10
-27.5418091272
 20
-1.5900729883
 11
-27.43574311
 21
-1.4063612578
  0
LINE
  5
263
100
AcDbEntity
  8
0
100
AcDbLine
 62
7
  6
CONTINUOUS
 10
-27.1882557366
 20
-1.3859356916
 11
-27.0821897194
 21
-1.2022239611
  0
LINE
  5
264
100
AcDbEntity
  8
ASSI
100
AcDbLine
 62
7
  6
CONTINUOUS
 10
-27.1882557366
 20
-1.3859356916
 11
-27.0821897194
 21
-1.2022239611
  0
LINE
  5
265
100
AcDbEntity
  8
0
100
AcDbLine
 62
7
  6
CONTINUOUS
 10
-26.834702346
 20
-1.1817983949
 11
-26.7286363289
 21
-0.9980866644
  0
LINE
  5
266
100
AcDbEntity
  8
ASSI
100
AcDbLine
 62
7
  6
CONTINUOUS
 10
-26.834702346
 20
-1.1817983949
 11
-26.7286363289
 21
-0.9980866644
  0
LINE
  5
267
100
AcDbEntity
  8
RACCORDO
100
AcDbLine
 62
7
  6
CONTINUOUS
 10
-41.5071680557
 20
3.002811021
 11
36.4867099092
 21
-42.029876623
  0
LINE
  5
268
100
AcDbEntity
  8
0
100
AcDbLine
 62
250
  6
CONTINUOUS
 10
-26.8943287939
 20
-2.0469954874
 11
-26.558383829
 21
-1.7202418976
  0
LINE
  5
269
100
AcDbEntity
  8
ASSI
100
AcDbLine
 62
250
  6
CONTINUOUS
 10
-26.8943287939
 20
-2.0469954874
 11
-26.558383829
 21
-1.7202418976
  0
LINE
  5
26A
100
AcDbEntity
  8
0
100
AcDbLine
 62
7
  6
CONTINUOUS
 10
-26.890403929
 20
-2.0805306809
 11
-26.4614195557
 21
-1.6632832191
  0
LINE
  5
26B
100
AcDbEntity
  8
ASSI
100
AcDbLine
 62
7
  6
CONTINUOUS
 10
-26.890403929
 20
-2.0805306809
 11
-26.4614195557
 21
-1.6632832191
  0
LINE
  5
26C
100
AcDbEntity
  8
0
100
AcDbLine
 62
7
  6
CONTINUOUS
 10
-26.1963700082
 20
-1.0195049538
 11
-28.1397634709
 21
-2.2657132933
  0
LINE
  5
26D
100
AcDbEntity
  8
ASSI
100
AcDbLine
 62
7
  6
CONTINUOUS
 10
-26.1963700082
 20
-1.0195049538
 11
-28.1397634709
 21
-2.2657132933
  0
LINE
  5
26E
100
AcDbEntity
  8
0
100
AcDbLine
 62
7
  6
CONTINUOUS
 10
-27.8105574194
 20
-2.4557927415
 11
-24.949849381
 21
-0.7753578338
  0
LINE
  5
26F
100
AcDbEntity
  8
ASSI
100
AcDbLine
 62
7
  6
CONTINUOUS
 10
-27.8105574194
 20
-2.4557927415
 11
-24.949849381
 21
-0.7753578338
  0
LINE
  5
270
100
AcDbEntity
  8
0
100
AcDbLine
 62
7
  6
CONTINUOUS
 10
-26.9490182755
 20
-2.1249946924
 11
-27.6644808517
 21
-2.540135521
  0
LINE
  5
271
100
AcDbEntity
  8
ASSI
100
AcDbLine
 62
7
  6
CONTINUOUS
 10
-26.9490182755
 20
-2.1249946924
 11
-27.6644808517
 21
-2.540135521
  0
LINE
  5
272
100
AcDbEntity
  8
0
100
AcDbLine
 62
250
  6
CONTINUOUS
 10
-26.8943287939
 20
-2.0469954874
 11
-27.7047139484
 21
-2.5169054351
  0
LINE
  5
273
100
AcDbEntity
  8
ASSI
100
AcDbLine
 62
250
  6
CONTINUOUS
 10
-26.8943287939
 20
-2.0469954874
 11
-27.7047139484
 21
-2.5169054351
  0
LINE
  5
274
100
AcDbEntity
  8
0
100
AcDbLine
 62
7
  6
CONTINUOUS
 10
-32.3854905783
 20
0.2267371156
 11
-32.2440692221
 21
0.3083920342
  0
LINE
  5
275
100
AcDbEntity
  8
ASSI
100
AcDbLine
 62
7
  6
CONTINUOUS
 10
-32.3854905783
 20
0.2267371156
 11
-32.2440692221
 21
0.3083920342
  0
LINE
  5
276
100
AcDbEntity
  8
0
100
AcDbLine
 62
7
  6
CONTINUOUS
 10
-32.0319371878
 20
0.4308744122
 11
-31.8905158315
 21
0.5125293309
  0
LINE
  5
277
100
AcDbEntity
  8
ASSI
100
AcDbLine
 62
7
  6
CONTINUOUS
 10
-32.0319371878
 20
0.4308744122
 11
-31.8905158315
 21
0.5125293309
  0
LINE
  5
278
100
AcDbEntity
  8
0
100
AcDbLine
 62
7
  6
CONTINUOUS
 10
-31.6783837972
 20
0.6350117089
 11
-31.5369624409
 21
0.7166666275
  0
LINE
  5
279
100
AcDbEntity
  8
ASSI
100
AcDbLine
 62
7
  6
CONTINUOUS
 10
-31.6783837972
 20
0.6350117089
 11
-31.5369624409
 21
0.7166666275
  0
LINE
  5
27A
100
AcDbEntity
  8
0
100
AcDbLine
 62
7
  6
CONTINUOUS
 10
-31.3248304066
 20
0.8391490055
 11
-31.1834090503
 21
0.9208039242
  0
LINE
  5
27B
100
AcDbEntity
  8
ASSI
100
AcDbLine
 62
7
  6
CONTINUOUS
 10
-31.3248304066
 20
0.8391490055
 11
-31.1834090503
 21
0.9208039242
  0
LINE
  5
27C
100
AcDbEntity
  8
0
100
AcDbLine
 62
7
  6
CONTINUOUS
 10
-30.971277016
 20
1.0432863022
 11
-30.8298556597
 21
1.1249412209
  0
LINE
  5
27D
100
AcDbEntity
  8
ASSI
100
AcDbLine
 62
7
  6
CONTINUOUS
 10
-30.971277016
 20
1.0432863022
 11
-30.8298556597
 21
1.1249412209
  0
LINE
  5
27E
100
AcDbEntity
  8
0
100
AcDbLine
 62
7
  6
CONTINUOUS
 10
-30.6177236254
 20
1.2474235989
 11
-30.4763022691
 21
1.3290785175
  0
LINE
  5
27F
100
AcDbEntity
  8
ASSI
100
AcDbLine
 62
7
  6
CONTINUOUS
 10
-30.6177236254
 20
1.2474235989
 11
-30.4763022691
 21
1.3290785175
  0
LINE
  5
280
100
AcDbEntity
  8
0
100
AcDbLine
 62
7
  6
CONTINUOUS
 10
-28.4964032818
 20
-2.0187731477
 11
-28.3549819256
 21
-1.9371182291
  0
LINE
  5
281
100
AcDbEntity
  8
ASSI
100
AcDbLine
 62
7
  6
CONTINUOUS
 10
-28.4964032818
 20
-2.0187731477
 11
-28.3549819256
 21
-1.9371182291
  0
LINE
  5
282
100
AcDbEntity
  8
0
100
AcDbLine
 62
7
  6
CONTINUOUS
 10
-28.1428498912
 20
-1.8146358511
 11
-28.001428535
 21
-1.7329809324
  0
LINE
  5
283
100
AcDbEntity
  8
ASSI
100
AcDbLine
 62
7
  6
CONTINUOUS
 10
-28.1428498912
 20
-1.8146358511
 11
-28.001428535
 21
-1.7329809324
  0
LINE
  5
284
100
AcDbEntity
  8
0
100
AcDbLine
 62
7
  6
CONTINUOUS
 10
-27.7892965006
 20
-1.6104985544
 11
-27.6478751444
 21
-1.5288436358
  0
LINE
  5
285
100
AcDbEntity
  8
ASSI
100
AcDbLine
 62
7
  6
CONTINUOUS
 10
-27.7892965006
 20
-1.6104985544
 11
-27.6478751444
 21
-1.5288436358
  0
LINE
  5
286
100
AcDbEntity
  8
0
100
AcDbLine
 62
7
  6
CONTINUOUS
 10
-27.43574311
 20
-1.4063612578
 11
-27.2943217538
 21
-1.3247063391
  0
LINE
  5
287
100
AcDbEntity
  8
ASSI
100
AcDbLine
 62
7
  6
CONTINUOUS
 10
-27.43574311
 20
-1.4063612578
 11
-27.2943217538
 21
-1.3247063391
  0
LINE
  5
288
100
AcDbEntity
  8
0
100
AcDbLine
 62
7
  6
CONTINUOUS
 10
-27.0821897194
 20
-1.2022239611
 11
-26.9407683632
 21
-1.1205690424
  0
LINE
  5
289
100
AcDbEntity
  8
ASSI
100
AcDbLine
 62
7
  6
CONTINUOUS
 10
-27.0821897194
 20
-1.2022239611
 11
-26.9407683632
 21
-1.1205690424
  0
LINE
  5
28A
100
AcDbEntity
  8
0
100
AcDbLine
 62
7
  6
CONTINUOUS
 10
-26.7286363289
 20
-0.9980866644
 11
-26.5872149726
 21
-0.9164317458
  0
LINE
  5
28B
100
AcDbEntity
  8
ASSI
100
AcDbLine
 62
7
  6
CONTINUOUS
 10
-26.7286363289
 20
-0.9980866644
 11
-26.5872149726
 21
-0.9164317458
  0
LINE
  5
28C
100
AcDbEntity
  8
0
100
AcDbLine
 62
7
  6
CONTINUOUS
 10
-26.4811489554
 20
-0.9776610983
 11
-28.4258702709
 21
-2.1005188128
  0
LINE
  5
28D
100
AcDbEntity
  8
ASSI
100
AcDbLine
 62
7
  6
CONTINUOUS
 10
-26.4811489554
 20
-0.9776610983
 11
-28.4258702709
 21
-2.1005188128
  0
LINE
  5
28E
100
AcDbEntity
  8
0
100
AcDbLine
 62
7
  6
CONTINUOUS
 10
-32.6010643674
 20
0.3101859311
 11
-30.4427072665
 21
1.43227696
  0
LINE
  5
28F
100
AcDbEntity
  8
ASSI
100
AcDbLine
 62
7
  6
CONTINUOUS
 10
-32.6010643674
 20
0.3101859311
 11
-30.4427072665
 21
1.43227696
  0
LINE
  5
290
100
AcDbEntity
  8
0
100
AcDbLine
 62
7
  6
CONTINUOUS
 10
-30.3686601136
 20
1.4667207561
 11
-29.0583058579
 21
2.0041830828
  0
LINE
  5
291
100
AcDbEntity
  8
ASSI
100
AcDbLine
 62
7
  6
CONTINUOUS
 10
-30.3686601136
 20
1.4667207561
 11
-29.0583058579
 21
2.0041830828
  0
LINE
  5
292
100
AcDbEntity
  8
RACCORDO
100
AcDbLine
 62
7
  6
CONTINUOUS
 10
-39.3858477121
 20
4.227634801
 11
37.3352380466
 21
-40.0701585751
  0
LINE
  5
293
100
AcDbEntity
  8
0
100
AcDbLine
 62
7
  6
CONTINUOUS
 10
35.143207025
 20
-38.7634865472
 11
31.2541197284
 21
-36.5179762839
  0
LINE
  5
294
100
AcDbEntity
  8
ASSI
100
AcDbLine
 62
7
  6
CONTINUOUS
 10
35.143207025
 20
-38.7634865472
 11
31.2541197284
 21
-36.5179762839
  0
LINE
  5
295
100
AcDbEntity
  8
0
100
AcDbLine
 62
7
  6
CONTINUOUS
 10
-28.4964032818
 20
-2.0187731477
 11
-32.3854905783
 21
0.2267371156
  0
LINE
  5
296
100
AcDbEntity
  8
ASSI
100
AcDbLine
 62
7
  6
CONTINUOUS
 10
-28.4964032818
 20
-2.0187731477
 11
-32.3854905783
 21
0.2267371156
  0
LINE
  5
297
100
AcDbEntity
  8
0
100
AcDbLine
 62
7
  6
CONTINUOUS
 10
35.3906943984
 20
-38.7430609811
 11
31.3955410847
 21
-36.4363213653
  0
LINE
  5
298
100
AcDbEntity
  8
ASSI
100
AcDbLine
 62
7
  6
CONTINUOUS
 10
35.3906943984
 20
-38.7430609811
 11
31.3955410847
 21
-36.4363213653
  0
LINE
  5
299
100
AcDbEntity
  8
0
100
AcDbLine
 62
7
  6
CONTINUOUS
 10
-32.2440692221
 20
0.3083920342
 11
-28.2489159084
 21
-1.9983475816
  0
LINE
  5
29A
100
AcDbEntity
  8
ASSI
100
AcDbLine
 62
7
  6
CONTINUOUS
 10
-32.2440692221
 20
0.3083920342
 11
-28.2489159084
 21
-1.9983475816
  0
LINE
  5
29B
100
AcDbEntity
  8
0
100
AcDbLine
 62
7
  6
CONTINUOUS
 10
35.4967604156
 20
-38.5593492506
 11
31.607673119
 21
-36.3138389873
  0
LINE
  5
29C
100
AcDbEntity
  8
ASSI
100
AcDbLine
 62
7
  6
CONTINUOUS
 10
35.4967604156
 20
-38.5593492506
 11
31.607673119
 21
-36.3138389873
  0
LINE
  5
29D
100
AcDbEntity
  8
0
100
AcDbLine
 62
7
  6
CONTINUOUS
 10
-28.1428498912
 20
-1.8146358511
 11
-32.0319371878
 21
0.4308744122
  0
LINE
  5
29E
100
AcDbEntity
  8
ASSI
100
AcDbLine
 62
7
  6
CONTINUOUS
 10
-28.1428498912
 20
-1.8146358511
 11
-32.0319371878
 21
0.4308744122
  0
LINE
  5
29F
100
AcDbEntity
  8
0
100
AcDbLine
 62
7
  6
CONTINUOUS
 10
35.744247789
 20
-38.5389236844
 11
31.7490944753
 21
-36.2321840686
  0
LINE
  5
2A0
100
AcDbEntity
  8
ASSI
100
AcDbLine
 62
7
  6
CONTINUOUS
 10
35.744247789
 20
-38.5389236844
 11
31.7490944753
 21
-36.2321840686
  0
LINE
  5
2A1
100
AcDbEntity
  8
0
100
AcDbLine
 62
7
  6
CONTINUOUS
 10
-31.8905158315
 20
0.5125293309
 11
-27.8953625178
 21
-1.7942102849
  0
LINE
  5
2A2
100
AcDbEntity
  8
ASSI
100
AcDbLine
 62
7
  6
CONTINUOUS
 10
-31.8905158315
 20
0.5125293309
 11
-27.8953625178
 21
-1.7942102849
  0
LINE
  5
2A3
100
AcDbEntity
  8
0
100
AcDbLine
 62
7
  6
CONTINUOUS
 10
35.8503138062
 20
-38.3552119539
 11
31.9612265096
 21
-36.1097016906
  0
LINE
  5
2A4
100
AcDbEntity
  8
ASSI
100
AcDbLine
 62
7
  6
CONTINUOUS
 10
35.8503138062
 20
-38.3552119539
 11
31.9612265096
 21
-36.1097016906
  0
LINE
  5
2A5
100
AcDbEntity
  8
0
100
AcDbLine
 62
7
  6
CONTINUOUS
 10
-27.7892965006
 20
-1.6104985544
 11
-31.6783837972
 21
0.6350117089
  0
LINE
  5
2A6
100
AcDbEntity
  8
ASSI
100
AcDbLine
 62
7
  6
CONTINUOUS
 10
-27.7892965006
 20
-1.6104985544
 11
-31.6783837972
 21
0.6350117089
  0
LINE
  5
2A7
100
AcDbEntity
  8
0
100
AcDbLine
 62
7
  6
CONTINUOUS
 10
36.0978011796
 20
-38.3347863878
 11
32.1026478659
 21
-36.0280467719
  0
LINE
  5
2A8
100
AcDbEntity
  8
ASSI
100
AcDbLine
 62
7
  6
CONTINUOUS
 10
36.0978011796
 20
-38.3347863878
 11
32.1026478659
 21
-36.0280467719
  0
LINE
  5
2A9
100
AcDbEntity
  8
0
100
AcDbLine
 62
7
  6
CONTINUOUS
 10
-31.5369624409
 20
0.7166666275
 11
-27.5418091272
 21
-1.5900729883
  0
LINE
  5
2AA
100
AcDbEntity
  8
ASSI
100
AcDbLine
 62
7
  6
CONTINUOUS
 10
-31.5369624409
 20
0.7166666275
 11
-27.5418091272
 21
-1.5900729883
  0
LINE
  5
2AB
100
AcDbEntity
  8
0
100
AcDbLine
 62
7
  6
CONTINUOUS
 10
36.2038671968
 20
-38.1510746573
 11
32.3147799002
 21
-35.9055643939
  0
LINE
  5
2AC
100
AcDbEntity
  8
ASSI
100
AcDbLine
 62
7
  6
CONTINUOUS
 10
36.2038671968
 20
-38.1510746573
 11
32.3147799002
 21
-35.9055643939
  0
LINE
  5
2AD
100
AcDbEntity
  8
0
100
AcDbLine
 62
7
  6
CONTINUOUS
 10
-27.43574311
 20
-1.4063612578
 11
-31.3248304066
 21
0.8391490055
  0
LINE
  5
2AE
100
AcDbEntity
  8
ASSI
100
AcDbLine
 62
7
  6
CONTINUOUS
 10
-27.43574311
 20
-1.4063612578
 11
-31.3248304066
 21
0.8391490055
  0
LINE
  5
2AF
100
AcDbEntity
  8
0
100
AcDbLine
 62
7
  6
CONTINUOUS
 10
36.4513545702
 20
-38.1306490911
 11
32.4562012565
 21
-35.8239094753
  0
LINE
  5
2B0
100
AcDbEntity
  8
ASSI
100
AcDbLine
 62
7
  6
CONTINUOUS
 10
36.4513545702
 20
-38.1306490911
 11
32.4562012565
 21
-35.8239094753
  0
LINE
  5
2B1
100
AcDbEntity
  8
0
100
AcDbLine
 62
7
  6
CONTINUOUS
 10
-31.1834090503
 20
0.9208039242
 11
-27.1882557366
 21
-1.3859356916
  0
LINE
  5
2B2
100
AcDbEntity
  8
ASSI
100
AcDbLine
 62
7
  6
CONTINUOUS
 10
-31.1834090503
 20
0.9208039242
 11
-27.1882557366
 21
-1.3859356916
  0
LINE
  5
2B3
100
AcDbEntity
  8
0
100
AcDbLine
 62
7
  6
CONTINUOUS
 10
36.5574205873
 20
-37.9469373606
 11
32.6683332908
 21
-35.7014270973
  0
LINE
  5
2B4
100
AcDbEntity
  8
ASSI
100
AcDbLine
 62
7
  6
CONTINUOUS
 10
36.5574205873
 20
-37.9469373606
 11
32.6683332908
 21
-35.7014270973
  0
LINE
  5
2B5
100
AcDbEntity
  8
0
100
AcDbLine
 62
7
  6
CONTINUOUS
 10
-27.0821897194
 20
-1.2022239611
 11
-30.971277016
 21
1.0432863022
  0
LINE
  5
2B6
100
AcDbEntity
  8
ASSI
100
AcDbLine
 62
7
  6
CONTINUOUS
 10
-27.0821897194
 20
-1.2022239611
 11
-30.971277016
 21
1.0432863022
  0
LINE
  5
2B7
100
AcDbEntity
  8
0
100
AcDbLine
 62
7
  6
CONTINUOUS
 10
36.8049079608
 20
-37.9265117944
 11
32.8097546471
 21
-35.6197721786
  0
LINE
  5
2B8
100
AcDbEntity
  8
ASSI
100
AcDbLine
 62
7
  6
CONTINUOUS
 10
36.8049079608
 20
-37.9265117944
 11
32.8097546471
 21
-35.6197721786
  0
LINE
  5
2B9
100
AcDbEntity
  8
0
100
AcDbLine
 62
7
  6
CONTINUOUS
 10
-30.8298556597
 20
1.1249412209
 11
-26.834702346
 21
-1.1817983949
  0
LINE
  5
2BA
100
AcDbEntity
  8
ASSI
100
AcDbLine
 62
7
  6
CONTINUOUS
 10
-30.8298556597
 20
1.1249412209
 11
-26.834702346
 21
-1.1817983949
  0
LINE
  5
2BB
100
AcDbEntity
  8
0
100
AcDbLine
 62
7
  6
CONTINUOUS
 10
36.9109739779
 20
-37.7428000639
 11
33.0218866814
 21
-35.4972898006
  0
LINE
  5
2BC
100
AcDbEntity
  8
ASSI
100
AcDbLine
 62
7
  6
CONTINUOUS
 10
36.9109739779
 20
-37.7428000639
 11
33.0218866814
 21
-35.4972898006
  0
LINE
  5
2BD
100
AcDbEntity
  8
0
100
AcDbLine
 62
7
  6
CONTINUOUS
 10
-26.7286363289
 20
-0.9980866644
 11
-30.6177236254
 21
1.2474235989
  0
LINE
  5
2BE
100
AcDbEntity
  8
ASSI
100
AcDbLine
 62
7
  6
CONTINUOUS
 10
-26.7286363289
 20
-0.9980866644
 11
-30.6177236254
 21
1.2474235989
  0
LINE
  5
2BF
100
AcDbEntity
  8
0
100
AcDbLine
 62
7
  6
CONTINUOUS
 10
37.1584613514
 20
-37.7223744978
 11
33.1633080376
 21
-35.415634882
  0
LINE
  5
2C0
100
AcDbEntity
  8
ASSI
100
AcDbLine
 62
7
  6
CONTINUOUS
 10
37.1584613514
 20
-37.7223744978
 11
33.1633080376
 21
-35.415634882
  0
LINE
  5
2C1
100
AcDbEntity
  8
0
100
AcDbLine
 62
7
  6
CONTINUOUS
 10
-30.4763022691
 20
1.3290785175
 11
-26.4811489554
 21
-0.9776610983
  0
LINE
  5
2C2
100
AcDbEntity
  8
ASSI
100
AcDbLine
 62
7
  6
CONTINUOUS
 10
-30.4763022691
 20
1.3290785175
 11
-26.4811489554
 21
-0.9776610983
  0
LINE
  5
2C3
100
AcDbEntity
  8
0
100
AcDbLine
 62
250
  6
CONTINUOUS
 10
37.3352380466
 20
-37.7018592066
 11
33.1969030403
 21
-35.3124364395
  0
LINE
  5
2C4
100
AcDbEntity
  8
ASSI
100
AcDbLine
 62
250
  6
CONTINUOUS
 10
37.3352380466
 20
-37.7018592066
 11
33.1969030403
 21
-35.3124364395
  0
LINE
  5
2C5
100
AcDbEntity
  8
0
100
AcDbLine
 62
250
  6
CONTINUOUS
 10
-26.1963700082
 20
-1.0195049538
 11
-30.4427072665
 21
1.43227696
  0
LINE
  5
2C6
100
AcDbEntity
  8
ASSI
100
AcDbLine
 62
250
  6
CONTINUOUS
 10
-26.1963700082
 20
-1.0195049538
 11
-30.4427072665
 21
1.43227696
  0
LINE
  5
2C7
100
AcDbEntity
  8
0
100
AcDbLine
 62
250
  6
CONTINUOUS
 10
37.3352380466
 20
-37.6246615125
 11
33.2709501932
 21
-35.2779926434
  0
LINE
  5
2C8
100
AcDbEntity
  8
ASSI
100
AcDbLine
 62
250
  6
CONTINUOUS
 10
37.3352380466
 20
-37.6246615125
 11
33.2709501932
 21
-35.2779926434
  0
LINE
  5
2C9
100
AcDbEntity
  8
0
100
AcDbLine
 62
250
  6
CONTINUOUS
 10
-26.1296976522
 20
-0.9808030424
 11
-30.3686601136
 21
1.4667207561
  0
LINE
  5
2CA
100
AcDbEntity
  8
ASSI
100
AcDbLine
 62
250
  6
CONTINUOUS
 10
-26.1296976522
 20
-0.9808030424
 11
-30.3686601136
 21
1.4667207561
  0
LINE
  5
2CB
100
AcDbEntity
  8
0
100
AcDbLine
 62
7
  6
CONTINUOUS
 10
-14.0081354037
 20
-7.8955466028
 11
-10.3163378692
 21
-10.0271442302
  0
LINE
  5
2CC
100
AcDbEntity
  8
ASSI
100
AcDbLine
 62
7
  6
CONTINUOUS
 10
-14.0081354037
 20
-7.8955466028
 11
-10.3163378692
 21
-10.0271442302
  0
LINE
  5
2CD
100
AcDbEntity
  8
0
100
AcDbLine
 62
7
  6
CONTINUOUS
 10
1.901767173
 20
-17.0817249527
 11
5.5935647075
 21
-19.21332258
  0
LINE
  5
2CE
100
AcDbEntity
  8
ASSI
100
AcDbLine
 62
7
  6
CONTINUOUS
 10
1.901767173
 20
-17.0817249527
 11
5.5935647075
 21
-19.21332258
  0
LINE
  5
2CF
100
AcDbEntity
  8
0
100
AcDbLine
 62
7
  6
CONTINUOUS
 10
17.8116697497
 20
-26.2679033026
 11
21.5034672842
 21
-28.3995009299
  0
LINE
  5
2D0
100
AcDbEntity
  8
ASSI
100
AcDbLine
 62
7
  6
CONTINUOUS
 10
17.8116697497
 20
-26.2679033026
 11
21.5034672842
 21
-28.3995009299
  0
LINE
  5
2D1
100
AcDbEntity
  8
0
100
AcDbLine
 62
7
  6
CONTINUOUS
 10
-28.7830583804
 20
1.9845467093
 11
-24.9570569898
 21
-0.2245385426
  0
LINE
  5
2D2
100
AcDbEntity
  8
ASSI
100
AcDbLine
 62
7
  6
CONTINUOUS
 10
-28.7830583804
 20
1.9845467093
 11
-24.9570569898
 21
-0.2245385426
  0
LINE
  5
2D3
100
AcDbEntity
  8
0
100
AcDbLine
 62
7
  6
CONTINUOUS
 10
34.8565519264
 20
-34.7601666902
 11
37.3352380466
 21
-36.1913289908
  0
LINE
  5
2D4
100
AcDbEntity
  8
ASSI
100
AcDbLine
 62
7
  6
CONTINUOUS
 10
34.8565519264
 20
-34.7601666902
 11
37.3352380466
 21
-36.1913289908
  0
LINE
  5
2D5
100
AcDbEntity
  8
0
100
AcDbLine
 62
250
  6
CONTINUOUS
 10
-10.3055264559
 20
-10.2635051992
 11
-10.3055264559
 21
-10.6929030111
  0
LINE
  5
2D6
100
AcDbEntity
  8
ASSI
100
AcDbLine
 62
250
  6
CONTINUOUS
 10
-10.3055264559
 20
-10.2635051992
 11
-10.3055264559
 21
-10.6929030111
  0
LINE
  5
2D7
100
AcDbEntity
  8
0
100
AcDbLine
 62
7
  6
CONTINUOUS
 10
-10.2284699035
 20
-10.1490005288
 11
-10.2284699035
 21
-10.6470850689
  0
LINE
  5
2D8
100
AcDbEntity
  8
ASSI
100
AcDbLine
 62
7
  6
CONTINUOUS
 10
-10.2284699035
 20
-10.1490005288
 11
-10.2284699035
 21
-10.6470850689
  0
LINE
  5
2D9
100
AcDbEntity
  8
0
100
AcDbLine
 62
7
  6
CONTINUOUS
 10
-24.949849381
 20
-0.367988196
 11
-26.1296976522
 21
-0.9808030424
  0
LINE
  5
2DA
100
AcDbEntity
  8
ASSI
100
AcDbLine
 62
7
  6
CONTINUOUS
 10
-24.949849381
 20
-0.367988196
 11
-26.1296976522
 21
-0.9808030424
  0
LINE
  5
2DB
100
AcDbEntity
  8
0
100
AcDbLine
 62
250
  6
CONTINUOUS
 10
-11.8959855583
 20
-11.6446670777
 11
-11.8505627803
 21
-11.6004870562
  0
LINE
  5
2DC
100
AcDbEntity
  8
ASSI
100
AcDbLine
 62
250
  6
CONTINUOUS
 10
-11.8959855583
 20
-11.6446670777
 11
-11.8505627803
 21
-11.6004870562
  0
LINE
  5
2DD
100
AcDbEntity
  8
0
100
AcDbLine
 62
7
  6
CONTINUOUS
 10
-11.871887489
 20
-11.6585810009
 11
-11.753598507
 21
-11.5435283776
  0
LINE
  5
2DE
100
AcDbEntity
  8
ASSI
100
AcDbLine
 62
7
  6
CONTINUOUS
 10
-11.871887489
 20
-11.6585810009
 11
-11.753598507
 21
-11.5435283776
  0
LINE
  5
2DF
100
AcDbEntity
  8
0
100
AcDbLine
 62
7
  6
CONTINUOUS
 10
-16.5350861307
 20
-8.9661085488
 11
-14.4210066199
 21
-7.8872785315
  0
LINE
  5
2E0
100
AcDbEntity
  8
ASSI
100
AcDbLine
 62
7
  6
CONTINUOUS
 10
-16.5350861307
 20
-8.9661085488
 11
-14.4210066199
 21
-7.8872785315
  0
LINE
  5
2E1
100
AcDbEntity
  8
0
100
AcDbLine
 62
250
  6
CONTINUOUS
 10
5.6043761208
 20
-19.449683549
 11
5.6043761208
 21
-19.879081361
  0
LINE
  5
2E2
100
AcDbEntity
  8
ASSI
100
AcDbLine
 62
250
  6
CONTINUOUS
 10
5.6043761208
 20
-19.449683549
 11
5.6043761208
 21
-19.879081361
  0
LINE
  5
2E3
100
AcDbEntity
  8
0
100
AcDbLine
 62
7
  6
CONTINUOUS
 10
5.6814326732
 20
-19.3351788787
 11
5.6814326732
 21
-19.8332634188
  0
LINE
  5
2E4
100
AcDbEntity
  8
ASSI
100
AcDbLine
 62
7
  6
CONTINUOUS
 10
5.6814326732
 20
-19.3351788787
 11
5.6814326732
 21
-19.8332634188
  0
LINE
  5
2E5
100
AcDbEntity
  8
0
100
AcDbLine
 62
7
  6
CONTINUOUS
 10
-10.3055264559
 20
-10.2635051992
 11
-12.2090521973
 21
-11.463906324
  0
LINE
  5
2E6
100
AcDbEntity
  8
ASSI
100
AcDbLine
 62
7
  6
CONTINUOUS
 10
-10.3055264559
 20
-10.2635051992
 11
-12.2090521973
 21
-11.463906324
  0
LINE
  5
2E7
100
AcDbEntity
  8
0
100
AcDbLine
 62
7
  6
CONTINUOUS
 10
-11.9110076289
 20
-11.6359935224
 11
-10.3055264559
 21
-10.6929030111
  0
LINE
  5
2E8
100
AcDbEntity
  8
ASSI
100
AcDbLine
 62
7
  6
CONTINUOUS
 10
-11.9110076289
 20
-11.6359935224
 11
-10.3055264559
 21
-10.6929030111
  0
LINE
  5
2E9
100
AcDbEntity
  8
0
100
AcDbLine
 62
250
  6
CONTINUOUS
 10
4.0139170184
 20
-20.8308454276
 11
4.0593397964
 21
-20.786665406
  0
LINE
  5
2EA
100
AcDbEntity
  8
ASSI
100
AcDbLine
 62
250
  6
CONTINUOUS
 10
4.0139170184
 20
-20.8308454276
 11
4.0593397964
 21
-20.786665406
  0
LINE
  5
2EB
100
AcDbEntity
  8
0
100
AcDbLine
 62
7
  6
CONTINUOUS
 10
4.0380150877
 20
-20.8447593508
 11
4.1563040697
 21
-20.7297067275
  0
LINE
  5
2EC
100
AcDbEntity
  8
ASSI
100
AcDbLine
 62
7
  6
CONTINUOUS
 10
4.0380150877
 20
-20.8447593508
 11
4.1563040697
 21
-20.7297067275
  0
LINE
  5
2ED
100
AcDbEntity
  8
0
100
AcDbLine
 62
7
  6
CONTINUOUS
 10
-0.625183554
 20
-18.1522868987
 11
1.4888959568
 21
-17.0734568814
  0
LINE
  5
2EE
100
AcDbEntity
  8
ASSI
100
AcDbLine
 62
7
  6
CONTINUOUS
 10
-0.625183554
 20
-18.1522868987
 11
1.4888959568
 21
-17.0734568814
  0
LINE
  5
2EF
100
AcDbEntity
  8
RACCORDO
100
AcDbLine
 62
7
  6
CONTINUOUS
 10
36.4867099092
 20
-5.125420112
 11
-41.5071680557
 21
39.9072675321
  0
LINE
  5
2F0
100
AcDbEntity
  8
0
100
AcDbLine
 62
250
  6
CONTINUOUS
 10
21.5142786975
 20
-28.6358618989
 11
21.5142786975
 21
-29.0652597109
  0
LINE
  5
2F1
100
AcDbEntity
  8
ASSI
100
AcDbLine
 62
250
  6
CONTINUOUS
 10
21.5142786975
 20
-28.6358618989
 11
21.5142786975
 21
-29.0652597109
  0
LINE
  5
2F2
100
AcDbEntity
  8
0
100
AcDbLine
 62
7
  6
CONTINUOUS
 10
21.5913352499
 20
-28.5213572286
 11
21.5913352499
 21
-29.0194417687
  0
LINE
  5
2F3
100
AcDbEntity
  8
ASSI
100
AcDbLine
 62
7
  6
CONTINUOUS
 10
21.5913352499
 20
-28.5213572286
 11
21.5913352499
 21
-29.0194417687
  0
LINE
  5
2F4
100
AcDbEntity
  8
0
100
AcDbLine
 62
7
  6
CONTINUOUS
 10
5.6043761208
 20
-19.449683549
 11
3.7008503794
 21
-20.6500846738
  0
LINE
  5
2F5
100
AcDbEntity
  8
ASSI
100
AcDbLine
 62
7
  6
CONTINUOUS
 10
5.6043761208
 20
-19.449683549
 11
3.7008503794
 21
-20.6500846738
  0
LINE
  5
2F6
100
AcDbEntity
  8
0
100
AcDbLine
 62
7
  6
CONTINUOUS
 10
3.9988949478
 20
-20.8221718723
 11
5.6043761208
 21
-19.879081361
  0
LINE
  5
2F7
100
AcDbEntity
  8
ASSI
100
AcDbLine
 62
7
  6
CONTINUOUS
 10
3.9988949478
 20
-20.8221718723
 11
5.6043761208
 21
-19.879081361
  0
LINE
  5
2F8
100
AcDbEntity
  8
SMUSSO
100
AcDbLine
 62
7
  6
CONTINUOUS
 10
53.8108260483
 20
3.9773357383
 11
54.8714862201
 21
4.5897476283
  0
LINE
  5
2F9
100
AcDbEntity
  8
SMUSSO
100
AcDbLine
 62
7
  6
CONTINUOUS
 10
53.8108260483
 20
3.1608260066
 11
53.1037192671
 21
2.7525908682
  0
LINE
  5
2FA
100
AcDbEntity
  8
SMUSSO
100
AcDbLine
 62
7
  6
CONTINUOUS
 10
54.5179328295
 20
2.7525908682
 11
55.5785930013
 21
3.3650027582
  0
LINE
  5
2FB
100
AcDbEntity
  8
0
100
AcDbLine
 62
250
  6
CONTINUOUS
 10
54.836130881
 20
4.6107186064
 11
56.8867405465
 21
5.7533854562
  0
LINE
  5
2FC
100
AcDbEntity
  8
ASSI
100
AcDbLine
 62
250
  6
CONTINUOUS
 10
54.836130881
 20
4.6107186064
 11
56.8867405465
 21
5.7533854562
  0
LINE
  5
2FD
100
AcDbEntity
  8
0
100
AcDbLine
 62
250
  6
CONTINUOUS
 10
56.9160503715
 20
5.736632834
 11
57.7623581767
 21
5.4928742584
  0
LINE
  5
2FE
100
AcDbEntity
  8
ASSI
100
AcDbLine
 62
250
  6
CONTINUOUS
 10
56.9160503715
 20
5.736632834
 11
57.7623581767
 21
5.4928742584
  0
LINE
  5
2FF
100
AcDbEntity
  8
0
100
AcDbLine
 62
250
  6
CONTINUOUS
 10
55.5790311871
 20
3.3239775327
 11
57.5938473276
 21
4.5286405861
  0
LINE
  5
300
100
AcDbEntity
  8
ASSI
100
AcDbLine
 62
250
  6
CONTINUOUS
 10
55.5790311871
 20
3.3239775327
 11
57.5938473276
 21
4.5286405861
  0
LINE
  5
301
100
AcDbEntity
  8
SMUSSO
100
AcDbLine
 62
7
  6
CONTINUOUS
 10
53.1037192671
 20
2.7525908682
 11
-58.1241774135
 21
66.9741843986
  0
LINE
  5
302
100
AcDbEntity
  8
SMUSSO
100
AcDbLine
 62
7
  6
CONTINUOUS
 10
53.8108260483
 20
3.1608260066
 11
54.5179328295
 21
2.7525908682
  0
LINE
  5
303
100
AcDbEntity
  8
SMUSSO
100
AcDbLine
 62
7
  6
CONTINUOUS
 10
53.8108260483
 20
3.9773357383
 11
-57.4170706323
 21
68.1989292687
  0
LINE
  5
304
100
AcDbEntity
  8
0
100
AcDbLine
 62
250
  6
CONTINUOUS
 10
19.9238195951
 20
-30.0170237774
 11
19.9692423731
 21
-29.9728437559
  0
LINE
  5
305
100
AcDbEntity
  8
ASSI
100
AcDbLine
 62
250
  6
CONTINUOUS
 10
19.9238195951
 20
-30.0170237774
 11
19.9692423731
 21
-29.9728437559
  0
LINE
  5
306
100
AcDbEntity
  8
0
100
AcDbLine
 62
7
  6
CONTINUOUS
 10
19.9479176644
 20
-30.0309377006
 11
20.0662066464
 21
-29.9158850773
  0
LINE
  5
307
100
AcDbEntity
  8
ASSI
100
AcDbLine
 62
7
  6
CONTINUOUS
 10
19.9479176644
 20
-30.0309377006
 11
20.0662066464
 21
-29.9158850773
  0
LINE
  5
308
100
AcDbEntity
  8
0
100
AcDbLine
 62
7
  6
CONTINUOUS
 10
21.5142786975
 20
-28.6358618989
 11
19.6107529561
 21
-29.8362630237
  0
LINE
  5
309
100
AcDbEntity
  8
ASSI
100
AcDbLine
 62
7
  6
CONTINUOUS
 10
21.5142786975
 20
-28.6358618989
 11
19.6107529561
 21
-29.8362630237
  0
LINE
  5
30A
100
AcDbEntity
  8
0
100
AcDbLine
 62
7
  6
CONTINUOUS
 10
19.9087975245
 20
-30.0083502222
 11
21.5142786975
 21
-29.0652597109
  0
LINE
  5
30B
100
AcDbEntity
  8
ASSI
100
AcDbLine
 62
7
  6
CONTINUOUS
 10
19.9087975245
 20
-30.0083502222
 11
21.5142786975
 21
-29.0652597109
  0
LINE
  5
30C
100
AcDbEntity
  8
0
100
AcDbLine
 62
7
  6
CONTINUOUS
 10
15.2847190227
 20
-27.3384652485
 11
17.3987985335
 21
-26.2596352313
  0
LINE
  5
30D
100
AcDbEntity
  8
ASSI
100
AcDbLine
 62
7
  6
CONTINUOUS
 10
15.2847190227
 20
-27.3384652485
 11
17.3987985335
 21
-26.2596352313
  0
LINE
  5
30E
100
AcDbEntity
  8
SMUSSO
100
AcDbLine
 62
7
  6
CONTINUOUS
 10
-56.3564104606
 20
68.8113411587
 11
55.5785930013
 21
4.1815124899
  0
LINE
  5
30F
100
AcDbEntity
  8
0
100
AcDbLine
 62
7
  6
CONTINUOUS
 10
-53.3512066405
 20
69.403394556
 11
56.8867405465
 21
5.7533854562
  0
LINE
  5
310
100
AcDbEntity
  8
ASSI
100
AcDbLine
 62
7
  6
CONTINUOUS
 10
-53.3512066405
 20
69.403394556
 11
56.8867405465
 21
5.7533854562
  0
LINE
  5
311
100
AcDbEntity
  8
0
100
AcDbLine
 62
7
  6
CONTINUOUS
 10
-52.1055039272
 20
68.9292008695
 11
57.7623581767
 21
5.4928742584
  0
LINE
  5
312
100
AcDbEntity
  8
ASSI
100
AcDbLine
 62
7
  6
CONTINUOUS
 10
-52.1055039272
 20
68.9292008695
 11
57.7623581767
 21
5.4928742584
  0
LINE
  5
313
100
AcDbEntity
  8
RACCORDO
100
AcDbLine
 62
7
  6
CONTINUOUS
 10
37.3352380466
 20
-41.5400418029
 11
37.3352380466
 21
-6.5951139561
  0
LINE
  5
314
100
AcDbEntity
  8
0
100
AcDbLine
 62
7
  6
CONTINUOUS
 10
31.2363574921
 20
-36.5487413798
 11
31.2541197284
 21
-36.5179762839
  0
LINE
  5
315
100
AcDbEntity
  8
ASSI
100
AcDbLine
 62
7
  6
CONTINUOUS
 10
31.2363574921
 20
-36.5487413798
 11
31.2541197284
 21
-36.5179762839
  0
LINE
  5
316
100
AcDbEntity
  8
0
100
AcDbLine
 62
7
  6
CONTINUOUS
 10
31.5016071019
 20
-36.4975507178
 11
31.607673119
 21
-36.3138389873
  0
LINE
  5
317
100
AcDbEntity
  8
ASSI
100
AcDbLine
 62
7
  6
CONTINUOUS
 10
31.5016071019
 20
-36.4975507178
 11
31.607673119
 21
-36.3138389873
  0
LINE
  5
318
100
AcDbEntity
  8
0
100
AcDbLine
 62
7
  6
CONTINUOUS
 10
31.8551604925
 20
-36.2934134211
 11
31.9612265096
 21
-36.1097016906
  0
LINE
  5
319
100
AcDbEntity
  8
ASSI
100
AcDbLine
 62
7
  6
CONTINUOUS
 10
31.8551604925
 20
-36.2934134211
 11
31.9612265096
 21
-36.1097016906
  0
LINE
  5
31A
100
AcDbEntity
  8
0
100
AcDbLine
 62
7
  6
CONTINUOUS
 10
32.208713883
 20
-36.0892761245
 11
32.3147799002
 21
-35.9055643939
  0
LINE
  5
31B
100
AcDbEntity
  8
ASSI
100
AcDbLine
 62
7
  6
CONTINUOUS
 10
32.208713883
 20
-36.0892761245
 11
32.3147799002
 21
-35.9055643939
  0
LINE
  5
31C
100
AcDbEntity
  8
0
100
AcDbLine
 62
7
  6
CONTINUOUS
 10
32.5622672736
 20
-35.8851388278
 11
32.6683332908
 21
-35.7014270973
  0
LINE
  5
31D
100
AcDbEntity
  8
ASSI
100
AcDbLine
 62
7
  6
CONTINUOUS
 10
32.5622672736
 20
-35.8851388278
 11
32.6683332908
 21
-35.7014270973
  0
LINE
  5
31E
100
AcDbEntity
  8
0
100
AcDbLine
 62
7
  6
CONTINUOUS
 10
32.9158206642
 20
-35.6810015311
 11
33.0218866814
 21
-35.4972898006
  0
LINE
  5
31F
100
AcDbEntity
  8
ASSI
100
AcDbLine
 62
7
  6
CONTINUOUS
 10
32.9158206642
 20
-35.6810015311
 11
33.0218866814
 21
-35.4972898006
  0
LINE
  5
320
100
AcDbEntity
  8
0
100
AcDbLine
 62
7
  6
CONTINUOUS
 10
31.2541197284
 20
-36.5179762839
 11
31.3955410847
 21
-36.4363213653
  0
LINE
  5
321
100
AcDbEntity
  8
ASSI
100
AcDbLine
 62
7
  6
CONTINUOUS
 10
31.2541197284
 20
-36.5179762839
 11
31.3955410847
 21
-36.4363213653
  0
LINE
  5
322
100
AcDbEntity
  8
0
100
AcDbLine
 62
7
  6
CONTINUOUS
 10
31.607673119
 20
-36.3138389873
 11
31.7490944753
 21
-36.2321840686
  0
LINE
  5
323
100
AcDbEntity
  8
ASSI
100
AcDbLine
 62
7
  6
CONTINUOUS
 10
31.607673119
 20
-36.3138389873
 11
31.7490944753
 21
-36.2321840686
  0
LINE
  5
324
100
AcDbEntity
  8
0
100
AcDbLine
 62
7
  6
CONTINUOUS
 10
31.9612265096
 20
-36.1097016906
 11
32.1026478659
 21
-36.0280467719
  0
LINE
  5
325
100
AcDbEntity
  8
ASSI
100
AcDbLine
 62
7
  6
CONTINUOUS
 10
31.9612265096
 20
-36.1097016906
 11
32.1026478659
 21
-36.0280467719
  0
LINE
  5
326
100
AcDbEntity
  8
0
100
AcDbLine
 62
7
  6
CONTINUOUS
 10
32.3147799002
 20
-35.9055643939
 11
32.4562012565
 21
-35.8239094753
  0
LINE
  5
327
100
AcDbEntity
  8
ASSI
100
AcDbLine
 62
7
  6
CONTINUOUS
 10
32.3147799002
 20
-35.9055643939
 11
32.4562012565
 21
-35.8239094753
  0
LINE
  5
328
100
AcDbEntity
  8
0
100
AcDbLine
 62
7
  6
CONTINUOUS
 10
32.6683332908
 20
-35.7014270973
 11
32.8097546471
 21
-35.6197721786
  0
LINE
  5
329
100
AcDbEntity
  8
ASSI
100
AcDbLine
 62
7
  6
CONTINUOUS
 10
32.6683332908
 20
-35.7014270973
 11
32.8097546471
 21
-35.6197721786
  0
LINE
  5
32A
100
AcDbEntity
  8
0
100
AcDbLine
 62
7
  6
CONTINUOUS
 10
33.0218866814
 20
-35.4972898006
 11
33.1633080376
 21
-35.415634882
  0
LINE
  5
32B
100
AcDbEntity
  8
ASSI
100
AcDbLine
 62
7
  6
CONTINUOUS
 10
33.0218866814
 20
-35.4972898006
 11
33.1633080376
 21
-35.415634882
  0
LINE
  5
32C
100
AcDbEntity
  8
0
100
AcDbLine
 62
7
  6
CONTINUOUS
 10
31.0385459394
 20
-36.4345274684
 11
33.1969030403
 21
-35.3124364395
  0
LINE
  5
32D
100
AcDbEntity
  8
ASSI
100
AcDbLine
 62
7
  6
CONTINUOUS
 10
31.0385459394
 20
-36.4345274684
 11
33.1969030403
 21
-35.3124364395
  0
LINE
  5
32E
100
AcDbEntity
  8
0
100
AcDbLine
 62
7
  6
CONTINUOUS
 10
33.2709501932
 20
-35.2779926434
 11
34.5813044489
 21
-34.7405303167
  0
LINE
  5
32F
100
AcDbEntity
  8
ASSI
100
AcDbLine
 62
7
  6
CONTINUOUS
 10
33.2709501932
 20
-35.2779926434
 11
34.5813044489
 21
-34.7405303167
  0
LINE
  5
330
100
AcDbEntity
  8
0
100
AcDbLine
 62
250
  6
CONTINUOUS
 10
-53.3790405282
 20
69.4196359973
 11
-52.1055039272
 21
68.9292008695
  0
LINE
  5
331
100
AcDbEntity
  8
ASSI
100
AcDbLine
 62
250
  6
CONTINUOUS
 10
-53.3790405282
 20
69.4196359973
 11
-52.1055039272
 21
68.9292008695
  0
LINE
  5
332
100
AcDbEntity
  8
0
100
AcDbLine
 62
7
  6
CONTINUOUS
 10
-52.1125280585
 20
68.9326127771
 11
-53.4815055908
 21
69.4700318464
  0
LINE
  5
333
100
AcDbEntity
  8
ASSI
100
AcDbLine
 62
7
  6
CONTINUOUS
 10
-52.1125280585
 20
68.9326127771
 11
-53.4815055908
 21
69.4700318464
  0
LINE
  5
334
100
AcDbEntity
  8
SMUSSO
100
AcDbLine
 62
7
  6
CONTINUOUS
 10
53.1037192671
 20
-69.0967934896
 11
53.1037192671
 21
2.7525908682
  0
LINE
  5
335
100
AcDbEntity
  8
SMUSSO
100
AcDbLine
 62
7
  6
CONTINUOUS
 10
53.8108260483
 20
3.9773357383
 11
53.8108260483
 21
3.1608260066
  0
LINE
  5
336
100
AcDbEntity
  8
SMUSSO
100
AcDbLine
 62
7
  6
CONTINUOUS
 10
54.5179328295
 20
-69.0967934896
 11
54.5179328295
 21
2.7525908682
  0
LINE
  5
337
100
AcDbEntity
  8
0
100
AcDbLine
 62
250
  6
CONTINUOUS
 10
57.5939949214
 20
4.56239843
 11
57.805979362
 21
5.4173201492
  0
LINE
  5
338
100
AcDbEntity
  8
ASSI
100
AcDbLine
 62
250
  6
CONTINUOUS
 10
57.5939949214
 20
4.56239843
 11
57.805979362
 21
5.4173201492
  0
LINE
  5
339
100
AcDbEntity
  8
0
100
AcDbLine
 62
7
  6
CONTINUOUS
 10
35.1254447886
 20
-38.7942516431
 11
35.143207025
 21
-38.7634865472
  0
LINE
  5
33A
100
AcDbEntity
  8
ASSI
100
AcDbLine
 62
7
  6
CONTINUOUS
 10
35.1254447886
 20
-38.7942516431
 11
35.143207025
 21
-38.7634865472
  0
LINE
  5
33B
100
AcDbEntity
  8
0
100
AcDbLine
 62
7
  6
CONTINUOUS
 10
35.3906943984
 20
-38.7430609811
 11
35.4967604156
 21
-38.5593492506
  0
LINE
  5
33C
100
AcDbEntity
  8
ASSI
100
AcDbLine
 62
7
  6
CONTINUOUS
 10
35.3906943984
 20
-38.7430609811
 11
35.4967604156
 21
-38.5593492506
  0
LINE
  5
33D
100
AcDbEntity
  8
0
100
AcDbLine
 62
7
  6
CONTINUOUS
 10
35.744247789
 20
-38.5389236844
 11
35.8503138062
 21
-38.3552119539
  0
LINE
  5
33E
100
AcDbEntity
  8
ASSI
100
AcDbLine
 62
7
  6
CONTINUOUS
 10
35.744247789
 20
-38.5389236844
 11
35.8503138062
 21
-38.3552119539
  0
LINE
  5
33F
100
AcDbEntity
  8
0
100
AcDbLine
 62
7
  6
CONTINUOUS
 10
36.0978011796
 20
-38.3347863878
 11
36.2038671968
 21
-38.1510746573
  0
LINE
  5
340
100
AcDbEntity
  8
ASSI
100
AcDbLine
 62
7
  6
CONTINUOUS
 10
36.0978011796
 20
-38.3347863878
 11
36.2038671968
 21
-38.1510746573
  0
LINE
  5
341
100
AcDbEntity
  8
0
100
AcDbLine
 62
7
  6
CONTINUOUS
 10
36.4513545702
 20
-38.1306490911
 11
36.5574205873
 21
-37.9469373606
  0
LINE
  5
342
100
AcDbEntity
  8
ASSI
100
AcDbLine
 62
7
  6
CONTINUOUS
 10
36.4513545702
 20
-38.1306490911
 11
36.5574205873
 21
-37.9469373606
  0
LINE
  5
343
100
AcDbEntity
  8
0
100
AcDbLine
 62
7
  6
CONTINUOUS
 10
36.8049079608
 20
-37.9265117944
 11
36.9109739779
 21
-37.7428000639
  0
LINE
  5
344
100
AcDbEntity
  8
ASSI
100
AcDbLine
 62
7
  6
CONTINUOUS
 10
36.8049079608
 20
-37.9265117944
 11
36.9109739779
 21
-37.7428000639
  0
LINE
  5
345
100
AcDbEntity
  8
0
100
AcDbLine
 62
250
  6
CONTINUOUS
 10
36.7452815128
 20
-38.7917088869
 11
37.0812264778
 21
-38.4649552971
  0
LINE
  5
346
100
AcDbEntity
  8
ASSI
100
AcDbLine
 62
250
  6
CONTINUOUS
 10
36.7452815128
 20
-38.7917088869
 11
37.0812264778
 21
-38.4649552971
  0
LINE
  5
347
100
AcDbEntity
  8
0
100
AcDbLine
 62
7
  6
CONTINUOUS
 10
36.7492063778
 20
-38.8252440804
 11
37.1781907511
 21
-38.4079966186
  0
LINE
  5
348
100
AcDbEntity
  8
ASSI
100
AcDbLine
 62
7
  6
CONTINUOUS
 10
36.7492063778
 20
-38.8252440804
 11
37.1781907511
 21
-38.4079966186
  0
LINE
  5
349
100
AcDbEntity
  8
0
100
AcDbLine
 62
7
  6
CONTINUOUS
 10
37.3352380466
 20
-37.833475202
 11
35.4998468359
 21
-39.0104266928
  0
LINE
  5
34A
100
AcDbEntity
  8
ASSI
100
AcDbLine
 62
7
  6
CONTINUOUS
 10
37.3352380466
 20
-37.833475202
 11
35.4998468359
 21
-39.0104266928
  0
LINE
  5
34B
100
AcDbEntity
  8
0
100
AcDbLine
 62
7
  6
CONTINUOUS
 10
35.8290528874
 20
-39.200506141
 11
37.3352380466
 21
-38.3157440174
  0
LINE
  5
34C
100
AcDbEntity
  8
ASSI
100
AcDbLine
 62
7
  6
CONTINUOUS
 10
35.8290528874
 20
-39.200506141
 11
37.3352380466
 21
-38.3157440174
  0
LINE
  5
34D
100
AcDbEntity
  8
0
100
AcDbLine
 62
7
  6
CONTINUOUS
 10
36.6905920313
 20
-38.8697080919
 11
35.9751294551
 21
-39.2848489205
  0
LINE
  5
34E
100
AcDbEntity
  8
ASSI
100
AcDbLine
 62
7
  6
CONTINUOUS
 10
36.6905920313
 20
-38.8697080919
 11
35.9751294551
 21
-39.2848489205
  0
LINE
  5
34F
100
AcDbEntity
  8
0
100
AcDbLine
 62
250
  6
CONTINUOUS
 10
36.7452815128
 20
-38.7917088869
 11
35.9348963583
 21
-39.2616188346
  0
LINE
  5
350
100
AcDbEntity
  8
ASSI
100
AcDbLine
 62
250
  6
CONTINUOUS
 10
36.7452815128
 20
-38.7917088869
 11
35.9348963583
 21
-39.2616188346
  0
LINE
  5
351
100
AcDbEntity
  8
0
100
AcDbLine
 62
7
  6
CONTINUOUS
 10
35.143207025
 20
-38.7634865472
 11
35.2846283812
 21
-38.6818316286
  0
LINE
  5
352
100
AcDbEntity
  8
ASSI
100
AcDbLine
 62
7
  6
CONTINUOUS
 10
35.143207025
 20
-38.7634865472
 11
35.2846283812
 21
-38.6818316286
  0
LINE
  5
353
100
AcDbEntity
  8
0
100
AcDbLine
 62
7
  6
CONTINUOUS
 10
35.4967604156
 20
-38.5593492506
 11
35.6381817718
 21
-38.4776943319
  0
LINE
  5
354
100
AcDbEntity
  8
ASSI
100
AcDbLine
 62
7
  6
CONTINUOUS
 10
35.4967604156
 20
-38.5593492506
 11
35.6381817718
 21
-38.4776943319
  0
LINE
  5
355
100
AcDbEntity
  8
0
100
AcDbLine
 62
7
  6
CONTINUOUS
 10
35.8503138062
 20
-38.3552119539
 11
35.9917351624
 21
-38.2735570353
  0
LINE
  5
356
100
AcDbEntity
  8
ASSI
100
AcDbLine
 62
7
  6
CONTINUOUS
 10
35.8503138062
 20
-38.3552119539
 11
35.9917351624
 21
-38.2735570353
  0
LINE
  5
357
100
AcDbEntity
  8
0
100
AcDbLine
 62
7
  6
CONTINUOUS
 10
36.2038671968
 20
-38.1510746573
 11
36.345288553
 21
-38.0694197386
  0
LINE
  5
358
100
AcDbEntity
  8
ASSI
100
AcDbLine
 62
7
  6
CONTINUOUS
 10
36.2038671968
 20
-38.1510746573
 11
36.345288553
 21
-38.0694197386
  0
LINE
  5
359
100
AcDbEntity
  8
0
100
AcDbLine
 62
7
  6
CONTINUOUS
 10
36.5574205873
 20
-37.9469373606
 11
36.6988419436
 21
-37.8652824419
  0
LINE
  5
35A
100
AcDbEntity
  8
ASSI
100
AcDbLine
 62
7
  6
CONTINUOUS
 10
36.5574205873
 20
-37.9469373606
 11
36.6988419436
 21
-37.8652824419
  0
LINE
  5
35B
100
AcDbEntity
  8
0
100
AcDbLine
 62
7
  6
CONTINUOUS
 10
36.9109739779
 20
-37.7428000639
 11
37.0523953342
 21
-37.6611451453
  0
LINE
  5
35C
100
AcDbEntity
  8
ASSI
100
AcDbLine
 62
7
  6
CONTINUOUS
 10
36.9109739779
 20
-37.7428000639
 11
37.0523953342
 21
-37.6611451453
  0
LINE
  5
35D
100
AcDbEntity
  8
0
100
AcDbLine
 62
7
  6
CONTINUOUS
 10
37.1584613514
 20
-37.7223744978
 11
35.2137400359
 21
-38.8452322123
  0
LINE
  5
35E
100
AcDbEntity
  8
ASSI
100
AcDbLine
 62
7
  6
CONTINUOUS
 10
37.1584613514
 20
-37.7223744978
 11
35.2137400359
 21
-38.8452322123
  0
LINE
  5
35F
100
AcDbEntity
  8
RACCORDO
100
AcDbLine
 62
250
  6
CONTINUOUS
 10
36.4867099092
 20
-42.029876623
 11
37.3351970426
 21
-41.5399707863
  0
LINE
  5
360
100
AcDbEntity
  8
SMUSSO
100
AcDbLine
 62
7
  6
CONTINUOUS
 10
55.5785930013
 20
-68.4843815996
 11
55.5785930013
 21
4.1815124899
  0
LINE
  5
361
100
AcDbEntity
  8
0
100
AcDbLine
 62
250
  6
CONTINUOUS
 10
55.9392900397
 20
-61.3382826842
 11
55.9392900397
 21
-61.0144934336
  0
LINE
  5
362
100
AcDbEntity
  8
0
100
AcDbLine
 62
250
  6
CONTINUOUS
 10
55.9393692428
 20
-58.4163715231
 11
55.9393692428
 21
-58.7295989142
  0
LINE
  5
363
100
AcDbEntity
  8
0
100
AcDbLine
 62
250
  6
CONTINUOUS
 10
55.9393692428
 20
-59.4120390633
 11
55.9393692428
 21
-59.7323975058
  0
LINE
  5
364
100
AcDbEntity
  8
0
100
AcDbLine
 62
250
  6
CONTINUOUS
 10
55.9393692428
 20
-60.3765566295
 11
55.9393692428
 21
-60.7000780778
  0
LINE
  5
365
100
AcDbEntity
  8
0
100
AcDbLine
 62
250
  6
CONTINUOUS
 10
55.9393692428
 20
-61.4583944427
 11
55.9393692428
 21
-61.7819624299
  0
LINE
  5
366
100
AcDbEntity
  8
0
100
AcDbLine
 62
250
  6
CONTINUOUS
 10
55.9393692428
 20
-62.3823562973
 11
55.9393692428
 21
-62.7340916926
  0
LINE
  5
367
100
AcDbEntity
  8
0
100
AcDbLine
 62
250
  6
CONTINUOUS
 10
56.5265855063
 20
-57.182506355
 11
56.5265855063
 21
-56.9974638562
  0
LINE
  5
368
100
AcDbEntity
  8
0
100
AcDbLine
 62
250
  6
CONTINUOUS
 10
56.7427605625
 20
-56.8689102315
 11
56.7427605625
 21
-57.0425184346
  0
LINE
  5
369
100
AcDbEntity
  8
0
100
AcDbLine
 62
250
  6
CONTINUOUS
 10
56.7919046493
 20
-57.9205505438
 11
56.7919046493
 21
-58.2305561432
  0
LINE
  5
36A
100
AcDbEntity
  8
0
100
AcDbLine
 62
250
  6
CONTINUOUS
 10
56.995806127
 20
-58.1748758813
 11
56.995806127
 21
-57.7339280448
  0
LINE
  5
36B
100
AcDbEntity
  8
0
100
AcDbLine
 62
250
  6
CONTINUOUS
 10
57.2593142033
 20
-61.4531434138
 11
57.2593142033
 21
-61.1678033815
  0
LINE
  5
36C
100
AcDbEntity
  8
0
100
AcDbLine
 62
250
  6
CONTINUOUS
 10
57.2593142033
 20
-60.0509414428
 11
57.2593142033
 21
-59.7411807845
  0
LINE
  5
36D
100
AcDbEntity
  8
0
100
AcDbLine
 62
250
  6
CONTINUOUS
 10
57.2593142033
 20
-59.2914624243
 11
57.2593142033
 21
-59.2460511639
  0
LINE
  5
36E
100
AcDbEntity
  8
0
100
AcDbLine
 62
250
  6
CONTINUOUS
 10
57.2593142033
 20
-58.7945414679
 11
57.2593142033
 21
-58.4777893746
  0
LINE
  5
36F
100
AcDbEntity
  8
0
100
AcDbLine
 62
250
  6
CONTINUOUS
 10
57.2593142033
 20
-58.4269461376
 11
57.2593142033
 21
-58.1066693421
  0
LINE
  5
370
100
AcDbEntity
  8
0
100
AcDbLine
 62
250
  6
CONTINUOUS
 10
57.2593142033
 20
-57.4924975387
 11
57.2593142033
 21
-57.1512366406
  0
LINE
  5
371
100
AcDbEntity
  8
0
100
AcDbLine
 62
250
  6
CONTINUOUS
 10
57.2593140268
 20
-55.9263831004
 11
57.2593140268
 21
-56.2378309824
  0
LINE
  5
372
100
AcDbEntity
  8
0
100
AcDbLine
 62
250
  6
CONTINUOUS
 10
57.2593140268
 20
-56.733669969
 11
57.2593140268
 21
-57.0561566574
  0
LINE
  5
373
100
AcDbEntity
  8
0
100
AcDbLine
 62
250
  6
CONTINUOUS
 10
57.2593142033
 20
-60.2252480492
 11
57.2593142033
 21
-60.5490372999
  0
LINE
  5
374
100
AcDbEntity
  8
0
100
AcDbLine
 62
7
  6
CONTINUOUS
 10
57.5938473276
 20
4.5286405861
 11
57.5938473276
 21
-66.1776853842
  0
LINE
  5
375
100
AcDbEntity
  8
ASSI
100
AcDbLine
 62
7
  6
CONTINUOUS
 10
57.5938473276
 20
4.5286405861
 11
57.5938473276
 21
-66.1776853842
  0
LINE
  5
376
100
AcDbEntity
  8
0
100
AcDbLine
 62
7
  6
CONTINUOUS
 10
57.805979362
 20
5.4173201492
 11
57.805979362
 21
-64.8616821434
  0
LINE
  5
377
100
AcDbEntity
  8
ASSI
100
AcDbLine
 62
7
  6
CONTINUOUS
 10
57.805979362
 20
5.4173201492
 11
57.805979362
 21
-64.8616821434
  0
LINE
  5
378
100
AcDbEntity
  8
0
100
AcDbLine
 62
7
  6
CONTINUOUS
 10
57.8054224389
 20
-64.8694668466
 11
57.586411015
 21
-66.3237805755
  0
LINE
  5
379
100
AcDbEntity
  8
ASSI
100
AcDbLine
 62
7
  6
CONTINUOUS
 10
57.8054224389
 20
-64.8694668466
 11
57.586411015
 21
-66.3237805755
  0
LINE
  5
37A
100
AcDbEntity
  8
0
100
AcDbLine
 62
250
  6
CONTINUOUS
 10
57.5939949214
 20
-66.2099092903
 11
57.805979362
 21
-64.8616821434
  0
LINE
  5
37B
100
AcDbEntity
  8
ASSI
100
AcDbLine
 62
250
  6
CONTINUOUS
 10
57.5939949214
 20
-66.2099092903
 11
57.805979362
 21
-64.8616821434
  0
LINE
  5
37C
100
AcDbEntity
  8
0
100
AcDbLine
 62
250
  6
CONTINUOUS
 10
56.6353758013
 20
-56.5967637386
 11
56.643175524
 21
-56.5921002671
  0
LINE
  5
37D
100
AcDbEntity
  8
0
100
AcDbLine
 62
250
  6
CONTINUOUS
 10
56.7427605625
 20
-57.0425184346
 11
57.2593140268
 21
-56.733669969
  0
LINE
  5
37E
100
AcDbEntity
  8
0
100
AcDbLine
 62
250
  6
CONTINUOUS
 10
56.1642349358
 20
-57.3991565673
 11
56.5265855063
 21
-57.182506355
  0
LINE
  5
37F
100
AcDbEntity
  8
0
100
AcDbLine
 62
250
  6
CONTINUOUS
 10
57.2593140268
 20
-57.0561566574
 11
55.9547906047
 21
-57.8361341139
  0
LINE
  5
380
100
AcDbEntity
  8
0
100
AcDbLine
 62
250
  6
CONTINUOUS
 10
55.9393692428
 20
-60.7000780778
 11
57.2593142033
 21
-60.0509414428
  0
LINE
  5
381
100
AcDbEntity
  8
0
100
AcDbLine
 62
250
  6
CONTINUOUS
 10
56.3974147652
 20
-60.1866380335
 11
57.2593142033
 21
-59.2914624243
  0
LINE
  5
382
100
AcDbEntity
  8
0
100
AcDbLine
 62
250
  6
CONTINUOUS
 10
56.6722065066
 20
-59.6180217258
 11
55.9393692428
 21
-60.3765566295
  0
LINE
  5
383
100
AcDbEntity
  8
0
100
AcDbLine
 62
250
  6
CONTINUOUS
 10
55.9393692428
 20
-62.7340916926
 11
57.2593142033
 21
-61.4531434138
  0
LINE
  5
384
100
AcDbEntity
  8
0
100
AcDbLine
 62
250
  6
CONTINUOUS
 10
57.2593142033
 20
-57.1512366406
 11
55.9393692428
 21
-58.4163715231
  0
LINE
  5
385
100
AcDbEntity
  8
0
100
AcDbLine
 62
250
  6
CONTINUOUS
 10
56.847928349
 20
-61.5434461579
 11
55.9393692428
 21
-62.3823562973
  0
LINE
  5
386
100
AcDbEntity
  8
0
100
AcDbLine
 62
250
  6
CONTINUOUS
 10
56.995806127
 20
-57.7339280448
 11
57.2593142033
 21
-57.4924975387
  0
LINE
  5
387
100
AcDbEntity
  8
0
100
AcDbLine
 62
250
  6
CONTINUOUS
 10
56.3020562963
 20
-58.3622173424
 11
56.7919046493
 21
-57.9205505438
  0
LINE
  5
388
100
AcDbEntity
  8
0
100
AcDbLine
 62
250
  6
CONTINUOUS
 10
57.2593142033
 20
-58.4777893746
 11
55.9393692428
 21
-59.4120390633
  0
LINE
  5
389
100
AcDbEntity
  8
0
100
AcDbLine
 62
250
  6
CONTINUOUS
 10
56.4010080855
 20
-59.3742481542
 11
57.2593142033
 21
-58.7945414679
  0
LINE
  5
38A
100
AcDbEntity
  8
0
100
AcDbLine
 62
7
  6
CONTINUOUS
 10
55.5785930013
 20
-67.7317160966
 11
57.4080614217
 21
-66.6226001592
  0
LINE
  5
38B
100
AcDbEntity
  8
ASSI
100
AcDbLine
 62
7
  6
CONTINUOUS
 10
55.5785930013
 20
-67.7317160966
 11
57.4080614217
 21
-66.6226001592
  0
LINE
  5
38C
100
AcDbEntity
  8
0
100
AcDbLine
 62
250
  6
CONTINUOUS
 10
55.9392900397
 20
-61.0144934336
 11
57.2593142033
 21
-60.2252480492
  0
LINE
  5
38D
100
AcDbEntity
  8
0
100
AcDbLine
 62
250
  6
CONTINUOUS
 10
57.2593142033
 20
-60.5490372999
 11
55.9392900397
 21
-61.3382826842
  0
LINE
  5
38E
100
AcDbEntity
  8
0
100
AcDbLine
 62
250
  6
CONTINUOUS
 10
55.5790311871
 20
-67.3823484375
 11
57.5938473276
 21
-66.1776853842
  0
LINE
  5
38F
100
AcDbEntity
  8
ASSI
100
AcDbLine
 62
250
  6
CONTINUOUS
 10
55.5790311871
 20
-67.3823484375
 11
57.5938473276
 21
-66.1776853842
  0
LINE
  5
390
100
AcDbEntity
  8
SMUSSO
100
AcDbLine
 62
7
  6
CONTINUOUS
 10
53.8108260483
 20
-69.505028628
 11
55.5785930013
 21
-68.4843815996
  0
LINE
  5
391
100
AcDbEntity
  8
0
100
AcDbLine
 62
250
  6
CONTINUOUS
 10
57.2593142033
 20
-59.7411807845
 11
56.3974147652
 21
-60.1866380335
  0
ARC
  5
392
100
AcDbEntity
  8
0
100
AcDbCircle
 62
250
  6
CONTINUOUS
 10
245.9022952764
 20
23.4757025337
 40
285.8929097682
100
AcDbArc
 50
177.1703819299
 51
179.2524901588
  0
ARC
  5
393
100
AcDbEntity
  8
ASSI
100
AcDbCircle
 62
250
  6
CONTINUOUS
 10
245.9022952764
 20
23.4757025337
 40
285.8929097682
100
AcDbArc
 50
177.1703819299
 51
179.2524901588
  0
ARC
  5
394
100
AcDbEntity
  8
0
100
AcDbCircle
 62
250
  6
CONTINUOUS
 10
214.9803033378
 20
23.3789396688
 40
254.9675144868
100
AcDbArc
 50
180.7341013856
 51
182.9816825317
  0
ARC
  5
395
100
AcDbEntity
  8
ASSI
100
AcDbCircle
 62
250
  6
CONTINUOUS
 10
214.9803033378
 20
23.3789396688
 40
254.9675144868
100
AcDbArc
 50
180.7341013856
 51
182.9816825317
  0
ARC
  5
396
100
AcDbEntity
  8
0
100
AcDbCircle
 62
250
  6
CONTINUOUS
 10
-39.3526675382
 20
26.8952900754
 40
0.6875925977
100
AcDbArc
 50
154.8519814592
 51
156.5663287688
  0
ARC
  5
397
100
AcDbEntity
  8
ASSI
100
AcDbCircle
 62
250
  6
CONTINUOUS
 10
-39.3526675382
 20
26.8952900754
 40
0.6875925977
100
AcDbArc
 50
154.8519814592
 51
156.5663287688
  0
ARC
  5
398
100
AcDbEntity
  8
0
100
AcDbCircle
 62
250
  6
CONTINUOUS
 10
-39.3934591668
 20
26.9144438055
 40
0.6425279516
100
AcDbArc
 50
153.0644891621
 51
154.8522906357
  0
ARC
  5
399
100
AcDbEntity
  8
ASSI
100
AcDbCircle
 62
250
  6
CONTINUOUS
 10
-39.3934591668
 20
26.9144438055
 40
0.6425279516
100
AcDbArc
 50
153.0644891621
 51
154.8522906357
  0
ARC
  5
39A
100
AcDbEntity
  8
0
100
AcDbCircle
 62
7
  6
CONTINUOUS
 10
-39.8578420283
 20
10.236699216
 40
0.3
100
AcDbArc
 50
359.9999695719
 51
2.9883509906
  0
ARC
  5
39B
100
AcDbEntity
  8
0
100
AcDbCircle
 62
7
  6
CONTINUOUS
 10
-39.8578420283
 20
37.7094405972
 40
0.3
100
AcDbArc
 50
357.1869536691
 51
0.0000276221
  0
ARC
  5
39C
100
AcDbEntity
  8
0
100
AcDbCircle
 62
7
  6
CONTINUOUS
 10
-40.1820856211
 20
27.325827027
 40
0.3
100
AcDbArc
 50
325.8024834956
 51
359.2647577886
  0
ARC
  5
39D
100
AcDbEntity
  8
0
100
AcDbCircle
 62
7
  6
CONTINUOUS
 10
-40.1820856979
 20
20.2325875198
 40
0.3
100
AcDbArc
 50
0.7008322931
 51
43.2479844087
  0
ARC
  5
39E
100
AcDbEntity
  8
0
100
AcDbCircle
 62
7
  6
CONTINUOUS
 10
36.5398726289
 20
-38.6100601622
 40
0.3
100
AcDbArc
 50
300.1089936051
 51
314.2001405101
  0
ARC
  5
39F
100
AcDbEntity
  8
0
100
AcDbCircle
 62
7
  6
CONTINUOUS
 10
-27.0997376779
 20
-1.8653467627
 40
0.3
100
AcDbArc
 50
300.1089936051
 51
314.2001405101
  0
ARC
  5
3A0
100
AcDbEntity
  8
ASSI
100
AcDbCircle
 62
7
  6
CONTINUOUS
 10
-39.8578420283
 20
10.236699216
 40
0.3
100
AcDbArc
 50
359.9999695719
 51
2.9883509906
  0
ARC
  5
3A1
100
AcDbEntity
  8
ASSI
100
AcDbCircle
 62
7
  6
CONTINUOUS
 10
-39.8578420283
 20
37.7094405972
 40
0.3
100
AcDbArc
 50
357.1869536691
 51
0.0000276221
  0
ARC
  5
3A2
100
AcDbEntity
  8
ASSI
100
AcDbCircle
 62
7
  6
CONTINUOUS
 10
-40.1820856211
 20
27.325827027
 40
0.3
100
AcDbArc
 50
322.0832140272
 51
359.2647409131
  0
ARC
  5
3A3
100
AcDbEntity
  8
ASSI
100
AcDbCircle
 62
7
  6
CONTINUOUS
 10
-40.1820856979
 20
20.2325875198
 40
0.3
100
AcDbArc
 50
0.7008323015
 51
43.2479848174
  0
ARC
  5
3A4
100
AcDbEntity
  8
ASSI
100
AcDbCircle
 62
7
  6
CONTINUOUS
 10
36.5398726289
 20
-38.6100601622
 40
0.3
100
AcDbArc
 50
300.1089936364
 51
314.2001405099
  0
ARC
  5
3A5
100
AcDbEntity
  8
ASSI
100
AcDbCircle
 62
7
  6
CONTINUOUS
 10
-27.0997376779
 20
-1.8653467627
 40
0.3
100
AcDbArc
 50
300.1089936364
 51
314.2001405099
  0
ARC
  5
3A6
100
AcDbEntity
  8
0
100
AcDbCircle
 62
250
  6
CONTINUOUS
 10
-39.7740503193
 20
37.8103358213
 40
0.2576151787
100
AcDbArc
 50
300.8259524378
 51
305.3756089584
  0
ARC
  5
3A7
100
AcDbEntity
  8
ASSI
100
AcDbCircle
 62
250
  6
CONTINUOUS
 10
-39.7740503193
 20
37.8103358213
 40
0.2576151787
100
AcDbArc
 50
300.8259524378
 51
305.3756089584
  0
ARC
  5
3A8
100
AcDbEntity
  8
0
100
AcDbCircle
 62
250
  6
CONTINUOUS
 10
-27.0589431705
 20
-2.0031668211
 40
0.1703491854
100
AcDbArc
 50
339.0198037554
 51
345.090844654
  0
ARC
  5
3A9
100
AcDbEntity
  8
0
100
AcDbCircle
 62
250
  6
CONTINUOUS
 10
36.5806671363
 20
-38.7478802206
 40
0.1703491854
100
AcDbArc
 50
339.0198037554
 51
345.090844654
  0
ARC
  5
3AA
100
AcDbEntity
  8
ASSI
100
AcDbCircle
 62
250
  6
CONTINUOUS
 10
-27.0589431705
 20
-2.0031668211
 40
0.1703491854
100
AcDbArc
 50
339.0198037554
 51
345.090844654
  0
ARC
  5
3AB
100
AcDbEntity
  8
ASSI
100
AcDbCircle
 62
250
  6
CONTINUOUS
 10
36.5806671363
 20
-38.7478802206
 40
0.1703491854
100
AcDbArc
 50
339.0198037554
 51
345.090844654
  0
ARC
  5
3AC
100
AcDbEntity
  8
0
100
AcDbCircle
 62
250
  6
CONTINUOUS
 10
-39.6701530935
 20
10.2464943033
 40
0.1120555786
100
AcDbArc
 50
0.9563913034
 51
2.9897994402
  0
ARC
  5
3AD
100
AcDbEntity
  8
ASSI
100
AcDbCircle
 62
250
  6
CONTINUOUS
 10
-39.6701530935
 20
10.2464943033
 40
0.1120555786
100
AcDbArc
 50
0.9563913034
 51
2.9897994402
  0
ARC
  5
3AE
100
AcDbEntity
  8
0
100
AcDbCircle
 62
250
  6
CONTINUOUS
 10
-26.999096857
 20
-2.0386597811
 40
0.0998077594
100
AcDbArc
 50
300.1159511915
 51
302.5106295566
  0
ARC
  5
3AF
100
AcDbEntity
  8
0
100
AcDbCircle
 62
250
  6
CONTINUOUS
 10
36.6405134498
 20
-38.7833731806
 40
0.0998077594
100
AcDbArc
 50
300.1159511914
 51
302.5106295567
  0
ARC
  5
3B0
100
AcDbEntity
  8
ASSI
100
AcDbCircle
 62
250
  6
CONTINUOUS
 10
-26.999096857
 20
-2.0386597811
 40
0.0998077594
100
AcDbArc
 50
300.1159511915
 51
302.5106295566
  0
ARC
  5
3B1
100
AcDbEntity
  8
ASSI
100
AcDbCircle
 62
250
  6
CONTINUOUS
 10
36.6405134498
 20
-38.7833731806
 40
0.0998077594
100
AcDbArc
 50
300.1159511914
 51
302.5106295567
  0
SPLINE
  5
3B2
100
AcDbEntity
  8
0
100
AcDbSpline
 62
7
  6
CONTINUOUS
 70
0
 71
3
 72
10
 73
6
 74
0
 42
0.0000001
 43
0.0000001
 44
0.0000000001
 40
0.0
 40
0.0
 40
0.0
 40
0.0
 40
0.5278413137
 40
0.7672927049
 40
1.0
 40
1.0
 40
1.0
 40
1.0
 10
-53.4815053104
 20
69.4700288736
 30
0.0
 10
-53.5401551649
 20
69.4930617809
 30
0.0
 10
-53.6325774237
 20
69.5141924518
 30
0.0
 10
-53.752006488
 20
69.4992613496
 30
0.0
 10
-53.8051295682
 20
69.4783409398
 30
0.0
 10
-53.8294787167
 20
69.4649692648
 30
0.0
  0
SPLINE
  5
3B3
100
AcDbEntity
  8
0
100
AcDbSpline
 62
7
  6
CONTINUOUS
 70
0
 71
3
 72
10
 73
6
 74
0
 42
0.0000001
 43
0.0000001
 44
0.0000000001
 40
0.0
 40
0.0
 40
0.0
 40
0.0
 40
0.2327075462
 40
0.4721590482
 40
1.0
 40
1.0
 40
1.0
 40
1.0
 10
57.4080613088
 20
-66.6226000034
 30
0.0
 10
57.4318143834
 20
-66.6081980741
 30
0.0
 10
57.4764899044
 20
-66.5726513367
 30
0.0
 10
57.5491275252
 20
-66.4766884414
 30
0.0
 10
57.5770337822
 20
-66.3860854867
 30
0.0
 10
57.5864085737
 20
-66.3237788416
 30
0.0
  0
SPLINE
  5
3B4
100
AcDbEntity
  8
0
100
AcDbSpline
 62
250
  6
CONTINUOUS
 70
0
 71
3
 72
9
 73
5
 74
0
 42
0.0000001
 43
0.0000001
 44
0.0000000001
 40
0.0
 40
0.0
 40
0.0
 40
0.0
 40
0.4797909555
 40
1.0
 40
1.0
 40
1.0
 40
1.0
 10
-26.9454545713
 20
-2.1228268413
 30
0.0
 10
-26.9353049604
 20
-2.1163583547
 30
0.0
 10
-26.9165375671
 20
-2.0988423833
 30
0.0
 10
-26.9045753185
 20
-2.0763379226
 30
0.0
 10
-26.8998874143
 20
-2.0641595369
 30
0.0
  0
SPLINE
  5
3B5
100
AcDbEntity
  8
0
100
AcDbSpline
 62
7
  6
CONTINUOUS
 70
0
 71
3
 72
11
 73
7
 74
0
 42
0.0000001
 43
0.0000001
 44
0.0000000001
 40
0.0
 40
0.0
 40
0.0
 40
0.0
 40
0.2398899887
 40
0.4999946019
 40
0.7601021498
 40
1.0
 40
1.0
 40
1.0
 40
1.0
 10
57.5939949214
 20
4.56239843
 30
0.0
 10
57.594958986
 20
4.6751084247
 30
0.0
 10
57.5572514977
 20
4.9108209127
 30
0.0
 10
57.4141725843
 20
5.2413932136
 30
0.0
 10
57.1994254173
 20
5.5305919664
 30
0.0
 10
57.0141439748
 20
5.6811085149
 30
0.0
 10
56.9160503715
 20
5.736632834
 30
0.0
  0
SPLINE
  5
3B6
100
AcDbEntity
  8
0
100
AcDbSpline
 62
7
  6
CONTINUOUS
 70
0
 71
3
 72
9
 73
5
 74
0
 42
0.0000001
 43
0.0000001
 44
0.0000000001
 40
0.0
 40
0.0
 40
0.0
 40
0.0
 40
0.2581073391
 40
1.0
 40
1.0
 40
1.0
 40
1.0
 10
-53.3790405282
 20
69.4196359973
 30
0.0
 10
-53.3875066717
 20
69.4246308383
 30
0.0
 10
-53.4206514638
 20
69.4433875043
 30
0.0
 10
-53.4552064185
 20
69.4597008013
 30
0.0
 10
-53.4815053104
 20
69.4700288736
 30
0.0
  0
SPLINE
  5
3B7
100
AcDbEntity
  8
0
100
AcDbSpline
 62
250
  6
CONTINUOUS
 70
0
 71
3
 72
10
 73
6
 74
0
 42
0.0000001
 43
0.0000001
 44
0.0000000001
 40
0.0
 40
0.0
 40
0.0
 40
0.0
 40
0.3605932853
 40
0.6415347606
 40
1.0
 40
1.0
 40
1.0
 40
1.0
 10
-26.8943287939
 20
-2.0469954874
 30
0.0
 10
-26.8926138742
 20
-2.0508327637
 30
0.0
 10
-26.8898165916
 20
-2.0578784699
 30
0.0
 10
-26.8868670757
 20
-2.0688249908
 30
0.0
 10
-26.8874104722
 20
-2.0776172707
 30
0.0
 10
-26.8904048707
 20
-2.0805312583
 30
0.0
  0
SPLINE
  5
3B8
100
AcDbEntity
  8
0
100
AcDbSpline
 62
250
  6
CONTINUOUS
 70
0
 71
3
 72
9
 73
5
 74
0
 42
0.0000001
 43
0.0000001
 44
0.0000000001
 40
0.0
 40
0.0
 40
0.0
 40
0.0
 40
0.4797909555
 40
1.0
 40
1.0
 40
1.0
 40
1.0
 10
36.6941557355
 20
-38.8675402408
 30
0.0
 10
36.7043053464
 20
-38.8610717542
 30
0.0
 10
36.7230727397
 20
-38.8435557828
 30
0.0
 10
36.7350349883
 20
-38.821051322
 30
0.0
 10
36.7397228925
 20
-38.8088729364
 30
0.0
  0
SPLINE
  5
3B9
100
AcDbEntity
  8
0
100
AcDbSpline
 62
250
  6
CONTINUOUS
 70
0
 71
3
 72
10
 73
6
 74
0
 42
0.0000001
 43
0.0000001
 44
0.0000000001
 40
0.0
 40
0.0
 40
0.0
 40
0.0
 40
0.3605932853
 40
0.6415347606
 40
1.0
 40
1.0
 40
1.0
 40
1.0
 10
36.7452815128
 20
-38.7917088869
 30
0.0
 10
36.7469964326
 20
-38.7955461632
 30
0.0
 10
36.7497937152
 20
-38.8025918694
 30
0.0
 10
36.7527432311
 20
-38.8135383903
 30
0.0
 10
36.7521998346
 20
-38.8223306702
 30
0.0
 10
36.749205436
 20
-38.8252446578
 30
0.0
  0
SPLINE
  5
3BA
100
AcDbEntity
  8
0
100
AcDbSpline
 62
250
  6
CONTINUOUS
 70
0
 71
3
 72
8
 73
4
 74
0
 42
0.0000001
 43
0.0000001
 44
0.0000000001
 40
0.0
 40
0.0
 40
0.0
 40
0.0
 40
1.0
 40
1.0
 40
1.0
 40
1.0
 10
-39.5582036715
 20
37.6947174449
 30
0.0
 10
-39.5586866093
 20
37.6848950996
 30
0.0
 10
-39.5608911128
 20
37.6750462638
 30
0.0
 10
-39.5644791081
 20
37.6658899553
 30
0.0
  0
SPLINE
  5
3BB
100
AcDbEntity
  8
0
100
AcDbSpline
 62
250
  6
CONTINUOUS
 70
0
 71
3
 72
8
 73
4
 74
0
 42
0.0000001
 43
0.0000001
 44
0.0000000001
 40
0.0
 40
0.0
 40
0.0
 40
0.0
 40
1.0
 40
1.0
 40
1.0
 40
1.0
 10
-39.5644791081
 20
37.6658899553
 30
0.0
 10
-39.5672043759
 20
37.6589352661
 30
0.0
 10
-39.5707434285
 20
37.6522647971
 30
0.0
 10
-39.574850991
 20
37.6460259898
 30
0.0
  0
SPLINE
  5
3BC
100
AcDbEntity
  8
0
100
AcDbSpline
 62
250
  6
CONTINUOUS
 70
0
 71
3
 72
9
 73
5
 74
0
 42
0.0000001
 43
0.0000001
 44
0.0000000001
 40
0.0
 40
0.0
 40
0.0
 40
0.0
 40
0.2255815582
 40
1.0
 40
1.0
 40
1.0
 40
1.0
 10
-39.574850991
 20
37.6460259898
 30
0.0
 10
-39.5785146384
 20
37.6404614267
 30
0.0
 10
-39.5968463389
 20
37.6171582746
 30
0.0
 10
-39.6218142986
 20
37.5997930619
 30
0.0
 10
-39.6420400882
 20
37.5891144861
 30
0.0
  0
SPLINE
  5
3BD
100
AcDbEntity
  8
0
100
AcDbSpline
 62
250
  6
CONTINUOUS
 70
0
 71
3
 72
9
 73
5
 74
0
 42
0.0000001
 43
0.0000001
 44
0.0000000001
 40
0.0
 40
0.0
 40
0.0
 40
0.0
 40
0.4753493101
 40
1.0
 40
1.0
 40
1.0
 40
1.0
 10
-40.0588986
 20
26.7738468008
 30
0.0
 10
-40.0588983764
 20
26.8378580562
 30
0.0
 10
-40.0477138114
 20
26.9726160418
 30
0.0
 10
-40.011655836
 20
27.1039184536
 30
0.0
 10
-39.9835482368
 20
27.1687368245
 30
0.0
  0
SPLINE
  5
3BE
100
AcDbEntity
  8
0
100
AcDbSpline
 62
250
  6
CONTINUOUS
 70
0
 71
3
 72
11
 73
7
 74
0
 42
0.0000001
 43
0.0000001
 44
0.0000000001
 40
0.0
 40
0.0
 40
0.0
 40
0.0
 40
0.2128263098
 40
0.4529720998
 40
0.7169824141
 40
1.0
 40
1.0
 40
1.0
 40
1.0
 10
-39.9662837268
 20
20.1122612801
 30
0.0
 10
-39.9855553237
 20
20.1270882302
 30
0.0
 10
-40.01642038
 20
20.1711196269
 30
0.0
 10
-40.0422672247
 20
20.2491090125
 30
0.0
 10
-40.0563176376
 20
20.3382940321
 30
0.0
 10
-40.0588982406
 20
20.4008314465
 30
0.0
 10
-40.0588986
 20
20.4331660398
 30
0.0
  0
SPLINE
  5
3BF
100
AcDbEntity
  8
0
100
AcDbSpline
 62
250
  6
CONTINUOUS
 70
0
 71
3
 72
9
 73
5
 74
0
 42
0.0000001
 43
0.0000001
 44
0.0000000001
 40
0.0
 40
0.0
 40
0.0
 40
0.0
 40
0.4839024496
 40
1.0
 40
1.0
 40
1.0
 40
1.0
 10
-39.5578420408
 20
37.7094405972
 30
0.0
 10
-39.5578422207
 20
37.698392602
 30
0.0
 10
-39.5617595
 20
37.6754273705
 30
0.0
 10
-39.5725258272
 20
37.6549045812
 30
0.0
 10
-39.579227539
 20
37.6452129788
 30
0.0
  0
SPLINE
  5
3C0
100
AcDbEntity
  8
0
100
AcDbSpline
 62
250
  6
CONTINUOUS
 70
0
 71
3
 72
9
 73
5
 74
0
 42
0.0000001
 43
0.0000001
 44
0.0000000001
 40
0.0
 40
0.0
 40
0.0
 40
0.0
 40
0.2344836347
 40
1.0
 40
1.0
 40
1.0
 40
1.0
 10
-39.579227539
 20
37.6452129788
 30
0.0
 10
-39.5820842849
 20
37.641081729
 30
0.0
 10
-39.5951904211
 20
37.6241015632
 30
0.0
 10
-39.6115462467
 20
37.6097881883
 30
0.0
 10
-39.6249081034
 20
37.6002830191
 30
0.0
  0
SPLINE
  5
3C1
100
AcDbEntity
  8
0
100
AcDbSpline
 62
250
  6
CONTINUOUS
 70
0
 71
3
 72
11
 73
7
 74
0
 42
0.0000001
 43
0.0000001
 44
0.0000000001
 40
0.0
 40
0.0
 40
0.0
 40
0.0
 40
0.2887894662
 40
0.5476638952
 40
0.7812548101
 40
1.0
 40
1.0
 40
1.0
 40
1.0
 10
-39.6420400882
 20
10.1163731049
 30
0.0
 10
-39.6293840638
 20
10.12394017
 30
0.0
 10
-39.6064407798
 20
10.1402454623
 30
0.0
 10
-39.5791122954
 20
10.1697814108
 30
0.0
 10
-39.5618592037
 20
10.202282386
 30
0.0
 10
-39.5578422603
 20
10.2255298502
 30
0.0
 10
-39.5578420438
 20
10.2366990566
 30
0.0
  0
SPLINE
  5
3C2
100
AcDbEntity
  8
0
100
AcDbSpline
 62
7
  6
CONTINUOUS
 70
0
 71
3
 72
9
 73
5
 74
0
 42
0.0000001
 43
0.0000001
 44
0.0000000001
 40
0.0
 40
0.0
 40
0.0
 40
0.0
 40
0.2420561751
 40
1.0
 40
1.0
 40
1.0
 40
1.0
 10
57.5864085737
 20
-66.3237788416
 30
0.0
 10
57.5877794286
 20
-66.3146678794
 30
0.0
 10
57.5926159598
 20
-66.2769054358
 30
0.0
 10
57.5942657553
 20
-66.2387580471
 30
0.0
 10
57.5939949214
 20
-66.2099092903
 30
0.0
  0
SPLINE
  5
3C3
100
AcDbEntity
  8
0
100
AcDbSpline
 62
250
  6
CONTINUOUS
 70
0
 71
3
 72
11
 73
7
 74
0
 42
0.0000001
 43
0.0000001
 44
0.0000000001
 40
0.0
 40
0.0
 40
0.0
 40
0.0
 40
0.2878624892
 40
0.5465778272
 40
0.7805768354
 40
1.0
 40
1.0
 40
1.0
 40
1.0
 10
-39.9662836603
 20
20.112261457
 30
0.0
 10
-39.9535148831
 20
20.1201261208
 30
0.0
 10
-39.9303837526
 20
20.1370535039
 30
0.0
 10
-39.9029676493
 20
20.1675667638
 30
0.0
 10
-39.885813059
 20
20.2010109373
 30
0.0
 10
-39.8819888075
 20
20.2248265415
 30
0.0
 10
-39.8821088589
 20
20.236256982
 30
0.0
  0
SPLINE
  5
3C4
100
AcDbEntity
  8
0
100
AcDbSpline
 62
7
  6
CONTINUOUS
 70
0
 71
3
 72
11
 73
7
 74
0
 42
0.0000001
 43
0.0000001
 44
0.0000000001
 40
0.0
 40
0.0
 40
0.0
 40
0.0
 40
0.2579650145
 40
0.5189068469
 40
0.7696058048
 40
1.0
 40
1.0
 40
1.0
 40
1.0
 10
-39.9662836603
 20
20.112261457
 30
0.0
 10
-39.9583794763
 20
20.1377453935
 30
0.0
 10
-39.9457723068
 20
20.1902230399
 30
0.0
 10
-39.9421419056
 20
20.2701583774
 30
0.0
 10
-39.9504755914
 20
20.3467446326
 30
0.0
 10
-39.9656766424
 20
20.3947241185
 30
0.0
 10
-39.9760322591
 20
20.4161863133
 30
0.0
  0
SPLINE
  5
3C5
100
AcDbEntity
  8
0
100
AcDbSpline
 62
250
  6
CONTINUOUS
 70
0
 71
3
 72
10
 73
6
 74
0
 42
0.0000001
 43
0.0000001
 44
0.0000000001
 40
0.0
 40
0.0
 40
0.0
 40
0.0
 40
0.5420300124
 40
0.778131129
 40
1.0
 40
1.0
 40
1.0
 40
1.0
 10
-39.6420400882
 20
10.1163731049
 30
0.0
 10
-39.6176646491
 20
10.1326519055
 30
0.0
 10
-39.5852488173
 20
10.1620875098
 30
0.0
 10
-39.5616019794
 20
10.2113855616
 30
0.0
 10
-39.5579128774
 20
10.2363682962
 30
0.0
 10
-39.5581131254
 20
10.248364668
 30
0.0
  0
SPLINE
  5
3C6
100
AcDbEntity
  8
0
100
AcDbSpline
 62
250
  6
CONTINUOUS
 70
0
 71
3
 72
9
 73
5
 74
0
 42
0.0000001
 43
0.0000001
 44
0.0000000001
 40
0.0
 40
0.0
 40
0.0
 40
0.0
 40
0.5420668107
 40
1.0
 40
1.0
 40
1.0
 40
1.0
 10
-40.0588986
 20
20.4331660398
 30
0.0
 10
-40.0396318636
 20
20.4446856644
 30
0.0
 10
-40.0062033501
 20
20.4702359682
 30
0.0
 10
-39.9839409917
 20
20.5070025729
 30
0.0
 10
-39.9787233875
 20
20.5252344742
 30
0.0
  0
SPLINE
  5
3C7
100
AcDbEntity
  8
0
100
AcDbSpline
 62
250
  6
CONTINUOUS
 70
0
 71
3
 72
8
 73
4
 74
0
 42
0.0000001
 43
0.0000001
 44
0.0000000001
 40
0.0
 40
0.0
 40
0.0
 40
0.0
 40
1.0
 40
1.0
 40
1.0
 40
1.0
 10
-39.9787233875
 20
20.5252344742
 30
0.0
 10
-39.9761056998
 20
20.5343814739
 30
0.0
 10
-39.9747014565
 20
20.5439779566
 30
0.0
 10
-39.9747006097
 20
20.5534921509
 30
0.0
  0
SPLINE
  5
3C8
100
AcDbEntity
  8
0
100
AcDbSpline
 62
250
  6
CONTINUOUS
 70
0
 71
3
 72
11
 73
7
 74
0
 42
0.0000001
 43
0.0000001
 44
0.0000000001
 40
0.0
 40
0.0
 40
0.0
 40
0.0
 40
0.2886828633
 40
0.5476994509
 40
0.7812427788
 40
1.0
 40
1.0
 40
1.0
 40
1.0
 10
-40.0588986
 20
26.7738468008
 30
0.0
 10
-40.0462473869
 20
26.7814109892
 30
0.0
 10
-40.0233080768
 20
26.7977228725
 30
0.0
 10
-39.9959704232
 20
26.8272497506
 30
0.0
 10
-39.9787216599
 20
26.8597589462
 30
0.0
 10
-39.9747016164
 20
26.8830031058
 30
0.0
 10
-39.9747006097
 20
26.8941728034
 30
0.0
  0
SPLINE
  5
3C9
100
AcDbEntity
  8
0
100
AcDbSpline
 62
7
  6
CONTINUOUS
 70
0
 71
3
 72
11
 73
7
 74
0
 42
0.0000001
 43
0.0000001
 44
0.0000000001
 40
0.0
 40
0.0
 40
0.0
 40
0.0
 40
0.3864852313
 40
0.6809120088
 40
0.8845931916
 40
1.0
 40
1.0
 40
1.0
 40
1.0
 10
-39.9662836611
 20
27.2055007418
 30
0.0
 10
-39.9623630817
 20
27.1975472505
 30
0.0
 10
-39.9553057494
 20
27.1836813932
 30
0.0
 10
-39.9470519228
 20
27.1648845814
 30
0.0
 10
-39.9436670097
 20
27.1515463594
 30
0.0
 10
-39.9438807425
 20
27.1434411106
 30
0.0
 10
-39.9455130595
 20
27.1413562759
 30
0.0
  0
SPLINE
  5
3CA
100
AcDbEntity
  8
0
100
AcDbSpline
 62
250
  6
CONTINUOUS
 70
0
 71
3
 72
11
 73
7
 74
0
 42
0.0000001
 43
0.0000001
 44
0.0000000001
 40
0.0
 40
0.0
 40
0.0
 40
0.0
 40
0.2896889021
 40
0.5487909506
 40
0.782005403
 40
1.0
 40
1.0
 40
1.0
 40
1.0
 10
-39.9662836611
 20
27.2055007418
 30
0.0
 10
-39.9537648974
 20
27.2127600645
 30
0.0
 10
-39.9310489821
 20
27.2284208585
 30
0.0
 10
-39.90384564
 20
27.2569272942
 30
0.0
 10
-39.8864934345
 20
27.2884188344
 30
0.0
 10
-39.8822516551
 20
27.3110540144
 30
0.0
 10
-39.8821111592
 20
27.3219429119
 30
0.0
  0
SPLINE
  5
3CB
100
AcDbEntity
  8
ASSI
100
AcDbSpline
 62
7
  6
CONTINUOUS
 70
0
 71
3
 72
10
 73
6
 74
0
 42
0.0000001
 43
0.0000001
 44
0.0000000001
 40
0.0
 40
0.0
 40
0.0
 40
0.0
 40
0.5278413137
 40
0.7672927049
 40
1.0
 40
1.0
 40
1.0
 40
1.0
 10
-53.4815053104
 20
69.4700288736
 30
0.0
 10
-53.5401551649
 20
69.4930617809
 30
0.0
 10
-53.6325774237
 20
69.5141924518
 30
0.0
 10
-53.752006488
 20
69.4992613496
 30
0.0
 10
-53.8051295682
 20
69.4783409398
 30
0.0
 10
-53.8294787167
 20
69.4649692648
 30
0.0
  0
SPLINE
  5
3CC
100
AcDbEntity
  8
ASSI
100
AcDbSpline
 62
7
  6
CONTINUOUS
 70
0
 71
3
 72
10
 73
6
 74
0
 42
0.0000001
 43
0.0000001
 44
0.0000000001
 40
0.0
 40
0.0
 40
0.0
 40
0.0
 40
0.2327075462
 40
0.4721590482
 40
1.0
 40
1.0
 40
1.0
 40
1.0
 10
57.4080613088
 20
-66.6226000034
 30
0.0
 10
57.4318143834
 20
-66.6081980741
 30
0.0
 10
57.4764899044
 20
-66.5726513367
 30
0.0
 10
57.5491275252
 20
-66.4766884414
 30
0.0
 10
57.5770337822
 20
-66.3860854867
 30
0.0
 10
57.5864085737
 20
-66.3237788416
 30
0.0
  0
SPLINE
  5
3CD
100
AcDbEntity
  8
ASSI
100
AcDbSpline
 62
7
  6
CONTINUOUS
 70
0
 71
3
 72
9
 73
5
 74
0
 42
0.0000001
 43
0.0000001
 44
0.0000000001
 40
0.0
 40
0.0
 40
0.0
 40
0.0
 40
0.2420561751
 40
1.0
 40
1.0
 40
1.0
 40
1.0
 10
57.5864085737
 20
-66.3237788416
 30
0.0
 10
57.5877794286
 20
-66.3146678794
 30
0.0
 10
57.5926159598
 20
-66.2769054358
 30
0.0
 10
57.5942657553
 20
-66.2387580471
 30
0.0
 10
57.5939949214
 20
-66.2099092903
 30
0.0
  0
SPLINE
  5
3CE
100
AcDbEntity
  8
ASSI
100
AcDbSpline
 62
7
  6
CONTINUOUS
 70
0
 71
3
 72
11
 73
7
 74
0
 42
0.0000001
 43
0.0000001
 44
0.0000000001
 40
0.0
 40
0.0
 40
0.0
 40
0.0
 40
0.2398899887
 40
0.4999946019
 40
0.7601021498
 40
1.0
 40
1.0
 40
1.0
 40
1.0
 10
57.5939949214
 20
4.56239843
 30
0.0
 10
57.594958986
 20
4.6751084247
 30
0.0
 10
57.5572514977
 20
4.9108209127
 30
0.0
 10
57.4141725843
 20
5.2413932136
 30
0.0
 10
57.1994254173
 20
5.5305919664
 30
0.0
 10
57.0141439748
 20
5.6811085149
 30
0.0
 10
56.9160503715
 20
5.736632834
 30
0.0
  0
SPLINE
  5
3CF
100
AcDbEntity
  8
ASSI
100
AcDbSpline
 62
7
  6
CONTINUOUS
 70
0
 71
3
 72
9
 73
5
 74
0
 42
0.0000001
 43
0.0000001
 44
0.0000000001
 40
0.0
 40
0.0
 40
0.0
 40
0.0
 40
0.2581073391
 40
1.0
 40
1.0
 40
1.0
 40
1.0
 10
-53.3790405282
 20
69.4196359973
 30
0.0
 10
-53.3875066717
 20
69.4246308383
 30
0.0
 10
-53.4206514638
 20
69.4433875043
 30
0.0
 10
-53.4552064185
 20
69.4597008013
 30
0.0
 10
-53.4815053104
 20
69.4700288736
 30
0.0
  0
SPLINE
  5
3D0
100
AcDbEntity
  8
ASSI
100
AcDbSpline
 62
250
  6
CONTINUOUS
 70
0
 71
3
 72
10
 73
6
 74
0
 42
0.0000001
 43
0.0000001
 44
0.0000000001
 40
0.0
 40
0.0
 40
0.0
 40
0.0
 40
0.3605932853
 40
0.6415347606
 40
1.0
 40
1.0
 40
1.0
 40
1.0
 10
-26.8943287939
 20
-2.0469954874
 30
0.0
 10
-26.8926138742
 20
-2.0508327637
 30
0.0
 10
-26.8898165916
 20
-2.0578784699
 30
0.0
 10
-26.8868670757
 20
-2.0688249908
 30
0.0
 10
-26.8874104722
 20
-2.0776172707
 30
0.0
 10
-26.8904048707
 20
-2.0805312583
 30
0.0
  0
SPLINE
  5
3D1
100
AcDbEntity
  8
ASSI
100
AcDbSpline
 62
250
  6
CONTINUOUS
 70
0
 71
3
 72
10
 73
6
 74
0
 42
0.0000001
 43
0.0000001
 44
0.0000000001
 40
0.0
 40
0.0
 40
0.0
 40
0.0
 40
0.3605932853
 40
0.6415347606
 40
1.0
 40
1.0
 40
1.0
 40
1.0
 10
36.7452815128
 20
-38.7917088869
 30
0.0
 10
36.7469964326
 20
-38.7955461632
 30
0.0
 10
36.7497937152
 20
-38.8025918694
 30
0.0
 10
36.7527432311
 20
-38.8135383903
 30
0.0
 10
36.7521998346
 20
-38.8223306702
 30
0.0
 10
36.749205436
 20
-38.8252446578
 30
0.0
  0
SPLINE
  5
3D2
100
AcDbEntity
  8
ASSI
100
AcDbSpline
 62
250
  6
CONTINUOUS
 70
0
 71
3
 72
8
 73
4
 74
0
 42
0.0000001
 43
0.0000001
 44
0.0000000001
 40
0.0
 40
0.0
 40
0.0
 40
0.0
 40
1.0
 40
1.0
 40
1.0
 40
1.0
 10
-39.5582036715
 20
37.6947174449
 30
0.0
 10
-39.5586866093
 20
37.6848950996
 30
0.0
 10
-39.5608911128
 20
37.6750462638
 30
0.0
 10
-39.5644791081
 20
37.6658899553
 30
0.0
  0
SPLINE
  5
3D3
100
AcDbEntity
  8
ASSI
100
AcDbSpline
 62
250
  6
CONTINUOUS
 70
0
 71
3
 72
8
 73
4
 74
0
 42
0.0000001
 43
0.0000001
 44
0.0000000001
 40
0.0
 40
0.0
 40
0.0
 40
0.0
 40
1.0
 40
1.0
 40
1.0
 40
1.0
 10
-39.5644791081
 20
37.6658899553
 30
0.0
 10
-39.5672043759
 20
37.6589352661
 30
0.0
 10
-39.5707434285
 20
37.6522647971
 30
0.0
 10
-39.574850991
 20
37.6460259898
 30
0.0
  0
SPLINE
  5
3D4
100
AcDbEntity
  8
ASSI
100
AcDbSpline
 62
250
  6
CONTINUOUS
 70
0
 71
3
 72
9
 73
5
 74
0
 42
0.0000001
 43
0.0000001
 44
0.0000000001
 40
0.0
 40
0.0
 40
0.0
 40
0.0
 40
0.2255815582
 40
1.0
 40
1.0
 40
1.0
 40
1.0
 10
-39.574850991
 20
37.6460259898
 30
0.0
 10
-39.5785146384
 20
37.6404614267
 30
0.0
 10
-39.5968463389
 20
37.6171582746
 30
0.0
 10
-39.6218142986
 20
37.5997930619
 30
0.0
 10
-39.6420400882
 20
37.5891144861
 30
0.0
  0
SPLINE
  5
3D5
100
AcDbEntity
  8
ASSI
100
AcDbSpline
 62
250
  6
CONTINUOUS
 70
0
 71
3
 72
9
 73
5
 74
0
 42
0.0000001
 43
0.0000001
 44
0.0000000001
 40
0.0
 40
0.0
 40
0.0
 40
0.0
 40
0.4753493101
 40
1.0
 40
1.0
 40
1.0
 40
1.0
 10
-40.0588986
 20
26.7738468008
 30
0.0
 10
-40.0588983764
 20
26.8378580562
 30
0.0
 10
-40.0477138114
 20
26.9726160418
 30
0.0
 10
-40.011655836
 20
27.1039184536
 30
0.0
 10
-39.9835482368
 20
27.1687368245
 30
0.0
  0
SPLINE
  5
3D6
100
AcDbEntity
  8
ASSI
100
AcDbSpline
 62
250
  6
CONTINUOUS
 70
0
 71
3
 72
9
 73
5
 74
0
 42
0.0000001
 43
0.0000001
 44
0.0000000001
 40
0.0
 40
0.0
 40
0.0
 40
0.0
 40
0.4839024496
 40
1.0
 40
1.0
 40
1.0
 40
1.0
 10
-39.5578420408
 20
37.7094405972
 30
0.0
 10
-39.5578422207
 20
37.698392602
 30
0.0
 10
-39.5617595
 20
37.6754273705
 30
0.0
 10
-39.5725258272
 20
37.6549045812
 30
0.0
 10
-39.579227539
 20
37.6452129788
 30
0.0
  0
SPLINE
  5
3D7
100
AcDbEntity
  8
ASSI
100
AcDbSpline
 62
250
  6
CONTINUOUS
 70
0
 71
3
 72
9
 73
5
 74
0
 42
0.0000001
 43
0.0000001
 44
0.0000000001
 40
0.0
 40
0.0
 40
0.0
 40
0.0
 40
0.2344836347
 40
1.0
 40
1.0
 40
1.0
 40
1.0
 10
-39.579227539
 20
37.6452129788
 30
0.0
 10
-39.5820842849
 20
37.641081729
 30
0.0
 10
-39.5951904211
 20
37.6241015632
 30
0.0
 10
-39.6115462467
 20
37.6097881883
 30
0.0
 10
-39.6249081034
 20
37.6002830191
 30
0.0
  0
SPLINE
  5
3D8
100
AcDbEntity
  8
ASSI
100
AcDbSpline
 62
250
  6
CONTINUOUS
 70
0
 71
3
 72
11
 73
7
 74
0
 42
0.0000001
 43
0.0000001
 44
0.0000000001
 40
0.0
 40
0.0
 40
0.0
 40
0.0
 40
0.2128263098
 40
0.4529720998
 40
0.7169824141
 40
1.0
 40
1.0
 40
1.0
 40
1.0
 10
-39.9662837268
 20
20.1122612801
 30
0.0
 10
-39.9855553237
 20
20.1270882302
 30
0.0
 10
-40.01642038
 20
20.1711196269
 30
0.0
 10
-40.0422672247
 20
20.2491090125
 30
0.0
 10
-40.0563176376
 20
20.3382940321
 30
0.0
 10
-40.0588982406
 20
20.4008314465
 30
0.0
 10
-40.0588986
 20
20.4331660398
 30
0.0
  0
SPLINE
  5
3D9
100
AcDbEntity
  8
ASSI
100
AcDbSpline
 62
250
  6
CONTINUOUS
 70
0
 71
3
 72
11
 73
7
 74
0
 42
0.0000001
 43
0.0000001
 44
0.0000000001
 40
0.0
 40
0.0
 40
0.0
 40
0.0
 40
0.2887894662
 40
0.5476638952
 40
0.7812548101
 40
1.0
 40
1.0
 40
1.0
 40
1.0
 10
-39.6420400882
 20
10.1163731049
 30
0.0
 10
-39.6293840638
 20
10.12394017
 30
0.0
 10
-39.6064407798
 20
10.1402454623
 30
0.0
 10
-39.5791122954
 20
10.1697814108
 30
0.0
 10
-39.5618592037
 20
10.202282386
 30
0.0
 10
-39.5578422603
 20
10.2255298502
 30
0.0
 10
-39.5578420438
 20
10.2366990566
 30
0.0
  0
SPLINE
  5
3DA
100
AcDbEntity
  8
ASSI
100
AcDbSpline
 62
250
  6
CONTINUOUS
 70
0
 71
3
 72
11
 73
7
 74
0
 42
0.0000001
 43
0.0000001
 44
0.0000000001
 40
0.0
 40
0.0
 40
0.0
 40
0.0
 40
0.2878624892
 40
0.5465778273
 40
0.7805768354
 40
1.0
 40
1.0
 40
1.0
 40
1.0
 10
-39.9662836603
 20
20.112261457
 30
0.0
 10
-39.9535148831
 20
20.1201261208
 30
0.0
 10
-39.9303837526
 20
20.1370535039
 30
0.0
 10
-39.9029676492
 20
20.1675667638
 30
0.0
 10
-39.885813059
 20
20.2010109374
 30
0.0
 10
-39.8819888075
 20
20.2248265415
 30
0.0
 10
-39.8821088589
 20
20.236256982
 30
0.0
  0
SPLINE
  5
3DB
100
AcDbEntity
  8
ASSI
100
AcDbSpline
 62
7
  6
CONTINUOUS
 70
0
 71
3
 72
11
 73
7
 74
0
 42
0.0000001
 43
0.0000001
 44
0.0000000001
 40
0.0
 40
0.0
 40
0.0
 40
0.0
 40
0.2579650145
 40
0.5189068469
 40
0.7696058048
 40
1.0
 40
1.0
 40
1.0
 40
1.0
 10
-39.9662836603
 20
20.112261457
 30
0.0
 10
-39.9583794763
 20
20.1377453935
 30
0.0
 10
-39.9457723068
 20
20.1902230399
 30
0.0
 10
-39.9421419056
 20
20.2701583774
 30
0.0
 10
-39.9504755914
 20
20.3467446326
 30
0.0
 10
-39.9656766424
 20
20.3947241185
 30
0.0
 10
-39.9760322591
 20
20.4161863133
 30
0.0
  0
SPLINE
  5
3DC
100
AcDbEntity
  8
ASSI
100
AcDbSpline
 62
250
  6
CONTINUOUS
 70
0
 71
3
 72
10
 73
6
 74
0
 42
0.0000001
 43
0.0000001
 44
0.0000000001
 40
0.0
 40
0.0
 40
0.0
 40
0.0
 40
0.5420300124
 40
0.778131129
 40
1.0
 40
1.0
 40
1.0
 40
1.0
 10
-39.6420400882
 20
10.1163731049
 30
0.0
 10
-39.6176646491
 20
10.1326519055
 30
0.0
 10
-39.5852488173
 20
10.1620875098
 30
0.0
 10
-39.5616019794
 20
10.2113855616
 30
0.0
 10
-39.5579128774
 20
10.2363682962
 30
0.0
 10
-39.5581131254
 20
10.248364668
 30
0.0
  0
SPLINE
  5
3DD
100
AcDbEntity
  8
ASSI
100
AcDbSpline
 62
250
  6
CONTINUOUS
 70
0
 71
3
 72
9
 73
5
 74
0
 42
0.0000001
 43
0.0000001
 44
0.0000000001
 40
0.0
 40
0.0
 40
0.0
 40
0.0
 40
0.5420668107
 40
1.0
 40
1.0
 40
1.0
 40
1.0
 10
-40.0588986
 20
20.4331660398
 30
0.0
 10
-40.0396318636
 20
20.4446856644
 30
0.0
 10
-40.0062033501
 20
20.4702359682
 30
0.0
 10
-39.9839409917
 20
20.5070025729
 30
0.0
 10
-39.9787233875
 20
20.5252344742
 30
0.0
  0
SPLINE
  5
3DE
100
AcDbEntity
  8
ASSI
100
AcDbSpline
 62
250
  6
CONTINUOUS
 70
0
 71
3
 72
8
 73
4
 74
0
 42
0.0000001
 43
0.0000001
 44
0.0000000001
 40
0.0
 40
0.0
 40
0.0
 40
0.0
 40
1.0
 40
1.0
 40
1.0
 40
1.0
 10
-39.9787233875
 20
20.5252344742
 30
0.0
 10
-39.9761056998
 20
20.5343814739
 30
0.0
 10
-39.9747014565
 20
20.5439779566
 30
0.0
 10
-39.9747006097
 20
20.5534921509
 30
0.0
  0
SPLINE
  5
3DF
100
AcDbEntity
  8
ASSI
100
AcDbSpline
 62
250
  6
CONTINUOUS
 70
0
 71
3
 72
11
 73
7
 74
0
 42
0.0000001
 43
0.0000001
 44
0.0000000001
 40
0.0
 40
0.0
 40
0.0
 40
0.0
 40
0.2886828633
 40
0.5476994509
 40
0.7812427788
 40
1.0
 40
1.0
 40
1.0
 40
1.0
 10
-40.0588986
 20
26.7738468008
 30
0.0
 10
-40.0462473869
 20
26.7814109892
 30
0.0
 10
-40.0233080768
 20
26.7977228725
 30
0.0
 10
-39.9959704232
 20
26.8272497506
 30
0.0
 10
-39.9787216599
 20
26.8597589462
 30
0.0
 10
-39.9747016164
 20
26.8830031058
 30
0.0
 10
-39.9747006097
 20
26.8941728034
 30
0.0
  0
SPLINE
  5
3E0
100
AcDbEntity
  8
ASSI
100
AcDbSpline
 62
7
  6
CONTINUOUS
 70
0
 71
3
 72
11
 73
7
 74
0
 42
0.0000001
 43
0.0000001
 44
0.0000000001
 40
0.0
 40
0.0
 40
0.0
 40
0.0
 40
0.386485097
 40
0.6809118347
 40
0.8845930732
 40
1.0
 40
1.0
 40
1.0
 40
1.0
 10
-39.9662836611
 20
27.2055007418
 30
0.0
 10
-39.9623630839
 20
27.1975472548
 30
0.0
 10
-39.9553057552
 20
27.1836814032
 30
0.0
 10
-39.9470519289
 20
27.1648845998
 30
0.0
 10
-39.9436670137
 20
27.1515463758
 30
0.0
 10
-39.9438807385
 20
27.1434411287
 30
0.0
 10
-39.9455130505
 20
27.1413562873
 30
0.0
  0
SPLINE
  5
3E1
100
AcDbEntity
  8
ASSI
100
AcDbSpline
 62
250
  6
CONTINUOUS
 70
0
 71
3
 72
11
 73
7
 74
0
 42
0.0000001
 43
0.0000001
 44
0.0000000001
 40
0.0
 40
0.0
 40
0.0
 40
0.0
 40
0.2896889021
 40
0.5487909506
 40
0.782005403
 40
1.0
 40
1.0
 40
1.0
 40
1.0
 10
-39.9662836611
 20
27.2055007418
 30
0.0
 10
-39.9537648974
 20
27.2127600645
 30
0.0
 10
-39.9310489821
 20
27.2284208585
 30
0.0
 10
-39.90384564
 20
27.2569272942
 30
0.0
 10
-39.8864934345
 20
27.2884188344
 30
0.0
 10
-39.8822516551
 20
27.3110540144
 30
0.0
 10
-39.8821111592
 20
27.3219429119
 30
0.0
  0
SPLINE
  5
3E2
100
AcDbEntity
  8
ASSI
100
AcDbSpline
 62
250
  6
CONTINUOUS
 70
0
 71
3
 72
9
 73
5
 74
0
 42
0.0000001
 43
0.0000001
 44
0.0000000001
 40
0.0
 40
0.0
 40
0.0
 40
0.0
 40
0.4797909555
 40
1.0
 40
1.0
 40
1.0
 40
1.0
 10
-26.9454545713
 20
-2.1228268413
 30
0.0
 10
-26.9353049604
 20
-2.1163583547
 30
0.0
 10
-26.9165375671
 20
-2.0988423833
 30
0.0
 10
-26.9045753185
 20
-2.0763379226
 30
0.0
 10
-26.8998874143
 20
-2.0641595369
 30
0.0
  0
SPLINE
  5
3E3
100
AcDbEntity
  8
ASSI
100
AcDbSpline
 62
250
  6
CONTINUOUS
 70
0
 71
3
 72
9
 73
5
 74
0
 42
0.0000001
 43
0.0000001
 44
0.0000000001
 40
0.0
 40
0.0
 40
0.0
 40
0.0
 40
0.4797909555
 40
1.0
 40
1.0
 40
1.0
 40
1.0
 10
36.6941557355
 20
-38.8675402408
 30
0.0
 10
36.7043053464
 20
-38.8610717542
 30
0.0
 10
36.7230727397
 20
-38.8435557828
 30
0.0
 10
36.7350349883
 20
-38.821051322
 30
0.0
 10
36.7397228925
 20
-38.8088729364
 30
0.0
  0
SPLINE
  5
3E4
100
AcDbEntity
  8
0
100
AcDbSpline
 62
250
  6
CONTINUOUS
 70
0
 71
3
 72
12
 73
8
 74
0
 42
0.0000001
 43
0.0000001
 44
0.0000000001
 40
0.0
 40
0.0
 40
0.0
 40
0.0
 40
0.3333333333
 40
0.5
 40
0.6666666667
 40
0.8333333333
 40
1.0
 40
1.0
 40
1.0
 40
1.0
 10
56.1564638247
 20
-57.1501539897
 30
0.0
 10
56.1537179535
 20
-57.179599571
 30
0.0
 10
56.1514202925
 20
-57.2228587808
 30
0.0
 10
56.1519405797
 20
-57.2784920563
 30
0.0
 10
56.1541232398
 20
-57.3193667723
 30
0.0
 10
56.1582743275
 20
-57.3596261236
 30
0.0
 10
56.1621376571
 20
-57.385966371
 30
0.0
 10
56.1642349358
 20
-57.3991565673
 30
0.0
  0
SPLINE
  5
3E5
100
AcDbEntity
  8
0
100
AcDbSpline
 62
250
  6
CONTINUOUS
 70
0
 71
3
 72
19
 73
15
 74
0
 42
0.0000001
 43
0.0000001
 44
0.0000000001
 40
0.0
 40
0.0
 40
0.0
 40
0.0
 40
0.1
 40
0.2
 40
0.25
 40
0.3
 40
0.4
 40
0.5
 40
0.6
 40
0.7
 40
0.75
 40
0.8
 40
0.9
 40
1.0
 40
1.0
 40
1.0
 40
1.0
 10
56.3215391191
 20
-56.8685406255
 30
0.0
 10
56.3135593078
 20
-56.8734540717
 30
0.0
 10
56.2980951325
 20
-56.8843685705
 30
0.0
 10
56.2788236746
 20
-56.9011737053
 30
0.0
 10
56.263770854
 20
-56.9162773294
 30
0.0
 10
56.2489436559
 20
-56.9325326203
 30
0.0
 10
56.2312639212
 20
-56.9545897898
 30
0.0
 10
56.2114271566
 20
-56.984273729
 30
0.0
 10
56.1942367214
 20
-57.0162202593
 30
0.0
 10
56.1824722584
 20
-57.0436643382
 30
0.0
 10
56.1744687811
 20
-57.0661512465
 30
0.0
 10
56.1675168274
 20
-57.0886505381
 30
0.0
 10
56.1607448323
 20
-57.1168953839
 30
0.0
 10
56.1575072088
 20
-57.1389632114
 30
0.0
 10
56.1564635539
 20
-57.150156893
 30
0.0
  0
SPLINE
  5
3E6
100
AcDbEntity
  8
0
100
AcDbSpline
 62
250
  6
CONTINUOUS
 70
0
 71
3
 72
17
 73
13
 74
0
 42
0.0000001
 43
0.0000001
 44
0.0000000001
 40
0.0
 40
0.0
 40
0.0
 40
0.0
 40
0.1428571429
 40
0.2857142857
 40
0.3571428571
 40
0.4285714286
 40
0.5
 40
0.5714285714
 40
0.6428571429
 40
0.7142857143
 40
0.8571428571
 40
1.0
 40
1.0
 40
1.0
 40
1.0
 10
56.5265855063
 20
-56.9974638562
 30
0.0
 10
56.5261620131
 20
-56.9754353182
 30
0.0
 10
56.5228940948
 20
-56.93583397
 30
0.0
 10
56.5136453
 20
-56.8982034493
 30
0.0
 10
56.5024603821
 20
-56.8733339722
 30
0.0
 10
56.4920224003
 20
-56.8578367496
 30
0.0
 10
56.4788019333
 20
-56.84547281
 30
0.0
 10
56.4627983412
 20
-56.8372477001
 30
0.0
 10
56.4443519584
 20
-56.8328317145
 30
0.0
 10
56.4167128551
 20
-56.8319210862
 30
0.0
 10
56.3774275714
 20
-56.8398540383
 30
0.0
 10
56.3409807481
 20
-56.8565676258
 30
0.0
 10
56.321502888
 20
-56.8685629466
 30
0.0
  0
SPLINE
  5
3E7
100
AcDbEntity
  8
0
100
AcDbSpline
 62
250
  6
CONTINUOUS
 70
0
 71
3
 72
17
 73
13
 74
0
 42
0.0000001
 43
0.0000001
 44
0.0000000001
 40
0.0
 40
0.0
 40
0.0
 40
0.0
 40
0.1
 40
0.2
 40
0.3
 40
0.4
 40
0.5
 40
0.6
 40
0.7
 40
0.8
 40
0.9
 40
1.0
 40
1.0
 40
1.0
 40
1.0
 10
56.8590358431
 20
-56.6187556104
 30
0.0
 10
56.8520375161
 20
-56.6260277197
 30
0.0
 10
56.8387267891
 20
-56.640835977
 30
0.0
 10
56.8197932939
 20
-56.6646891916
 30
0.0
 10
56.8022575505
 20
-56.6897992759
 30
0.0
 10
56.7865038418
 20
-56.7156981164
 30
0.0
 10
56.7728730778
 20
-56.741976459
 30
0.0
 10
56.7615731883
 20
-56.7684008794
 30
0.0
 10
56.7528131479
 20
-56.7952190122
 30
0.0
 10
56.7468478353
 20
-56.8214100967
 30
0.0
 10
56.7434926767
 20
-56.8459631009
 30
0.0
 10
56.7427605625
 20
-56.8612981946
 30
0.0
 10
56.7427605625
 20
-56.8689102315
 30
0.0
  0
SPLINE
  5
3E8
100
AcDbEntity
  8
0
100
AcDbSpline
 62
250
  6
CONTINUOUS
 70
0
 71
3
 72
12
 73
8
 74
0
 42
0.0000001
 43
0.0000001
 44
0.0000000001
 40
0.0
 40
0.0
 40
0.0
 40
0.0
 40
0.1666666667
 40
0.3333333333
 40
0.5
 40
0.6666666667
 40
1.0
 40
1.0
 40
1.0
 40
1.0
 10
57.2593140268
 20
-56.2378309824
 30
0.0
 10
57.2350209654
 20
-56.2605637024
 30
0.0
 10
57.1871499325
 20
-56.3056581866
 30
0.0
 10
57.1173690519
 20
-56.3715513348
 30
0.0
 10
57.0493576501
 20
-56.434991859
 30
0.0
 10
56.9612426742
 20
-56.516887429
 30
0.0
 10
56.8986731529
 20
-56.5775539579
 30
0.0
 10
56.8590081582
 20
-56.6187843982
 30
0.0
  0
SPLINE
  5
3E9
100
AcDbEntity
  8
0
100
AcDbSpline
 62
250
  6
CONTINUOUS
 70
0
 71
3
 72
10
 73
6
 74
0
 42
0.0000001
 43
0.0000001
 44
0.0000000001
 40
0.0
 40
0.0
 40
0.0
 40
0.0
 40
0.3333333333
 40
0.6666666667
 40
1.0
 40
1.0
 40
1.0
 40
1.0
 10
56.9020892329
 20
-56.2506500539
 30
0.0
 10
56.9431663248
 20
-56.2129384523
 30
0.0
 10
57.0244862467
 20
-56.1389751073
 30
0.0
 10
57.1436007853
 20
-56.0313774545
 30
0.0
 10
57.22114265
 20
-55.9613891819
 30
0.0
 10
57.2593140268
 20
-55.9263831004
 30
0.0
  0
SPLINE
  5
3EA
100
AcDbEntity
  8
0
100
AcDbSpline
 62
250
  6
CONTINUOUS
 70
0
 71
3
 72
16
 73
12
 74
0
 42
0.0000001
 43
0.0000001
 44
0.0000000001
 40
0.0
 40
0.0
 40
0.0
 40
0.0
 40
0.1111111111
 40
0.2222222222
 40
0.3333333333
 40
0.4444444444
 40
0.5555555556
 40
0.6666666667
 40
0.7777777778
 40
0.8888888889
 40
1.0
 40
1.0
 40
1.0
 40
1.0
 10
56.643175524
 20
-56.5921002671
 30
0.0
 10
56.6473355101
 20
-56.5773528985
 30
0.0
 10
56.657844742
 20
-56.5481232039
 30
0.0
 10
56.6797630809
 20
-56.5042430859
 30
0.0
 10
56.7052597833
 20
-56.4632858465
 30
0.0
 10
56.7332299723
 20
-56.424827996
 30
0.0
 10
56.7621316309
 20
-56.3895249309
 30
0.0
 10
56.7926839461
 20
-56.3555505226
 30
0.0
 10
56.8254670474
 20
-56.321931557
 30
0.0
 10
56.8613620278
 20
-56.2877971088
 30
0.0
 10
56.8881412264
 20
-56.2634552854
 30
0.0
 10
56.9020892329
 20
-56.2506500541
 30
0.0
  0
SPLINE
  5
3EB
100
AcDbEntity
  8
0
100
AcDbSpline
 62
250
  6
CONTINUOUS
 70
0
 71
3
 72
30
 73
26
 74
0
 42
0.0000001
 43
0.0000001
 44
0.0000000001
 40
0.0
 40
0.0
 40
0.0
 40
0.0
 40
0.0526315789
 40
0.1052631579
 40
0.1578947368
 40
0.2105263158
 40
0.2631578947
 40
0.3157894737
 40
0.3684210526
 40
0.4210526316
 40
0.4736842105
 40
0.5263157895
 40
0.5789473684
 40
0.6315789474
 40
0.6842105263
 40
0.7368421053
 40
0.7894736842
 40
0.8157894737
 40
0.8421052632
 40
0.8684210526
 40
0.8947368421
 40
0.9210526316
 40
0.9473684211
 40
0.9736842105
 40
1.0
 40
1.0
 40
1.0
 40
1.0
 10
55.9686875726
 20
-57.0287620699
 30
0.0
 10
55.9746602215
 20
-57.0057347505
 30
0.0
 10
55.99146413
 20
-56.9563686415
 30
0.0
 10
56.0333675375
 20
-56.8670037794
 30
0.0
 10
56.0886110415
 20
-56.7779342118
 30
0.0
 10
56.1541495687
 20
-56.6968201352
 30
0.0
 10
56.2201254457
 20
-56.6340936554
 30
0.0
 10
56.2830333392
 20
-56.5873524743
 30
0.0
 10
56.3388223515
 20
-56.5543754579
 30
0.0
 10
56.3881362459
 20
-56.5323915375
 30
0.0
 10
56.4313681326
 20
-56.5193582595
 30
0.0
 10
56.4695293677
 20
-56.5133862193
 30
0.0
 10
56.5023620275
 20
-56.5130184982
 30
0.0
 10
56.5305781399
 20
-56.5169997269
 30
0.0
 10
56.554383058
 20
-56.5244501457
 30
0.0
 10
56.5744260358
 20
-56.5344711625
 30
0.0
 10
56.5886831057
 20
-56.543741367
 30
0.0
 10
56.5989573766
 20
-56.5512566047
 30
0.0
 10
56.6061920603
 20
-56.5568848322
 30
0.0
 10
56.6129652331
 20
-56.5624080422
 30
0.0
 10
56.6193976382
 20
-56.5678171859
 30
0.0
 10
56.6253473814
 20
-56.5737555557
 30
0.0
 10
56.6302219367
 20
-56.5803972785
 30
0.0
 10
56.6337167099
 20
-56.587914513
 30
0.0
 10
56.6350144321
 20
-56.5936885905
 30
0.0
 10
56.6353758013
 20
-56.5967637386
 30
0.0
  0
SPLINE
  5
3EC
100
AcDbEntity
  8
0
100
AcDbSpline
 62
250
  6
CONTINUOUS
 70
0
 71
3
 72
15
 73
11
 74
0
 42
0.0000001
 43
0.0000001
 44
0.0000000001
 40
0.0
 40
0.0
 40
0.0
 40
0.0
 40
0.125
 40
0.25
 40
0.375
 40
0.5
 40
0.625
 40
0.75
 40
0.875
 40
1.0
 40
1.0
 40
1.0
 40
1.0
 10
55.9547906047
 20
-57.8361341139
 30
0.0
 10
55.9497313079
 20
-57.7987452333
 30
0.0
 10
55.9403881258
 20
-57.726447081
 30
0.0
 10
55.9299254455
 20
-57.6257476671
 30
0.0
 10
55.9232098239
 20
-57.5288767069
 30
0.0
 10
55.920610654
 20
-57.433561712
 30
0.0
 10
55.9227151283
 20
-57.336671219
 30
0.0
 10
55.9304559216
 20
-57.2370965238
 30
0.0
 10
55.9448777249
 20
-57.1346163774
 30
0.0
 10
55.9594177874
 20
-57.0644576083
 30
0.0
 10
55.9686875726
 20
-57.02876207
 30
0.0
  0
SPLINE
  5
3ED
100
AcDbEntity
  8
RACCORDO
100
AcDbSpline
 62
7
  6
CONTINUOUS
 70
0
 71
3
 72
11
 73
7
 74
0
 42
0.0000001
 43
0.0000001
 44
0.0000000001
 40
0.0
 40
0.0
 40
0.0
 40
0.0
 40
0.2177664648
 40
0.4509472453
 40
0.7101858544
 40
1.0
 40
1.0
 40
1.0
 40
1.0
 10
-42.1071954339
 20
39.9667141501
 30
0.0
 10
-42.0676133213
 20
39.9895683598
 30
0.0
 10
-41.9766575282
 20
40.0226051216
 30
0.0
 10
-41.8256036259
 20
40.0263814752
 30
0.0
 10
-41.6645811822
 20
39.9875515042
 30
0.0
 10
-41.5598458424
 20
39.9376830259
 30
0.0
 10
-41.5071680557
 20
39.9072675321
 30
0.0
  0
SPLINE
  5
3EE
100
AcDbEntity
  8
RACCORDO
100
AcDbSpline
 62
7
  6
CONTINUOUS
 70
0
 71
3
 72
11
 73
7
 74
0
 42
0.0000001
 43
0.0000001
 44
0.0000000001
 40
0.0
 40
0.0
 40
0.0
 40
0.0
 40
0.2372123996
 40
0.4999938932
 40
0.7627787109
 40
1.0
 40
1.0
 40
1.0
 40
1.0
 10
-40.2343758495
 20
5.6973286451
 30
0.0
 10
-40.2343758495
 20
5.5582418197
 30
0.0
 10
-40.1822034002
 20
5.2648873166
 30
0.0
 10
-40.0003538741
 20
4.8526562018
 30
0.0
 10
-39.7342723552
 20
4.4890505259
 30
0.0
 10
-39.50630301
 20
4.2971841804
 30
0.0
 10
-39.3858477121
 20
4.227634801
 30
0.0
  0
SPLINE
  5
3EF
100
AcDbEntity
  8
RACCORDO
100
AcDbSpline
 62
7
  6
CONTINUOUS
 70
0
 71
3
 72
11
 73
7
 74
0
 42
0.0000001
 43
0.0000001
 44
0.0000000001
 40
0.0
 40
0.0
 40
0.0
 40
0.0
 40
0.2898086042
 40
0.549045169
 40
0.7822281919
 40
1.0
 40
1.0
 40
1.0
 40
1.0
 10
37.3352380466
 20
-41.5400418029
 30
0.0
 10
37.3352380466
 20
-41.600859595
 30
0.0
 10
37.3260562067
 20
-41.716478131
 30
0.0
 10
37.2791770679
 20
-41.8753167909
 30
0.0
 10
37.2003907538
 20
-42.0042263747
 30
0.0
 10
37.1263144538
 20
-42.0664718872
 30
0.0
 10
37.0867372875
 20
-42.0893232411
 30
0.0
  0
SPLINE
  5
3F0
100
AcDbEntity
  8
RACCORDO
100
AcDbSpline
 62
7
  6
CONTINUOUS
 70
0
 71
3
 72
11
 73
7
 74
0
 42
0.0000001
 43
0.0000001
 44
0.0000000001
 40
0.0
 40
0.0
 40
0.0
 40
0.0
 40
0.2372212891
 40
0.5000061068
 40
0.7627876004
 40
1.0
 40
1.0
 40
1.0
 40
1.0
 10
36.4867099092
 20
-5.125420112
 30
0.0
 10
36.6071652072
 20
-5.1949694914
 30
0.0
 10
36.8351345523
 20
-5.3868358369
 30
0.0
 10
37.1012160712
 20
-5.7504415128
 30
0.0
 10
37.2830655973
 20
-6.1626726276
 30
0.0
 10
37.3352380466
 20
-6.4560271306
 30
0.0
 10
37.3352380466
 20
-6.5951139561
 30
0.0
  0
SPLINE
  5
3F1
100
AcDbEntity
  8
RACCORDO
100
AcDbSpline
 62
7
  6
CONTINUOUS
 70
0
 71
3
 72
11
 73
7
 74
0
 42
0.0000001
 43
0.0000001
 44
0.0000000001
 40
0.0
 40
0.0
 40
0.0
 40
0.0
 40
0.2372212891
 40
0.5000061068
 40
0.7627876004
 40
1.0
 40
1.0
 40
1.0
 40
1.0
 10
-41.5071680557
 20
3.002811021
 30
0.0
 10
-41.6276233536
 20
3.0723604004
 30
0.0
 10
-41.8555926987
 20
3.2642267459
 30
0.0
 10
-42.1216742177
 20
3.6278324219
 30
0.0
 10
-42.3035237437
 20
4.0400635367
 30
0.0
 10
-42.3556961931
 20
4.3334180397
 30
0.0
 10
-42.3556961931
 20
4.4725048652
 30
0.0
  0
SPLINE
  5
3F2
100
AcDbEntity
  8
RACCORDO
100
AcDbSpline
 62
7
  6
CONTINUOUS
 70
0
 71
3
 72
11
 73
7
 74
0
 42
0.0000001
 43
0.0000001
 44
0.0000000001
 40
0.0
 40
0.0
 40
0.0
 40
0.0
 40
0.2177664648
 40
0.4509472453
 40
0.7101858544
 40
1.0
 40
1.0
 40
1.0
 40
1.0
 10
37.0867372875
 20
-42.0893232411
 30
0.0
 10
37.0471551749
 20
-42.1121774508
 30
0.0
 10
36.9561993818
 20
-42.1452142126
 30
0.0
 10
36.8051454794
 20
-42.1489905662
 30
0.0
 10
36.6441230358
 20
-42.1101605952
 30
0.0
 10
36.539387696
 20
-42.0602921169
 30
0.0
 10
36.4867099092
 20
-42.029876623
 30
0.0
  0
SPLINE
  5
3F3
100
AcDbEntity
  8
RACCORDO
100
AcDbSpline
 62
7
  6
CONTINUOUS
 70
0
 71
3
 72
11
 73
7
 74
0
 42
0.0000001
 43
0.0000001
 44
0.0000000001
 40
0.0
 40
0.0
 40
0.0
 40
0.0
 40
0.2898086042
 40
0.549045169
 40
0.7822281919
 40
1.0
 40
1.0
 40
1.0
 40
1.0
 10
-42.3556961931
 20
39.4174327119
 30
0.0
 10
-42.3556961931
 20
39.478250504
 30
0.0
 10
-42.3465143531
 20
39.5938690401
 30
0.0
 10
-42.2996352143
 20
39.7527076999
 30
0.0
 10
-42.2208489002
 20
39.8816172838
 30
0.0
 10
-42.1467726003
 20
39.9438627962
 30
0.0
 10
-42.1071954339
 20
39.9667141501
 30
0.0
  0
ELLIPSE
  5
3F4
100
AcDbEntity
  8
0
100
AcDbEllipse
 62
7
  6
CONTINUOUS
 10
57.7612503848
 20
-64.8345770659
 30
0.0
 11
-0.0320188688
 21
0.0554549875
 31
0.0
 40
0.5632057935
 41
-2.5265952341
 42
-2.3686251639
  0
ELLIPSE
  5
3F5
100
AcDbEntity
  8
0
100
AcDbEllipse
 62
7
  6
CONTINUOUS
 10
57.7612503848
 20
5.4418669734
 30
0.0
 11
-0.0312356712
 21
0.0540980115
 31
0.0
 40
0.5918118391
 41
-2.3438606673
 42
-0.7978336343
  0
ELLIPSE
  5
3F6
100
AcDbEntity
  8
0
100
AcDbEllipse
 62
7
  6
CONTINUOUS
 10
-52.1043961353
 20
68.8769143342
 30
0.0
 11
-0.0320188688
 21
0.0554549875
 31
0.0
 40
0.5632057935
 41
-0.7730595434
 42
-0.6150059205
  0
ELLIPSE
  5
3F7
100
AcDbEntity
  8
0
100
AcDbEllipse
 62
7
  6
CONTINUOUS
 10
-10.5284699035
 20
-10.8217095953
 30
0.0
 11
0.2999993451
 21
0.1746271577
 31
0.0
 40
0.0035896273
 41
-0.7351277754
 42
-0.0020894543
  0
ELLIPSE
  5
3F8
100
AcDbEntity
  8
0
100
AcDbEllipse
 62
7
  6
CONTINUOUS
 10
5.3814326732
 20
-20.0078879452
 30
0.0
 11
0.2999993451
 21
0.1746271577
 31
0.0
 40
0.0035896273
 41
-0.7351277754
 42
-0.0020894543
  0
ELLIPSE
  5
3F9
100
AcDbEntity
  8
0
100
AcDbEllipse
 62
7
  6
CONTINUOUS
 10
21.2913352499
 20
-29.194066295
 30
0.0
 11
0.2999993451
 21
0.1746271577
 31
0.0
 40
0.0035896273
 41
-0.7351277754
 42
-0.0020894543
  0
ELLIPSE
  5
3FA
100
AcDbEntity
  8
0
100
AcDbEllipse
 62
7
  6
CONTINUOUS
 10
-25.098478346
 20
-0.86122889
 30
0.0
 11
0.1999995634
 21
0.1164181051
 31
0.0
 40
0.0035896273
 41
-0.7351277754
 42
-0.6748017824
  0
ELLIPSE
  5
3FB
100
AcDbEntity
  8
0
100
AcDbEllipse
 62
7
  6
CONTINUOUS
 10
34.7151305702
 20
-34.8254922034
 30
0.0
 11
0.1998333781
 21
-0.0157785196
 31
0.0
 40
0.5172961965
 41
0.8262203412
 42
2.3446567905
  0
ELLIPSE
  5
3FC
100
AcDbEntity
  8
0
100
AcDbEllipse
 62
7
  6
CONTINUOUS
 10
-28.9244797366
 20
1.9192211961
 30
0.0
 11
0.1998333781
 21
-0.0157785196
 31
0.0
 40
0.5172961965
 41
0.8262203412
 42
2.3446567905
  0
ELLIPSE
  5
3FD
100
AcDbEntity
  8
0
100
AcDbEllipse
 62
7
  6
CONTINUOUS
 10
17.5995377154
 20
-26.3882481121
 30
0.0
 11
0.2999972416
 21
-0.0022477848
 31
0.0
 40
0.5723275643
 41
0.7896864073
 42
2.3081228565
  0
ELLIPSE
  5
3FE
100
AcDbEntity
  8
0
100
AcDbEllipse
 62
7
  6
CONTINUOUS
 10
1.6896351387
 20
-17.2020697622
 30
0.0
 11
0.2999972416
 21
-0.0022477848
 31
0.0
 40
0.5723275643
 41
0.7896864073
 42
2.3081228565
  0
ELLIPSE
  5
3FF
100
AcDbEntity
  8
0
100
AcDbEllipse
 62
7
  6
CONTINUOUS
 10
-14.220267438
 20
-8.0158914124
 30
0.0
 11
0.2999972416
 21
-0.0022477848
 31
0.0
 40
0.5723275643
 41
0.7896864073
 42
2.3081228565
  0
ELLIPSE
  5
400
100
AcDbEntity
  8
0
100
AcDbEllipse
 62
7
  6
CONTINUOUS
 10
33.1969030403
 20
-36.1289067163
 30
0.0
 11
0.5413005334
 21
0.8416911418
 31
0.0
 40
0.6067084637
 41
0.7148472392
 42
0.8145158917
  0
ELLIPSE
  5
401
100
AcDbEntity
  8
0
100
AcDbEllipse
 62
7
  6
CONTINUOUS
 10
-30.4427072665
 20
0.6158066832
 30
0.0
 11
0.5413005334
 21
0.8416911418
 31
0.0
 40
0.6067084637
 41
0.7148472392
 42
0.8145158917
  0
ELLIPSE
  5
402
100
AcDbEntity
  8
0
100
AcDbEllipse
 62
7
  6
CONTINUOUS
 10
-10.5284699035
 20
-10.1474890397
 30
0.0
 11
0.2999972416
 21
-0.0022477848
 31
0.0
 40
0.5723275643
 41
-0.728750042
 42
0.7896864073
  0
ELLIPSE
  5
403
100
AcDbEntity
  8
0
100
AcDbEllipse
 62
7
  6
CONTINUOUS
 10
-26.1963700082
 20
-1.8359752306
 30
0.0
 11
0.4625183445
 21
0.8873459255
 31
0.0
 40
0.5463614449
 41
0.662201126
 42
0.7618697785
  0
ELLIPSE
  5
404
100
AcDbEntity
  8
0
100
AcDbEllipse
 62
7
  6
CONTINUOUS
 10
57.7517505165
 20
5.4537951317
 30
0.0
 11
1.1066889452
 21
-0.4882482052
 31
0.0
 40
0.0945009384
 41
-2.4253001261
 42
-2.3839902126
  0
ELLIPSE
  5
405
100
AcDbEntity
  8
0
100
AcDbEllipse
 62
7
  6
CONTINUOUS
 10
-52.4861966705
 20
69.1038042315
 30
0.0
 11
1.1066889452
 21
-0.4882482052
 31
0.0
 40
0.0945009384
 41
-2.4666100396
 42
-2.4253001261
  0
ELLIPSE
  5
406
100
AcDbEntity
  8
0
100
AcDbEllipse
 62
7
  6
CONTINUOUS
 10
57.7668493216
 20
-65.2786827362
 30
0.0
 11
0.1304932868
 21
1.2025842266
 31
0.0
 40
0.0944494463
 41
-3.8578203675
 42
-3.816510454
  0
ELLIPSE
  5
407
100
AcDbEntity
  8
0
100
AcDbEllipse
 62
7
  6
CONTINUOUS
 10
57.7668493216
 20
5.427643234
 30
0.0
 11
0.1304932868
 21
1.2025842266
 31
0.0
 40
0.0944494463
 41
-3.899130281
 42
-3.8578203675
  0
ELLIPSE
  5
408
100
AcDbEntity
  8
0
100
AcDbEllipse
 62
7
  6
CONTINUOUS
 10
-25.098478346
 20
-0.2898640557
 30
0.0
 11
0.1998333781
 21
-0.0157785196
 31
0.0
 40
0.5172961965
 41
-0.692216108
 42
0.8262203412
  0
ELLIPSE
  5
409
100
AcDbEntity
  8
0
100
AcDbEllipse
 62
7
  6
CONTINUOUS
 10
21.2913352499
 20
-28.5198457395
 30
0.0
 11
0.2999972416
 21
-0.0022477848
 31
0.0
 40
0.5723275643
 41
-0.728750042
 42
0.7896864073
  0
ELLIPSE
  5
40A
100
AcDbEntity
  8
0
100
AcDbEllipse
 62
7
  6
CONTINUOUS
 10
5.3814326732
 20
-19.3336673896
 30
0.0
 11
0.2999972416
 21
-0.0022477848
 31
0.0
 40
0.5723275643
 41
-0.728750042
 42
0.7896864073
  0
ELLIPSE
  5
40B
100
AcDbEntity
  8
ASSI
100
AcDbEllipse
 62
7
  6
CONTINUOUS
 10
57.7612503848
 20
-64.8345770659
 30
0.0
 11
-0.0320188688
 21
0.0554549875
 31
0.0
 40
0.5632057935
 41
-2.5265952341
 42
-2.3686251639
  0
ELLIPSE
  5
40C
100
AcDbEntity
  8
ASSI
100
AcDbEllipse
 62
7
  6
CONTINUOUS
 10
57.7612503848
 20
5.4418669734
 30
0.0
 11
-0.0312356712
 21
0.0540980115
 31
0.0
 40
0.5918118391
 41
-2.3438606673
 42
-0.7978336343
  0
ELLIPSE
  5
40D
100
AcDbEntity
  8
ASSI
100
AcDbEllipse
 62
7
  6
CONTINUOUS
 10
-52.1043961353
 20
68.8769143342
 30
0.0
 11
-0.0320188688
 21
0.0554549875
 31
0.0
 40
0.5632057935
 41
-0.7730595434
 42
-0.6150059205
  0
ELLIPSE
  5
40E
100
AcDbEntity
  8
ASSI
100
AcDbEllipse
 62
7
  6
CONTINUOUS
 10
-10.5284699035
 20
-10.8217095953
 30
0.0
 11
0.2999993451
 21
0.1746271577
 31
0.0
 40
0.0035896273
 41
-0.7351277754
 42
-0.0020894543
  0
ELLIPSE
  5
40F
100
AcDbEntity
  8
ASSI
100
AcDbEllipse
 62
7
  6
CONTINUOUS
 10
5.3814326732
 20
-20.0078879452
 30
0.0
 11
0.2999993451
 21
0.1746271577
 31
0.0
 40
0.0035896273
 41
-0.7351277754
 42
-0.0020894543
  0
ELLIPSE
  5
410
100
AcDbEntity
  8
ASSI
100
AcDbEllipse
 62
7
  6
CONTINUOUS
 10
21.2913352499
 20
-29.194066295
 30
0.0
 11
0.2999993451
 21
0.1746271577
 31
0.0
 40
0.0035896273
 41
-0.7351277754
 42
-0.0020894543
  0
ELLIPSE
  5
411
100
AcDbEntity
  8
ASSI
100
AcDbEllipse
 62
7
  6
CONTINUOUS
 10
-25.098478346
 20
-0.86122889
 30
0.0
 11
0.1999995634
 21
0.1164181051
 31
0.0
 40
0.0035896273
 41
-0.7351277754
 42
-0.6748017824
  0
ELLIPSE
  5
412
100
AcDbEntity
  8
ASSI
100
AcDbEllipse
 62
7
  6
CONTINUOUS
 10
34.7151305702
 20
-34.8254922034
 30
0.0
 11
0.1998333781
 21
-0.0157785196
 31
0.0
 40
0.5172961965
 41
0.8262203412
 42
2.3446567905
  0
ELLIPSE
  5
413
100
AcDbEntity
  8
ASSI
100
AcDbEllipse
 62
7
  6
CONTINUOUS
 10
-28.9244797366
 20
1.9192211961
 30
0.0
 11
0.1998333781
 21
-0.0157785196
 31
0.0
 40
0.5172961965
 41
0.8262203412
 42
2.3446567905
  0
ELLIPSE
  5
414
100
AcDbEntity
  8
ASSI
100
AcDbEllipse
 62
7
  6
CONTINUOUS
 10
17.5995377154
 20
-26.3882481121
 30
0.0
 11
0.2999972416
 21
-0.0022477848
 31
0.0
 40
0.5723275643
 41
0.7896864073
 42
2.3081228565
  0
ELLIPSE
  5
415
100
AcDbEntity
  8
ASSI
100
AcDbEllipse
 62
7
  6
CONTINUOUS
 10
1.6896351387
 20
-17.2020697622
 30
0.0
 11
0.2999972416
 21
-0.0022477848
 31
0.0
 40
0.5723275643
 41
0.7896864073
 42
2.3081228565
  0
ELLIPSE
  5
416
100
AcDbEntity
  8
ASSI
100
AcDbEllipse
 62
7
  6
CONTINUOUS
 10
-14.220267438
 20
-8.0158914124
 30
0.0
 11
0.2999972416
 21
-0.0022477848
 31
0.0
 40
0.5723275643
 41
0.7896864073
 42
2.3081228565
  0
ELLIPSE
  5
417
100
AcDbEntity
  8
ASSI
100
AcDbEllipse
 62
7
  6
CONTINUOUS
 10
33.1969030403
 20
-36.1289067163
 30
0.0
 11
0.5413005334
 21
0.8416911418
 31
0.0
 40
0.6067084637
 41
0.7148472392
 42
0.8145158917
  0
ELLIPSE
  5
418
100
AcDbEntity
  8
ASSI
100
AcDbEllipse
 62
7
  6
CONTINUOUS
 10
-30.4427072665
 20
0.6158066832
 30
0.0
 11
0.5413005334
 21
0.8416911418
 31
0.0
 40
0.6067084637
 41
0.7148472392
 42
0.8145158917
  0
ELLIPSE
  5
419
100
AcDbEntity
  8
ASSI
100
AcDbEllipse
 62
7
  6
CONTINUOUS
 10
-10.5284699035
 20
-10.1474890397
 30
0.0
 11
0.2999972416
 21
-0.0022477848
 31
0.0
 40
0.5723275643
 41
-0.728750042
 42
0.7896864073
  0
ELLIPSE
  5
41A
100
AcDbEntity
  8
ASSI
100
AcDbEllipse
 62
7
  6
CONTINUOUS
 10
-26.1963700082
 20
-1.8359752306
 30
0.0
 11
0.4625183445
 21
0.8873459255
 31
0.0
 40
0.5463614449
 41
0.662201126
 42
0.7618697785
  0
ELLIPSE
  5
41B
100
AcDbEntity
  8
ASSI
100
AcDbEllipse
 62
7
  6
CONTINUOUS
 10
5.3814326732
 20
-19.3336673896
 30
0.0
 11
0.2999972416
 21
-0.0022477848
 31
0.0
 40
0.5723275643
 41
-0.728750042
 42
0.7896864073
  0
ELLIPSE
  5
41C
100
AcDbEntity
  8
ASSI
100
AcDbEllipse
 62
7
  6
CONTINUOUS
 10
57.7517505165
 20
5.4537951317
 30
0.0
 11
1.1066889452
 21
-0.4882482052
 31
0.0
 40
0.0945009384
 41
-2.4253001261
 42
-2.3839902126
  0
ELLIPSE
  5
41D
100
AcDbEntity
  8
ASSI
100
AcDbEllipse
 62
7
  6
CONTINUOUS
 10
-52.4861966705
 20
69.1038042315
 30
0.0
 11
1.1066889452
 21
-0.4882482052
 31
0.0
 40
0.0945009384
 41
-2.4666100396
 42
-2.4253001261
  0
ELLIPSE
  5
41E
100
AcDbEntity
  8
ASSI
100
AcDbEllipse
 62
7
  6
CONTINUOUS
 10
57.7668493216
 20
-65.2786827362
 30
0.0
 11
0.1304932868
 21
1.2025842266
 31
0.0
 40
0.0944494463
 41
-3.8578203675
 42
-3.816510454
  0
ELLIPSE
  5
41F
100
AcDbEntity
  8
ASSI
100
AcDbEllipse
 62
7
  6
CONTINUOUS
 10
57.7668493216
 20
5.427643234
 30
0.0
 11
0.1304932868
 21
1.2025842266
 31
0.0
 40
0.0944494463
 41
-3.899130281
 42
-3.8578203675
  0
ELLIPSE
  5
420
100
AcDbEntity
  8
ASSI
100
AcDbEllipse
 62
7
  6
CONTINUOUS
 10
-25.098478346
 20
-0.2898640557
 30
0.0
 11
0.1998333781
 21
-0.0157785196
 31
0.0
 40
0.5172961965
 41
-0.692216108
 42
0.8262203412
  0
ELLIPSE
  5
421
100
AcDbEntity
  8
ASSI
100
AcDbEllipse
 62
7
  6
CONTINUOUS
 10
21.2913352499
 20
-28.5198457395
 30
0.0
 11
0.2999972416
 21
-0.0022477848
 31
0.0
 40
0.5723275643
 41
-0.728750042
 42
0.7896864073
  0
ENDSEC
  0
SECTION
  2
OBJECTS
  0
DICTIONARY
  5
C
100
AcDbDictionary
280
0
281
1
  3
ACAD_GROUP
350
D
  3
ACAD_MLINESTYLE
350
17
  3
ACAD_LAYOUT
350
1A
  3
ACAD_PLOTSETTINGS
350
19
  3
ACAD_PLOTSTYLENAME
350
E
  0
DICTIONARY
  5
D
102
{ACAD_REACTORS
330
C
102
}
100
AcDbDictionary
280
0
281
1
  0
ACDBDICTIONARYWDFLT
  5
E
102
{ACAD_REACTORS
330
C
102
}
100
AcDbDictionary
281
1
  3
Normal
350
F
100
AcDbDictionaryWithDefault
340
F
  0
DICTIONARY
  5
17
102
{ACAD_REACTORS
330
C
102
}
100
AcDbDictionary
280
0
281
1
  3
Standard
350
18
  0
DICTIONARY
  5
19
102
{ACAD_REACTORS
330
C
102
}
100
AcDbDictionary
281
1
  0
DICTIONARY
  5
1A
102
{ACAD_REACTORS
330
C
102
}
100
AcDbDictionary
281
1
  3
Model
350
422
  3
Layout1
350
423
  0
ACDBPLACEHOLDER
  5
F
102
{ACAD_REACTORS
330
E
102
}
  0
MLINESTYLE
  5
18
102
{ACAD_REACTORS
330
17
102
}
100
AcDbMlineStyle
  2
STANDARD
 70
0
  3

 62
256
 51
90.0
 52
90.0
 71
2
 49
0.5
 62
256
  6
BYLAYER
 49
-0.5
 62
256
  6
BYLAYER
  0
LAYOUT
  5
422
102
{ACAD_REACTORS
330
1A
102
}
100
AcDbPlotSettings
  1

  2
none_device
  4
ISO_A4_(297.00_x_210.00_MM)
  6

 40
0.0
 41
0.0
 42
0.0
 43
0.0
 44
297.0
 45
210.0
 46
0.0
 47
0.0
 48
0.0
 49
0.0
140
0.0
141
0.0
142
1.0
143
1.0
 70
1024
 72
1
 73
0
 74
0
  7

 75
0
147
1.0
148
0.0
149
0.0
100
AcDbLayout
  1
Model
 70
0
 71
0
 10
0.0
 20
0.0
 11
297.0
 21
210.0
 12
0.0
 22
0.0
 32
0.0
 14
0.0
 24
0.0
 34
0.0
 15
0.0
 25
0.0
 35
0.0
146
0.0
 13
0.0
 23
0.0
 33
0.0
 16
1.0
 26
0.0
 36
0.0
 17
0.0
 27
1.0
 37
0.0
 76
0
330
21D
345
0
346
0
  0
LAYOUT
  5
423
102
{ACAD_REACTORS
330
1A
102
}
100
AcDbPlotSettings
  1

  2
none_device
  4
ISO_A4_(297.00_x_210.00_MM)
  6

 40
0.0
 41
0.0
 42
0.0
 43
0.0
 44
297.0
 45
210.0
 46
0.0
 47
0.0
 48
0.0
 49
0.0
140
0.0
141
0.0
142
1.0
143
1.0
 70
0
 72
1
 73
0
 74
0
  7

 75
0
147
1.0
148
0.0
149
0.0
100
AcDbLayout
  1
Layout1
 70
0
 71
1
 10
0.0
 20
0.0
 11
297.0
 21
210.0
 12
0.0
 22
0.0
 32
0.0
 14
0.0
 24
0.0
 34
0.0
 15
0.0
 25
0.0
 35
0.0
146
0.0
 13
0.0
 23
0.0
 33
0.0
 16
1.0
 26
0.0
 36
0.0
 17
0.0
 27
1.0
 37
0.0
 76
0
330
21E
345
0
346
0
  0
ENDSEC
  0
EOF
