  0
SECTION
  2
HEADER
  9
$ACADVER
  1
AC1021
  9
$DWGCODEPAGE
  3
ANSI_1252
  9
$EXTMAX
 10
297.0
 20
210.0
 30
0.0
  9
$EXTMIN
 10
0.0
 20
0.0
 30
0.0
  9
$LIMMIN
 10
0.0
 20
0.0
  9
$LIMMAX
 10
297.0
 20
210.0
  9
$VIEWCTR
 10
148.5
 20
105.0
  9
$VIEWSIZE
 40
210.0
  9
$CLAYER
  8
0
  9
$LTSCALE
 40
16.335
  9
$CELTYPE
  6
BYLAYER
  9
$DIMSCALE
 40
1.0
  9
$DIMASZ
 40
3.0
  9
$DIMEXO
 40
0.5
  9
$DIMDLI
 40
11.286
  9
$DIMEXE
 40
1.5
  9
$DIMCEN
 40
2.673
  9
$DIMLFAC
 40
1.0
  9
$DIMBLK
  1
_FILLED
  9
$DIMALT
 70
0
  9
$DIMALTF
 40
25.4
  9
$DIMTXT
 40
3.0
  9
$DIMTOL
 70
1
  9
$DIMLIM
 70
0
  9
$DIMTFAC
 40
1.0
  9
$DIMTP
 40
0.01
  9
$DIMTM
 40
0.01
  9
$DIMGAP
 40
0.625
  9
$DIMDSEP
 70
44
  9
$AUNITS
 70
0
  9
$PDMODE
 70
3
  9
$PDSIZE
 40
3.0
  9
$HANDSEED
  5
455
  9
$TILEMODE
 70
1
  9
$MEASUREMENT
 70
1
  9
$INSUNITS
 70
4
  0
ENDSEC
  0
SECTION
  2
CLASSES
  0
CLASS
  1
ACDBDICTIONARYWDFLT
  2
AcDbDictionaryWithDefault
  3
AutoCAD 2000
 90
0
 91
1
280
0
281
0
  0
CLASS
  1
ACDBPLACEHOLDER
  2
AcDbPlaceHolder
  3
AutoCAD 2000
 90
0
 91
1
280
0
281
0
  0
CLASS
  1
LAYOUT
  2
AcDbLayout
  3
AutoCAD 2000
 90
0
 91
0
280
0
281
0
  0
ENDSEC
  0
SECTION
  2
TABLES
  0
TABLE
  2
VPORT
  5
8
100
AcDbSymbolTable
 70
2
  0
VPORT
  5
1F4
100
AcDbSymbolTableRecord
100
AcDbViewportTableRecord
  2
*ACTIVE
 70
0
 10
0.0
 20
0.0
 11
1.0
 21
1.0
 12
148.5
 22
105.0
 13
0.0
 23
0.0
 14
1.0
 24
1.0
 15
0.0
 25
0.0
 16
0.0
 26
0.0
 36
1.0
 17
0.0
 27
0.0
 37
0.0
 40
210.0
 41
1.4142857143
 42
50.0
 43
0.0
 44
0.0
 50
0.0
 51
0.0
 71
0
 72
100
 73
1
 74
1
 75
0
 76
0
 77
0
 78
0
  0
ENDTAB
  0
TABLE
  2
LTYPE
  5
5
100
AcDbSymbolTable
 70
6
  0
LTYPE
  5
14
100
AcDbSymbolTableRecord
100
AcDbLinetypeTableRecord
  2
BYBLOCK
 70
0
  3

 72
65
 73
0
 40
0.0
  0
LTYPE
  5
15
100
AcDbSymbolTableRecord
100
AcDbLinetypeTableRecord
  2
BYLAYER
 70
0
  3

 72
65
 73
0
 40
0.0
  0
LTYPE
  5
16
100
AcDbSymbolTableRecord
100
AcDbLinetypeTableRecord
  2
CONTINUOUS
 70
64
  3
Solid line
 72
65
 73
0
 40
0.0
  0
LTYPE
  5
1F5
100
AcDbSymbolTableRecord
100
AcDbLinetypeTableRecord
  2
CENTER
 70
64
  3
____ _ ____ _ ____ _ ____ _ ____ _ ____ _ ____
 72
65
 73
4
 40
0.6
 49
0.375
 74
0
 49
-0.075
 74
0
 49
0.075
 74
0
 49
-0.075
 74
0
  0
LTYPE
  5
1F6
100
AcDbSymbolTableRecord
100
AcDbLinetypeTableRecord
  2
HIDDEN
 70
64
  3
- - - - - - - - - - - - - - - - - - - -
 72
65
 73
2
 40
0.2
 49
0.1
 74
0
 49
-0.1
 74
0
  0
LTYPE
  5
1F7
100
AcDbSymbolTableRecord
100
AcDbLinetypeTableRecord
  2
PHANTOM
 70
64
  3
_____ _ _ _____ _ _ _____ _ _ _____
 72
65
 73
6
 40
0.8
 49
0.45
 74
0
 49
-0.05
 74
0
 49
0.1
 74
0
 49
-0.05
 74
0
 49
0.1
 74
0
 49
-0.05
 74
0
  0
LTYPE
  5
1F8
100
AcDbSymbolTableRecord
100
AcDbLinetypeTableRecord
  2
DOT
 70
64
  3
. . . . . . . . . . . . . . . . . . . .
 72
65
 73
2
 40
0.2
 49
0.1
 74
0
 49
-0.1
 74
0
  0
LTYPE
  5
1F9
100
AcDbSymbolTableRecord
100
AcDbLinetypeTableRecord
  2
DASHED
 70
64
  3
- - - - - - - - - - - - - - - - - - - -
 72
65
 73
2
 40
0.2
 49
0.1
 74
0
 49
-0.1
 74
0
  0
ENDTAB
  0
TABLE
  2
LAYER
  5
2
100
AcDbSymbolTable
 70
36
  0
LAYER
  5
10
100
AcDbSymbolTableRecord
100
AcDbLayerTableRecord
  2
0
 70
0
 62
7
  6
CONTINUOUS
370
-3
390
F
  0
LAYER
  5
1FA
100
AcDbSymbolTableRecord
100
AcDbLayerTableRecord
  2
DEFAULT_1
 70
0
 62
7
  6
CENTER
370
-3
390
F
  0
LAYER
  5
1FB
100
AcDbSymbolTableRecord
100
AcDbLayerTableRecord
  2
DEFAULT_2
 70
0
 62
7
  6
HIDDEN
370
-3
390
F
  0
LAYER
  5
1FC
100
AcDbSymbolTableRecord
100
AcDbLayerTableRecord
  2
DEFAULT_3
 70
0
 62
7
  6
PHANTOM
370
-3
390
F
  0
LAYER
  5
1FD
100
AcDbSymbolTableRecord
100
AcDbLayerTableRecord
  2
ASSI
 70
0
 62
7
  6
CONTINUOUS
370
-3
390
F
  0
LAYER
  5
1FE
100
AcDbSymbolTableRecord
100
AcDbLayerTableRecord
  2
COORDINATE
 70
0
 62
7
  6
CONTINUOUS
370
-3
390
F
  0
LAYER
  5
1FF
100
AcDbSymbolTableRecord
100
AcDbLayerTableRecord
  2
COORD_ORIGINE
 70
0
 62
7
  6
CONTINUOUS
370
-3
390
F
  0
LAYER
  5
200
100
AcDbSymbolTableRecord
100
AcDbLayerTableRecord
  2
COPY_PUBLISH
 70
0
 62
7
  6
CONTINUOUS
370
-3
390
F
  0
LAYER
  5
201
100
AcDbSymbolTableRecord
100
AcDbLayerTableRecord
  2
COSMETIC
 70
0
 62
7
  6
CONTINUOUS
370
-3
390
F
  0
LAYER
  5
202
100
AcDbSymbolTableRecord
100
AcDbLayerTableRecord
  2
COSMETICI
 70
0
 62
7
  6
CONTINUOUS
370
-3
390
F
  0
LAYER
  5
203
100
AcDbSymbolTableRecord
100
AcDbLayerTableRecord
  2
CURVE
 70
0
 62
7
  6
CONTINUOUS
370
-3
390
F
  0
LAYER
  5
204
100
AcDbSymbolTableRecord
100
AcDbLayerTableRecord
  2
DRAFT
 70
0
 62
7
  6
CONTINUOUS
370
-3
390
F
  0
LAYER
  5
205
100
AcDbSymbolTableRecord
100
AcDbLayerTableRecord
  2
IMPORT_IGES
 70
0
 62
7
  6
CONTINUOUS
370
-3
390
F
  0
LAYER
  5
206
100
AcDbSymbolTableRecord
100
AcDbLayerTableRecord
  2
INTFCLR_2
 70
0
 62
7
  6
CONTINUOUS
370
-3
390
F
  0
LAYER
  5
207
100
AcDbSymbolTableRecord
100
AcDbLayerTableRecord
  2
INTF_1
 70
0
 62
7
  6
CONTINUOUS
370
-3
390
F
  0
LAYER
  5
208
100
AcDbSymbolTableRecord
100
AcDbLayerTableRecord
  2
INTF_21
 70
0
 62
7
  6
CONTINUOUS
370
-3
390
F
  0
LAYER
  5
209
100
AcDbSymbolTableRecord
100
AcDbLayerTableRecord
  2
INTF_7
 70
0
 62
7
  6
CONTINUOUS
370
-3
390
F
  0
LAYER
  5
20A
100
AcDbSymbolTableRecord
100
AcDbLayerTableRecord
  2
INTF_CYAN
 70
0
 62
7
  6
CONTINUOUS
370
-3
390
F
  0
LAYER
  5
20B
100
AcDbSymbolTableRecord
100
AcDbLayerTableRecord
  2
LINEA_CHIUSURA
 70
0
 62
7
  6
CONTINUOUS
370
-3
390
F
  0
LAYER
  5
20C
100
AcDbSymbolTableRecord
100
AcDbLayerTableRecord
  2
NOTE
 70
0
 62
7
  6
CONTINUOUS
370
-3
390
F
  0
LAYER
  5
20D
100
AcDbSymbolTableRecord
100
AcDbLayerTableRecord
  2
PIANI
 70
0
 62
7
  6
CONTINUOUS
370
-3
390
F
  0
LAYER
  5
20E
100
AcDbSymbolTableRecord
100
AcDbLayerTableRecord
  2
PIANI_ORIGINE
 70
0
 62
7
  6
CONTINUOUS
370
-3
390
F
  0
LAYER
  5
20F
100
AcDbSymbolTableRecord
100
AcDbLayerTableRecord
  2
PIANI_RIFERIMENTO
 70
0
 62
7
  6
CONTINUOUS
370
-3
390
F
  0
LAYER
  5
210
100
AcDbSymbolTableRecord
100
AcDbLayerTableRecord
  2
PUNTI
 70
0
 62
7
  6
CONTINUOUS
370
-3
390
F
  0
LAYER
  5
211
100
AcDbSymbolTableRecord
100
AcDbLayerTableRecord
  2
RACCORDO
 70
0
 62
7
  6
CONTINUOUS
370
-3
390
F
  0
LAYER
  5
212
100
AcDbSymbolTableRecord
100
AcDbLayerTableRecord
  2
RGB__255__255__255__
 70
0
 62
7
  6
CONTINUOUS
370
-3
390
F
  0
LAYER
  5
213
100
AcDbSymbolTableRecord
100
AcDbLayerTableRecord
  2
RGB____0____0____0__
 70
0
 62
7
  6
CONTINUOUS
370
-3
390
F
  0
LAYER
  5
214
100
AcDbSymbolTableRecord
100
AcDbLayerTableRecord
  2
SIMBOLI
 70
0
 62
7
  6
CONTINUOUS
370
-3
390
F
  0
LAYER
  5
215
100
AcDbSymbolTableRecord
100
AcDbLayerTableRecord
  2
SMUSSO
 70
0
 62
7
  6
CONTINUOUS
370
-3
390
F
  0
LAYER
  5
216
100
AcDbSymbolTableRecord
100
AcDbLayerTableRecord
  2
SNAPLINE
 70
0
 62
7
  6
CONTINUOUS
370
-3
390
F
  0
LAYER
  5
217
100
AcDbSymbolTableRecord
100
AcDbLayerTableRecord
  2
SUPERFICI
 70
0
 62
7
  6
CONTINUOUS
370
-3
390
F
  0
LAYER
  5
218
100
AcDbSymbolTableRecord
100
AcDbLayerTableRecord
  2
TRASH
 70
0
 62
7
  6
CONTINUOUS
370
-3
390
F
  0
LAYER
  5
219
100
AcDbSymbolTableRecord
100
AcDbLayerTableRecord
  2
XSEC_DATUMS
 70
0
 62
7
  6
CONTINUOUS
370
-3
390
F
  0
ENDTAB
  0
TABLE
  2
STYLE
  5
3
100
AcDbSymbolTable
 70
1
  0
STYLE
  5
11
100
AcDbSymbolTableRecord
100
AcDbTextStyleTableRecord
  2
STANDARD
 70
0
 40
0.0
 41
0.8
 50
0.0
 71
0
 42
0.2
  3
txt
  4

  0
STYLE
  5
21A
100
AcDbSymbolTableRecord
100
AcDbTextStyleTableRecord
  2
TEXTSTYLE_1
 70
0
 40
0.0
 41
0.8
 50
0.0
 71
0
 42
0.2
  3
gdt
  4

  0
ENDTAB
  0
TABLE
  2
VIEW
  5
6
100
AcDbSymbolTable
 70
0
  0
ENDTAB
  0
TABLE
  2
UCS
  5
7
100
AcDbSymbolTable
 70
0
  0
ENDTAB
  0
TABLE
  2
APPID
  5
9
100
AcDbSymbolTable
 70
1
  0
APPID
  5
21B
100
AcDbSymbolTableRecord
100
AcDbRegAppTableRecord
  2
ACAD
 70
0
  0
ENDTAB
  0
TABLE
  2
BLOCK_RECORD
  5
1
100
AcDbSymbolTable
 70
0
  0
BLOCK_RECORD
  5
21C
100
AcDbSymbolTableRecord
100
AcDbBlockTableRecord
  2
*Model_Space
  0
BLOCK_RECORD
  5
21D
100
AcDbSymbolTableRecord
100
AcDbBlockTableRecord
  2
*Paper_Space
  0
BLOCK_RECORD
  5
21E
100
AcDbSymbolTableRecord
100
AcDbBlockTableRecord
  2
_FILLED
  0
ENDTAB
  0
TABLE
  2
DIMSTYLE
  5
A
100
AcDbSymbolTable
 70
1
100
AcDbDimStyleTable
 71
0
  0
DIMSTYLE
105
21F
100
AcDbSymbolTableRecord
100
AcDbDimStyleTableRecord
  2
STANDARD
 70
0
  3

  4

 40
1.0
 41
3.0
 42
0.5
 43
0.38
 44
1.5
 45
0.0
 46
0.0
 47
0.01
 48
0.01
140
3.0
141
0.09
142
0.0
143
25.4
144
1.0
145
0.0
146
1.0
147
0.625
 71
1.0
 72
0.0
 73
0
 74
0
 75
0
 76
0
 77
1
 78
8
 79
2
170
0
171
1
172
0
173
0
174
0
175
0
176
0
177
0
178
0
270
2
179
2
271
2
272
2
273
2
274
2
275
0
280
0
281
0
282
0
283
1
284
8
285
0
286
0
287
3
288
0
340
11
278
44
341
21E
342
21E
343
21E
344
21E
  0
ENDTAB
  0
ENDSEC
  0
SECTION
  2
BLOCKS
  0
BLOCK
  5
20
100
AcDbEntity
  8
0
100
AcDbBlockBegin
  2
*Model_Space
 70
0
 10
0.0
 20
0.0
 30
0.0
  3
*Model_Space
  1

  0
ENDBLK
  5
21
100
AcDbEntity
  8
0
100
AcDbBlockEnd
  0
BLOCK
  5
1C
100
AcDbEntity
  8
0
100
AcDbBlockBegin
  2
*Paper_Space
 70
0
 10
0.0
 20
0.0
 30
0.0
  3
*Paper_Space
  1

  0
ENDBLK
  5
1D
100
AcDbEntity
  8
0
100
AcDbBlockEnd
  0
BLOCK
  5
220
100
AcDbEntity
  8
0
100
AcDbBlockBegin
  2
_FILLED
 70
64
 10
0.0
 20
0.0
  3
_FILLED
  1

  0
SOLID
  5
221
100
AcDbEntity
  8
0
  6
BYBLOCK
 62
0
100
AcDbTrace
 10
0.0
 20
0.0
 11
-1.0
 21
0.3166666667
 12
-1.0
 22
-0.3166666667
 13
-1.0
 23
-0.3166666667
  0
ENDBLK
  5
222
100
AcDbEntity
  8
0
  6
BYBLOCK
 62
0
100
AcDbBlockEnd
  0
ENDSEC
  0
SECTION
  2
ENTITIES
  0
LINE
  5
223
100
AcDbEntity
  8
SMUSSO
100
AcDbLine
 62
7
  6
CONTINUOUS
 10
93.1524696255
 20
176.1464716469
 11
96.9402834127
 21
178.6500385383
  0
LINE
  5
224
100
AcDbEntity
  8
ASSI
100
AcDbLine
 62
7
  6
CONTINUOUS
 10
93.1524696255
 20
176.1464716469
 11
96.9402834127
 21
178.6500385383
  0
LINE
  5
225
100
AcDbEntity
  8
SMUSSO
100
AcDbLine
 62
7
  6
CONTINUOUS
 10
93.8600068948
 20
176.5549158408
 11
97.647820682
 21
179.0584827321
  0
LINE
  5
226
100
AcDbEntity
  8
ASSI
100
AcDbLine
 62
7
  6
CONTINUOUS
 10
93.8600068948
 20
176.5549158408
 11
97.647820682
 21
179.0584827321
  0
LINE
  5
227
100
AcDbEntity
  8
SMUSSO
100
AcDbLine
 62
7
  6
CONTINUOUS
 10
93.8392432807
 20
176.5420764898
 11
93.8600068948
 21
176.5549158408
  0
LINE
  5
228
100
AcDbEntity
  8
ASSI
100
AcDbLine
 62
7
  6
CONTINUOUS
 10
93.8392432807
 20
176.5420764898
 11
93.8600068948
 21
176.5549158408
  0
LINE
  5
229
100
AcDbEntity
  8
SMUSSO
100
AcDbLine
 62
7
  6
CONTINUOUS
 10
96.9402834127
 20
178.6500385383
 11
97.647820682
 21
179.0584827321
  0
LINE
  5
22A
100
AcDbEntity
  8
ASSI
100
AcDbLine
 62
7
  6
CONTINUOUS
 10
96.9402834127
 20
178.6500385383
 11
97.647820682
 21
179.0584827321
  0
LINE
  5
22B
100
AcDbEntity
  8
SMUSSO
100
AcDbLine
 62
7
  6
CONTINUOUS
 10
93.8392432807
 20
176.5420764898
 11
93.152844933
 21
176.1458352854
  0
LINE
  5
22C
100
AcDbEntity
  8
ASSI
100
AcDbLine
 62
7
  6
CONTINUOUS
 10
93.8392432807
 20
176.5420764898
 11
93.152844933
 21
176.1458352854
  0
LINE
  5
22D
100
AcDbEntity
  8
SMUSSO
100
AcDbLine
 62
7
  6
CONTINUOUS
 10
93.4565539808
 20
175.1268480514
 11
93.1775780467
 21
174.9658019758
  0
LINE
  5
22E
100
AcDbEntity
  8
ASSI
100
AcDbLine
 62
7
  6
CONTINUOUS
 10
93.4565539808
 20
175.1268480514
 11
93.1775780467
 21
174.9658019758
  0
LINE
  5
22F
100
AcDbEntity
  8
SMUSSO
100
AcDbLine
 62
7
  6
CONTINUOUS
 10
93.4565539808
 20
175.1268480514
 11
93.8392432807
 21
176.5420764898
  0
LINE
  5
230
100
AcDbEntity
  8
ASSI
100
AcDbLine
 62
7
  6
CONTINUOUS
 10
93.4565539808
 20
175.1268480514
 11
93.8392432807
 21
176.5420764898
  0
LINE
  5
231
100
AcDbEntity
  8
SMUSSO
100
AcDbLine
 62
7
  6
CONTINUOUS
 10
93.1775780467
 20
104.1341683765
 11
93.152844933
 21
104.590403954
  0
LINE
  5
232
100
AcDbEntity
  8
ASSI
100
AcDbLine
 62
7
  6
CONTINUOUS
 10
93.1775780467
 20
104.1341683765
 11
93.152844933
 21
104.590403954
  0
LINE
  5
233
100
AcDbEntity
  8
SMUSSO
100
AcDbLine
 62
7
  6
CONTINUOUS
 10
93.1775780467
 20
174.9658019758
 11
93.152844933
 21
176.1458352854
  0
LINE
  5
234
100
AcDbEntity
  8
ASSI
100
AcDbLine
 62
7
  6
CONTINUOUS
 10
93.1775780467
 20
174.9658019758
 11
93.152844933
 21
176.1458352854
  0
LINE
  5
235
100
AcDbEntity
  8
SMUSSO
100
AcDbLine
 62
7
  6
CONTINUOUS
 10
93.152844933
 20
104.590403954
 11
93.1524696255
 21
104.6145968147
  0
LINE
  5
236
100
AcDbEntity
  8
ASSI
100
AcDbLine
 62
7
  6
CONTINUOUS
 10
93.152844933
 20
104.590403954
 11
93.1524696255
 21
104.6145968147
  0
LINE
  5
237
100
AcDbEntity
  8
SMUSSO
100
AcDbLine
 62
7
  6
CONTINUOUS
 10
93.1524696255
 20
176.1464716469
 11
93.1524696255
 21
104.6145968147
  0
LINE
  5
238
100
AcDbEntity
  8
ASSI
100
AcDbLine
 62
7
  6
CONTINUOUS
 10
93.1524696255
 20
176.1464716469
 11
93.1524696255
 21
104.6145968147
  0
LINE
  5
239
100
AcDbEntity
  8
SMUSSO
100
AcDbLine
 62
7
  6
CONTINUOUS
 10
93.1775780467
 20
174.9658019758
 11
93.1775780467
 21
104.1341683765
  0
LINE
  5
23A
100
AcDbEntity
  8
ASSI
100
AcDbLine
 62
7
  6
CONTINUOUS
 10
93.1775780467
 20
174.9658019758
 11
93.1775780467
 21
104.1341683765
  0
LINE
  5
23B
100
AcDbEntity
  8
0
100
AcDbLine
 62
7
  6
CONTINUOUS
 10
108.9960208777
 20
148.9544305568
 11
108.9962765039
 21
148.9545585051
  0
LINE
  5
23C
100
AcDbEntity
  8
ASSI
100
AcDbLine
 62
7
  6
CONTINUOUS
 10
108.9960208777
 20
148.9544305568
 11
108.9962765039
 21
148.9545585051
  0
LINE
  5
23D
100
AcDbEntity
  8
0
100
AcDbLine
 62
250
  6
CONTINUOUS
 10
108.8860656689
 20
148.7220689936
 11
109.2073146995
 21
148.8825204667
  0
LINE
  5
23E
100
AcDbEntity
  8
ASSI
100
AcDbLine
 62
250
  6
CONTINUOUS
 10
108.8860656689
 20
148.7220689936
 11
109.2073146995
 21
148.8825204667
  0
LWPOLYLINE
  5
23F
100
AcDbEntity
  8
0
100
AcDbPolyline
 62
7
  6
CONTINUOUS
 90
13
 70
0
 10
108.9960065592
 20
148.9544227548
 10
108.9982241292
 20
148.9554577529
 10
109.0032347789
 20
148.957202308
 10
109.009991594
 20
148.9586428139
 10
109.0187073108
 20
148.9594711654
 10
109.0294897433
 20
148.9593757351
 10
109.0423435526
 20
148.9580494542
 10
109.0572631763
 20
148.9552040595
 10
109.0739347387
 20
148.9506515544
 10
109.0918143273
 20
148.9443781846
 10
109.1105697076
 20
148.9364201304
 10
109.1300543213
 20
148.9267841618
 10
109.1442812536
 20
148.918915221
  0
LWPOLYLINE
  5
240
100
AcDbEntity
  8
ASSI
100
AcDbPolyline
 62
7
  6
CONTINUOUS
 90
13
 70
0
 10
108.9960065592
 20
148.9544227548
 10
108.9982241292
 20
148.9554577529
 10
109.0032347789
 20
148.957202308
 10
109.009991594
 20
148.9586428139
 10
109.0187073108
 20
148.9594711654
 10
109.0294897433
 20
148.9593757351
 10
109.0423435526
 20
148.9580494542
 10
109.0572631763
 20
148.9552040595
 10
109.0739347387
 20
148.9506515544
 10
109.0918143273
 20
148.9443781846
 10
109.1105697076
 20
148.9364201304
 10
109.1300543213
 20
148.9267841618
 10
109.1442812536
 20
148.918915221
  0
LWPOLYLINE
  5
241
100
AcDbEntity
  8
0
100
AcDbPolyline
 62
250
  6
CONTINUOUS
 90
8
 70
0
 10
111.1183112487
 20
141.9791364278
 10
111.1130051837
 20
141.9652713646
 10
111.1055364937
 20
141.9517637465
 10
111.0959607657
 20
141.9387141062
 10
111.0843492687
 20
141.9262195681
 10
111.0707884234
 20
141.9143731252
 10
111.0553791585
 20
141.9032629466
 10
111.0382361603
 20
141.8929717218
  0
LINE
  5
242
100
AcDbEntity
  8
0
100
AcDbLine
 62
250
  6
CONTINUOUS
 10
110.870473702
 20
134.6849869919
 11
110.8768705619
 21
134.6972485241
  0
LWPOLYLINE
  5
243
100
AcDbEntity
  8
0
100
AcDbPolyline
 62
7
  6
CONTINUOUS
 90
17
 70
0
 10
110.9065132191
 20
134.7381781752
 10
110.9080799958
 20
134.7411590751
 10
110.9148098154
 20
134.7551500807
 10
110.9210854908
 20
134.770071786
 10
110.9268862813
 20
134.7858518755
 10
110.9322409365
 20
134.8025357389
 10
110.9371788141
 20
134.8200199618
 10
110.9416958402
 20
134.8382689085
 10
110.9457927037
 20
134.8572978023
 10
110.9494914519
 20
134.8770835388
 10
110.9527831345
 20
134.8976034869
 10
110.9556595074
 20
134.9188631223
 10
110.95812687
 20
134.9408842544
 10
110.9601686205
 20
134.9636493601
 10
110.9617690224
 20
134.9871586937
 10
110.9629175782
 20
135.0114617857
 10
110.9635891135
 20
135.0365407672
  0
LWPOLYLINE
  5
244
100
AcDbEntity
  8
0
100
AcDbPolyline
 62
250
  6
CONTINUOUS
 90
5
 70
0
 10
111.1057354853
 20
141.9630402561
 10
111.0961450815
 20
141.9491607026
 10
111.0845184892
 20
141.9358100641
 10
111.0709422399
 20
141.9230877032
 10
111.0555173751
 20
141.9110883062
  0
LINE
  5
245
100
AcDbEntity
  8
0
100
AcDbLine
 62
250
  6
CONTINUOUS
 10
111.0555173751
 20
141.9110883062
 11
111.0383586947
 21
141.899901179
  0
LINE
  5
246
100
AcDbEntity
  8
SMUSSO
100
AcDbLine
 62
7
  6
CONTINUOUS
 10
204.0820001882
 20
40.0993449908
 11
205.4989593191
 21
39.723165535
  0
LINE
  5
247
100
AcDbEntity
  8
ASSI
100
AcDbLine
 62
7
  6
CONTINUOUS
 10
204.0820001882
 20
40.0993449908
 11
205.4989593191
 21
39.723165535
  0
LINE
  5
248
100
AcDbEntity
  8
SMUSSO
100
AcDbLine
 62
7
  6
CONTINUOUS
 10
93.1775780467
 20
104.1341683765
 11
93.4565539808
 21
103.650967885
  0
LINE
  5
249
100
AcDbEntity
  8
ASSI
100
AcDbLine
 62
7
  6
CONTINUOUS
 10
93.1775780467
 20
104.1341683765
 11
93.4565539808
 21
103.650967885
  0
LINE
  5
24A
100
AcDbEntity
  8
0
100
AcDbLine
 62
250
  6
CONTINUOUS
 10
108.6082446407
 20
112.5561543858
 11
108.6082446407
 21
148.7248689672
  0
LINE
  5
24B
100
AcDbEntity
  8
ASSI
100
AcDbLine
 62
250
  6
CONTINUOUS
 10
108.6082446407
 20
112.5561543858
 11
108.6082446407
 21
148.7248689672
  0
LINE
  5
24C
100
AcDbEntity
  8
0
100
AcDbLine
 62
250
  6
CONTINUOUS
 10
108.8860656689
 20
112.5533544122
 11
108.8860656689
 21
148.7220689936
  0
LINE
  5
24D
100
AcDbEntity
  8
ASSI
100
AcDbLine
 62
250
  6
CONTINUOUS
 10
108.8860656689
 20
112.5533544122
 11
108.8860656689
 21
148.7220689936
  0
LWPOLYLINE
  5
24E
100
AcDbEntity
  8
0
100
AcDbPolyline
 62
250
  6
CONTINUOUS
 90
14
 70
0
 10
108.8860656689
 20
148.7220689936
 10
108.8864818668
 20
148.7479633866
 10
108.8884261936
 20
148.7729850042
 10
108.8919004431
 20
148.7970148878
 10
108.8969025181
 20
148.8199588989
 10
108.9034219263
 20
148.8416785793
 10
108.9114246226
 20
148.8620067873
 10
108.9208695246
 20
148.8808438607
 10
108.9317158113
 20
148.8981179824
 10
108.9439020199
 20
148.9137343239
 10
108.9573645112
 20
148.9276267541
 10
108.9720428709
 20
148.9397485389
 10
108.9878675276
 20
148.9500538879
 10
108.9960208777
 20
148.9544305568
  0
LWPOLYLINE
  5
24F
100
AcDbEntity
  8
ASSI
100
AcDbPolyline
 62
250
  6
CONTINUOUS
 90
14
 70
0
 10
108.8860656689
 20
148.7220689936
 10
108.8864818668
 20
148.7479633866
 10
108.8884261936
 20
148.7729850042
 10
108.8919004431
 20
148.7970148878
 10
108.8969025181
 20
148.8199588989
 10
108.9034219263
 20
148.8416785793
 10
108.9114246226
 20
148.8620067873
 10
108.9208695246
 20
148.8808438607
 10
108.9317158113
 20
148.8981179824
 10
108.9439020199
 20
148.9137343239
 10
108.9573645112
 20
148.9276267541
 10
108.9720428709
 20
148.9397485389
 10
108.9878675276
 20
148.9500538879
 10
108.9960208777
 20
148.9544305568
  0
LWPOLYLINE
  5
250
100
AcDbEntity
  8
0
100
AcDbPolyline
 62
250
  6
CONTINUOUS
 90
25
 70
0
 10
108.6082446407
 20
148.7248689672
 10
108.6092895939
 20
148.7616176391
 10
108.6124293127
 20
148.7968005799
 10
108.6176637971
 20
148.8304177897
 10
108.6250330633
 20
148.8626418369
 10
108.6344970951
 20
148.8933001531
 10
108.6459358438
 20
148.9218750325
 10
108.6593861139
 20
148.948305483
 10
108.6748111009
 20
148.9726524968
 10
108.6919803424
 20
148.9945813454
 10
108.7109128518
 20
149.0140432676
 10
108.7315896158
 20
149.0310870248
 10
108.7537231318
 20
149.0455241716
 10
108.7773559535
 20
149.057316404
 10
108.8024455273
 20
149.0665020261
 10
108.8285766904
 20
149.0730075054
 10
108.8556562103
 20
149.076808224
 10
108.8837773196
 20
149.0779287997
 10
108.9128045535
 20
149.0763695537
 10
108.942796749
 20
149.0721419479
 10
108.9736950691
 20
149.0652345205
 10
109.0051875381
 20
149.0556132067
 10
109.037170164
 20
149.0432666516
 10
109.0697469387
 20
149.0282062102
 10
109.1029178623
 20
149.0104318823
  0
LWPOLYLINE
  5
251
100
AcDbEntity
  8
ASSI
100
AcDbPolyline
 62
250
  6
CONTINUOUS
 90
25
 70
0
 10
108.6082446407
 20
148.7248689672
 10
108.6092895939
 20
148.7616176391
 10
108.6124293127
 20
148.7968005799
 10
108.6176637971
 20
148.8304177897
 10
108.6250330633
 20
148.8626418369
 10
108.6344970951
 20
148.8933001531
 10
108.6459358438
 20
148.9218750325
 10
108.6593861139
 20
148.948305483
 10
108.6748111009
 20
148.9726524968
 10
108.6919803424
 20
148.9945813454
 10
108.7109128518
 20
149.0140432676
 10
108.7315896158
 20
149.0310870248
 10
108.7537231318
 20
149.0455241716
 10
108.7773559535
 20
149.057316404
 10
108.8024455273
 20
149.0665020261
 10
108.8285766904
 20
149.0730075054
 10
108.8556562103
 20
149.076808224
 10
108.8837773196
 20
149.0779287997
 10
108.9128045535
 20
149.0763695537
 10
108.942796749
 20
149.0721419479
 10
108.9736950691
 20
149.0652345205
 10
109.0051875381
 20
149.0556132067
 10
109.037170164
 20
149.0432666516
 10
109.0697469387
 20
149.0282062102
 10
109.1029178623
 20
149.0104318823
  0
LWPOLYLINE
  5
252
100
AcDbEntity
  8
0
100
AcDbPolyline
 62
250
  6
CONTINUOUS
 90
16
 70
0
 10
109.1029178623
 20
111.6993552337
 10
109.1036585867
 20
111.7164740892
 10
109.1058729931
 20
111.7342689408
 10
109.1095378734
 20
111.7525533765
 10
109.1146148252
 20
111.7711358561
 10
109.1210506558
 20
111.7898217235
 10
109.1287779407
 20
111.8084152456
 10
109.1377157261
 20
111.8267216524
 10
109.1477703803
 20
111.8445491862
 10
109.1588365786
 20
111.8617111148
 10
109.1707983967
 20
111.8780276696
 10
109.1835305306
 20
111.8933279409
 10
109.1968996175
 20
111.907451674
 10
109.2107656184
 20
111.9202509307
 10
109.2249832838
 20
111.9315916412
 10
109.2394036843
 20
111.9413550179
  0
LWPOLYLINE
  5
253
100
AcDbEntity
  8
ASSI
100
AcDbPolyline
 62
250
  6
CONTINUOUS
 90
16
 70
0
 10
109.1029178623
 20
111.6993552337
 10
109.1036585867
 20
111.7164740892
 10
109.1058729931
 20
111.7342689408
 10
109.1095378734
 20
111.7525533765
 10
109.1146148252
 20
111.7711358561
 10
109.1210506558
 20
111.7898217235
 10
109.1287779407
 20
111.8084152456
 10
109.1377157261
 20
111.8267216524
 10
109.1477703803
 20
111.8445491862
 10
109.1588365786
 20
111.8617111148
 10
109.1707983967
 20
111.8780276696
 10
109.1835305306
 20
111.8933279409
 10
109.1968996175
 20
111.907451674
 10
109.2107656184
 20
111.9202509307
 10
109.2249832838
 20
111.9315916412
 10
109.2394036843
 20
111.9413550179
  0
LWPOLYLINE
  5
254
100
AcDbEntity
  8
0
100
AcDbPolyline
 62
250
  6
CONTINUOUS
 90
5
 70
0
 10
111.1225567546
 20
142.0202272901
 10
111.1216546402
 20
142.0068043687
 10
111.1185379057
 20
141.9919697434
 10
111.1132183237
 20
141.9773454252
 10
111.1057354853
 20
141.9630402561
  0
LWPOLYLINE
  5
255
100
AcDbEntity
  8
0
100
AcDbPolyline
 62
250
  6
CONTINUOUS
 90
3
 70
0
 10
111.1222505178
 20
142.0028008006
 10
111.1214151975
 20
141.9932557427
 10
111.1183112487
 20
141.9791364278
  0
LWPOLYLINE
  5
256
100
AcDbEntity
  8
0
100
AcDbPolyline
 62
250
  6
CONTINUOUS
 90
9
 70
0
 10
110.879389286
 20
129.6631042165
 10
110.8793099576
 20
129.6622910724
 10
110.8790228254
 20
129.6609713986
 10
110.8785020538
 20
129.6591313309
 10
110.8777003256
 20
129.6567401314
 10
110.876600577
 20
129.6538394007
 10
110.8752266389
 20
129.6504212725
 10
110.8735876872
 20
129.6464554856
 10
110.8716783961
 20
129.6419816625
  0
LWPOLYLINE
  5
257
100
AcDbEntity
  8
0
100
AcDbPolyline
 62
250
  6
CONTINUOUS
 90
6
 70
0
 10
110.8315113479
 20
134.5798280478
 10
110.8351473986
 20
134.5935551508
 10
110.8391450352
 20
134.6071388745
 10
110.8434997991
 20
134.6205675018
 10
110.8482046892
 20
134.6338291112
 10
110.8532574741
 20
134.6469126956
  0
LWPOLYLINE
  5
258
100
AcDbEntity
  8
0
100
AcDbPolyline
 62
250
  6
CONTINUOUS
 90
10
 70
0
 10
110.8317254391
 20
129.5453975701
 10
110.8283010036
 20
129.5357040019
 10
110.8247143535
 20
129.5258835634
 10
110.8209621197
 20
129.5159395661
 10
110.8170283411
 20
129.5058386829
 10
110.8129219037
 20
129.4956215884
 10
110.808680166
 20
129.4854013152
 10
110.804317325
 20
129.4752163918
 10
110.7998208068
 20
129.4650324849
 10
110.7951912294
 20
129.4548518843
  0
LINE
  5
259
100
AcDbEntity
  8
0
100
AcDbLine
 62
250
  6
CONTINUOUS
 10
111.1185379057
 20
122.5546605347
 11
111.1132183238
 21
122.5400362166
  0
LWPOLYLINE
  5
25A
100
AcDbEntity
  8
0
100
AcDbPolyline
 62
250
  6
CONTINUOUS
 90
4
 70
0
 10
110.8532574741
 20
134.6469126956
 10
110.8586580822
 20
134.6598077555
 10
110.8644001583
 20
134.6725030447
 10
110.870473702
 20
134.6849869919
  0
LWPOLYLINE
  5
25B
100
AcDbEntity
  8
0
100
AcDbPolyline
 62
250
  6
CONTINUOUS
 90
8
 70
0
 10
110.8560579188
 20
129.6065672083
 10
110.8528535916
 20
129.5991638682
 10
110.8495260599
 20
129.5912865496
 10
110.8460876
 20
129.5829555206
 10
110.8425708296
 20
129.5742000711
 10
110.8389980345
 20
129.5650283502
 10
110.8353781175
 20
129.5554282769
 10
110.8317254391
 20
129.5453975701
  0
LINE
  5
25C
100
AcDbEntity
  8
0
100
AcDbLine
 62
250
  6
CONTINUOUS
 10
110.8716783961
 20
129.6419816625
 11
110.8672242257
 21
129.6318265822
  0
LINE
  5
25D
100
AcDbEntity
  8
0
100
AcDbLine
 62
250
  6
CONTINUOUS
 10
110.8672242257
 20
129.6318265822
 11
110.8560579188
 21
129.6065672083
  0
LWPOLYLINE
  5
25E
100
AcDbEntity
  8
0
100
AcDbPolyline
 62
250
  6
CONTINUOUS
 90
7
 70
0
 10
111.1132183238
 20
122.5400362166
 10
111.1057354854
 20
122.5257310476
 10
111.0961450817
 20
122.5118514941
 10
111.0845184895
 20
122.4985008556
 10
111.0709422402
 20
122.4857784946
 10
111.0555173753
 20
122.4737790975
 10
111.0383586947
 20
122.4625919702
  0
LWPOLYLINE
  5
25F
100
AcDbEntity
  8
0
100
AcDbPolyline
 62
7
  6
CONTINUOUS
 90
5
 70
0
 10
110.8772250237
 20
134.6976661025
 10
110.8855142722
 20
134.7066661568
 10
110.8934233769
 20
134.7169070167
 10
110.9009430628
 20
134.7283784248
 10
110.9065132191
 20
134.7381781752
  0
LINE
  5
260
100
AcDbEntity
  8
0
100
AcDbLine
 62
7
  6
CONTINUOUS
 10
110.7951912294
 20
134.6168605279
 11
110.8583538306
 21
134.6791075927
  0
LINE
  5
261
100
AcDbEntity
  8
0
100
AcDbLine
 62
7
  6
CONTINUOUS
 10
110.8583538306
 20
134.6791075927
 11
110.8755659098
 21
134.6959655638
  0
LWPOLYLINE
  5
262
100
AcDbEntity
  8
0
100
AcDbPolyline
 62
250
  6
CONTINUOUS
 90
25
 70
0
 10
110.1273864791
 20
113.2700908214
 10
110.1288719635
 20
113.2438050944
 10
110.1317660214
 20
113.2166781452
 10
110.1360738081
 20
113.1888215051
 10
110.1418059898
 20
113.1603197003
 10
110.1489461891
 20
113.1313228812
 10
110.1574333006
 20
113.1020498105
 10
110.1672195764
 20
113.0726490492
 10
110.178271425
 20
113.0432249333
 10
110.1905196023
 20
113.0139322034
 10
110.2038865497
 20
112.9849301205
 10
110.2183261184
 20
112.9563008248
 10
110.2338143593
 20
112.9280827326
 10
110.2502626371
 20
112.9004392951
 10
110.2676275568
 20
112.8734387989
 10
110.2859790066
 20
112.8469956339
 10
110.3053303026
 20
112.8211540792
 10
110.3255551371
 20
112.7961457178
 10
110.3465183576
 20
112.7721756535
 10
110.3681735325
 20
112.7493206234
 10
110.390392791
 20
112.7277544179
 10
110.4128882674
 20
112.7077721297
 10
110.4354839368
 20
112.689495725
 10
110.4581321634
 20
112.6729192406
 10
110.4807244945
 20
112.6580914271
  0
LWPOLYLINE
  5
263
100
AcDbEntity
  8
ASSI
100
AcDbPolyline
 62
250
  6
CONTINUOUS
 90
25
 70
0
 10
110.1273864791
 20
113.2700908214
 10
110.1288719635
 20
113.2438050944
 10
110.1317660214
 20
113.2166781452
 10
110.1360738081
 20
113.1888215051
 10
110.1418059898
 20
113.1603197003
 10
110.1489461891
 20
113.1313228812
 10
110.1574333006
 20
113.1020498105
 10
110.1672195764
 20
113.0726490492
 10
110.178271425
 20
113.0432249333
 10
110.1905196023
 20
113.0139322034
 10
110.2038865497
 20
112.9849301205
 10
110.2183261184
 20
112.9563008248
 10
110.2338143593
 20
112.9280827326
 10
110.2502626371
 20
112.9004392951
 10
110.2676275568
 20
112.8734387989
 10
110.2859790066
 20
112.8469956339
 10
110.3053303026
 20
112.8211540792
 10
110.3255551371
 20
112.7961457178
 10
110.3465183576
 20
112.7721756535
 10
110.3681735325
 20
112.7493206234
 10
110.390392791
 20
112.7277544179
 10
110.4128882674
 20
112.7077721297
 10
110.4354839368
 20
112.689495725
 10
110.4581321634
 20
112.6729192406
 10
110.4807244945
 20
112.6580914271
  0
LWPOLYLINE
  5
264
100
AcDbEntity
  8
0
100
AcDbPolyline
 62
250
  6
CONTINUOUS
 90
9
 70
0
 10
109.1029178623
 20
149.0104318823
 10
109.1036585635
 20
148.994168644
 10
109.1058729084
 20
148.978931108
 10
109.1095377015
 20
148.9648788889
 10
109.1146145536
 20
148.9521591851
 10
109.1210502844
 20
148.9409052368
 10
109.1287774787
 20
148.9312349302
 10
109.1377151936
 20
148.9232495627
 10
109.1442812536
 20
148.918915221
  0
LWPOLYLINE
  5
265
100
AcDbEntity
  8
ASSI
100
AcDbPolyline
 62
250
  6
CONTINUOUS
 90
9
 70
0
 10
109.1029178623
 20
149.0104318823
 10
109.1036585635
 20
148.994168644
 10
109.1058729084
 20
148.978931108
 10
109.1095377015
 20
148.9648788889
 10
109.1146145536
 20
148.9521591851
 10
109.1210502844
 20
148.9409052368
 10
109.1287774787
 20
148.9312349302
 10
109.1377151936
 20
148.9232495627
 10
109.1442812536
 20
148.918915221
  0
LWPOLYLINE
  5
266
100
AcDbEntity
  8
0
100
AcDbPolyline
 62
250
  6
CONTINUOUS
 90
6
 70
0
 10
111.0383586947
 20
122.4652864887
 10
110.9997074614
 20
123.5753528262
 10
110.9658087533
 20
124.7085285
 10
110.9366625703
 20
125.86481351
 10
110.9122689126
 20
127.0442078562
 10
110.89262778
 20
128.2467115386
  0
LWPOLYLINE
  5
267
100
AcDbEntity
  8
0
100
AcDbPolyline
 62
7
  6
CONTINUOUS
 90
7
 70
0
 10
111.0969215354
 20
123.3213367664
 10
111.0716189815
 20
124.1078501017
 10
111.0486848942
 20
124.8958827172
 10
111.0281196005
 20
125.6854253002
 10
111.0099234327
 20
126.4764683529
 10
110.9940967223
 20
127.2690021897
 10
110.9806397008
 20
128.0630172387
  0
LWPOLYLINE
  5
268
100
AcDbEntity
  8
0
100
AcDbPolyline
 62
250
  6
CONTINUOUS
 90
6
 70
0
 10
111.1222343609
 20
122.6006561051
 10
111.1222941562
 20
122.5983464382
 10
111.1214154056
 20
122.5827596438
 10
111.1183114351
 20
122.5672245128
 10
111.1130053467
 20
122.5518566684
 10
111.1055366278
 20
122.5367704815
  0
LWPOLYLINE
  5
269
100
AcDbEntity
  8
0
100
AcDbPolyline
 62
7
  6
CONTINUOUS
 90
11
 70
0
 10
110.9637534162
 20
129.3633442634
 10
110.9636183563
 20
129.3692388798
 10
110.9629917578
 20
129.379810657
 10
110.9618955809
 20
129.3898933372
 10
110.960352875
 20
129.3994931898
 10
110.9583731089
 20
129.4085812081
 10
110.9559706067
 20
129.4171749523
 10
110.9531603765
 20
129.4252748038
 10
110.9499356018
 20
129.4328268314
 10
110.9463034793
 20
129.439854212
 10
110.9441901112
 20
129.4434138815
  0
LINE
  5
26A
100
AcDbEntity
  8
0
100
AcDbLine
 62
250
  6
CONTINUOUS
 10
110.89262778
 20
128.2467115386
 11
110.8777391726
 21
129.4723245573
  0
LINE
  5
26B
100
AcDbEntity
  8
0
100
AcDbLine
 62
7
  6
CONTINUOUS
 10
110.9806397008
 20
128.0630172387
 11
110.9637534051
 21
129.3633453241
  0
LWPOLYLINE
  5
26C
100
AcDbEntity
  8
0
100
AcDbPolyline
 62
7
  6
CONTINUOUS
 90
4
 70
0
 10
111.1225538633
 20
122.5846245789
 10
111.1225002535
 20
122.5903649956
 10
111.1223794437
 20
122.5960859922
 10
111.0969215354
 20
123.3213367664
  0
LINE
  5
26D
100
AcDbEntity
  8
0
100
AcDbLine
 62
7
  6
CONTINUOUS
 10
109.9156928475
 20
148.4735118021
 11
109.9156928475
 21
113.1478443638
  0
LINE
  5
26E
100
AcDbEntity
  8
ASSI
100
AcDbLine
 62
7
  6
CONTINUOUS
 10
109.9156928475
 20
148.4735118021
 11
109.9156928475
 21
113.1478443638
  0
LINE
  5
26F
100
AcDbEntity
  8
0
100
AcDbLine
 62
250
  6
CONTINUOUS
 10
110.1273864791
 20
148.3512825523
 11
110.1273864791
 21
113.2700908214
  0
LINE
  5
270
100
AcDbEntity
  8
ASSI
100
AcDbLine
 62
250
  6
CONTINUOUS
 10
110.1273864791
 20
148.3512825523
 11
110.1273864791
 21
113.2700908214
  0
LINE
  5
271
100
AcDbEntity
  8
0
100
AcDbLine
 62
7
  6
CONTINUOUS
 10
110.2617096283
 20
148.2737260495
 11
110.2617096283
 21
113.4669794742
  0
LINE
  5
272
100
AcDbEntity
  8
ASSI
100
AcDbLine
 62
7
  6
CONTINUOUS
 10
110.2617096283
 20
148.2737260495
 11
110.2617096283
 21
113.4669794742
  0
LINE
  5
273
100
AcDbEntity
  8
0
100
AcDbLine
 62
7
  6
CONTINUOUS
 10
110.3399569162
 20
113.143003714
 11
110.3399569162
 21
148.2285470461
  0
LINE
  5
274
100
AcDbEntity
  8
0
100
AcDbLine
 62
250
  6
CONTINUOUS
 10
110.7951912294
 20
129.4548518843
 11
110.7951912294
 21
134.6168605279
  0
LINE
  5
275
100
AcDbEntity
  8
0
100
AcDbLine
 62
7
  6
CONTINUOUS
 10
110.8793892893
 20
129.6630621513
 11
110.8793892893
 21
134.6492782999
  0
LINE
  5
276
100
AcDbEntity
  8
0
100
AcDbLine
 62
250
  6
CONTINUOUS
 10
111.0383586947
 20
112.4912449672
 11
111.0383586947
 21
122.4652864887
  0
LINE
  5
277
100
AcDbEntity
  8
0
100
AcDbLine
 62
250
  6
CONTINUOUS
 10
111.0383586947
 20
141.8972634167
 11
111.0383586947
 21
147.8252986123
  0
LINE
  5
278
100
AcDbEntity
  8
0
100
AcDbLine
 62
7
  6
CONTINUOUS
 10
111.1225567546
 20
112.4426300627
 11
111.1225538633
 21
122.5846245789
  0
LWPOLYLINE
  5
279
100
AcDbEntity
  8
0
100
AcDbPolyline
 62
250
  6
CONTINUOUS
 90
7
 70
0
 10
110.8755659098
 20
134.6959655638
 10
110.8890851434
 20
135.8359467562
 10
110.9080495359
 20
137.0000219952
 10
110.9324590872
 20
138.1881912807
 10
110.9623137975
 20
139.4004546128
 10
110.9976136666
 20
140.6368119915
 10
111.0383586947
 20
141.8972634167
  0
LWPOLYLINE
  5
27A
100
AcDbEntity
  8
0
100
AcDbPolyline
 62
7
  6
CONTINUOUS
 90
9
 70
0
 10
110.9635891135
 20
135.0365407672
 10
110.9805597754
 20
136.3651590392
 10
110.9940021086
 20
137.1753072492
 10
111.0098141584
 20
137.9868139326
 10
111.0279957215
 20
138.7996692581
 10
111.0485465982
 20
139.6138635211
 10
111.0714665872
 20
140.4293868929
 10
111.0967554836
 20
141.2462294195
 10
111.1222505228
 20
142.0028009439
  0
LWPOLYLINE
  5
27B
100
AcDbEntity
  8
0
100
AcDbPolyline
 62
7
  6
CONTINUOUS
 90
11
 70
0
 10
110.8793885884
 20
134.6492945411
 10
110.8794405035
 20
134.6516681971
 10
110.8797276742
 20
134.6561140696
 10
110.8804160819
 20
134.6622783294
 10
110.8816646148
 20
134.6700395065
 10
110.8836158134
 20
134.6792283993
 10
110.8863985256
 20
134.689679565
 10
110.8901578022
 20
134.7013135988
 10
110.8950795759
 20
134.7141321612
 10
110.9013424518
 20
134.7280525201
 10
110.9065087127
 20
134.7381830127
  0
LWPOLYLINE
  5
27C
100
AcDbEntity
  8
0
100
AcDbPolyline
 62
7
  6
CONTINUOUS
 90
5
 70
0
 10
111.1222793934
 20
142.0036436955
 10
111.12240544
 20
142.0079889774
 10
111.1224937212
 20
142.012333668
 10
111.1225440766
 20
142.0166829558
 10
111.1225567546
 20
147.7766837077
  0
LWPOLYLINE
  5
27D
100
AcDbEntity
  8
0
100
AcDbPolyline
 62
250
  6
CONTINUOUS
 90
10
 70
0
 10
110.2617096279
 20
113.4669683107
 10
110.2605582874
 20
113.4473991825
 10
110.2558533106
 20
113.4229235571
 10
110.2475528029
 20
113.3987685069
 10
110.2357171665
 20
113.3751097909
 10
110.2204325257
 20
113.3521195553
 10
110.2018100975
 20
113.329965079
 10
110.1799853854
 20
113.3088075619
 10
110.1551171959
 20
113.288800952
 10
110.1273864791
 20
113.2700908214
  0
LWPOLYLINE
  5
27E
100
AcDbEntity
  8
ASSI
100
AcDbPolyline
 62
250
  6
CONTINUOUS
 90
10
 70
0
 10
110.2617096279
 20
113.4669683107
 10
110.2605582874
 20
113.4473991825
 10
110.2558533106
 20
113.4229235571
 10
110.2475528029
 20
113.3987685069
 10
110.2357171665
 20
113.3751097909
 10
110.2204325257
 20
113.3521195553
 10
110.2018100975
 20
113.329965079
 10
110.1799853854
 20
113.3088075619
 10
110.1551171959
 20
113.288800952
 10
110.1273864791
 20
113.2700908214
  0
LWPOLYLINE
  5
27F
100
AcDbEntity
  8
0
100
AcDbPolyline
 62
250
  6
CONTINUOUS
 90
3
 70
0
 10
111.1225567546
 20
122.5829180813
 10
111.1216546402
 20
122.56949516
 10
111.1185379057
 20
122.5546605347
  0
LWPOLYLINE
  5
280
100
AcDbEntity
  8
0
100
AcDbPolyline
 62
250
  6
CONTINUOUS
 90
3
 70
0
 10
111.1055366278
 20
122.5367704815
 10
111.0959608678
 20
122.5220782411
 10
111.0843493535
 20
122.5078893162
  0
LWPOLYLINE
  5
281
100
AcDbEntity
  8
0
100
AcDbPolyline
 62
250
  6
CONTINUOUS
 90
4
 70
0
 10
111.0843493535
 20
122.5078893162
 10
111.0707885207
 20
122.4943093142
 10
111.0553793007
 20
122.4814392966
 10
111.0382363858
 20
122.4693750469
  0
LINE
  5
282
100
AcDbEntity
  8
SMUSSO
100
AcDbLine
 62
7
  6
CONTINUOUS
 10
93.4565539808
 20
103.650967885
 11
93.8392432807
 21
103.4015271429
  0
LINE
  5
283
100
AcDbEntity
  8
ASSI
100
AcDbLine
 62
7
  6
CONTINUOUS
 10
93.4565539808
 20
103.650967885
 11
93.8392432807
 21
103.4015271429
  0
LINE
  5
284
100
AcDbEntity
  8
SMUSSO
100
AcDbLine
 62
7
  6
CONTINUOUS
 10
93.8600068948
 20
103.3891063173
 11
204.8129234017
 21
39.3262828929
  0
LINE
  5
285
100
AcDbEntity
  8
ASSI
100
AcDbLine
 62
7
  6
CONTINUOUS
 10
93.8600068948
 20
103.3891063173
 11
204.8129234017
 21
39.3262828929
  0
LINE
  5
286
100
AcDbEntity
  8
SMUSSO
100
AcDbLine
 62
7
  6
CONTINUOUS
 10
93.4565539808
 20
103.650967885
 11
203.803024254
 21
39.9382989153
  0
LINE
  5
287
100
AcDbEntity
  8
ASSI
100
AcDbLine
 62
7
  6
CONTINUOUS
 10
93.4565539808
 20
103.650967885
 11
203.803024254
 21
39.9382989153
  0
LINE
  5
288
100
AcDbEntity
  8
SMUSSO
100
AcDbLine
 62
7
  6
CONTINUOUS
 10
93.8600068948
 20
103.3891063173
 11
93.8392432807
 21
103.4015271429
  0
LINE
  5
289
100
AcDbEntity
  8
ASSI
100
AcDbLine
 62
7
  6
CONTINUOUS
 10
93.8600068948
 20
103.3891063173
 11
93.8392432807
 21
103.4015271429
  0
LINE
  5
28A
100
AcDbEntity
  8
SMUSSO
100
AcDbLine
 62
7
  6
CONTINUOUS
 10
203.803024254
 20
39.9382989153
 11
204.8125609715
 21
39.3269243306
  0
LINE
  5
28B
100
AcDbEntity
  8
ASSI
100
AcDbLine
 62
7
  6
CONTINUOUS
 10
203.803024254
 20
39.9382989153
 11
204.8125609715
 21
39.3269243306
  0
LINE
  5
28C
100
AcDbEntity
  8
0
100
AcDbLine
 62
250
  6
CONTINUOUS
 10
125.9073260972
 20
108.0625799955
 11
125.9073260972
 21
107.6552103577
  0
LINE
  5
28D
100
AcDbEntity
  8
0
100
AcDbLine
 62
7
  6
CONTINUOUS
 10
125.9586971321
 20
108.1291575024
 11
125.9586971321
 21
107.6857556524
  0
LINE
  5
28E
100
AcDbEntity
  8
0
100
AcDbLine
 62
250
  6
CONTINUOUS
 10
123.957299143
 20
106.366409326
 11
123.9628466842
 21
106.3835727041
  0
LINE
  5
28F
100
AcDbEntity
  8
0
100
AcDbLine
 62
7
  6
CONTINUOUS
 10
118.0966132307
 20
108.4158972588
 11
118.1181315092
 21
108.4531680104
  0
LINE
  5
290
100
AcDbEntity
  8
0
100
AcDbLine
 62
7
  6
CONTINUOUS
 10
118.3656188826
 20
108.4735935765
 11
118.4716848998
 21
108.6573053071
  0
LINE
  5
291
100
AcDbEntity
  8
0
100
AcDbLine
 62
7
  6
CONTINUOUS
 10
118.7191722732
 20
108.6777308732
 11
118.8252382904
 21
108.8614426037
  0
LINE
  5
292
100
AcDbEntity
  8
0
100
AcDbLine
 62
7
  6
CONTINUOUS
 10
119.0727256638
 20
108.8818681699
 11
119.178791681
 21
109.0655799004
  0
LINE
  5
293
100
AcDbEntity
  8
0
100
AcDbLine
 62
7
  6
CONTINUOUS
 10
119.4262790544
 20
109.0860054665
 11
119.5323450716
 21
109.2697171971
  0
LINE
  5
294
100
AcDbEntity
  8
0
100
AcDbLine
 62
7
  6
CONTINUOUS
 10
119.779832445
 20
109.2901427632
 11
119.8858984622
 21
109.4738544937
  0
LINE
  5
295
100
AcDbEntity
  8
0
100
AcDbLine
 62
7
  6
CONTINUOUS
 10
120.1333858356
 20
109.4942800599
 11
120.2394518528
 21
109.6779917904
  0
LINE
  5
296
100
AcDbEntity
  8
0
100
AcDbLine
 62
7
  6
CONTINUOUS
 10
121.9857005272
 20
106.1703869955
 11
122.0072188057
 21
106.2076577471
  0
LINE
  5
297
100
AcDbEntity
  8
0
100
AcDbLine
 62
7
  6
CONTINUOUS
 10
122.2547061792
 20
106.2280833132
 11
122.3607721963
 21
106.4117950438
  0
LINE
  5
298
100
AcDbEntity
  8
0
100
AcDbLine
 62
7
  6
CONTINUOUS
 10
122.6082595698
 20
106.4322206099
 11
122.7143255869
 21
106.6159323404
  0
LINE
  5
299
100
AcDbEntity
  8
0
100
AcDbLine
 62
250
  6
CONTINUOUS
 10
108.8860656689
 20
112.5533544122
 11
110.1273864791
 21
113.2700908214
  0
LINE
  5
29A
100
AcDbEntity
  8
ASSI
100
AcDbLine
 62
250
  6
CONTINUOUS
 10
108.8860656689
 20
112.5533544122
 11
110.1273864791
 21
113.2700908214
  0
LINE
  5
29B
100
AcDbEntity
  8
0
100
AcDbLine
 62
250
  6
CONTINUOUS
 10
109.2394036843
 20
111.9413550179
 11
110.4807244945
 21
112.6580914271
  0
LINE
  5
29C
100
AcDbEntity
  8
ASSI
100
AcDbLine
 62
250
  6
CONTINUOUS
 10
109.2394036843
 20
111.9413550179
 11
110.4807244945
 21
112.6580914271
  0
LWPOLYLINE
  5
29D
100
AcDbEntity
  8
0
100
AcDbPolyline
 62
7
  6
CONTINUOUS
 90
13
 70
0
 10
110.9441875014
 20
129.4434050308
 10
110.9390634151
 20
129.4517741831
 10
110.9275327865
 20
129.4723490166
 10
110.9172854894
 20
129.4932131269
 10
110.9083238665
 20
129.5142442506
 10
110.9006565773
 20
129.5352667471
 10
110.8942509335
 20
129.5561702819
 10
110.8890623778
 20
129.5768649772
 10
110.8850545381
 20
129.5971942064
 10
110.8821634856
 20
129.6170844159
 10
110.8803284493
 20
129.636404216
 10
110.8794781746
 20
129.654902911
 10
110.8793895261
 20
129.6630481755
  0
LWPOLYLINE
  5
29E
100
AcDbEntity
  8
0
100
AcDbPolyline
 62
250
  6
CONTINUOUS
 90
10
 70
0
 10
110.8317254391
 20
129.5453975701
 10
110.8353529747
 20
129.5377014394
 10
110.8393359281
 20
129.5298782623
 10
110.8436709053
 20
129.5219347192
 10
110.8483542098
 20
129.5138775894
 10
110.8533818475
 20
129.505713749
 10
110.8587495298
 20
129.497450165
 10
110.8644526756
 20
129.4890938846
 10
110.8704864151
 20
129.4806520292
 10
110.8768455955
 20
129.4721317918
  0
LWPOLYLINE
  5
29F
100
AcDbEntity
  8
0
100
AcDbPolyline
 62
250
  6
CONTINUOUS
 90
10
 70
0
 10
123.9628466842
 20
106.3835727041
 10
123.9650964622
 20
106.3782843194
 10
123.9669479813
 20
106.3732751646
 10
123.9683675072
 20
106.368583141
 10
123.9693165834
 20
106.3642674974
 10
123.969771425
 20
106.3603427311
 10
123.9696967143
 20
106.3568037008
 10
123.9690340392
 20
106.3537118183
 10
123.9677240509
 20
106.3511413752
 10
123.9667711929
 20
106.3500371641
  0
LINE
  5
2A0
100
AcDbEntity
  8
0
100
AcDbLine
 62
7
  6
CONTINUOUS
 10
122.9618129603
 20
106.6363579066
 11
123.0678789775
 21
106.8200696371
  0
LINE
  5
2A1
100
AcDbEntity
  8
0
100
AcDbLine
 62
7
  6
CONTINUOUS
 10
123.3153663509
 20
106.8404952032
 11
123.4214323681
 21
107.0242069337
  0
LINE
  5
2A2
100
AcDbEntity
  8
0
100
AcDbLine
 62
7
  6
CONTINUOUS
 10
123.6689197415
 20
107.0446324999
 11
123.7749857587
 21
107.2283442304
  0
LINE
  5
2A3
100
AcDbEntity
  8
0
100
AcDbLine
 62
7
  6
CONTINUOUS
 10
124.0224731321
 20
107.2487697966
 11
124.1285391493
 21
107.4324815271
  0
LWPOLYLINE
  5
2A4
100
AcDbEntity
  8
IMPORT_IGES
100
AcDbPolyline
 62
7
  6
CONTINUOUS
 90
73
 70
0
 10
151.3205815368
 20
84.7313964202
 10
151.3242537359
 20
84.7301301893
 10
151.3278152876
 20
84.7294408076
 10
151.3312854164
 20
84.7291934088
 10
151.3346833468
 20
84.7292531265
 10
151.3380283033
 20
84.7294850942
 10
151.3483521755
 20
84.7305470341
 10
151.3583710639
 20
84.732068032
 10
151.3681157105
 20
84.7341352673
 10
151.3779589594
 20
84.7369222356
 10
151.387542647
 20
84.7403259173
 10
151.396869073
 20
84.7442818466
 10
151.405940537
 20
84.7487255573
 10
151.4166970228
 20
84.7547533582
 10
151.4270654373
 20
84.7614151795
 10
151.4370361689
 20
84.7687109628
 10
151.4465996059
 20
84.7766406495
 10
151.4550636872
 20
84.7845272406
 10
151.4631633643
 20
84.7929433138
 10
151.470890006
 20
84.8018774497
 10
151.4782349815
 20
84.8113182288
 10
151.4851896596
 20
84.8212542319
 10
151.4925533805
 20
84.8330368085
 10
151.4994034758
 20
84.8454159488
 10
151.5057334944
 20
84.8583731352
 10
151.5115369849
 20
84.8718898505
 10
151.5168074963
 20
84.885947577
 10
151.5212673697
 20
84.8996236538
 10
151.5252549282
 20
84.9137372016
 10
151.5287735663
 20
84.9282649185
 10
151.531826678
 20
84.9431835021
 10
151.5344176579
 20
84.9584696504
 10
151.5365499
 20
84.9741000611
 10
151.5383766768
 20
84.9917214054
 10
151.5396661533
 20
85.0097068288
 10
151.5404355596
 20
85.0280295354
 10
151.5406998688
 20
85.04805992
 10
151.5403903867
 20
85.0684224816
 10
151.539513655
 20
85.0890910605
 10
151.5383942005
 20
85.1059714387
 10
151.5368937862
 20
85.1230287308
 10
151.5349963607
 20
85.1402577196
 10
151.5328271348
 20
85.1566786031
 10
151.5302841199
 20
85.1732392718
 10
151.5273618267
 20
85.1899310725
 10
151.5236699092
 20
85.2085920293
 10
151.5195023662
 20
85.2273812393
 10
151.514857229
 20
85.2462761819
 10
151.509732529
 20
85.2652543364
 10
151.5041262975
 20
85.2842931823
 10
151.4985966631
 20
85.3016794687
 10
151.4926711751
 20
85.3190787808
 10
151.4863556328
 20
85.3364724347
 10
151.4796558354
 20
85.3538417471
 10
151.4725775824
 20
85.3711680342
 10
151.4640075508
 20
85.3909497526
 10
151.454960578
 20
85.4106241821
 10
151.445449261
 20
85.4301650973
 10
151.4354861968
 20
85.4495462729
 10
151.4252518445
 20
85.4684408695
 10
151.4146071768
 20
85.4871329999
 10
151.4035672897
 20
85.5056003447
 10
151.3921472797
 20
85.5238205851
 10
151.380362243
 20
85.5417714018
 10
151.3682272757
 20
85.5594304759
 10
151.3557574742
 20
85.5767754881
 10
151.3464647687
 20
85.5892028285
 10
151.3370015277
 20
85.6014138104
 10
151.3273670929
 20
85.6133707949
 10
151.317560806
 20
85.6250361433
 10
151.3075820089
 20
85.6363722169
 10
151.2974300432
 20
85.6473413766
 10
151.2871042509
 20
85.6579059839
  0
LWPOLYLINE
  5
2A5
100
AcDbEntity
  8
CURVE
100
AcDbPolyline
 62
250
  6
CONTINUOUS
 90
73
 70
0
 10
151.3205815368
 20
84.7313964202
 10
151.3242537359
 20
84.7301301893
 10
151.3278152876
 20
84.7294408076
 10
151.3312854164
 20
84.7291934088
 10
151.3346833468
 20
84.7292531265
 10
151.3380283033
 20
84.7294850942
 10
151.3483521755
 20
84.7305470341
 10
151.3583710639
 20
84.732068032
 10
151.3681157105
 20
84.7341352673
 10
151.3779589594
 20
84.7369222356
 10
151.387542647
 20
84.7403259173
 10
151.396869073
 20
84.7442818466
 10
151.405940537
 20
84.7487255573
 10
151.4166970228
 20
84.7547533582
 10
151.4270654373
 20
84.7614151795
 10
151.4370361689
 20
84.7687109628
 10
151.4465996059
 20
84.7766406495
 10
151.4550636872
 20
84.7845272406
 10
151.4631633643
 20
84.7929433138
 10
151.470890006
 20
84.8018774497
 10
151.4782349815
 20
84.8113182288
 10
151.4851896596
 20
84.8212542319
 10
151.4925533805
 20
84.8330368085
 10
151.4994034758
 20
84.8454159488
 10
151.5057334944
 20
84.8583731352
 10
151.5115369849
 20
84.8718898505
 10
151.5168074963
 20
84.885947577
 10
151.5212673697
 20
84.8996236538
 10
151.5252549282
 20
84.9137372016
 10
151.5287735663
 20
84.9282649185
 10
151.531826678
 20
84.9431835021
 10
151.5344176579
 20
84.9584696504
 10
151.5365499
 20
84.9741000611
 10
151.5383766768
 20
84.9917214054
 10
151.5396661533
 20
85.0097068288
 10
151.5404355596
 20
85.0280295354
 10
151.5406998688
 20
85.04805992
 10
151.5403903867
 20
85.0684224816
 10
151.539513655
 20
85.0890910605
 10
151.5383942005
 20
85.1059714387
 10
151.5368937862
 20
85.1230287308
 10
151.5349963607
 20
85.1402577196
 10
151.5328271348
 20
85.1566786031
 10
151.5302841199
 20
85.1732392718
 10
151.5273618267
 20
85.1899310725
 10
151.5236699092
 20
85.2085920293
 10
151.5195023662
 20
85.2273812393
 10
151.514857229
 20
85.2462761819
 10
151.509732529
 20
85.2652543364
 10
151.5041262975
 20
85.2842931823
 10
151.4985966631
 20
85.3016794687
 10
151.4926711751
 20
85.3190787808
 10
151.4863556328
 20
85.3364724347
 10
151.4796558354
 20
85.3538417471
 10
151.4725775824
 20
85.3711680342
 10
151.4640075508
 20
85.3909497526
 10
151.454960578
 20
85.4106241821
 10
151.445449261
 20
85.4301650973
 10
151.4354861968
 20
85.4495462729
 10
151.4252518445
 20
85.4684408695
 10
151.4146071768
 20
85.4871329999
 10
151.4035672897
 20
85.5056003447
 10
151.3921472797
 20
85.5238205851
 10
151.380362243
 20
85.5417714018
 10
151.3682272757
 20
85.5594304759
 10
151.3557574742
 20
85.5767754881
 10
151.3464647687
 20
85.5892028285
 10
151.3370015277
 20
85.6014138104
 10
151.3273670929
 20
85.6133707949
 10
151.317560806
 20
85.6250361433
 10
151.3075820089
 20
85.6363722169
 10
151.2974300432
 20
85.6473413766
 10
151.2871042509
 20
85.6579059839
  0
LWPOLYLINE
  5
2A6
100
AcDbEntity
  8
IMPORT_IGES
100
AcDbPolyline
 62
7
  6
CONTINUOUS
 90
23
 70
0
 10
150.798429193
 20
85.6739744003
 10
150.8102388891
 20
85.6694269916
 10
150.8220695128
 20
85.6647531362
 10
150.8339198593
 20
85.6599419049
 10
150.8457887236
 20
85.6549823682
 10
150.8576749007
 20
85.6498635971
 10
150.8695771856
 20
85.6445746622
 10
150.8814943735
 20
85.6391046344
 10
150.8934252592
 20
85.6334425842
 10
150.9053686379
 20
85.6275775825
 10
150.9173233046
 20
85.6214987001
 10
150.9292880544
 20
85.6151950076
 10
150.9405303647
 20
85.609064199
 10
150.9517778401
 20
85.6027316991
 10
150.963027818
 20
85.5962036577
 10
150.9742776361
 20
85.5894862241
 10
150.9855246318
 20
85.5825855482
 10
150.9967661429
 20
85.5755077795
 10
151.0079995069
 20
85.5682590676
 10
151.0192220613
 20
85.5608455621
 10
151.0304311437
 20
85.5532734127
 10
151.0416240918
 20
85.545548769
 10
151.0527982432
 20
85.5376777805
  0
LWPOLYLINE
  5
2A7
100
AcDbEntity
  8
CURVE
100
AcDbPolyline
 62
250
  6
CONTINUOUS
 90
23
 70
0
 10
150.798429193
 20
85.6739744003
 10
150.8102388891
 20
85.6694269916
 10
150.8220695128
 20
85.6647531362
 10
150.8339198593
 20
85.6599419049
 10
150.8457887236
 20
85.6549823682
 10
150.8576749007
 20
85.6498635971
 10
150.8695771856
 20
85.6445746622
 10
150.8814943735
 20
85.6391046344
 10
150.8934252592
 20
85.6334425842
 10
150.9053686379
 20
85.6275775825
 10
150.9173233046
 20
85.6214987001
 10
150.9292880544
 20
85.6151950076
 10
150.9405303647
 20
85.609064199
 10
150.9517778401
 20
85.6027316991
 10
150.963027818
 20
85.5962036577
 10
150.9742776361
 20
85.5894862241
 10
150.9855246318
 20
85.5825855482
 10
150.9967661429
 20
85.5755077795
 10
151.0079995069
 20
85.5682590676
 10
151.0192220613
 20
85.5608455621
 10
151.0304311437
 20
85.5532734127
 10
151.0416240918
 20
85.545548769
 10
151.0527982432
 20
85.5376777805
  0
LINE
  5
2A8
100
AcDbEntity
  8
IMPORT_IGES
100
AcDbLine
 62
7
  6
CONTINUOUS
 10
150.3904610829
 20
84.4194275079
 11
150.0482466029
 21
84.6170178597
  0
LINE
  5
2A9
100
AcDbEntity
  8
CURVE
100
AcDbLine
 62
250
  6
CONTINUOUS
 10
150.3904610829
 20
84.4194275079
 11
150.0482466029
 21
84.6170178597
  0
LINE
  5
2AA
100
AcDbEntity
  8
IMPORT_IGES
100
AcDbLine
 62
7
  6
CONTINUOUS
 10
149.4323574326
 20
84.9726245477
 11
149.1111855066
 21
85.1580651926
  0
LINE
  5
2AB
100
AcDbEntity
  8
CURVE
100
AcDbLine
 62
250
  6
CONTINUOUS
 10
149.4323574326
 20
84.9726245477
 11
149.1111855066
 21
85.1580651926
  0
LINE
  5
2AC
100
AcDbEntity
  8
IMPORT_IGES
100
AcDbLine
 62
7
  6
CONTINUOUS
 10
149.0601999448
 20
85.1875036169
 11
148.742562273
 21
85.3709036277
  0
LINE
  5
2AD
100
AcDbEntity
  8
CURVE
100
AcDbLine
 62
250
  6
CONTINUOUS
 10
149.0601999448
 20
85.1875036169
 11
148.742562273
 21
85.3709036277
  0
LINE
  5
2AE
100
AcDbEntity
  8
IMPORT_IGES
100
AcDbLine
 62
7
  6
CONTINUOUS
 10
148.2897903058
 20
85.632328487
 11
148.2442524292
 21
85.6586214862
  0
LINE
  5
2AF
100
AcDbEntity
  8
CURVE
100
AcDbLine
 62
250
  6
CONTINUOUS
 10
148.2897903058
 20
85.632328487
 11
148.2442524292
 21
85.6586214862
  0
LINE
  5
2B0
100
AcDbEntity
  8
IMPORT_IGES
100
AcDbLine
 62
7
  6
CONTINUOUS
 10
147.7932768499
 20
85.9190091337
 11
147.4826499058
 21
86.0983612381
  0
LINE
  5
2B1
100
AcDbEntity
  8
CURVE
100
AcDbLine
 62
250
  6
CONTINUOUS
 10
147.7932768499
 20
85.9190091337
 11
147.4826499058
 21
86.0983612381
  0
LINE
  5
2B2
100
AcDbEntity
  8
IMPORT_IGES
100
AcDbLine
 62
7
  6
CONTINUOUS
 10
146.3626654116
 20
86.7450262484
 11
146.0765278639
 21
86.9102384823
  0
LINE
  5
2B3
100
AcDbEntity
  8
CURVE
100
AcDbLine
 62
250
  6
CONTINUOUS
 10
146.3626654116
 20
86.7450262484
 11
146.0765278639
 21
86.9102384823
  0
LINE
  5
2B4
100
AcDbEntity
  8
IMPORT_IGES
100
AcDbLine
 62
7
  6
CONTINUOUS
 10
146.9831614834
 20
86.3867595932
 11
147.3078565519
 21
86.1992847299
  0
LINE
  5
2B5
100
AcDbEntity
  8
CURVE
100
AcDbLine
 62
250
  6
CONTINUOUS
 10
146.9831614834
 20
86.3867595932
 11
147.3078565519
 21
86.1992847299
  0
LINE
  5
2B6
100
AcDbEntity
  8
IMPORT_IGES
100
AcDbLine
 62
7
  6
CONTINUOUS
 10
150.4858073325
 20
84.3643754381
 11
150.8091955815
 21
84.1776551162
  0
LINE
  5
2B7
100
AcDbEntity
  8
CURVE
100
AcDbLine
 62
250
  6
CONTINUOUS
 10
150.4858073325
 20
84.3643754381
 11
150.8091955815
 21
84.1776551162
  0
LINE
  5
2B8
100
AcDbEntity
  8
IMPORT_IGES
100
AcDbLine
 62
7
  6
CONTINUOUS
 10
151.3064207615
 20
83.8905635289
 11
151.6187393435
 21
83.710234694
  0
LINE
  5
2B9
100
AcDbEntity
  8
CURVE
100
AcDbLine
 62
250
  6
CONTINUOUS
 10
151.3064207615
 20
83.8905635289
 11
151.6187393435
 21
83.710234694
  0
LINE
  5
2BA
100
AcDbEntity
  8
IMPORT_IGES
100
AcDbLine
 62
7
  6
CONTINUOUS
 10
149.9641334267
 20
85.0241455237
 11
149.5219531105
 21
85.2794548965
  0
LINE
  5
2BB
100
AcDbEntity
  8
CURVE
100
AcDbLine
 62
250
  6
CONTINUOUS
 10
149.9641334267
 20
85.0241455237
 11
149.5219531105
 21
85.2794548965
  0
LINE
  5
2BC
100
AcDbEntity
  8
CURVE
100
AcDbLine
 62
250
  6
CONTINUOUS
 10
149.5883713107
 20
85.5185599433
 11
149.8992434525
 21
85.3390662648
  0
LINE
  5
2BD
100
AcDbEntity
  8
IMPORT_IGES
100
AcDbLine
 62
7
  6
CONTINUOUS
 10
149.5883713107
 20
85.5185599433
 11
149.8992434525
 21
85.3390662648
  0
LINE
  5
2BE
100
AcDbEntity
  8
IMPORT_IGES
100
AcDbLine
 62
7
  6
CONTINUOUS
 10
150.8091955815
 20
84.8805429941
 11
150.9832891328
 21
84.7800235595
  0
LINE
  5
2BF
100
AcDbEntity
  8
CURVE
100
AcDbLine
 62
250
  6
CONTINUOUS
 10
150.8091955815
 20
84.8805429941
 11
150.9832891328
 21
84.7800235595
  0
LINE
  5
2C0
100
AcDbEntity
  8
IMPORT_IGES
100
AcDbLine
 62
7
  6
CONTINUOUS
 10
150.9839890064
 20
85.073774543
 11
150.798429193
 21
85.1809144536
  0
LINE
  5
2C1
100
AcDbEntity
  8
CURVE
100
AcDbLine
 62
250
  6
CONTINUOUS
 10
150.9839890064
 20
85.073774543
 11
150.798429193
 21
85.1809144536
  0
LINE
  5
2C2
100
AcDbEntity
  8
CURVE
100
AcDbLine
 62
250
  6
CONTINUOUS
 10
145.5834027288
 20
88.9910458853
 11
145.936121448
 21
88.7873905175
  0
LINE
  5
2C3
100
AcDbEntity
  8
IMPORT_IGES
100
AcDbLine
 62
7
  6
CONTINUOUS
 10
145.5834027288
 20
88.9910458853
 11
145.936121448
 21
88.7873905175
  0
LINE
  5
2C4
100
AcDbEntity
  8
CURVE
100
AcDbLine
 62
250
  6
CONTINUOUS
 10
146.5381936177
 20
88.4397615924
 11
146.8626671935
 21
88.2524146164
  0
LINE
  5
2C5
100
AcDbEntity
  8
IMPORT_IGES
100
AcDbLine
 62
7
  6
CONTINUOUS
 10
146.5381936177
 20
88.4397615924
 11
146.8626671935
 21
88.2524146164
  0
LINE
  5
2C6
100
AcDbEntity
  8
CURVE
100
AcDbLine
 62
250
  6
CONTINUOUS
 10
147.6231029908
 20
87.8133485175
 11
147.9475291567
 21
87.6260289153
  0
LINE
  5
2C7
100
AcDbEntity
  8
IMPORT_IGES
100
AcDbLine
 62
7
  6
CONTINUOUS
 10
147.6231029908
 20
87.8133485175
 11
147.9475291567
 21
87.6260289153
  0
LINE
  5
2C8
100
AcDbEntity
  8
CURVE
100
AcDbLine
 62
250
  6
CONTINUOUS
 10
148.5934894894
 20
87.253059515
 11
148.9147429011
 21
87.0675718214
  0
LINE
  5
2C9
100
AcDbEntity
  8
IMPORT_IGES
100
AcDbLine
 62
7
  6
CONTINUOUS
 10
148.5934894894
 20
87.253059515
 11
148.9147429011
 21
87.0675718214
  0
LINE
  5
2CA
100
AcDbEntity
  8
CURVE
100
AcDbLine
 62
250
  6
CONTINUOUS
 10
149.5990911164
 20
86.6724377388
 11
149.9131937932
 21
86.4910787898
  0
LINE
  5
2CB
100
AcDbEntity
  8
IMPORT_IGES
100
AcDbLine
 62
7
  6
CONTINUOUS
 10
149.5990911164
 20
86.6724377388
 11
149.9131937932
 21
86.4910787898
  0
LINE
  5
2CC
100
AcDbEntity
  8
CURVE
100
AcDbLine
 62
250
  6
CONTINUOUS
 10
147.3078565519
 20
87.9954756344
 11
146.9831614834
 21
88.1829504976
  0
LINE
  5
2CD
100
AcDbEntity
  8
IMPORT_IGES
100
AcDbLine
 62
7
  6
CONTINUOUS
 10
147.3078565519
 20
87.9954756344
 11
146.9831614834
 21
88.1829504976
  0
LINE
  5
2CE
100
AcDbEntity
  8
0
100
AcDbLine
 62
250
  6
CONTINUOUS
 10
188.1566603726
 20
66.0547150844
 11
109.1029178623
 21
111.6993552337
  0
LINE
  5
2CF
100
AcDbEntity
  8
ASSI
100
AcDbLine
 62
250
  6
CONTINUOUS
 10
188.1566603726
 20
66.0547150844
 11
109.1029178623
 21
111.6993552337
  0
LINE
  5
2D0
100
AcDbEntity
  8
0
100
AcDbLine
 62
250
  6
CONTINUOUS
 10
188.2931461947
 20
66.2967148685
 11
109.2394036843
 21
111.9413550179
  0
LINE
  5
2D1
100
AcDbEntity
  8
ASSI
100
AcDbLine
 62
250
  6
CONTINUOUS
 10
188.2931461947
 20
66.2967148685
 11
109.2394036843
 21
111.9413550179
  0
LINE
  5
2D2
100
AcDbEntity
  8
0
100
AcDbLine
 62
7
  6
CONTINUOUS
 10
110.2690308629
 20
112.5358449694
 11
188.5927549504
 21
67.3127083081
  0
LINE
  5
2D3
100
AcDbEntity
  8
ASSI
100
AcDbLine
 62
7
  6
CONTINUOUS
 10
110.2690308629
 20
112.5358449694
 11
188.5927549504
 21
67.3127083081
  0
LINE
  5
2D4
100
AcDbEntity
  8
0
100
AcDbLine
 62
250
  6
CONTINUOUS
 10
110.4807244945
 20
112.6580914271
 11
188.5927549504
 21
67.5571840155
  0
LINE
  5
2D5
100
AcDbEntity
  8
ASSI
100
AcDbLine
 62
250
  6
CONTINUOUS
 10
110.4807244945
 20
112.6580914271
 11
188.5927549504
 21
67.5571840155
  0
LWPOLYLINE
  5
2D6
100
AcDbEntity
  8
IMPORT_IGES
100
AcDbPolyline
 62
7
  6
CONTINUOUS
 90
46
 70
0
 10
150.9832891328
 20
84.7800235595
 10
150.9886005782
 20
84.7768704061
 10
150.99392044
 20
84.7735396219
 10
150.999242833
 20
84.7700346215
 10
151.0045618719
 20
84.76635882
 10
151.0098716715
 20
84.7625156323
 10
151.0151663464
 20
84.7585084732
 10
151.0204400115
 20
84.7543407577
 10
151.0256867815
 20
84.7500159007
 10
151.0309007711
 20
84.7455373172
 10
151.0360760951
 20
84.7409084219
 10
151.0412068681
 20
84.7361326299
 10
151.046287205
 20
84.731213356
 10
151.0513112205
 20
84.7261540152
 10
151.0562730293
 20
84.7209580223
 10
151.0611667461
 20
84.7156287923
 10
151.0659864858
 20
84.7101697401
 10
151.0706066679
 20
84.7047291251
 10
151.0751486763
 20
84.6991741074
 10
151.0796101657
 20
84.6935103066
 10
151.0839887909
 20
84.6877433426
 10
151.0882822069
 20
84.681878835
 10
151.0924880685
 20
84.6759224036
 10
151.0966040305
 20
84.6698796682
 10
151.1006277478
 20
84.6637562485
 10
151.1045568751
 20
84.6575577643
 10
151.1083890675
 20
84.6512898353
 10
151.1121219796
 20
84.6449580813
 10
151.1157532663
 20
84.638568122
 10
151.1192805826
 20
84.6321255771
 10
151.1229677947
 20
84.6251216453
 10
151.1265327358
 20
84.6180684384
 10
151.1299768994
 20
84.6109713551
 10
151.1333017787
 20
84.6038357942
 10
151.1365088672
 20
84.5966671545
 10
151.1395996581
 20
84.5894708347
 10
151.1425756449
 20
84.5822522336
 10
151.1454383209
 20
84.5750167498
 10
151.1481891794
 20
84.5677697822
 10
151.1508297139
 20
84.5605167295
 10
151.1533614176
 20
84.5532629905
 10
151.1557857839
 20
84.5460139638
 10
151.1581043063
 20
84.5387750483
 10
151.1603184779
 20
84.5315516427
 10
151.1624297922
 20
84.5243491458
 10
151.1644397426
 20
84.5171729562
  0
LWPOLYLINE
  5
2D7
100
AcDbEntity
  8
CURVE
100
AcDbPolyline
 62
250
  6
CONTINUOUS
 90
46
 70
0
 10
150.9832891328
 20
84.7800235595
 10
150.9886005782
 20
84.7768704061
 10
150.99392044
 20
84.7735396219
 10
150.999242833
 20
84.7700346215
 10
151.0045618719
 20
84.76635882
 10
151.0098716715
 20
84.7625156323
 10
151.0151663464
 20
84.7585084732
 10
151.0204400115
 20
84.7543407577
 10
151.0256867815
 20
84.7500159007
 10
151.0309007711
 20
84.7455373172
 10
151.0360760951
 20
84.7409084219
 10
151.0412068681
 20
84.7361326299
 10
151.046287205
 20
84.731213356
 10
151.0513112205
 20
84.7261540152
 10
151.0562730293
 20
84.7209580223
 10
151.0611667461
 20
84.7156287923
 10
151.0659864858
 20
84.7101697401
 10
151.0706066679
 20
84.7047291251
 10
151.0751486763
 20
84.6991741074
 10
151.0796101657
 20
84.6935103066
 10
151.0839887909
 20
84.6877433426
 10
151.0882822069
 20
84.681878835
 10
151.0924880685
 20
84.6759224036
 10
151.0966040305
 20
84.6698796682
 10
151.1006277478
 20
84.6637562485
 10
151.1045568751
 20
84.6575577643
 10
151.1083890675
 20
84.6512898353
 10
151.1121219796
 20
84.6449580813
 10
151.1157532663
 20
84.638568122
 10
151.1192805826
 20
84.6321255771
 10
151.1229677947
 20
84.6251216453
 10
151.1265327358
 20
84.6180684384
 10
151.1299768994
 20
84.6109713551
 10
151.1333017787
 20
84.6038357942
 10
151.1365088672
 20
84.5966671545
 10
151.1395996581
 20
84.5894708347
 10
151.1425756449
 20
84.5822522336
 10
151.1454383209
 20
84.5750167498
 10
151.1481891794
 20
84.5677697822
 10
151.1508297139
 20
84.5605167295
 10
151.1533614176
 20
84.5532629905
 10
151.1557857839
 20
84.5460139638
 10
151.1581043063
 20
84.5387750483
 10
151.1603184779
 20
84.5315516427
 10
151.1624297922
 20
84.5243491458
 10
151.1644397426
 20
84.5171729562
  0
LWPOLYLINE
  5
2D8
100
AcDbEntity
  8
0
100
AcDbPolyline
 62
250
  6
CONTINUOUS
 90
25
 70
0
 10
109.2394036843
 20
111.9413550179
 10
109.2161349032
 20
111.9552706535
 10
109.1929196116
 20
111.9709198828
 10
109.169852679
 20
111.9882500002
 10
109.1470020526
 20
112.0072193514
 10
109.1244938916
 20
112.0277429787
 10
109.1025080797
 20
112.0496777098
 10
109.0811518037
 20
112.0729142202
 10
109.06049983
 20
112.0973622056
 10
109.0406736816
 20
112.1228805319
 10
109.0217643114
 20
112.1493432023
 10
109.0038380513
 20
112.1766421591
 10
108.9869703529
 20
112.2046535061
 10
108.9712178763
 20
112.2332800275
 10
108.9566562966
 20
112.2623726212
 10
108.9433732066
 20
112.2917241551
 10
108.9314522697
 20
112.3211034653
 10
108.9208807663
 20
112.3504906796
 10
108.9116129325
 20
112.3799961755
 10
108.9036884508
 20
112.4095569324
 10
108.8971789891
 20
112.4389874872
 10
108.8921166497
 20
112.4682098645
 10
108.8885462701
 20
112.497108927
 10
108.8865167233
 20
112.5255351337
 10
108.8860656689
 20
112.5533544122
  0
LWPOLYLINE
  5
2D9
100
AcDbEntity
  8
ASSI
100
AcDbPolyline
 62
250
  6
CONTINUOUS
 90
25
 70
0
 10
109.2394036843
 20
111.9413550179
 10
109.2161349032
 20
111.9552706535
 10
109.1929196116
 20
111.9709198828
 10
109.169852679
 20
111.9882500002
 10
109.1470020526
 20
112.0072193514
 10
109.1244938916
 20
112.0277429787
 10
109.1025080797
 20
112.0496777098
 10
109.0811518037
 20
112.0729142202
 10
109.06049983
 20
112.0973622056
 10
109.0406736816
 20
112.1228805319
 10
109.0217643114
 20
112.1493432023
 10
109.0038380513
 20
112.1766421591
 10
108.9869703529
 20
112.2046535061
 10
108.9712178763
 20
112.2332800275
 10
108.9566562966
 20
112.2623726212
 10
108.9433732066
 20
112.2917241551
 10
108.9314522697
 20
112.3211034653
 10
108.9208807663
 20
112.3504906796
 10
108.9116129325
 20
112.3799961755
 10
108.9036884508
 20
112.4095569324
 10
108.8971789891
 20
112.4389874872
 10
108.8921166497
 20
112.4682098645
 10
108.8885462701
 20
112.497108927
 10
108.8865167233
 20
112.5255351337
 10
108.8860656689
 20
112.5533544122
  0
LWPOLYLINE
  5
2DA
100
AcDbEntity
  8
0
100
AcDbPolyline
 62
7
  6
CONTINUOUS
 90
30
 70
0
 10
110.7183836547
 20
112.6759945441
 10
110.7056522978
 20
112.6836222037
 10
110.6867300082
 20
112.6959358205
 10
110.6662909061
 20
112.7104839277
 10
110.6446478743
 20
112.7272491372
 10
110.6219874099
 20
112.7462713396
 10
110.5984972655
 20
112.7675730285
 10
110.5744887247
 20
112.7910349229
 10
110.5501520421
 20
112.8166143058
 10
110.5256853393
 20
112.8442404829
 10
110.5013937341
 20
112.8736896929
 10
110.4774640749
 20
112.9048323393
 10
110.4540781174
 20
112.9375170255
 10
110.4315022169
 20
112.9714380512
 10
110.4098927537
 20
113.0064013378
 10
110.3893904758
 20
113.0422030568
 10
110.3701967656
 20
113.0784887664
 10
110.3524137069
 20
113.1150333647
 10
110.3361271718
 20
113.1516029824
 10
110.3214632695
 20
113.1878119766
 10
110.3084570046
 20
113.2234277266
 10
110.297121777
 20
113.2582255427
 10
110.2874923672
 20
113.2918309896
 10
110.2795253338
 20
113.3240403955
 10
110.2731571588
 20
113.3546709098
 10
110.26832906
 20
113.3833965007
 10
110.2649226093
 20
113.4100714862
 10
110.2628050087
 20
113.4345581612
 10
110.2618285035
 20
113.456579985
 10
110.2617096279
 20
113.4669683107
  0
LWPOLYLINE
  5
2DB
100
AcDbEntity
  8
ASSI
100
AcDbPolyline
 62
7
  6
CONTINUOUS
 90
30
 70
0
 10
110.7183836547
 20
112.6759945441
 10
110.7056522978
 20
112.6836222037
 10
110.6867300082
 20
112.6959358205
 10
110.6662909061
 20
112.7104839277
 10
110.6446478743
 20
112.7272491372
 10
110.6219874099
 20
112.7462713396
 10
110.5984972655
 20
112.7675730285
 10
110.5744887247
 20
112.7910349229
 10
110.5501520421
 20
112.8166143058
 10
110.5256853393
 20
112.8442404829
 10
110.5013937341
 20
112.8736896929
 10
110.4774640749
 20
112.9048323393
 10
110.4540781174
 20
112.9375170255
 10
110.4315022169
 20
112.9714380512
 10
110.4098927537
 20
113.0064013378
 10
110.3893904758
 20
113.0422030568
 10
110.3701967656
 20
113.0784887664
 10
110.3524137069
 20
113.1150333647
 10
110.3361271718
 20
113.1516029824
 10
110.3214632695
 20
113.1878119766
 10
110.3084570046
 20
113.2234277266
 10
110.297121777
 20
113.2582255427
 10
110.2874923672
 20
113.2918309896
 10
110.2795253338
 20
113.3240403955
 10
110.2731571588
 20
113.3546709098
 10
110.26832906
 20
113.3833965007
 10
110.2649226093
 20
113.4100714862
 10
110.2628050087
 20
113.4345581612
 10
110.2618285035
 20
113.456579985
 10
110.2617096279
 20
113.4669683107
  0
LWPOLYLINE
  5
2DC
100
AcDbEntity
  8
0
100
AcDbPolyline
 62
250
  6
CONTINUOUS
 90
25
 70
0
 10
109.1029178623
 20
111.6993552337
 10
109.0705690264
 20
111.7192396153
 10
109.0385287131
 20
111.7413646089
 10
109.0067969223
 20
111.7657302144
 10
108.9752041905
 20
111.7924804833
 10
108.9439199813
 20
111.8214713642
 10
108.9134526854
 20
111.8522707027
 10
108.8838367214
 20
111.8849011229
 10
108.8550376708
 20
111.9193400008
 10
108.8274606686
 20
111.9550873101
 10
108.8011384369
 20
111.9921461113
 10
108.7760382535
 20
112.0305133438
 10
108.7524670872
 20
112.0696797994
 10
108.7304368325
 20
112.1096877451
 10
108.7099355948
 20
112.1504949139
 10
108.6912346586
 20
112.1914652961
 10
108.6744019653
 20
112.2324520112
 10
108.6593695734
 20
112.2736019397
 10
108.6462049439
 20
112.3147197146
 10
108.6348687287
 20
112.3558959917
 10
108.6254002759
 20
112.3970401152
 10
108.6179850902
 20
112.4376847499
 10
108.6126850066
 20
112.4776741173
 10
108.60943819
 20
112.517163996
 10
108.6082446407
 20
112.5561543858
  0
LWPOLYLINE
  5
2DD
100
AcDbEntity
  8
ASSI
100
AcDbPolyline
 62
250
  6
CONTINUOUS
 90
25
 70
0
 10
109.1029178623
 20
111.6993552337
 10
109.0705690264
 20
111.7192396153
 10
109.0385287131
 20
111.7413646089
 10
109.0067969223
 20
111.7657302144
 10
108.9752041905
 20
111.7924804833
 10
108.9439199813
 20
111.8214713642
 10
108.9134526854
 20
111.8522707027
 10
108.8838367214
 20
111.8849011229
 10
108.8550376708
 20
111.9193400008
 10
108.8274606686
 20
111.9550873101
 10
108.8011384369
 20
111.9921461113
 10
108.7760382535
 20
112.0305133438
 10
108.7524670872
 20
112.0696797994
 10
108.7304368325
 20
112.1096877451
 10
108.7099355948
 20
112.1504949139
 10
108.6912346586
 20
112.1914652961
 10
108.6744019653
 20
112.2324520112
 10
108.6593695734
 20
112.2736019397
 10
108.6462049439
 20
112.3147197146
 10
108.6348687287
 20
112.3558959917
 10
108.6254002759
 20
112.3970401152
 10
108.6179850902
 20
112.4376847499
 10
108.6126850066
 20
112.4776741173
 10
108.60943819
 20
112.517163996
 10
108.6082446407
 20
112.5561543858
  0
LWPOLYLINE
  5
2DE
100
AcDbEntity
  8
IMPORT_IGES
100
AcDbPolyline
 62
7
  6
CONTINUOUS
 90
49
 70
0
 10
151.0527982432
 20
85.5376777805
 10
151.0587490974
 20
85.5333513616
 10
151.0647003574
 20
85.5288389732
 10
151.0706454686
 20
85.5241449218
 10
151.0765778765
 20
85.5192735142
 10
151.0824910266
 20
85.514229057
 10
151.0883783644
 20
85.5090158568
 10
151.0942333354
 20
85.5036382202
 10
151.100049385
 20
85.4981004538
 10
151.1058199588
 20
85.4924068644
 10
151.1115385023
 20
85.4865617586
 10
151.117198461
 20
85.4805694429
 10
151.1227932803
 20
85.474434224
 10
151.1283164058
 20
85.4681604086
 10
151.1337612829
 20
85.4617523033
 10
151.1391213572
 20
85.4552142147
 10
151.1443900741
 20
85.4485504495
 10
151.1495608791
 20
85.4417653143
 10
151.1546272177
 20
85.4348631157
 10
151.1595825355
 20
85.4278481603
 10
151.1644202778
 20
85.4207247549
 10
151.1691338903
 20
85.413497206
 10
151.1737168184
 20
85.4061698203
 10
151.1781625075
 20
85.3987469044
 10
151.1824644033
 20
85.3912327649
 10
151.1865947516
 20
85.3836737283
 10
151.1905744852
 20
85.3760379135
 10
151.1944017211
 20
85.368334525
 10
151.198074576
 20
85.3605727673
 10
151.2015911671
 20
85.3527618447
 10
151.2049496112
 20
85.3449109617
 10
151.2081480252
 20
85.3370293228
 10
151.2111845261
 20
85.3291261323
 10
151.2140572309
 20
85.3212105947
 10
151.2167642564
 20
85.3132919144
 10
151.2193037196
 20
85.3053792958
 10
151.2216737375
 20
85.2974819434
 10
151.2238724269
 20
85.2896090616
 10
151.2258979048
 20
85.2817698548
 10
151.2277482881
 20
85.2739735275
 10
151.2294216939
 20
85.266229284
 10
151.2309162389
 20
85.2585463289
 10
151.2322300402
 20
85.2509338665
 10
151.2333612147
 20
85.2434011013
 10
151.2343078793
 20
85.2359572377
 10
151.2350681509
 20
85.2286114801
 10
151.2356401466
 20
85.221373033
 10
151.2360219831
 20
85.2142511007
 10
151.2362117775
 20
85.2072548878
  0
LWPOLYLINE
  5
2DF
100
AcDbEntity
  8
CURVE
100
AcDbPolyline
 62
250
  6
CONTINUOUS
 90
49
 70
0
 10
151.0527982432
 20
85.5376777805
 10
151.0587490974
 20
85.5333513616
 10
151.0647003574
 20
85.5288389732
 10
151.0706454686
 20
85.5241449218
 10
151.0765778765
 20
85.5192735142
 10
151.0824910266
 20
85.514229057
 10
151.0883783644
 20
85.5090158568
 10
151.0942333354
 20
85.5036382202
 10
151.100049385
 20
85.4981004538
 10
151.1058199588
 20
85.4924068644
 10
151.1115385023
 20
85.4865617586
 10
151.117198461
 20
85.4805694429
 10
151.1227932803
 20
85.474434224
 10
151.1283164058
 20
85.4681604086
 10
151.1337612829
 20
85.4617523033
 10
151.1391213572
 20
85.4552142147
 10
151.1443900741
 20
85.4485504495
 10
151.1495608791
 20
85.4417653143
 10
151.1546272177
 20
85.4348631157
 10
151.1595825355
 20
85.4278481603
 10
151.1644202778
 20
85.4207247549
 10
151.1691338903
 20
85.413497206
 10
151.1737168184
 20
85.4061698203
 10
151.1781625075
 20
85.3987469044
 10
151.1824644033
 20
85.3912327649
 10
151.1865947516
 20
85.3836737283
 10
151.1905744852
 20
85.3760379135
 10
151.1944017211
 20
85.368334525
 10
151.198074576
 20
85.3605727673
 10
151.2015911671
 20
85.3527618447
 10
151.2049496112
 20
85.3449109617
 10
151.2081480252
 20
85.3370293228
 10
151.2111845261
 20
85.3291261323
 10
151.2140572309
 20
85.3212105947
 10
151.2167642564
 20
85.3132919144
 10
151.2193037196
 20
85.3053792958
 10
151.2216737375
 20
85.2974819434
 10
151.2238724269
 20
85.2896090616
 10
151.2258979048
 20
85.2817698548
 10
151.2277482881
 20
85.2739735275
 10
151.2294216939
 20
85.266229284
 10
151.2309162389
 20
85.2585463289
 10
151.2322300402
 20
85.2509338665
 10
151.2333612147
 20
85.2434011013
 10
151.2343078793
 20
85.2359572377
 10
151.2350681509
 20
85.2286114801
 10
151.2356401466
 20
85.221373033
 10
151.2360219831
 20
85.2142511007
 10
151.2362117775
 20
85.2072548878
  0
LWPOLYLINE
  5
2E0
100
AcDbEntity
  8
0
100
AcDbPolyline
 62
7
  6
CONTINUOUS
 90
12
 70
0
 10
110.9441901112
 20
129.4434138815
 10
110.9422716422
 20
129.4463515803
 10
110.937817446
 20
129.4522247733
 10
110.932939821
 20
129.4575051051
 10
110.9276411455
 20
129.4621823635
 10
110.9218890819
 20
129.4661041417
 10
110.9156771129
 20
129.4693047472
 10
110.9090036673
 20
129.4717769037
 10
110.9018318856
 20
129.4733108656
 10
110.8941426067
 20
129.4738494482
 10
110.8859413169
 20
129.47348547
 10
110.8772243052
 20
129.4722375479
  0
LINE
  5
2E1
100
AcDbEntity
  8
0
100
AcDbLine
 62
250
  6
CONTINUOUS
 10
123.9628466842
 20
106.3835727041
 11
124.2987916492
 21
106.7103262939
  0
LINE
  5
2E2
100
AcDbEntity
  8
0
100
AcDbLine
 62
7
  6
CONTINUOUS
 10
123.9667715417
 20
106.3500375034
 11
124.3957559225
 21
106.7672849724
  0
LWPOLYLINE
  5
2E3
100
AcDbEntity
  8
0
100
AcDbPolyline
 62
250
  6
CONTINUOUS
 90
6
 70
0
 10
123.9081572544
 20
106.3055735291
 10
123.9204682532
 20
106.3139974073
 10
123.9317426282
 20
106.3244512162
 10
123.941688509
 20
106.3367360823
 10
123.9502284481
 20
106.3507573723
 10
123.957299143
 20
106.366409326
  0
LINE
  5
2E4
100
AcDbEntity
  8
0
100
AcDbLine
 62
7
  6
CONTINUOUS
 10
124.6608054699
 20
107.4110632377
 11
122.3752695161
 21
105.9454547438
  0
LINE
  5
2E5
100
AcDbEntity
  8
0
100
AcDbLine
 62
7
  6
CONTINUOUS
 10
122.6886625778
 20
105.7645055177
 11
125.9073260972
 21
107.6552103577
  0
LINE
  5
2E6
100
AcDbEntity
  8
0
100
AcDbLine
 62
250
  6
CONTINUOUS
 10
123.9628466842
 20
106.3835727041
 11
122.7921678611
 21
105.7047428643
  0
LINE
  5
2E7
100
AcDbEntity
  8
0
100
AcDbLine
 62
7
  6
CONTINUOUS
 10
118.1181315092
 20
108.4531680104
 11
118.2595528655
 21
108.5348229291
  0
LINE
  5
2E8
100
AcDbEntity
  8
0
100
AcDbLine
 62
7
  6
CONTINUOUS
 10
118.4716848998
 20
108.6573053071
 11
118.6131062561
 21
108.7389602257
  0
LINE
  5
2E9
100
AcDbEntity
  8
0
100
AcDbLine
 62
7
  6
CONTINUOUS
 10
118.8252382904
 20
108.8614426037
 11
118.9666596466
 21
108.9430975224
  0
LINE
  5
2EA
100
AcDbEntity
  8
0
100
AcDbLine
 62
7
  6
CONTINUOUS
 10
119.178791681
 20
109.0655799004
 11
119.3202130372
 21
109.1472348191
  0
LINE
  5
2EB
100
AcDbEntity
  8
0
100
AcDbLine
 62
7
  6
CONTINUOUS
 10
119.5323450716
 20
109.2697171971
 11
119.6737664278
 21
109.3513721157
  0
LINE
  5
2EC
100
AcDbEntity
  8
0
100
AcDbLine
 62
7
  6
CONTINUOUS
 10
119.8858984622
 20
109.4738544937
 11
120.0273198184
 21
109.5555094124
  0
LINE
  5
2ED
100
AcDbEntity
  8
0
100
AcDbLine
 62
7
  6
CONTINUOUS
 10
120.2394518528
 20
109.6779917904
 11
120.380873209
 21
109.759646709
  0
LINE
  5
2EE
100
AcDbEntity
  8
0
100
AcDbLine
 62
7
  6
CONTINUOUS
 10
122.0072188057
 20
106.2076577471
 11
122.148640162
 21
106.2893126658
  0
LINE
  5
2EF
100
AcDbEntity
  8
0
100
AcDbLine
 62
7
  6
CONTINUOUS
 10
122.3607721963
 20
106.4117950438
 11
122.5021935526
 21
106.4934499624
  0
LINE
  5
2F0
100
AcDbEntity
  8
0
100
AcDbLine
 62
7
  6
CONTINUOUS
 10
122.7143255869
 20
106.6159323404
 11
122.8557469432
 21
106.6975872591
  0
LINE
  5
2F1
100
AcDbEntity
  8
0
100
AcDbLine
 62
7
  6
CONTINUOUS
 10
123.0678789775
 20
106.8200696371
 11
123.2093003338
 21
106.9017245557
  0
LINE
  5
2F2
100
AcDbEntity
  8
0
100
AcDbLine
 62
7
  6
CONTINUOUS
 10
123.4214323681
 20
107.0242069337
 11
123.5628537244
 21
107.1058618524
  0
LINE
  5
2F3
100
AcDbEntity
  8
0
100
AcDbLine
 62
7
  6
CONTINUOUS
 10
123.7749857587
 20
107.2283442304
 11
123.916407115
 21
107.3099991491
  0
LINE
  5
2F4
100
AcDbEntity
  8
0
100
AcDbLine
 62
7
  6
CONTINUOUS
 10
124.1285391493
 20
107.4324815271
 11
124.2699605055
 21
107.5141364457
  0
LINE
  5
2F5
100
AcDbEntity
  8
0
100
AcDbLine
 62
7
  6
CONTINUOUS
 10
124.3760265227
 20
107.4529070932
 11
122.0702400954
 21
106.1215749084
  0
LINE
  5
2F6
100
AcDbEntity
  8
0
100
AcDbLine
 62
7
  6
CONTINUOUS
 10
117.8761233782
 20
108.5432053362
 11
120.4144682116
 21
109.8628451515
  0
LINE
  5
2F7
100
AcDbEntity
  8
0
100
AcDbLine
 62
7
  6
CONTINUOUS
 10
120.4885153646
 20
109.8972889476
 11
121.7988696203
 21
110.4347512743
  0
LWPOLYLINE
  5
2F8
100
AcDbEntity
  8
0
100
AcDbPolyline
 62
250
  6
CONTINUOUS
 90
10
 70
0
 10
110.7183836547
 20
112.6759945441
 10
110.7008545684
 20
112.6847843277
 10
110.677306935
 20
112.6929452286
 10
110.6522391243
 20
112.6978320453
 10
110.6258335378
 20
112.6994092197
 10
110.5982823107
 20
112.6976652759
 10
110.5697859145
 20
112.6926129033
 10
110.540551698
 20
112.6842888646
 10
110.5107923786
 20
112.6727537281
 10
110.4807244945
 20
112.6580914271
  0
LWPOLYLINE
  5
2F9
100
AcDbEntity
  8
ASSI
100
AcDbPolyline
 62
250
  6
CONTINUOUS
 90
10
 70
0
 10
110.7183836547
 20
112.6759945441
 10
110.7008545684
 20
112.6847843277
 10
110.677306935
 20
112.6929452286
 10
110.6522391243
 20
112.6978320453
 10
110.6258335378
 20
112.6994092197
 10
110.5982823107
 20
112.6976652759
 10
110.5697859145
 20
112.6926129033
 10
110.540551698
 20
112.6842888646
 10
110.5107923786
 20
112.6727537281
 10
110.4807244945
 20
112.6580914271
  0
LWPOLYLINE
  5
2FA
100
AcDbEntity
  8
0
100
AcDbPolyline
 62
250
  6
CONTINUOUS
 90
16
 70
0
 10
108.6082446407
 20
112.5561543858
 10
108.6234405597
 20
112.5482357959
 10
108.6399587025
 20
112.5412554972
 10
108.6576260399
 20
112.5352866092
 10
108.676257505
 20
112.5303916564
 10
108.6956579311
 20
112.526621914
 10
108.7156240971
 20
112.5240168703
 10
108.7359468552
 20
112.5226038136
 10
108.7564133228
 20
112.5223975457
 10
108.7768091114
 20
112.5234002272
 10
108.7969205732
 20
112.525601355
 10
108.8165370388
 20
112.5289778721
 10
108.8354530236
 20
112.5334944091
 10
108.8534703809
 20
112.5391036548
 10
108.8704003771
 20
112.5457468519
 10
108.8860656689
 20
112.5533544122
  0
LWPOLYLINE
  5
2FB
100
AcDbEntity
  8
ASSI
100
AcDbPolyline
 62
250
  6
CONTINUOUS
 90
16
 70
0
 10
108.6082446407
 20
112.5561543858
 10
108.6234405597
 20
112.5482357959
 10
108.6399587025
 20
112.5412554972
 10
108.6576260399
 20
112.5352866092
 10
108.676257505
 20
112.5303916564
 10
108.6956579311
 20
112.526621914
 10
108.7156240971
 20
112.5240168703
 10
108.7359468552
 20
112.5226038136
 10
108.7564133228
 20
112.5223975457
 10
108.7768091114
 20
112.5234002272
 10
108.7969205732
 20
112.525601355
 10
108.8165370388
 20
112.5289778721
 10
108.8354530236
 20
112.5334944091
 10
108.8534703809
 20
112.5391036548
 10
108.8704003771
 20
112.5457468519
 10
108.8860656689
 20
112.5533544122
  0
LINE
  5
2FC
100
AcDbEntity
  8
0
100
AcDbLine
 62
7
  6
CONTINUOUS
 10
110.7183977392
 20
112.6759864128
 11
188.5927549504
 21
67.712308554
  0
LINE
  5
2FD
100
AcDbEntity
  8
ASSI
100
AcDbLine
 62
7
  6
CONTINUOUS
 10
110.7183977392
 20
112.6759864128
 11
188.5927549504
 21
67.712308554
  0
LINE
  5
2FE
100
AcDbEntity
  8
0
100
AcDbLine
 62
7
  6
CONTINUOUS
 10
185.6468291125
 20
69.4629443476
 11
181.757741816
 21
71.7084546109
  0
LINE
  5
2FF
100
AcDbEntity
  8
0
100
AcDbLine
 62
7
  6
CONTINUOUS
 10
122.0072188057
 20
106.2076577471
 11
118.1181315092
 21
108.4531680104
  0
LINE
  5
300
100
AcDbEntity
  8
0
100
AcDbLine
 62
7
  6
CONTINUOUS
 10
185.894316486
 20
69.4833699137
 11
181.8991631722
 21
71.7901095296
  0
LINE
  5
301
100
AcDbEntity
  8
0
100
AcDbLine
 62
7
  6
CONTINUOUS
 10
118.2595528655
 20
108.5348229291
 11
122.2547061792
 21
106.2280833132
  0
LINE
  5
302
100
AcDbEntity
  8
0
100
AcDbLine
 62
7
  6
CONTINUOUS
 10
186.0003825031
 20
69.6670816443
 11
182.1112952066
 21
71.9125919076
  0
LINE
  5
303
100
AcDbEntity
  8
0
100
AcDbLine
 62
7
  6
CONTINUOUS
 10
122.3607721963
 20
106.4117950438
 11
118.4716848998
 21
108.6573053071
  0
LINE
  5
304
100
AcDbEntity
  8
0
100
AcDbLine
 62
7
  6
CONTINUOUS
 10
186.2478698765
 20
69.6875072104
 11
182.2527165628
 21
71.9942468262
  0
LINE
  5
305
100
AcDbEntity
  8
0
100
AcDbLine
 62
7
  6
CONTINUOUS
 10
118.6131062561
 20
108.7389602257
 11
122.6082595698
 21
106.4322206099
  0
LINE
  5
306
100
AcDbEntity
  8
0
100
AcDbLine
 62
7
  6
CONTINUOUS
 10
186.3539358937
 20
69.8712189409
 11
182.4648485972
 21
72.1167292042
  0
LINE
  5
307
100
AcDbEntity
  8
0
100
AcDbLine
 62
7
  6
CONTINUOUS
 10
122.7143255869
 20
106.6159323404
 11
118.8252382904
 21
108.8614426037
  0
LINE
  5
308
100
AcDbEntity
  8
0
100
AcDbLine
 62
7
  6
CONTINUOUS
 10
186.6014232671
 20
69.8916445071
 11
182.6062699534
 21
72.1983841229
  0
LINE
  5
309
100
AcDbEntity
  8
0
100
AcDbLine
 62
7
  6
CONTINUOUS
 10
118.9666596466
 20
108.9430975224
 11
122.9618129603
 21
106.6363579066
  0
LINE
  5
30A
100
AcDbEntity
  8
0
100
AcDbLine
 62
7
  6
CONTINUOUS
 10
186.7074892843
 20
70.0753562376
 11
182.8184019878
 21
72.3208665009
  0
LINE
  5
30B
100
AcDbEntity
  8
0
100
AcDbLine
 62
7
  6
CONTINUOUS
 10
123.0678789775
 20
106.8200696371
 11
119.178791681
 21
109.0655799004
  0
LINE
  5
30C
100
AcDbEntity
  8
0
100
AcDbLine
 62
7
  6
CONTINUOUS
 10
186.9549766577
 20
70.0957818037
 11
182.959823344
 21
72.4025214196
  0
LINE
  5
30D
100
AcDbEntity
  8
0
100
AcDbLine
 62
7
  6
CONTINUOUS
 10
119.3202130372
 20
109.1472348191
 11
123.3153663509
 21
106.8404952032
  0
LINE
  5
30E
100
AcDbEntity
  8
0
100
AcDbLine
 62
7
  6
CONTINUOUS
 10
187.0610426749
 20
70.2794935343
 11
183.1719553784
 21
72.5250037976
  0
LINE
  5
30F
100
AcDbEntity
  8
0
100
AcDbLine
 62
7
  6
CONTINUOUS
 10
123.4214323681
 20
107.0242069337
 11
119.5323450716
 21
109.2697171971
  0
LINE
  5
310
100
AcDbEntity
  8
0
100
AcDbLine
 62
7
  6
CONTINUOUS
 10
187.3085300483
 20
70.2999191004
 11
183.3133767346
 21
72.6066587162
  0
LINE
  5
311
100
AcDbEntity
  8
0
100
AcDbLine
 62
7
  6
CONTINUOUS
 10
119.6737664278
 20
109.3513721157
 11
123.6689197415
 21
107.0446324999
  0
LINE
  5
312
100
AcDbEntity
  8
0
100
AcDbLine
 62
7
  6
CONTINUOUS
 10
187.4145960655
 20
70.4836308309
 11
183.525508769
 21
72.7291410942
  0
LINE
  5
313
100
AcDbEntity
  8
0
100
AcDbLine
 62
7
  6
CONTINUOUS
 10
123.7749857587
 20
107.2283442304
 11
119.8858984622
 21
109.4738544937
  0
LINE
  5
314
100
AcDbEntity
  8
0
100
AcDbLine
 62
7
  6
CONTINUOUS
 10
187.6620834389
 20
70.5040563971
 11
183.6669301252
 21
72.8107960129
  0
LINE
  5
315
100
AcDbEntity
  8
0
100
AcDbLine
 62
7
  6
CONTINUOUS
 10
120.0273198184
 20
109.5555094124
 11
124.0224731321
 21
107.2487697966
  0
LINE
  5
316
100
AcDbEntity
  8
0
100
AcDbLine
 62
7
  6
CONTINUOUS
 10
187.7681494561
 20
70.6877681276
 11
183.8790621596
 21
72.9332783909
  0
LINE
  5
317
100
AcDbEntity
  8
0
100
AcDbLine
 62
7
  6
CONTINUOUS
 10
124.1285391493
 20
107.4324815271
 11
120.2394518528
 21
109.6779917904
  0
LINE
  5
318
100
AcDbEntity
  8
0
100
AcDbLine
 62
7
  6
CONTINUOUS
 10
188.0156368295
 20
70.7081936937
 11
184.0204835158
 21
73.0149333095
  0
LINE
  5
319
100
AcDbEntity
  8
0
100
AcDbLine
 62
7
  6
CONTINUOUS
 10
120.380873209
 20
109.759646709
 11
124.3760265227
 21
107.4529070932
  0
LINE
  5
31A
100
AcDbEntity
  8
0
100
AcDbLine
 62
250
  6
CONTINUOUS
 10
188.3004157767
 20
70.6663498382
 11
184.0540785184
 21
73.118131752
  0
LINE
  5
31B
100
AcDbEntity
  8
0
100
AcDbLine
 62
250
  6
CONTINUOUS
 10
124.6608054699
 20
107.4110632377
 11
120.4144682116
 21
109.8628451515
  0
LINE
  5
31C
100
AcDbEntity
  8
0
100
AcDbLine
 62
250
  6
CONTINUOUS
 10
188.3670881327
 20
70.7050517496
 11
184.1281256714
 21
73.1525755481
  0
LINE
  5
31D
100
AcDbEntity
  8
0
100
AcDbLine
 62
250
  6
CONTINUOUS
 10
124.7274778259
 20
107.4497651491
 11
120.4885153646
 21
109.8972889476
  0
LINE
  5
31E
100
AcDbEntity
  8
0
100
AcDbLine
 62
7
  6
CONTINUOUS
 10
136.8490400745
 20
100.5350215887
 11
140.540837609
 21
98.4034239614
  0
LINE
  5
31F
100
AcDbEntity
  8
0
100
AcDbLine
 62
7
  6
CONTINUOUS
 10
152.7589426512
 20
91.3488432388
 11
156.4507401857
 21
89.2172456115
  0
LINE
  5
320
100
AcDbEntity
  8
0
100
AcDbLine
 62
7
  6
CONTINUOUS
 10
168.6688452279
 20
82.1626648889
 11
172.3606427624
 21
80.0310672616
  0
LINE
  5
321
100
AcDbEntity
  8
0
100
AcDbLine
 62
7
  6
CONTINUOUS
 10
122.0741170978
 20
110.4151149008
 11
125.9001184883
 21
108.2060296489
  0
LINE
  5
322
100
AcDbEntity
  8
0
100
AcDbLine
 62
7
  6
CONTINUOUS
 10
185.7137274046
 20
73.6704015013
 11
188.5927549504
 21
72.008087079
  0
LWPOLYLINE
  5
323
100
AcDbEntity
  8
0
100
AcDbPolyline
 62
250
  6
CONTINUOUS
 90
9
 70
0
 10
188.6513335942
 20
66.3402779995
 10
188.6376188754
 20
66.3490520763
 10
188.6255293019
 20
66.3585895855
 10
188.6151915035
 20
66.3687906126
 10
188.6067137587
 20
66.3795482929
 10
188.6001848584
 20
66.390749934
 10
188.5956731778
 20
66.4022781967
 10
188.5932259637
 20
66.414012318
 10
188.5927549834
 20
66.4218666389
  0
LWPOLYLINE
  5
324
100
AcDbEntity
  8
ASSI
100
AcDbPolyline
 62
250
  6
CONTINUOUS
 90
9
 70
0
 10
188.6513335942
 20
66.3402779995
 10
188.6376188754
 20
66.3490520763
 10
188.6255293019
 20
66.3585895855
 10
188.6151915035
 20
66.3687906126
 10
188.6067137587
 20
66.3795482929
 10
188.6001848584
 20
66.390749934
 10
188.5956731778
 20
66.4022781967
 10
188.5932259637
 20
66.414012318
 10
188.5927549834
 20
66.4218666389
  0
LWPOLYLINE
  5
325
100
AcDbEntity
  8
IMPORT_IGES
100
AcDbPolyline
 62
7
  6
CONTINUOUS
 90
30
 70
0
 10
151.2871042509
 20
85.6579059839
 10
151.2683076648
 20
85.6762334304
 10
151.2493285565
 20
85.6940327983
 10
151.2301835542
 20
85.7113227263
 10
151.2108892857
 20
85.7281218536
 10
151.1914623793
 20
85.7444488188
 10
151.171919463
 20
85.7603222611
 10
151.1522771648
 20
85.7757608192
 10
151.1325521128
 20
85.790783132
 10
151.1127609351
 20
85.8054078385
 10
151.0929202598
 20
85.8196535776
 10
151.0730467148
 20
85.8335389882
 10
151.0531569284
 20
85.8470827091
 10
151.0239223737
 20
85.8664032306
 10
150.9946898838
 20
85.8850654751
 10
150.9654606884
 20
85.9031089307
 10
150.9362360175
 20
85.9205730857
 10
150.9070171008
 20
85.9374974283
 10
150.8778051681
 20
85.9539214467
 10
150.8486014494
 20
85.9698846291
 10
150.8194071743
 20
85.9854264637
 10
150.7822053089
 20
86.0046819473
 10
150.7450257273
 20
86.0233425851
 10
150.7078733669
 20
86.0414341315
 10
150.6707531648
 20
86.0589823414
 10
150.6336700584
 20
86.0760129692
 10
150.5966289847
 20
86.0925517695
 10
150.559634881
 20
86.1086244969
 10
150.5226926845
 20
86.1242569061
 10
150.4858073325
 20
86.1394747515
  0
LWPOLYLINE
  5
326
100
AcDbEntity
  8
CURVE
100
AcDbPolyline
 62
250
  6
CONTINUOUS
 90
30
 70
0
 10
151.2871042509
 20
85.6579059839
 10
151.2683076648
 20
85.6762334304
 10
151.2493285565
 20
85.6940327983
 10
151.2301835542
 20
85.7113227263
 10
151.2108892857
 20
85.7281218536
 10
151.1914623793
 20
85.7444488188
 10
151.171919463
 20
85.7603222611
 10
151.1522771648
 20
85.7757608192
 10
151.1325521128
 20
85.790783132
 10
151.1127609351
 20
85.8054078385
 10
151.0929202598
 20
85.8196535776
 10
151.0730467148
 20
85.8335389882
 10
151.0531569284
 20
85.8470827091
 10
151.0239223737
 20
85.8664032306
 10
150.9946898838
 20
85.8850654751
 10
150.9654606884
 20
85.9031089307
 10
150.9362360175
 20
85.9205730857
 10
150.9070171008
 20
85.9374974283
 10
150.8778051681
 20
85.9539214467
 10
150.8486014494
 20
85.9698846291
 10
150.8194071743
 20
85.9854264637
 10
150.7822053089
 20
86.0046819473
 10
150.7450257273
 20
86.0233425851
 10
150.7078733669
 20
86.0414341315
 10
150.6707531648
 20
86.0589823414
 10
150.6336700584
 20
86.0760129692
 10
150.5966289847
 20
86.0925517695
 10
150.559634881
 20
86.1086244969
 10
150.5226926845
 20
86.1242569061
 10
150.4858073325
 20
86.1394747515
  0
LWPOLYLINE
  5
327
100
AcDbEntity
  8
0
100
AcDbPolyline
 62
250
  6
CONTINUOUS
 90
4
 70
0
 10
110.8166238767
 20
134.5954124055
 10
110.8243078871
 20
134.5874424262
 10
110.8279710092
 20
134.5835920091
 10
110.8315120073
 20
134.579827802
  0
LINE
  5
328
100
AcDbEntity
  8
SMUSSO
100
AcDbLine
 62
7
  6
CONTINUOUS
 10
93.1524696255
 20
176.1464716469
 11
93.152844933
 21
176.1458352854
  0
LINE
  5
329
100
AcDbEntity
  8
ASSI
100
AcDbLine
 62
7
  6
CONTINUOUS
 10
93.1524696255
 20
176.1464716469
 11
93.152844933
 21
176.1458352854
  0
LINE
  5
32A
100
AcDbEntity
  8
0
100
AcDbLine
 62
250
  6
CONTINUOUS
 10
140.5516490223
 20
98.1670629923
 11
140.5516490223
 21
97.7380402983
  0
LINE
  5
32B
100
AcDbEntity
  8
0
100
AcDbLine
 62
7
  6
CONTINUOUS
 10
140.6287055746
 20
98.2815676627
 11
140.6287055746
 21
97.8835218779
  0
LINE
  5
32C
100
AcDbEntity
  8
0
100
AcDbLine
 62
7
  6
CONTINUOUS
 10
123.908157196
 20
106.3055734952
 11
122.8325195804
 21
105.6814442873
  0
LINE
  5
32D
100
AcDbEntity
  8
0
100
AcDbLine
 62
7
  6
CONTINUOUS
 10
125.9073260972
 20
108.0625799955
 11
124.7274778259
 21
107.4497651491
  0
LINE
  5
32E
100
AcDbEntity
  8
SMUSSO
100
AcDbLine
 62
7
  6
CONTINUOUS
 10
204.0820001882
 20
110.9309785902
 11
205.4989593191
 21
111.2785968664
  0
LINE
  5
32F
100
AcDbEntity
  8
ASSI
100
AcDbLine
 62
7
  6
CONTINUOUS
 10
204.0820001882
 20
110.9309785902
 11
205.4989593191
 21
111.2785968664
  0
LWPOLYLINE
  5
330
100
AcDbEntity
  8
0
100
AcDbPolyline
 62
250
  6
CONTINUOUS
 90
21
 70
0
 10
110.8315120073
 20
134.579827802
 10
110.8352553572
 20
134.5762324813
 10
110.838963069
 20
134.5734792611
 10
110.8426199411
 20
134.5715705262
 10
110.8462300824
 20
134.5705693412
 10
110.8497549323
 20
134.5704171237
 10
110.8531235651
 20
134.5709306512
 10
110.8563074742
 20
134.5720526063
 10
110.8593216344
 20
134.573836588
 10
110.8621674025
 20
134.5762632842
 10
110.8648308576
 20
134.57931623
 10
110.8673057664
 20
134.5830083569
 10
110.869597645
 20
134.5873654306
 10
110.8716887644
 20
134.5923522699
 10
110.8735652072
 20
134.5980002227
 10
110.875225059
 20
134.6044360035
 10
110.8766465402
 20
134.6116521764
 10
110.8777999164
 20
134.6196506687
 10
110.8786607049
 20
134.6285721142
 10
110.8792010787
 20
134.6384354593
 10
110.8793892893
 20
134.6492778417
  0
LWPOLYLINE
  5
331
100
AcDbEntity
  8
0
100
AcDbPolyline
 62
250
  6
CONTINUOUS
 90
6
 70
0
 10
110.7951912294
 20
134.6168605279
 10
110.7997445459
 20
134.612398752
 10
110.804165682
 20
134.6080260894
 10
110.8084543128
 20
134.6037402302
 10
110.8126053745
 20
134.5995352476
 10
110.8166238767
 20
134.5954124055
  0
LINE
  5
332
100
AcDbEntity
  8
IMPORT_IGES
100
AcDbLine
 62
7
  6
CONTINUOUS
 10
148.2442524292
 20
85.6586214862
 11
147.8633463473
 21
87.0513604511
  0
LINE
  5
333
100
AcDbEntity
  8
CURVE
100
AcDbLine
 62
250
  6
CONTINUOUS
 10
148.2442524292
 20
85.6586214862
 11
147.8633463473
 21
87.0513604511
  0
LINE
  5
334
100
AcDbEntity
  8
IMPORT_IGES
100
AcDbLine
 62
7
  6
CONTINUOUS
 10
147.9475291567
 20
87.6260289153
 11
148.2687944208
 21
86.4433436608
  0
LINE
  5
335
100
AcDbEntity
  8
CURVE
100
AcDbLine
 62
250
  6
CONTINUOUS
 10
147.9475291567
 20
87.6260289153
 11
148.2687944208
 21
86.4433436608
  0
LWPOLYLINE
  5
336
100
AcDbEntity
  8
IMPORT_IGES
100
AcDbPolyline
 62
7
  6
CONTINUOUS
 90
5
 70
0
 10
151.1644397426
 20
84.5171729562
 10
151.1697956823
 20
84.4971171749
 10
151.1748931248
 20
84.4771057134
 10
151.1797769994
 20
84.4571312997
 10
151.1844922358
 20
84.4371866612
  0
LWPOLYLINE
  5
337
100
AcDbEntity
  8
CURVE
100
AcDbPolyline
 62
250
  6
CONTINUOUS
 90
5
 70
0
 10
151.1644397426
 20
84.5171729562
 10
151.1697956823
 20
84.4971171749
 10
151.1748931248
 20
84.4771057134
 10
151.1797769994
 20
84.4571312997
 10
151.1844922358
 20
84.4371866612
  0
LINE
  5
338
100
AcDbEntity
  8
IMPORT_IGES
100
AcDbLine
 62
7
  6
CONTINUOUS
 10
146.0765278639
 20
86.9102384823
 11
145.5834027288
 21
88.9910458853
  0
LINE
  5
339
100
AcDbEntity
  8
CURVE
100
AcDbLine
 62
250
  6
CONTINUOUS
 10
146.0765278639
 20
86.9102384823
 11
145.5834027288
 21
88.9910458853
  0
LINE
  5
33A
100
AcDbEntity
  8
IMPORT_IGES
100
AcDbLine
 62
7
  6
CONTINUOUS
 10
149.9131937932
 20
86.4910787898
 11
150.3904610829
 21
84.4194275079
  0
LINE
  5
33B
100
AcDbEntity
  8
CURVE
100
AcDbLine
 62
250
  6
CONTINUOUS
 10
149.9131937932
 20
86.4910787898
 11
150.3904610829
 21
84.4194275079
  0
LINE
  5
33C
100
AcDbEntity
  8
IMPORT_IGES
100
AcDbLine
 62
7
  6
CONTINUOUS
 10
151.1844922358
 20
84.4371866612
 11
151.1935965123
 21
84.3973576209
  0
LINE
  5
33D
100
AcDbEntity
  8
CURVE
100
AcDbLine
 62
250
  6
CONTINUOUS
 10
151.1844922358
 20
84.4371866612
 11
151.1935965123
 21
84.3973576209
  0
LINE
  5
33E
100
AcDbEntity
  8
IMPORT_IGES
100
AcDbLine
 62
7
  6
CONTINUOUS
 10
151.1935965123
 20
84.3973576209
 11
151.2598625572
 21
84.1026286354
  0
LINE
  5
33F
100
AcDbEntity
  8
CURVE
100
AcDbLine
 62
250
  6
CONTINUOUS
 10
151.1935965123
 20
84.3973576209
 11
151.2598625572
 21
84.1026286354
  0
LWPOLYLINE
  5
340
100
AcDbEntity
  8
IMPORT_IGES
100
AcDbPolyline
 62
7
  6
CONTINUOUS
 90
37
 70
0
 10
151.4924344674
 20
84.3329983043
 10
151.4892071643
 20
84.3475616835
 10
151.4858861988
 20
84.362144003
 10
151.4824551896
 20
84.3767457554
 10
151.4788977554
 20
84.3913674332
 10
151.4751975149
 20
84.4060095292
 10
151.4713380866
 20
84.4206725358
 10
151.4673030893
 20
84.4353569457
 10
151.4630761416
 20
84.4500632516
 10
151.4586408622
 20
84.4647919459
 10
151.4539808697
 20
84.4795435214
 10
151.4490797829
 20
84.4943184707
 10
151.4455706053
 20
84.5044634928
 10
151.4419335567
 20
84.514612872
 10
151.4381618569
 20
84.5247597409
 10
151.4342487259
 20
84.5348972323
 10
151.4301873834
 20
84.5450184789
 10
151.4259710493
 20
84.5551166133
 10
151.4215929434
 20
84.5651847683
 10
151.4170462857
 20
84.5752160766
 10
151.4123242959
 20
84.5852036709
 10
151.4074201939
 20
84.5951406839
 10
151.4023271995
 20
84.6050202483
 10
151.3970385327
 20
84.6148354968
 10
151.3920188781
 20
84.6237615749
 10
151.3868350052
 20
84.6326130096
 10
151.3814925347
 20
84.6413748736
 10
151.3759970875
 20
84.6500322398
 10
151.3703542842
 20
84.6585701807
 10
151.3645697457
 20
84.6669737693
 10
151.3586490928
 20
84.6752280782
 10
151.3525979463
 20
84.6833181802
 10
151.3464219269
 20
84.691229148
 10
151.3401266555
 20
84.6989460544
 10
151.3337177528
 20
84.7064539721
 10
151.3272008396
 20
84.7137379738
 10
151.3205815368
 20
84.7207831324
  0
LWPOLYLINE
  5
341
100
AcDbEntity
  8
CURVE
100
AcDbPolyline
 62
250
  6
CONTINUOUS
 90
37
 70
0
 10
151.4924344674
 20
84.3329983043
 10
151.4892071643
 20
84.3475616835
 10
151.4858861988
 20
84.362144003
 10
151.4824551896
 20
84.3767457554
 10
151.4788977554
 20
84.3913674332
 10
151.4751975149
 20
84.4060095292
 10
151.4713380866
 20
84.4206725358
 10
151.4673030893
 20
84.4353569457
 10
151.4630761416
 20
84.4500632516
 10
151.4586408622
 20
84.4647919459
 10
151.4539808697
 20
84.4795435214
 10
151.4490797829
 20
84.4943184707
 10
151.4455706053
 20
84.5044634928
 10
151.4419335567
 20
84.514612872
 10
151.4381618569
 20
84.5247597409
 10
151.4342487259
 20
84.5348972323
 10
151.4301873834
 20
84.5450184789
 10
151.4259710493
 20
84.5551166133
 10
151.4215929434
 20
84.5651847683
 10
151.4170462857
 20
84.5752160766
 10
151.4123242959
 20
84.5852036709
 10
151.4074201939
 20
84.5951406839
 10
151.4023271995
 20
84.6050202483
 10
151.3970385327
 20
84.6148354968
 10
151.3920188781
 20
84.6237615749
 10
151.3868350052
 20
84.6326130096
 10
151.3814925347
 20
84.6413748736
 10
151.3759970875
 20
84.6500322398
 10
151.3703542842
 20
84.6585701807
 10
151.3645697457
 20
84.6669737693
 10
151.3586490928
 20
84.6752280782
 10
151.3525979463
 20
84.6833181802
 10
151.3464219269
 20
84.691229148
 10
151.3401266555
 20
84.6989460544
 10
151.3337177528
 20
84.7064539721
 10
151.3272008396
 20
84.7137379738
 10
151.3205815368
 20
84.7207831324
  0
LINE
  5
342
100
AcDbEntity
  8
IMPORT_IGES
100
AcDbLine
 62
7
  6
CONTINUOUS
 10
151.2598625572
 20
84.1026286354
 11
151.3064207615
 21
83.8905635289
  0
LINE
  5
343
100
AcDbEntity
  8
CURVE
100
AcDbLine
 62
250
  6
CONTINUOUS
 10
151.2598625572
 20
84.1026286354
 11
151.3064207615
 21
83.8905635289
  0
LINE
  5
344
100
AcDbEntity
  8
IMPORT_IGES
100
AcDbLine
 62
7
  6
CONTINUOUS
 10
145.936121448
 20
88.7873905175
 11
146.2326291539
 21
87.379891214
  0
LINE
  5
345
100
AcDbEntity
  8
CURVE
100
AcDbLine
 62
250
  6
CONTINUOUS
 10
145.936121448
 20
88.7873905175
 11
146.2326291539
 21
87.379891214
  0
LINE
  5
346
100
AcDbEntity
  8
IMPORT_IGES
100
AcDbLine
 62
7
  6
CONTINUOUS
 10
150.0482466029
 20
84.6170178597
 11
149.9641334267
 21
85.0241455237
  0
LINE
  5
347
100
AcDbEntity
  8
CURVE
100
AcDbLine
 62
250
  6
CONTINUOUS
 10
150.0482466029
 20
84.6170178597
 11
149.9641334267
 21
85.0241455237
  0
LINE
  5
348
100
AcDbEntity
  8
IMPORT_IGES
100
AcDbLine
 62
7
  6
CONTINUOUS
 10
149.8992434525
 20
85.3390662648
 11
149.7500417734
 21
86.0917627188
  0
LINE
  5
349
100
AcDbEntity
  8
CURVE
100
AcDbLine
 62
250
  6
CONTINUOUS
 10
149.8992434525
 20
85.3390662648
 11
149.7500417734
 21
86.0917627188
  0
LINE
  5
34A
100
AcDbEntity
  8
IMPORT_IGES
100
AcDbLine
 62
7
  6
CONTINUOUS
 10
148.9147429011
 20
87.0675718214
 11
149.0601999448
 21
85.1875036169
  0
LINE
  5
34B
100
AcDbEntity
  8
CURVE
100
AcDbLine
 62
250
  6
CONTINUOUS
 10
148.9147429011
 20
87.0675718214
 11
149.0601999448
 21
85.1875036169
  0
LINE
  5
34C
100
AcDbEntity
  8
IMPORT_IGES
100
AcDbLine
 62
7
  6
CONTINUOUS
 10
148.742562273
 20
85.3709036277
 11
148.6758529468
 21
86.5773401444
  0
LINE
  5
34D
100
AcDbEntity
  8
CURVE
100
AcDbLine
 62
250
  6
CONTINUOUS
 10
148.742562273
 20
85.3709036277
 11
148.6758529468
 21
86.5773401444
  0
LWPOLYLINE
  5
34E
100
AcDbEntity
  8
IMPORT_IGES
100
AcDbPolyline
 62
7
  6
CONTINUOUS
 90
58
 70
0
 10
151.2362117775
 20
85.2072548878
 10
151.236260693
 20
85.1988995478
 10
151.236179918
 20
85.1905950525
 10
151.2359614058
 20
85.1823549511
 10
151.2355971101
 20
85.174192793
 10
151.2350789844
 20
85.1661221272
 10
151.2343989821
 20
85.1581565031
 10
151.2335490568
 20
85.1503094699
 10
151.232521162
 20
85.1425945768
 10
151.2313072512
 20
85.1350253731
 10
151.2298992779
 20
85.1276154079
 10
151.2282891956
 20
85.1203782306
 10
151.2264689578
 20
85.1133273904
 10
151.224430518
 20
85.1064764365
 10
151.2221658297
 20
85.0998389181
 10
151.2196668465
 20
85.0934283845
 10
151.2169255219
 20
85.0872583849
 10
151.2141979684
 20
85.081831062
 10
151.2112649805
 20
85.0766236662
 10
151.2081310282
 20
85.0716431225
 10
151.2048005815
 20
85.0668963559
 10
151.2012781105
 20
85.0623902912
 10
151.197568085
 20
85.0581318534
 10
151.1936749753
 20
85.0541279675
 10
151.1896032512
 20
85.0503855582
 10
151.1853573827
 20
85.0469115507
 10
151.18094184
 20
85.0437128697
 10
151.1763610929
 20
85.0407964402
 10
151.1716196115
 20
85.0381691872
 10
151.1667218658
 20
85.0358380356
 10
151.1616723259
 20
85.0338099103
 10
151.1562449771
 20
85.0320208216
 10
151.1506648068
 20
85.0305601929
 10
151.1449395055
 20
85.0294187868
 10
151.1390767641
 20
85.0285873658
 10
151.1330842734
 20
85.0280566925
 10
151.1269697242
 20
85.0278175295
 10
151.1207408071
 20
85.0278606395
 10
151.1144052129
 20
85.028176785
 10
151.1079706325
 20
85.0287567286
 10
151.1014447566
 20
85.0295912328
 10
151.094835276
 20
85.0306710604
 10
151.0881498813
 20
85.0319869738
 10
151.0813962635
 20
85.0335297357
 10
151.0745821132
 20
85.0352901087
 10
151.0677151213
 20
85.0372588553
 10
151.0608029784
 20
85.0394267382
 10
151.0538533754
 20
85.0417845199
 10
151.046874003
 20
85.044322963
 10
151.039872552
 20
85.0470328302
 10
151.0328567132
 20
85.0499048839
 10
151.0258341773
 20
85.0529298869
 10
151.0188126351
 20
85.0560986016
 10
151.0117997774
 20
85.0594017908
 10
151.0048032949
 20
85.0628302169
 10
150.9978308784
 20
85.0663746426
 10
150.9908902186
 20
85.0700258304
 10
150.9839890064
 20
85.073774543
  0
LWPOLYLINE
  5
34F
100
AcDbEntity
  8
CURVE
100
AcDbPolyline
 62
250
  6
CONTINUOUS
 90
58
 70
0
 10
151.2362117775
 20
85.2072548878
 10
151.236260693
 20
85.1988995478
 10
151.236179918
 20
85.1905950525
 10
151.2359614058
 20
85.1823549511
 10
151.2355971101
 20
85.174192793
 10
151.2350789844
 20
85.1661221272
 10
151.2343989821
 20
85.1581565031
 10
151.2335490568
 20
85.1503094699
 10
151.232521162
 20
85.1425945768
 10
151.2313072512
 20
85.1350253731
 10
151.2298992779
 20
85.1276154079
 10
151.2282891956
 20
85.1203782306
 10
151.2264689578
 20
85.1133273904
 10
151.224430518
 20
85.1064764365
 10
151.2221658297
 20
85.0998389181
 10
151.2196668465
 20
85.0934283845
 10
151.2169255219
 20
85.0872583849
 10
151.2141979684
 20
85.081831062
 10
151.2112649805
 20
85.0766236662
 10
151.2081310282
 20
85.0716431225
 10
151.2048005815
 20
85.0668963559
 10
151.2012781105
 20
85.0623902912
 10
151.197568085
 20
85.0581318534
 10
151.1936749753
 20
85.0541279675
 10
151.1896032512
 20
85.0503855582
 10
151.1853573827
 20
85.0469115507
 10
151.18094184
 20
85.0437128697
 10
151.1763610929
 20
85.0407964402
 10
151.1716196115
 20
85.0381691872
 10
151.1667218658
 20
85.0358380356
 10
151.1616723259
 20
85.0338099103
 10
151.1562449771
 20
85.0320208216
 10
151.1506648068
 20
85.0305601929
 10
151.1449395055
 20
85.0294187868
 10
151.1390767641
 20
85.0285873658
 10
151.1330842734
 20
85.0280566925
 10
151.1269697242
 20
85.0278175295
 10
151.1207408071
 20
85.0278606395
 10
151.1144052129
 20
85.028176785
 10
151.1079706325
 20
85.0287567286
 10
151.1014447566
 20
85.0295912328
 10
151.094835276
 20
85.0306710604
 10
151.0881498813
 20
85.0319869738
 10
151.0813962635
 20
85.0335297357
 10
151.0745821132
 20
85.0352901087
 10
151.0677151213
 20
85.0372588553
 10
151.0608029784
 20
85.0394267382
 10
151.0538533754
 20
85.0417845199
 10
151.046874003
 20
85.044322963
 10
151.039872552
 20
85.0470328302
 10
151.0328567132
 20
85.0499048839
 10
151.0258341773
 20
85.0529298869
 10
151.0188126351
 20
85.0560986016
 10
151.0117997774
 20
85.0594017908
 10
151.0048032949
 20
85.0628302169
 10
150.9978308784
 20
85.0663746426
 10
150.9908902186
 20
85.0700258304
 10
150.9839890064
 20
85.073774543
  0
LINE
  5
350
100
AcDbEntity
  8
IMPORT_IGES
100
AcDbLine
 62
7
  6
CONTINUOUS
 10
146.9831614834
 20
88.1829504976
 11
146.9831614834
 21
86.3867595932
  0
LINE
  5
351
100
AcDbEntity
  8
CURVE
100
AcDbLine
 62
250
  6
CONTINUOUS
 10
146.9831614834
 20
88.1829504976
 11
146.9831614834
 21
86.3867595932
  0
LINE
  5
352
100
AcDbEntity
  8
IMPORT_IGES
100
AcDbLine
 62
7
  6
CONTINUOUS
 10
147.3078565519
 20
86.1992847299
 11
147.3078565519
 21
87.9954756344
  0
LINE
  5
353
100
AcDbEntity
  8
CURVE
100
AcDbLine
 62
250
  6
CONTINUOUS
 10
147.3078565519
 20
86.1992847299
 11
147.3078565519
 21
87.9954756344
  0
LINE
  5
354
100
AcDbEntity
  8
IMPORT_IGES
100
AcDbLine
 62
7
  6
CONTINUOUS
 10
150.4858073325
 20
86.1394747515
 11
150.4858073325
 21
84.3643754381
  0
LINE
  5
355
100
AcDbEntity
  8
CURVE
100
AcDbLine
 62
250
  6
CONTINUOUS
 10
150.4858073325
 20
86.1394747515
 11
150.4858073325
 21
84.3643754381
  0
LINE
  5
356
100
AcDbEntity
  8
IMPORT_IGES
100
AcDbLine
 62
7
  6
CONTINUOUS
 10
150.798429193
 20
85.1809144536
 11
150.798429193
 21
85.6739744003
  0
LINE
  5
357
100
AcDbEntity
  8
CURVE
100
AcDbLine
 62
250
  6
CONTINUOUS
 10
150.798429193
 20
85.1809144536
 11
150.798429193
 21
85.6739744003
  0
LINE
  5
358
100
AcDbEntity
  8
IMPORT_IGES
100
AcDbLine
 62
7
  6
CONTINUOUS
 10
150.8091955815
 20
84.1776551162
 11
150.8091955815
 21
84.8805429941
  0
LINE
  5
359
100
AcDbEntity
  8
CURVE
100
AcDbLine
 62
250
  6
CONTINUOUS
 10
150.8091955815
 20
84.1776551162
 11
150.8091955815
 21
84.8805429941
  0
LINE
  5
35A
100
AcDbEntity
  8
IMPORT_IGES
100
AcDbLine
 62
7
  6
CONTINUOUS
 10
151.3205815368
 20
84.7207831324
 11
151.3205815368
 21
84.7313964202
  0
LINE
  5
35B
100
AcDbEntity
  8
CURVE
100
AcDbLine
 62
250
  6
CONTINUOUS
 10
151.3205815368
 20
84.7207831324
 11
151.3205815368
 21
84.7313964202
  0
LINE
  5
35C
100
AcDbEntity
  8
IMPORT_IGES
100
AcDbLine
 62
7
  6
CONTINUOUS
 10
147.8633463473
 20
87.0513604511
 11
147.7932768499
 21
85.9190091337
  0
LINE
  5
35D
100
AcDbEntity
  8
CURVE
100
AcDbLine
 62
250
  6
CONTINUOUS
 10
147.8633463473
 20
87.0513604511
 11
147.7932768499
 21
85.9190091337
  0
LINE
  5
35E
100
AcDbEntity
  8
IMPORT_IGES
100
AcDbLine
 62
7
  6
CONTINUOUS
 10
147.4826499058
 20
86.0983612381
 11
147.6231029908
 21
87.8133485175
  0
LINE
  5
35F
100
AcDbEntity
  8
CURVE
100
AcDbLine
 62
250
  6
CONTINUOUS
 10
147.4826499058
 20
86.0983612381
 11
147.6231029908
 21
87.8133485175
  0
LWPOLYLINE
  5
360
100
AcDbEntity
  8
0
100
AcDbPolyline
 62
7
  6
CONTINUOUS
 90
5
 70
0
 10
140.5807891168
 20
97.7622301997
 10
140.6037693219
 20
97.7918266817
 10
140.6197275746
 20
97.8261901349
 10
140.6277458251
 20
97.8643327547
 10
140.6286275912
 20
97.8834419788
  0
LINE
  5
361
100
AcDbEntity
  8
0
100
AcDbLine
 62
7
  6
CONTINUOUS
 10
139.3617990974
 20
97.038724456
 11
139.0190184274
 21
96.7053221845
  0
LINE
  5
362
100
AcDbEntity
  8
IMPORT_IGES
100
AcDbLine
 62
7
  6
CONTINUOUS
 10
151.498673612
 20
84.3039263961
 11
151.4924344674
 21
84.3329983043
  0
LINE
  5
363
100
AcDbEntity
  8
CURVE
100
AcDbLine
 62
250
  6
CONTINUOUS
 10
151.498673612
 20
84.3039263961
 11
151.4924344674
 21
84.3329983043
  0
LINE
  5
364
100
AcDbEntity
  8
IMPORT_IGES
100
AcDbLine
 62
7
  6
CONTINUOUS
 10
151.5229043934
 20
84.1868164866
 11
151.498673612
 21
84.3039263961
  0
LINE
  5
365
100
AcDbEntity
  8
CURVE
100
AcDbLine
 62
250
  6
CONTINUOUS
 10
151.5229043934
 20
84.1868164866
 11
151.498673612
 21
84.3039263961
  0
LINE
  5
366
100
AcDbEntity
  8
IMPORT_IGES
100
AcDbLine
 62
7
  6
CONTINUOUS
 10
151.6187393435
 20
83.710234694
 11
151.6039253478
 21
83.7829115479
  0
LINE
  5
367
100
AcDbEntity
  8
CURVE
100
AcDbLine
 62
250
  6
CONTINUOUS
 10
151.6187393435
 20
83.710234694
 11
151.6039253478
 21
83.7829115479
  0
LINE
  5
368
100
AcDbEntity
  8
IMPORT_IGES
100
AcDbLine
 62
7
  6
CONTINUOUS
 10
151.6039253478
 20
83.7829115479
 11
151.5229043934
 21
84.1868164866
  0
LINE
  5
369
100
AcDbEntity
  8
CURVE
100
AcDbLine
 62
250
  6
CONTINUOUS
 10
151.6039253478
 20
83.7829115479
 11
151.5229043934
 21
84.1868164866
  0
LINE
  5
36A
100
AcDbEntity
  8
0
100
AcDbLine
 62
250
  6
CONTINUOUS
 10
156.461551599
 20
88.9808846425
 11
156.461551599
 21
88.5518619484
  0
LINE
  5
36B
100
AcDbEntity
  8
0
100
AcDbLine
 62
7
  6
CONTINUOUS
 10
156.5386081513
 20
89.0953893128
 11
156.5386081513
 21
88.697343528
  0
LINE
  5
36C
100
AcDbEntity
  8
CURVE
100
AcDbLine
 62
250
  6
CONTINUOUS
 10
149.7500417734
 20
86.0917627188
 11
149.5883713107
 21
85.5185599433
  0
LINE
  5
36D
100
AcDbEntity
  8
IMPORT_IGES
100
AcDbLine
 62
7
  6
CONTINUOUS
 10
149.7500417734
 20
86.0917627188
 11
149.5883713107
 21
85.5185599433
  0
LINE
  5
36E
100
AcDbEntity
  8
IMPORT_IGES
100
AcDbLine
 62
7
  6
CONTINUOUS
 10
146.2326291539
 20
87.379891214
 11
146.5381936177
 21
88.4397615924
  0
LINE
  5
36F
100
AcDbEntity
  8
CURVE
100
AcDbLine
 62
250
  6
CONTINUOUS
 10
146.2326291539
 20
87.379891214
 11
146.5381936177
 21
88.4397615924
  0
LINE
  5
370
100
AcDbEntity
  8
CURVE
100
AcDbLine
 62
250
  6
CONTINUOUS
 10
149.5219531105
 20
85.2794548965
 11
149.4323574326
 21
84.9726245477
  0
LINE
  5
371
100
AcDbEntity
  8
IMPORT_IGES
100
AcDbLine
 62
7
  6
CONTINUOUS
 10
149.5219531105
 20
85.2794548965
 11
149.4323574326
 21
84.9726245477
  0
LINE
  5
372
100
AcDbEntity
  8
CURVE
100
AcDbLine
 62
250
  6
CONTINUOUS
 10
149.1111855066
 20
85.1580651926
 11
149.5990911164
 21
86.6724377388
  0
LINE
  5
373
100
AcDbEntity
  8
IMPORT_IGES
100
AcDbLine
 62
7
  6
CONTINUOUS
 10
149.1111855066
 20
85.1580651926
 11
149.5990911164
 21
86.6724377388
  0
LINE
  5
374
100
AcDbEntity
  8
CURVE
100
AcDbLine
 62
250
  6
CONTINUOUS
 10
146.8626671935
 20
88.2524146164
 11
146.3626654116
 21
86.7450262484
  0
LINE
  5
375
100
AcDbEntity
  8
IMPORT_IGES
100
AcDbLine
 62
7
  6
CONTINUOUS
 10
146.8626671935
 20
88.2524146164
 11
146.3626654116
 21
86.7450262484
  0
LINE
  5
376
100
AcDbEntity
  8
CURVE
100
AcDbLine
 62
250
  6
CONTINUOUS
 10
148.2687944208
 20
86.4433436608
 11
148.5934894894
 21
87.253059515
  0
LINE
  5
377
100
AcDbEntity
  8
IMPORT_IGES
100
AcDbLine
 62
7
  6
CONTINUOUS
 10
148.2687944208
 20
86.4433436608
 11
148.5934894894
 21
87.253059515
  0
LINE
  5
378
100
AcDbEntity
  8
CURVE
100
AcDbLine
 62
250
  6
CONTINUOUS
 10
148.6758529468
 20
86.5773401444
 11
148.2897903058
 21
85.632328487
  0
LINE
  5
379
100
AcDbEntity
  8
IMPORT_IGES
100
AcDbLine
 62
7
  6
CONTINUOUS
 10
148.6758529468
 20
86.5773401444
 11
148.2897903058
 21
85.632328487
  0
LINE
  5
37A
100
AcDbEntity
  8
0
100
AcDbLine
 62
7
  6
CONTINUOUS
 10
140.5516490223
 20
97.7380402983
 11
140.5807891168
 21
97.7622301997
  0
LINE
  5
37B
100
AcDbEntity
  8
0
100
AcDbLine
 62
7
  6
CONTINUOUS
 10
140.5516490223
 20
98.1670629923
 11
138.3029689646
 21
96.7490007031
  0
LWPOLYLINE
  5
37C
100
AcDbEntity
  8
0
100
AcDbPolyline
 62
7
  6
CONTINUOUS
 90
9
 70
0
 10
138.7859179672
 20
96.5238783022
 10
138.8119398104
 20
96.5396412534
 10
138.8414397668
 20
96.5589107417
 10
138.8709893321
 20
96.5796512756
 10
138.9006069734
 20
96.6019273088
 10
138.9302254296
 20
96.6256420912
 10
138.9598222805
 20
96.650763373
 10
138.9894199465
 20
96.6773234041
 10
139.0190184274
 20
96.7053221845
  0
LINE
  5
37D
100
AcDbEntity
  8
0
100
AcDbLine
 62
7
  6
CONTINUOUS
 10
138.5882123684
 20
96.5843047368
 11
140.5422981769
 21
97.732172314
  0
LINE
  5
37E
100
AcDbEntity
  8
0
100
AcDbLine
 62
7
  6
CONTINUOUS
 10
138.7858944737
 20
96.523920725
 11
138.739458892
 21
96.4969768896
  0
LINE
  5
37F
100
AcDbEntity
  8
0
100
AcDbLine
 62
250
  6
CONTINUOUS
 10
139.0190184274
 20
96.7053221845
 11
138.6995020986
 21
96.5200474413
  0
LINE
  5
380
100
AcDbEntity
  8
0
100
AcDbLine
 62
7
  6
CONTINUOUS
 10
133.9387566444
 20
99.2688422004
 11
136.4361688582
 21
100.54328966
  0
LINE
  5
381
100
AcDbEntity
  8
CURVE
100
AcDbLine
 62
7
  6
CONTINUOUS
 10
145.6638722517
 20
88.6514939803
 11
145.8496793646
 21
88.8373010931
  0
LINE
  5
382
100
AcDbEntity
  8
CURVE
100
AcDbLine
 62
7
  6
CONTINUOUS
 10
145.7443417747
 20
88.3119420752
 11
145.9854815595
 21
88.5530818599
  0
LINE
  5
383
100
AcDbEntity
  8
CURVE
100
AcDbLine
 62
7
  6
CONTINUOUS
 10
145.8248112976
 20
87.9723901701
 11
146.0585678727
 21
88.2061467452
  0
LINE
  5
384
100
AcDbEntity
  8
CURVE
100
AcDbLine
 62
7
  6
CONTINUOUS
 10
145.9052808206
 20
87.632838265
 11
146.1316541859
 21
87.8592116304
  0
LINE
  5
385
100
AcDbEntity
  8
CURVE
100
AcDbLine
 62
7
  6
CONTINUOUS
 10
146.4677030736
 20
88.195260518
 11
146.6485092719
 21
88.3760667163
  0
LINE
  5
386
100
AcDbEntity
  8
CURVE
100
AcDbLine
 62
7
  6
CONTINUOUS
 10
145.9857503435
 20
87.2932863599
 11
146.2047404992
 21
87.5122765156
  0
LINE
  5
387
100
AcDbEntity
  8
CURVE
100
AcDbLine
 62
7
  6
CONTINUOUS
 10
146.2975551005
 20
87.6050911169
 11
146.8218627493
 21
88.1293987658
  0
LINE
  5
388
100
AcDbEntity
  8
CURVE
100
AcDbLine
 62
7
  6
CONTINUOUS
 10
146.0662198665
 20
86.9537344549
 11
146.6133911801
 21
87.5009057685
  0
LINE
  5
389
100
AcDbEntity
  8
CURVE
100
AcDbLine
 62
7
  6
CONTINUOUS
 10
146.9831614834
 20
87.8706760718
 11
147.1811308678
 21
88.0686454562
  0
LINE
  5
38A
100
AcDbEntity
  8
CURVE
100
AcDbLine
 62
7
  6
CONTINUOUS
 10
146.3086949539
 20
86.7761881142
 11
146.4049196108
 21
86.8724127712
  0
LINE
  5
38B
100
AcDbEntity
  8
CURVE
100
AcDbLine
 62
7
  6
CONTINUOUS
 10
146.9831614834
 20
87.4506546437
 11
147.3078565519
 21
87.7753497123
  0
LINE
  5
38C
100
AcDbEntity
  8
CURVE
100
AcDbLine
 62
7
  6
CONTINUOUS
 10
146.9831614834
 20
87.0306332157
 11
147.3078565519
 21
87.3553282843
  0
LINE
  5
38D
100
AcDbEntity
  8
CURVE
100
AcDbLine
 62
7
  6
CONTINUOUS
 10
147.610367148
 20
87.6578388804
 11
147.7136158149
 21
87.7610875473
  0
LINE
  5
38E
100
AcDbEntity
  8
CURVE
100
AcDbLine
 62
7
  6
CONTINUOUS
 10
146.9831614834
 20
86.6106117877
 11
147.3078565519
 21
86.9353068563
  0
LINE
  5
38F
100
AcDbEntity
  8
CURVE
100
AcDbLine
 62
7
  6
CONTINUOUS
 10
147.5729000003
 20
87.2003503046
 11
147.9584340477
 21
87.585884352
  0
LINE
  5
390
100
AcDbEntity
  8
SMUSSO
100
AcDbLine
 62
7
  6
CONTINUOUS
 10
204.8125609715
 20
39.3269243306
 11
204.8129234017
 21
39.3262828929
  0
LINE
  5
391
100
AcDbEntity
  8
ASSI
100
AcDbLine
 62
7
  6
CONTINUOUS
 10
204.8125609715
 20
39.3269243306
 11
204.8129234017
 21
39.3262828929
  0
LWPOLYLINE
  5
392
100
AcDbEntity
  8
0
100
AcDbPolyline
 62
7
  6
CONTINUOUS
 90
5
 70
0
 10
156.4906916935
 20
88.5760518498
 10
156.5136718986
 20
88.6056483318
 10
156.5296301513
 20
88.640011785
 10
156.5376484018
 20
88.6781544048
 10
156.5385301679
 20
88.6972636289
  0
LINE
  5
393
100
AcDbEntity
  8
CURVE
100
AcDbLine
 62
7
  6
CONTINUOUS
 10
147.1075248612
 20
86.3149537375
 11
147.3078565519
 21
86.5152854282
  0
LINE
  5
394
100
AcDbEntity
  8
CURVE
100
AcDbLine
 62
7
  6
CONTINUOUS
 10
147.5354328525
 20
86.7428617288
 11
148.0481566106
 21
87.2555854869
  0
LINE
  5
395
100
AcDbEntity
  8
CURVE
100
AcDbLine
 62
7
  6
CONTINUOUS
 10
147.4979657047
 20
86.285373153
 11
147.8369218087
 21
86.6243292569
  0
LINE
  5
396
100
AcDbEntity
  8
CURVE
100
AcDbLine
 62
7
  6
CONTINUOUS
 10
147.9493801971
 20
86.7367876454
 11
148.1378791735
 21
86.9252866218
  0
LINE
  5
397
100
AcDbEntity
  8
CURVE
100
AcDbLine
 62
7
  6
CONTINUOUS
 10
147.6400781327
 20
86.0074641529
 11
147.8092166462
 21
86.1766026665
  0
LINE
  5
398
100
AcDbEntity
  8
CURVE
100
AcDbLine
 62
7
  6
CONTINUOUS
 10
148.0395835423
 20
86.4069695626
 11
148.2276017364
 21
86.5949877566
  0
LINE
  5
399
100
AcDbEntity
  8
CURVE
100
AcDbLine
 62
7
  6
CONTINUOUS
 10
148.3978881699
 20
86.7652741902
 11
148.778722358
 21
87.1461083782
  0
LINE
  5
39A
100
AcDbEntity
  8
CURVE
100
AcDbLine
 62
7
  6
CONTINUOUS
 10
148.1297868875
 20
86.0771514798
 11
148.9294977079
 21
86.8768623001
  0
LINE
  5
39B
100
AcDbEntity
  8
CURVE
100
AcDbLine
 62
7
  6
CONTINUOUS
 10
148.2199902328
 20
85.747333397
 11
148.4174339687
 21
85.9447771329
  0
LINE
  5
39C
100
AcDbEntity
  8
CURVE
100
AcDbLine
 62
7
  6
CONTINUOUS
 10
148.6954570609
 20
86.2228002251
 11
148.9596602918
 21
86.487003456
  0
LINE
  5
39D
100
AcDbEntity
  8
CURVE
100
AcDbLine
 62
7
  6
CONTINUOUS
 10
148.7174650238
 20
85.82478676
 11
148.9898228757
 21
86.0971446119
  0
LINE
  5
39E
100
AcDbEntity
  8
CURVE
100
AcDbLine
 62
7
  6
CONTINUOUS
 10
148.7394729867
 20
85.4267732948
 11
149.0199854596
 21
85.7072857677
  0
LINE
  5
39F
100
AcDbEntity
  8
CURVE
100
AcDbLine
 62
7
  6
CONTINUOUS
 10
149.4155935718
 20
86.10289388
 11
149.843828901
 21
86.5311292092
  0
LINE
  5
3A0
100
AcDbEntity
  8
CURVE
100
AcDbLine
 62
7
  6
CONTINUOUS
 10
148.9714613115
 20
85.2387401916
 11
149.0501480435
 21
85.3174269236
  0
LINE
  5
3A1
100
AcDbEntity
  8
CURVE
100
AcDbLine
 62
7
  6
CONTINUOUS
 10
149.2159467993
 20
85.4832256794
 11
149.7207972092
 21
85.9880760894
  0
LINE
  5
3A2
100
AcDbEntity
  8
CURVE
100
AcDbLine
 62
7
  6
CONTINUOUS
 10
149.7623567797
 20
86.0296356598
 11
149.97135263
 21
86.2386315102
  0
LINE
  5
3A3
100
AcDbEntity
  8
CURVE
100
AcDbLine
 62
7
  6
CONTINUOUS
 10
149.2377379473
 20
85.0849953994
 11
149.6409463325
 21
85.4882037846
  0
LINE
  5
3A4
100
AcDbEntity
  8
CURVE
100
AcDbLine
 62
7
  6
CONTINUOUS
 10
149.8318412369
 20
85.679098689
 11
150.0499987237
 21
85.8972561758
  0
LINE
  5
3A5
100
AcDbEntity
  8
CURVE
100
AcDbLine
 62
7
  6
CONTINUOUS
 10
149.731328276
 20
85.1585643
 11
150.1286448173
 21
85.5558808413
  0
LINE
  5
3A6
100
AcDbEntity
  8
CURVE
100
AcDbLine
 62
7
  6
CONTINUOUS
 10
150.4858073325
 20
85.9130433566
 11
150.6436905835
 21
86.0709266076
  0
LINE
  5
3A7
100
AcDbEntity
  8
CURVE
100
AcDbLine
 62
7
  6
CONTINUOUS
 10
149.9731737286
 20
84.9803883246
 11
150.2072909109
 21
85.2145055069
  0
LINE
  5
3A8
100
AcDbEntity
  8
CURVE
100
AcDbLine
 62
7
  6
CONTINUOUS
 10
150.4858073325
 20
85.4930219285
 11
150.9215346482
 21
85.9287492443
  0
LINE
  5
3A9
100
AcDbEntity
  8
CURVE
100
AcDbLine
 62
7
  6
CONTINUOUS
 10
150.0450922938
 20
84.6322854618
 11
150.2859370045
 21
84.8731301725
  0
LINE
  5
3AA
100
AcDbEntity
  8
CURVE
100
AcDbLine
 62
7
  6
CONTINUOUS
 10
150.4858073325
 20
85.0730005005
 11
150.798429193
 21
85.3856223611
  0
LINE
  5
3AB
100
AcDbEntity
  8
CURVE
100
AcDbLine
 62
7
  6
CONTINUOUS
 10
150.9915878062
 20
85.5787809742
 11
151.172576517
 21
85.759769685
  0
LINE
  5
3AC
100
AcDbEntity
  8
CURVE
100
AcDbLine
 62
7
  6
CONTINUOUS
 10
150.3028444903
 20
84.4700162303
 11
150.3645830981
 21
84.5317548381
  0
LINE
  5
3AD
100
AcDbEntity
  8
CURVE
100
AcDbLine
 62
7
  6
CONTINUOUS
 10
150.4858073325
 20
84.6529790725
 11
150.9349292763
 21
85.1021010163
  0
LINE
  5
3AE
100
AcDbEntity
  8
CURVE
100
AcDbLine
 62
7
  6
CONTINUOUS
 10
151.1965009824
 20
85.3636727224
 11
151.3778854064
 21
85.5450571464
  0
LINE
  5
3AF
100
AcDbEntity
  8
CURVE
100
AcDbLine
 62
7
  6
CONTINUOUS
 10
150.5691209104
 20
84.3162712224
 11
150.8091955815
 21
84.5563458935
  0
LINE
  5
3B0
100
AcDbEntity
  8
CURVE
100
AcDbLine
 62
7
  6
CONTINUOUS
 10
151.0129132136
 20
84.7600635256
 11
151.5112720278
 21
85.2584223398
  0
LINE
  5
3B1
100
AcDbEntity
  8
CURVE
100
AcDbLine
 62
7
  6
CONTINUOUS
 10
151.1697070368
 20
84.4968359208
 11
151.3541386569
 21
84.6812675408
  0
LINE
  5
3B2
100
AcDbEntity
  8
CURVE
100
AcDbLine
 62
7
  6
CONTINUOUS
 10
151.248140033
 20
84.155247489
 11
151.4798536368
 21
84.3869610927
  0
LINE
  5
3B3
100
AcDbEntity
  8
CURVE
100
AcDbLine
 62
7
  6
CONTINUOUS
 10
151.3679508177
 20
83.8550368456
 11
151.5526274257
 21
84.0397134536
  0
LINE
  5
3B4
100
AcDbEntity
  8
0
100
AcDbLine
 62
7
  6
CONTINUOUS
 10
155.2717016741
 20
87.8525461061
 11
154.9289210041
 21
87.5191438346
  0
LINE
  5
3B5
100
AcDbEntity
  8
0
100
AcDbLine
 62
7
  6
CONTINUOUS
 10
149.8486592211
 20
90.0826638506
 11
152.3460714349
 21
91.3571113101
  0
LWPOLYLINE
  5
3B6
100
AcDbEntity
  8
0
100
AcDbPolyline
 62
250
  6
CONTINUOUS
 90
16
 70
0
 10
108.6082446407
 20
148.7248689672
 10
108.6234408084
 20
148.7169502604
 10
108.6399591946
 20
148.7099698922
 10
108.6576267536
 20
148.704000977
 10
108.6762584021
 20
148.6991060334
 10
108.6956589636
 20
148.6953363281
 10
108.7156252139
 20
148.6927313403
 10
108.7359479988
 20
148.6913183496
 10
108.7564144346
 20
148.6911121488
 10
108.7768101439
 20
148.6921148903
 10
108.7969214811
 20
148.694316064
 10
108.8165377834
 20
148.6976926062
 10
108.8354535865
 20
148.702209145
 10
108.8534707554
 20
148.7078183677
 10
108.8704005608
 20
148.7144615137
 10
108.8860656689
 20
148.7220689936
  0
LWPOLYLINE
  5
3B7
100
AcDbEntity
  8
ASSI
100
AcDbPolyline
 62
250
  6
CONTINUOUS
 90
16
 70
0
 10
108.6082446407
 20
148.7248689672
 10
108.6234408084
 20
148.7169502604
 10
108.6399591946
 20
148.7099698922
 10
108.6576267536
 20
148.704000977
 10
108.6762584021
 20
148.6991060334
 10
108.6956589636
 20
148.6953363281
 10
108.7156252139
 20
148.6927313403
 10
108.7359479988
 20
148.6913183496
 10
108.7564144346
 20
148.6911121488
 10
108.7768101439
 20
148.6921148903
 10
108.7969214811
 20
148.694316064
 10
108.8165377834
 20
148.6976926062
 10
108.8354535865
 20
148.702209145
 10
108.8534707554
 20
148.7078183677
 10
108.8704005608
 20
148.7144615137
 10
108.8860656689
 20
148.7220689936
  0
LINE
  5
3B8
100
AcDbEntity
  8
0
100
AcDbLine
 62
7
  6
CONTINUOUS
 10
109.1443343865
 20
148.9188845101
 11
188.1980768968
 21
103.2742443607
  0
LINE
  5
3B9
100
AcDbEntity
  8
ASSI
100
AcDbLine
 62
7
  6
CONTINUOUS
 10
109.1443343865
 20
148.9188845101
 11
188.1980768968
 21
103.2742443607
  0
LINE
  5
3BA
100
AcDbEntity
  8
0
100
AcDbLine
 62
250
  6
CONTINUOUS
 10
109.1029178623
 20
149.0104318823
 11
188.1566603726
 21
103.365791733
  0
LINE
  5
3BB
100
AcDbEntity
  8
ASSI
100
AcDbLine
 62
250
  6
CONTINUOUS
 10
109.1029178623
 20
149.0104318823
 11
188.1566603726
 21
103.365791733
  0
LWPOLYLINE
  5
3BC
100
AcDbEntity
  8
0
100
AcDbPolyline
 62
7
  6
CONTINUOUS
 90
24
 70
0
 10
188.1981171679
 20
103.2742211274
 10
188.2158343043
 20
103.2634679837
 10
188.2398374793
 20
103.247271699
 10
188.2647631835
 20
103.2284980021
 10
188.2902064868
 20
103.2072687929
 10
188.315936017
 20
103.1836293017
 10
188.3417370627
 20
103.1576354857
 10
188.3672659668
 20
103.1295120615
 10
188.392301534
 20
103.0994085542
 10
188.4166360217
 20
103.0674862435
 10
188.4399823615
 20
103.0340545933
 10
188.4621595426
 20
102.9993334557
 10
188.4829990218
 20
102.9635550452
 10
188.5022830043
 20
102.9270903969
 10
188.5198905516
 20
102.8902000354
 10
188.5357167755
 20
102.8531506265
 10
188.5496302625
 20
102.8163458285
 10
188.5615906832
 20
102.780046281
 10
188.5715736889
 20
102.7445196853
 10
188.5795490315
 20
102.7101782422
 10
188.5855701887
 20
102.6772392403
 10
188.5897076032
 20
102.6459271648
 10
188.5920500235
 20
102.6166540617
 10
188.5927549728
 20
102.5907021409
  0
LWPOLYLINE
  5
3BD
100
AcDbEntity
  8
ASSI
100
AcDbPolyline
 62
7
  6
CONTINUOUS
 90
24
 70
0
 10
188.1981171679
 20
103.2742211274
 10
188.2158343043
 20
103.2634679837
 10
188.2398374793
 20
103.247271699
 10
188.2647631835
 20
103.2284980021
 10
188.2902064868
 20
103.2072687929
 10
188.315936017
 20
103.1836293017
 10
188.3417370627
 20
103.1576354857
 10
188.3672659668
 20
103.1295120615
 10
188.392301534
 20
103.0994085542
 10
188.4166360217
 20
103.0674862435
 10
188.4399823615
 20
103.0340545933
 10
188.4621595426
 20
102.9993334557
 10
188.4829990218
 20
102.9635550452
 10
188.5022830043
 20
102.9270903969
 10
188.5198905516
 20
102.8902000354
 10
188.5357167755
 20
102.8531506265
 10
188.5496302625
 20
102.8163458285
 10
188.5615906832
 20
102.780046281
 10
188.5715736889
 20
102.7445196853
 10
188.5795490315
 20
102.7101782422
 10
188.5855701887
 20
102.6772392403
 10
188.5897076032
 20
102.6459271648
 10
188.5920500235
 20
102.6166540617
 10
188.5927549728
 20
102.5907021409
  0
LWPOLYLINE
  5
3BE
100
AcDbEntity
  8
0
100
AcDbPolyline
 62
250
  6
CONTINUOUS
 90
5
 70
0
 10
188.1566603726
 20
103.365791733
 10
188.1890092085
 20
103.3459073514
 10
188.2210495218
 20
103.3237823578
 10
188.2527813125
 20
103.2994167523
 10
188.2843740443
 20
103.2726664834
  0
LWPOLYLINE
  5
3BF
100
AcDbEntity
  8
ASSI
100
AcDbPolyline
 62
250
  6
CONTINUOUS
 90
5
 70
0
 10
188.1566603726
 20
103.365791733
 10
188.1890092085
 20
103.3459073514
 10
188.2210495218
 20
103.3237823578
 10
188.2527813125
 20
103.2994167523
 10
188.2843740443
 20
103.2726664834
  0
LWPOLYLINE
  5
3C0
100
AcDbEntity
  8
0
100
AcDbPolyline
 62
250
  6
CONTINUOUS
 90
9
 70
0
 10
188.6513335942
 20
102.5089925809
 10
188.6376190777
 20
102.5177665141
 10
188.6255296247
 20
102.5273038827
 10
188.6151918734
 20
102.537504782
 10
188.6067141127
 20
102.5482623564
 10
188.6001851479
 20
102.5594639193
 10
188.5956733707
 20
102.5709921333
 10
188.5932260424
 20
102.5827262391
 10
188.5927549504
 20
102.5906474996
  0
LWPOLYLINE
  5
3C1
100
AcDbEntity
  8
ASSI
100
AcDbPolyline
 62
250
  6
CONTINUOUS
 90
9
 70
0
 10
188.6513335942
 20
102.5089925809
 10
188.6376190777
 20
102.5177665141
 10
188.6255296247
 20
102.5273038827
 10
188.6151918734
 20
102.537504782
 10
188.6067141127
 20
102.5482623564
 10
188.6001851479
 20
102.5594639193
 10
188.5956733707
 20
102.5709921333
 10
188.5932260424
 20
102.5827262391
 10
188.5927549504
 20
102.5906474996
  0
LWPOLYLINE
  5
3C2
100
AcDbEntity
  8
0
100
AcDbPolyline
 62
250
  6
CONTINUOUS
 90
10
 70
0
 10
187.602456991
 20
69.6388593046
 10
187.604706769
 20
69.6335709199
 10
187.6065582881
 20
69.6285617651
 10
187.607977814
 20
69.6238697415
 10
187.6089268902
 20
69.6195540979
 10
187.6093817318
 20
69.6156293316
 10
187.6093070211
 20
69.6120903013
 10
187.608644346
 20
69.6089984188
 10
187.6073343577
 20
69.6064279757
 10
187.6063814997
 20
69.6053237646
  0
LINE
  5
3C3
100
AcDbEntity
  8
0
100
AcDbLine
 62
250
  6
CONTINUOUS
 10
172.3714541757
 20
79.7947062926
 11
172.3714541757
 21
79.3656835985
  0
LINE
  5
3C4
100
AcDbEntity
  8
0
100
AcDbLine
 62
7
  6
CONTINUOUS
 10
172.448510728
 20
79.9092109629
 11
172.448510728
 21
79.5111651781
  0
LINE
  5
3C5
100
AcDbEntity
  8
0
100
AcDbLine
 62
7
  6
CONTINUOUS
 10
156.461551599
 20
88.5518619484
 11
156.4906916935
 21
88.5760518498
  0
LINE
  5
3C6
100
AcDbEntity
  8
0
100
AcDbLine
 62
7
  6
CONTINUOUS
 10
156.461551599
 20
88.9808846425
 11
154.2128715413
 21
87.5628223533
  0
LWPOLYLINE
  5
3C7
100
AcDbEntity
  8
0
100
AcDbPolyline
 62
7
  6
CONTINUOUS
 90
9
 70
0
 10
154.6958205439
 20
87.3376999524
 10
154.7218423871
 20
87.3534629035
 10
154.7513423435
 20
87.3727323919
 10
154.7808919088
 20
87.3934729258
 10
154.8105095501
 20
87.4157489589
 10
154.8401280063
 20
87.4394637414
 10
154.8697248572
 20
87.4645850231
 10
154.8993225232
 20
87.4911450542
 10
154.9289210041
 20
87.5191438346
  0
LINE
  5
3C8
100
AcDbEntity
  8
0
100
AcDbLine
 62
7
  6
CONTINUOUS
 10
154.4981149451
 20
87.3981263869
 11
156.4522007536
 21
88.5459939641
  0
LINE
  5
3C9
100
AcDbEntity
  8
0
100
AcDbLine
 62
7
  6
CONTINUOUS
 10
154.6957970504
 20
87.3377423751
 11
154.6493614687
 21
87.3107985397
  0
LINE
  5
3CA
100
AcDbEntity
  8
0
100
AcDbLine
 62
250
  6
CONTINUOUS
 10
154.9289210041
 20
87.5191438346
 11
154.6094046753
 21
87.3338690914
  0
LINE
  5
3CB
100
AcDbEntity
  8
SMUSSO
100
AcDbLine
 62
7
  6
CONTINUOUS
 10
204.8129234017
 20
112.4920924163
 11
208.8748563864
 21
114.8373863185
  0
LINE
  5
3CC
100
AcDbEntity
  8
ASSI
100
AcDbLine
 62
7
  6
CONTINUOUS
 10
204.8129234017
 20
112.4920924163
 11
208.8748563864
 21
114.8373863185
  0
LWPOLYLINE
  5
3CD
100
AcDbEntity
  8
0
100
AcDbPolyline
 62
250
  6
CONTINUOUS
 90
17
 70
0
 10
188.2843740443
 20
103.2726664834
 10
188.3156582535
 20
103.2436756025
 10
188.3461255494
 20
103.212876264
 10
188.3757415134
 20
103.1802458438
 10
188.404540564
 20
103.1458069659
 10
188.4321175663
 20
103.1100596566
 10
188.458439798
 20
103.0730008554
 10
188.4835399813
 20
103.0346336229
 10
188.5071111476
 20
102.9954671673
 10
188.5291414023
 20
102.9554592216
 10
188.54964264
 20
102.9146520528
 10
188.5683435762
 20
102.8736816706
 10
188.5851762696
 20
102.8326949555
 10
188.6002086614
 20
102.791545027
 10
188.6133732909
 20
102.7504272521
 10
188.6247095061
 20
102.709250975
 10
188.6341779589
 20
102.6681068515
  0
LWPOLYLINE
  5
3CE
100
AcDbEntity
  8
ASSI
100
AcDbPolyline
 62
250
  6
CONTINUOUS
 90
17
 70
0
 10
188.2843740443
 20
103.2726664834
 10
188.3156582535
 20
103.2436756025
 10
188.3461255494
 20
103.212876264
 10
188.3757415134
 20
103.1802458438
 10
188.404540564
 20
103.1458069659
 10
188.4321175663
 20
103.1100596566
 10
188.458439798
 20
103.0730008554
 10
188.4835399813
 20
103.0346336229
 10
188.5071111476
 20
102.9954671673
 10
188.5291414023
 20
102.9554592216
 10
188.54964264
 20
102.9146520528
 10
188.5683435762
 20
102.8736816706
 10
188.5851762696
 20
102.8326949555
 10
188.6002086614
 20
102.791545027
 10
188.6133732909
 20
102.7504272521
 10
188.6247095061
 20
102.709250975
 10
188.6341779589
 20
102.6681068515
  0
LINE
  5
3CF
100
AcDbEntity
  8
SMUSSO
100
AcDbLine
 62
7
  6
CONTINUOUS
 10
205.520460671
 20
111.266601919
 11
209.5823936557
 21
113.6118958211
  0
LINE
  5
3D0
100
AcDbEntity
  8
ASSI
100
AcDbLine
 62
7
  6
CONTINUOUS
 10
205.520460671
 20
111.266601919
 11
209.5823936557
 21
113.6118958211
  0
LINE
  5
3D1
100
AcDbEntity
  8
0
100
AcDbLine
 62
7
  6
CONTINUOUS
 10
110.8777391726
 20
129.4723245573
 11
110.8403618448
 21
129.464292967
  0
LWPOLYLINE
  5
3D2
100
AcDbEntity
  8
0
100
AcDbPolyline
 62
7
  6
CONTINUOUS
 90
3
 70
0
 10
110.8403618448
 20
129.464292967
 10
110.8041363065
 20
129.4566986342
 10
110.7951912294
 20
129.4548518843
  0
LINE
  5
3D3
100
AcDbEntity
  8
SMUSSO
100
AcDbLine
 62
7
  6
CONTINUOUS
 10
205.4989593191
 20
111.2785968664
 11
205.520460671
 21
111.266601919
  0
LINE
  5
3D4
100
AcDbEntity
  8
ASSI
100
AcDbLine
 62
7
  6
CONTINUOUS
 10
205.4989593191
 20
111.2785968664
 11
205.520460671
 21
111.266601919
  0
LINE
  5
3D5
100
AcDbEntity
  8
SMUSSO
100
AcDbLine
 62
7
  6
CONTINUOUS
 10
203.803024254
 20
111.4141790817
 11
93.4565539808
 21
175.1268480514
  0
LINE
  5
3D6
100
AcDbEntity
  8
ASSI
100
AcDbLine
 62
7
  6
CONTINUOUS
 10
203.803024254
 20
111.4141790817
 11
93.4565539808
 21
175.1268480514
  0
LINE
  5
3D7
100
AcDbEntity
  8
SMUSSO
100
AcDbLine
 62
7
  6
CONTINUOUS
 10
204.8129234017
 20
112.4920924163
 11
93.8600068948
 21
176.5549158408
  0
LINE
  5
3D8
100
AcDbEntity
  8
ASSI
100
AcDbLine
 62
7
  6
CONTINUOUS
 10
204.8129234017
 20
112.4920924163
 11
93.8600068948
 21
176.5549158408
  0
LWPOLYLINE
  5
3D9
100
AcDbEntity
  8
0
100
AcDbPolyline
 62
250
  6
CONTINUOUS
 90
9
 70
0
 10
188.1566603726
 20
103.365791733
 10
188.1574010971
 20
103.3495282476
 10
188.1596155034
 20
103.3342905369
 10
188.1632803837
 20
103.3202382131
 10
188.1683573356
 20
103.3075184702
 10
188.1747931661
 20
103.2962645387
 10
188.182520451
 20
103.2865942914
 10
188.1914582364
 20
103.2786090152
 10
188.1980768968
 20
103.2742443607
  0
LWPOLYLINE
  5
3DA
100
AcDbEntity
  8
ASSI
100
AcDbPolyline
 62
250
  6
CONTINUOUS
 90
9
 70
0
 10
188.1566603726
 20
103.365791733
 10
188.1574010971
 20
103.3495282476
 10
188.1596155034
 20
103.3342905369
 10
188.1632803837
 20
103.3202382131
 10
188.1683573356
 20
103.3075184702
 10
188.1747931661
 20
103.2962645387
 10
188.182520451
 20
103.2865942914
 10
188.1914582364
 20
103.2786090152
 10
188.1980768968
 20
103.2742443607
  0
LWPOLYLINE
  5
3DB
100
AcDbEntity
  8
0
100
AcDbPolyline
 62
7
  6
CONTINUOUS
 90
5
 70
0
 10
172.4005942702
 20
79.3898734999
 10
172.4235744753
 20
79.4194699819
 10
172.439532728
 20
79.4538334351
 10
172.4475509785
 20
79.4919760549
 10
172.4484327446
 20
79.5110852791
  0
LINE
  5
3DC
100
AcDbEntity
  8
SMUSSO
100
AcDbLine
 62
7
  6
CONTINUOUS
 10
203.803024254
 20
111.4141790817
 11
204.8125609715
 21
112.4674736775
  0
LINE
  5
3DD
100
AcDbEntity
  8
ASSI
100
AcDbLine
 62
7
  6
CONTINUOUS
 10
203.803024254
 20
111.4141790817
 11
204.8125609715
 21
112.4674736775
  0
LINE
  5
3DE
100
AcDbEntity
  8
0
100
AcDbLine
 62
7
  6
CONTINUOUS
 10
171.1816042508
 20
78.6663677563
 11
170.8388235808
 21
78.3329654847
  0
LINE
  5
3DF
100
AcDbEntity
  8
0
100
AcDbLine
 62
7
  6
CONTINUOUS
 10
172.3714541757
 20
79.3656835985
 11
172.4005942702
 21
79.3898734999
  0
LINE
  5
3E0
100
AcDbEntity
  8
0
100
AcDbLine
 62
7
  6
CONTINUOUS
 10
172.3714541757
 20
79.7947062926
 11
170.122774118
 21
78.3766440034
  0
LWPOLYLINE
  5
3E1
100
AcDbEntity
  8
0
100
AcDbPolyline
 62
7
  6
CONTINUOUS
 90
9
 70
0
 10
170.6057231206
 20
78.1515216025
 10
170.6317449638
 20
78.1672845537
 10
170.6612449202
 20
78.186554042
 10
170.6907944855
 20
78.2072945759
 10
170.7204121268
 20
78.229570609
 10
170.750030583
 20
78.2532853915
 10
170.7796274339
 20
78.2784066733
 10
170.8092250999
 20
78.3049667043
 10
170.8388235808
 20
78.3329654847
  0
LINE
  5
3E2
100
AcDbEntity
  8
0
100
AcDbLine
 62
7
  6
CONTINUOUS
 10
170.4080175217
 20
78.211948037
 11
172.3621033303
 21
79.3598156142
  0
LINE
  5
3E3
100
AcDbEntity
  8
0
100
AcDbLine
 62
7
  6
CONTINUOUS
 10
170.6056996271
 20
78.1515640252
 11
170.5592640454
 21
78.1246201898
  0
LINE
  5
3E4
100
AcDbEntity
  8
0
100
AcDbLine
 62
250
  6
CONTINUOUS
 10
170.8388235808
 20
78.3329654847
 11
170.519307252
 21
78.1476907415
  0
LINE
  5
3E5
100
AcDbEntity
  8
0
100
AcDbLine
 62
7
  6
CONTINUOUS
 10
165.7585617977
 20
80.8964855007
 11
168.2559740116
 21
82.1709329602
  0
LINE
  5
3E6
100
AcDbEntity
  8
SMUSSO
100
AcDbLine
 62
7
  6
CONTINUOUS
 10
208.8748563864
 20
114.8373863185
 11
97.647820682
 21
179.0584827321
  0
LINE
  5
3E7
100
AcDbEntity
  8
ASSI
100
AcDbLine
 62
7
  6
CONTINUOUS
 10
208.8748563864
 20
114.8373863185
 11
97.647820682
 21
179.0584827321
  0
LWPOLYLINE
  5
3E8
100
AcDbEntity
  8
0
100
AcDbPolyline
 62
250
  6
CONTINUOUS
 90
5
 70
0
 10
188.6341779589
 20
102.6681068515
 10
188.6415931446
 20
102.6274622168
 10
188.6468932283
 20
102.5874728494
 10
188.6501400448
 20
102.5479829707
 10
188.6513335942
 20
102.5089925809
  0
LWPOLYLINE
  5
3E9
100
AcDbEntity
  8
ASSI
100
AcDbPolyline
 62
250
  6
CONTINUOUS
 90
5
 70
0
 10
188.6341779589
 20
102.6681068515
 10
188.6415931446
 20
102.6274622168
 10
188.6468932283
 20
102.5874728494
 10
188.6501400448
 20
102.5479829707
 10
188.6513335942
 20
102.5089925809
  0
LINE
  5
3EA
100
AcDbEntity
  8
0
100
AcDbLine
 62
7
  6
CONTINUOUS
 10
188.5927549504
 20
102.5906474996
 11
188.5927549504
 21
66.4219329182
  0
LINE
  5
3EB
100
AcDbEntity
  8
ASSI
100
AcDbLine
 62
7
  6
CONTINUOUS
 10
188.5927549504
 20
102.5906474996
 11
188.5927549504
 21
66.4219329182
  0
LINE
  5
3EC
100
AcDbEntity
  8
0
100
AcDbLine
 62
250
  6
CONTINUOUS
 10
188.6513335942
 20
102.5089925809
 11
188.6513335942
 21
66.3402779995
  0
LINE
  5
3ED
100
AcDbEntity
  8
ASSI
100
AcDbLine
 62
250
  6
CONTINUOUS
 10
188.6513335942
 20
102.5089925809
 11
188.6513335942
 21
66.3402779995
  0
LWPOLYLINE
  5
3EE
100
AcDbEntity
  8
0
100
AcDbPolyline
 62
7
  6
CONTINUOUS
 90
13
 70
0
 10
188.5927549834
 20
66.4218666389
 10
188.592474977
 20
66.4061409487
 10
188.5910993849
 20
66.3843752049
 10
188.5886291401
 20
66.3640818796
 10
188.585131265
 20
66.3453913115
 10
188.5807404897
 20
66.3286103939
 10
188.5757412992
 20
66.3142075326
 10
188.5704545989
 20
66.3023632147
 10
188.5651343746
 20
66.2929384743
 10
188.5600466557
 20
66.2857760751
 10
188.5554095975
 20
66.280626385
 10
188.551384706
 20
66.2771497822
 10
188.5493734056
 20
66.2757423996
  0
LWPOLYLINE
  5
3EF
100
AcDbEntity
  8
ASSI
100
AcDbPolyline
 62
7
  6
CONTINUOUS
 90
13
 70
0
 10
188.5927549834
 20
66.4218666389
 10
188.592474977
 20
66.4061409487
 10
188.5910993849
 20
66.3843752049
 10
188.5886291401
 20
66.3640818796
 10
188.585131265
 20
66.3453913115
 10
188.5807404897
 20
66.3286103939
 10
188.5757412992
 20
66.3142075326
 10
188.5704545989
 20
66.3023632147
 10
188.5651343746
 20
66.2929384743
 10
188.5600466557
 20
66.2857760751
 10
188.5554095975
 20
66.280626385
 10
188.551384706
 20
66.2771497822
 10
188.5493734056
 20
66.2757423996
  0
LWPOLYLINE
  5
3F0
100
AcDbEntity
  8
0
100
AcDbPolyline
 62
250
  6
CONTINUOUS
 90
4
 70
0
 10
188.6513335942
 20
66.3402779995
 10
188.6502886409
 20
66.3035293276
 10
188.6471489221
 20
66.2683463867
 10
188.6419144377
 20
66.234729177
  0
LWPOLYLINE
  5
3F1
100
AcDbEntity
  8
ASSI
100
AcDbPolyline
 62
250
  6
CONTINUOUS
 90
4
 70
0
 10
188.6513335942
 20
66.3402779995
 10
188.6502886409
 20
66.3035293276
 10
188.6471489221
 20
66.2683463867
 10
188.6419144377
 20
66.234729177
  0
LWPOLYLINE
  5
3F2
100
AcDbEntity
  8
0
100
AcDbPolyline
 62
250
  6
CONTINUOUS
 90
16
 70
0
 10
188.1566603726
 20
66.0547150844
 10
188.1574010739
 20
66.071833666
 10
188.1596154188
 20
66.089628272
 10
188.1632802118
 20
66.1079125023
 10
188.168357064
 20
66.1264948276
 10
188.1747927947
 20
66.1451805964
 10
188.1825199891
 20
66.1637740734
 10
188.191457704
 20
66.18208049
 10
188.201512316
 20
66.1999080848
 10
188.212578502
 20
66.217070112
 10
188.2245403428
 20
66.2333867976
 10
188.2372725367
 20
66.2486872229
 10
188.2506417129
 20
66.2628111142
 10
188.2645078279
 20
66.2756105226
 10
188.2787256328
 20
66.2869513728
 10
188.2931461947
 20
66.2967148685
  0
LWPOLYLINE
  5
3F3
100
AcDbEntity
  8
ASSI
100
AcDbPolyline
 62
250
  6
CONTINUOUS
 90
16
 70
0
 10
188.1566603726
 20
66.0547150844
 10
188.1574010739
 20
66.071833666
 10
188.1596154188
 20
66.089628272
 10
188.1632802118
 20
66.1079125023
 10
188.168357064
 20
66.1264948276
 10
188.1747927947
 20
66.1451805964
 10
188.1825199891
 20
66.1637740734
 10
188.191457704
 20
66.18208049
 10
188.201512316
 20
66.1999080848
 10
188.212578502
 20
66.217070112
 10
188.2245403428
 20
66.2333867976
 10
188.2372725367
 20
66.2486872229
 10
188.2506417129
 20
66.2628111142
 10
188.2645078279
 20
66.2756105226
 10
188.2787256328
 20
66.2869513728
 10
188.2931461947
 20
66.2967148685
  0
LWPOLYLINE
  5
3F4
100
AcDbEntity
  8
0
100
AcDbPolyline
 62
250
  6
CONTINUOUS
 90
22
 70
0
 10
188.6419144377
 20
66.234729177
 10
188.6345451715
 20
66.2025051298
 10
188.6250811398
 20
66.1718468136
 10
188.6136423911
 20
66.1432719342
 10
188.600192121
 20
66.1168414837
 10
188.5847671339
 20
66.0924944699
 10
188.5675978924
 20
66.0705656213
 10
188.548665383
 20
66.0511036991
 10
188.5279886191
 20
66.0340599419
 10
188.505855103
 20
66.0196227951
 10
188.4822222813
 20
66.0078305627
 10
188.4571327076
 20
65.9986449406
 10
188.4310015444
 20
65.9921394613
 10
188.4039220245
 20
65.9883387427
 10
188.3758009153
 20
65.987218167
 10
188.3467736814
 20
65.988777413
 10
188.3167814859
 20
65.9930050188
 10
188.2858831658
 20
65.9999124462
 10
188.2543906968
 20
66.00953376
 10
188.2224080709
 20
66.0218803151
 10
188.1898312962
 20
66.0369407565
 10
188.1566603726
 20
66.0547150844
  0
LWPOLYLINE
  5
3F5
100
AcDbEntity
  8
ASSI
100
AcDbPolyline
 62
250
  6
CONTINUOUS
 90
22
 70
0
 10
188.6419144377
 20
66.234729177
 10
188.6345451715
 20
66.2025051298
 10
188.6250811398
 20
66.1718468136
 10
188.6136423911
 20
66.1432719342
 10
188.600192121
 20
66.1168414837
 10
188.5847671339
 20
66.0924944699
 10
188.5675978924
 20
66.0705656213
 10
188.548665383
 20
66.0511036991
 10
188.5279886191
 20
66.0340599419
 10
188.505855103
 20
66.0196227951
 10
188.4822222813
 20
66.0078305627
 10
188.4571327076
 20
65.9986449406
 10
188.4310015444
 20
65.9921394613
 10
188.4039220245
 20
65.9883387427
 10
188.3758009153
 20
65.987218167
 10
188.3467736814
 20
65.988777413
 10
188.3167814859
 20
65.9930050188
 10
188.2858831658
 20
65.9999124462
 10
188.2543906968
 20
66.00953376
 10
188.2224080709
 20
66.0218803151
 10
188.1898312962
 20
66.0369407565
 10
188.1566603726
 20
66.0547150844
  0
LINE
  5
3F6
100
AcDbEntity
  8
0
100
AcDbLine
 62
250
  6
CONTINUOUS
 10
187.5969094498
 20
69.6216959265
 11
187.602456991
 21
69.6388593046
  0
LINE
  5
3F7
100
AcDbEntity
  8
0
100
AcDbLine
 62
7
  6
CONTINUOUS
 10
181.7362235375
 20
71.6711838593
 11
181.757741816
 21
71.7084546109
  0
LINE
  5
3F8
100
AcDbEntity
  8
0
100
AcDbLine
 62
7
  6
CONTINUOUS
 10
182.0052291894
 20
71.728880177
 11
182.1112952066
 21
71.9125919076
  0
LINE
  5
3F9
100
AcDbEntity
  8
0
100
AcDbLine
 62
7
  6
CONTINUOUS
 10
182.35878258
 20
71.9330174737
 11
182.4648485972
 21
72.1167292042
  0
LINE
  5
3FA
100
AcDbEntity
  8
0
100
AcDbLine
 62
7
  6
CONTINUOUS
 10
182.7123359706
 20
72.1371547704
 11
182.8184019878
 21
72.3208665009
  0
LINE
  5
3FB
100
AcDbEntity
  8
0
100
AcDbLine
 62
7
  6
CONTINUOUS
 10
183.0658893612
 20
72.341292067
 11
183.1719553784
 21
72.5250037976
  0
LINE
  5
3FC
100
AcDbEntity
  8
0
100
AcDbLine
 62
7
  6
CONTINUOUS
 10
183.4194427518
 20
72.5454293637
 11
183.525508769
 21
72.7291410942
  0
LINE
  5
3FD
100
AcDbEntity
  8
0
100
AcDbLine
 62
7
  6
CONTINUOUS
 10
183.7729961424
 20
72.7495666604
 11
183.8790621596
 21
72.9332783909
  0
LINE
  5
3FE
100
AcDbEntity
  8
0
100
AcDbLine
 62
7
  6
CONTINUOUS
 10
181.757741816
 20
71.7084546109
 11
181.8991631722
 21
71.7901095296
  0
LINE
  5
3FF
100
AcDbEntity
  8
0
100
AcDbLine
 62
7
  6
CONTINUOUS
 10
182.1112952066
 20
71.9125919076
 11
182.2527165628
 21
71.9942468262
  0
LINE
  5
400
100
AcDbEntity
  8
0
100
AcDbLine
 62
7
  6
CONTINUOUS
 10
182.4648485972
 20
72.1167292042
 11
182.6062699534
 21
72.1983841229
  0
LINE
  5
401
100
AcDbEntity
  8
0
100
AcDbLine
 62
7
  6
CONTINUOUS
 10
182.8184019878
 20
72.3208665009
 11
182.959823344
 21
72.4025214196
  0
LINE
  5
402
100
AcDbEntity
  8
0
100
AcDbLine
 62
7
  6
CONTINUOUS
 10
183.1719553784
 20
72.5250037976
 11
183.3133767346
 21
72.6066587162
  0
LINE
  5
403
100
AcDbEntity
  8
0
100
AcDbLine
 62
7
  6
CONTINUOUS
 10
183.525508769
 20
72.7291410942
 11
183.6669301252
 21
72.8107960129
  0
LINE
  5
404
100
AcDbEntity
  8
0
100
AcDbLine
 62
7
  6
CONTINUOUS
 10
183.8790621596
 20
72.9332783909
 11
184.0204835158
 21
73.0149333095
  0
LINE
  5
405
100
AcDbEntity
  8
0
100
AcDbLine
 62
7
  6
CONTINUOUS
 10
181.515733685
 20
71.7984919368
 11
184.0540785184
 21
73.118131752
  0
LINE
  5
406
100
AcDbEntity
  8
0
100
AcDbLine
 62
7
  6
CONTINUOUS
 10
184.1281256714
 20
73.1525755481
 11
185.4384799271
 21
73.6900378748
  0
LINE
  5
407
100
AcDbEntity
  8
SMUSSO
100
AcDbLine
 62
7
  6
CONTINUOUS
 10
204.0820001882
 20
110.9309785902
 11
203.803024254
 21
111.4141790817
  0
LINE
  5
408
100
AcDbEntity
  8
ASSI
100
AcDbLine
 62
7
  6
CONTINUOUS
 10
204.0820001882
 20
110.9309785902
 11
203.803024254
 21
111.4141790817
  0
LINE
  5
409
100
AcDbEntity
  8
SMUSSO
100
AcDbLine
 62
7
  6
CONTINUOUS
 10
205.4989593191
 20
111.2785968664
 11
204.8125609715
 21
112.4674736775
  0
LINE
  5
40A
100
AcDbEntity
  8
ASSI
100
AcDbLine
 62
7
  6
CONTINUOUS
 10
205.4989593191
 20
111.2785968664
 11
204.8125609715
 21
112.4674736775
  0
LINE
  5
40B
100
AcDbEntity
  8
SMUSSO
100
AcDbLine
 62
7
  6
CONTINUOUS
 10
204.0820001882
 20
40.0993449908
 11
204.0820001882
 21
110.9309785902
  0
LINE
  5
40C
100
AcDbEntity
  8
ASSI
100
AcDbLine
 62
7
  6
CONTINUOUS
 10
204.0820001882
 20
40.0993449908
 11
204.0820001882
 21
110.9309785902
  0
LINE
  5
40D
100
AcDbEntity
  8
SMUSSO
100
AcDbLine
 62
7
  6
CONTINUOUS
 10
205.520460671
 20
39.7347270867
 11
205.520460671
 21
111.266601919
  0
LINE
  5
40E
100
AcDbEntity
  8
ASSI
100
AcDbLine
 62
7
  6
CONTINUOUS
 10
205.520460671
 20
39.7347270867
 11
205.520460671
 21
111.266601919
  0
LINE
  5
40F
100
AcDbEntity
  8
SMUSSO
100
AcDbLine
 62
7
  6
CONTINUOUS
 10
204.8129234017
 20
112.4920924163
 11
204.8125609715
 21
112.4674736775
  0
LINE
  5
410
100
AcDbEntity
  8
ASSI
100
AcDbLine
 62
7
  6
CONTINUOUS
 10
204.8129234017
 20
112.4920924163
 11
204.8125609715
 21
112.4674736775
  0
LINE
  5
411
100
AcDbEntity
  8
0
100
AcDbLine
 62
7
  6
CONTINUOUS
 10
185.625310834
 20
69.425673596
 11
185.6468291125
 21
69.4629443476
  0
LINE
  5
412
100
AcDbEntity
  8
0
100
AcDbLine
 62
7
  6
CONTINUOUS
 10
185.894316486
 20
69.4833699137
 11
186.0003825031
 21
69.6670816443
  0
LINE
  5
413
100
AcDbEntity
  8
0
100
AcDbLine
 62
7
  6
CONTINUOUS
 10
186.2478698765
 20
69.6875072104
 11
186.3539358937
 21
69.8712189409
  0
LINE
  5
414
100
AcDbEntity
  8
0
100
AcDbLine
 62
7
  6
CONTINUOUS
 10
186.6014232671
 20
69.8916445071
 11
186.7074892843
 21
70.0753562376
  0
LINE
  5
415
100
AcDbEntity
  8
0
100
AcDbLine
 62
7
  6
CONTINUOUS
 10
186.9549766577
 20
70.0957818037
 11
187.0610426749
 21
70.2794935343
  0
LINE
  5
416
100
AcDbEntity
  8
0
100
AcDbLine
 62
7
  6
CONTINUOUS
 10
187.3085300483
 20
70.2999191004
 11
187.4145960655
 21
70.4836308309
  0
LINE
  5
417
100
AcDbEntity
  8
0
100
AcDbLine
 62
7
  6
CONTINUOUS
 10
187.6620834389
 20
70.5040563971
 11
187.7681494561
 21
70.6877681276
  0
LINE
  5
418
100
AcDbEntity
  8
0
100
AcDbLine
 62
250
  6
CONTINUOUS
 10
187.602456991
 20
69.6388593046
 11
187.938401956
 21
69.9656128944
  0
LINE
  5
419
100
AcDbEntity
  8
0
100
AcDbLine
 62
7
  6
CONTINUOUS
 10
187.6063818485
 20
69.6053241039
 11
188.0353662293
 21
70.0225715729
  0
LWPOLYLINE
  5
41A
100
AcDbEntity
  8
0
100
AcDbPolyline
 62
250
  6
CONTINUOUS
 90
6
 70
0
 10
187.5477675612
 20
69.5608601296
 10
187.56007856
 20
69.5692840078
 10
187.571352935
 20
69.5797378167
 10
187.5812988158
 20
69.5920226828
 10
187.5898387549
 20
69.6060439728
 10
187.5969094498
 20
69.6216959265
  0
LINE
  5
41B
100
AcDbEntity
  8
0
100
AcDbLine
 62
7
  6
CONTINUOUS
 10
188.3004157767
 20
70.6663498382
 11
186.0148798228
 21
69.2007413443
  0
LINE
  5
41C
100
AcDbEntity
  8
0
100
AcDbLine
 62
7
  6
CONTINUOUS
 10
186.3282728846
 20
69.0197921182
 11
188.5927549504
 21
70.3499924253
  0
LINE
  5
41D
100
AcDbEntity
  8
0
100
AcDbLine
 62
7
  6
CONTINUOUS
 10
187.5477675028
 20
69.5608600958
 11
186.4721298872
 21
68.9367308878
  0
LINE
  5
41E
100
AcDbEntity
  8
0
100
AcDbLine
 62
250
  6
CONTINUOUS
 10
187.602456991
 20
69.6388593046
 11
186.4317781679
 21
68.9600294648
  0
LINE
  5
41F
100
AcDbEntity
  8
0
100
AcDbLine
 62
7
  6
CONTINUOUS
 10
185.6468291125
 20
69.4629443476
 11
185.7882504688
 21
69.5445992663
  0
LINE
  5
420
100
AcDbEntity
  8
0
100
AcDbLine
 62
7
  6
CONTINUOUS
 10
186.0003825031
 20
69.6670816443
 11
186.1418038594
 21
69.7487365629
  0
LINE
  5
421
100
AcDbEntity
  8
0
100
AcDbLine
 62
7
  6
CONTINUOUS
 10
186.3539358937
 20
69.8712189409
 11
186.49535725
 21
69.9528738596
  0
LINE
  5
422
100
AcDbEntity
  8
0
100
AcDbLine
 62
7
  6
CONTINUOUS
 10
186.7074892843
 20
70.0753562376
 11
186.8489106406
 21
70.1570111563
  0
LINE
  5
423
100
AcDbEntity
  8
0
100
AcDbLine
 62
7
  6
CONTINUOUS
 10
187.0610426749
 20
70.2794935343
 11
187.2024640311
 21
70.3611484529
  0
LINE
  5
424
100
AcDbEntity
  8
0
100
AcDbLine
 62
7
  6
CONTINUOUS
 10
187.4145960655
 20
70.4836308309
 11
187.5560174217
 21
70.5652857496
  0
LINE
  5
425
100
AcDbEntity
  8
0
100
AcDbLine
 62
7
  6
CONTINUOUS
 10
187.7681494561
 20
70.6877681276
 11
187.9095708123
 21
70.7694230462
  0
LINE
  5
426
100
AcDbEntity
  8
0
100
AcDbLine
 62
7
  6
CONTINUOUS
 10
188.0156368295
 20
70.7081936937
 11
185.7098504022
 21
69.3768615089
  0
LINE
  5
427
100
AcDbEntity
  8
0
100
AcDbLine
 62
7
  6
CONTINUOUS
 10
188.5927549504
 20
70.8222634111
 11
188.3670881327
 21
70.7050517496
  0
LINE
  5
428
100
AcDbEntity
  8
SMUSSO
100
AcDbLine
 62
7
  6
CONTINUOUS
 10
208.8748563864
 20
114.8373863185
 11
209.5823936557
 21
113.6118958211
  0
LINE
  5
429
100
AcDbEntity
  8
ASSI
100
AcDbLine
 62
7
  6
CONTINUOUS
 10
208.8748563864
 20
114.8373863185
 11
209.5823936557
 21
113.6118958211
  0
LINE
  5
42A
100
AcDbEntity
  8
SMUSSO
100
AcDbLine
 62
7
  6
CONTINUOUS
 10
209.5823936557
 20
41.763505601
 11
209.5823936557
 21
113.6118958211
  0
LINE
  5
42B
100
AcDbEntity
  8
ASSI
100
AcDbLine
 62
7
  6
CONTINUOUS
 10
209.5823936557
 20
41.763505601
 11
209.5823936557
 21
113.6118958211
  0
LINE
  5
42C
100
AcDbEntity
  8
0
100
AcDbLine
 62
250
  6
CONTINUOUS
 10
188.2931461947
 20
66.2967148685
 11
188.5927549504
 21
66.4947421748
  0
LINE
  5
42D
100
AcDbEntity
  8
ASSI
100
AcDbLine
 62
250
  6
CONTINUOUS
 10
188.2931461947
 20
66.2967148685
 11
188.5927549504
 21
66.4947421748
  0
LINE
  5
42E
100
AcDbEntity
  8
0
100
AcDbLine
 62
7
  6
CONTINUOUS
 10
188.5496289992
 20
66.2759102612
 11
188.5493874947
 21
66.2757509378
  0
LINE
  5
42F
100
AcDbEntity
  8
ASSI
100
AcDbLine
 62
7
  6
CONTINUOUS
 10
188.5496289992
 20
66.2759102612
 11
188.5493874947
 21
66.2757509378
  0
LWPOLYLINE
  5
430
100
AcDbEntity
  8
0
100
AcDbPolyline
 62
250
  6
CONTINUOUS
 90
14
 70
0
 10
188.5493874947
 20
66.2757509378
 10
188.540602137
 20
66.2703476203
 10
188.5237200743
 20
66.2619063064
 10
188.5058986098
 20
66.2553824796
 10
188.4872661435
 20
66.2508031432
 10
188.4679847732
 20
66.2481713072
 10
188.4480826708
 20
66.2474560189
 10
188.4274799408
 20
66.2486505668
 10
188.406212355
 20
66.2517801165
 10
188.3844072784
 20
66.2568538815
 10
188.3621082601
 20
66.2638837842
 10
188.3393919039
 20
66.2728773665
 10
188.316370629
 20
66.2838261512
 10
188.2931461947
 20
66.2967148685
  0
LWPOLYLINE
  5
431
100
AcDbEntity
  8
ASSI
100
AcDbPolyline
 62
250
  6
CONTINUOUS
 90
14
 70
0
 10
188.5493874947
 20
66.2757509378
 10
188.540602137
 20
66.2703476203
 10
188.5237200743
 20
66.2619063064
 10
188.5058986098
 20
66.2553824796
 10
188.4872661435
 20
66.2508031432
 10
188.4679847732
 20
66.2481713072
 10
188.4480826708
 20
66.2474560189
 10
188.4274799408
 20
66.2486505668
 10
188.406212355
 20
66.2517801165
 10
188.3844072784
 20
66.2568538815
 10
188.3621082601
 20
66.2638837842
 10
188.3393919039
 20
66.2728773665
 10
188.316370629
 20
66.2838261512
 10
188.2931461947
 20
66.2967148685
  0
LINE
  5
432
100
AcDbEntity
  8
SMUSSO
100
AcDbLine
 62
7
  6
CONTINUOUS
 10
203.803024254
 20
39.9382989153
 11
204.0820001882
 21
40.0993449908
  0
LINE
  5
433
100
AcDbEntity
  8
ASSI
100
AcDbLine
 62
7
  6
CONTINUOUS
 10
203.803024254
 20
39.9382989153
 11
204.0820001882
 21
40.0993449908
  0
LINE
  5
434
100
AcDbEntity
  8
SMUSSO
100
AcDbLine
 62
7
  6
CONTINUOUS
 10
204.8125609715
 20
39.3269243306
 11
205.4989593191
 21
39.723165535
  0
LINE
  5
435
100
AcDbEntity
  8
ASSI
100
AcDbLine
 62
7
  6
CONTINUOUS
 10
204.8125609715
 20
39.3269243306
 11
205.4989593191
 21
39.723165535
  0
LINE
  5
436
100
AcDbEntity
  8
SMUSSO
100
AcDbLine
 62
7
  6
CONTINUOUS
 10
209.5823936557
 20
41.763505601
 11
208.8748563864
 21
41.3550614072
  0
LINE
  5
437
100
AcDbEntity
  8
ASSI
100
AcDbLine
 62
7
  6
CONTINUOUS
 10
209.5823936557
 20
41.763505601
 11
208.8748563864
 21
41.3550614072
  0
LINE
  5
438
100
AcDbEntity
  8
SMUSSO
100
AcDbLine
 62
7
  6
CONTINUOUS
 10
205.520460671
 20
39.7347270867
 11
205.4989593191
 21
39.723165535
  0
LINE
  5
439
100
AcDbEntity
  8
ASSI
100
AcDbLine
 62
7
  6
CONTINUOUS
 10
205.520460671
 20
39.7347270867
 11
205.4989593191
 21
39.723165535
  0
LINE
  5
43A
100
AcDbEntity
  8
SMUSSO
100
AcDbLine
 62
7
  6
CONTINUOUS
 10
205.520460671
 20
39.7347270867
 11
209.5823936557
 21
41.763505601
  0
LINE
  5
43B
100
AcDbEntity
  8
ASSI
100
AcDbLine
 62
7
  6
CONTINUOUS
 10
205.520460671
 20
39.7347270867
 11
209.5823936557
 21
41.763505601
  0
LINE
  5
43C
100
AcDbEntity
  8
SMUSSO
100
AcDbLine
 62
7
  6
CONTINUOUS
 10
204.8129234017
 20
39.3262828929
 11
208.8748563864
 21
41.3550614072
  0
LINE
  5
43D
100
AcDbEntity
  8
ASSI
100
AcDbLine
 62
7
  6
CONTINUOUS
 10
204.8129234017
 20
39.3262828929
 11
208.8748563864
 21
41.3550614072
  0
ARC
  5
43E
100
AcDbEntity
  8
0
100
AcDbCircle
 62
7
  6
CONTINUOUS
 10
187.3970481004
 20
69.8205080215
 40
0.3
100
AcDbArc
 50
300.1089925867
 51
314.200140539
  0
ARC
  5
43F
100
AcDbEntity
  8
0
100
AcDbCircle
 62
7
  6
CONTINUOUS
 10
123.7574377937
 20
106.565221421
 40
0.3
100
AcDbArc
 50
300.1089925867
 51
314.200140539
  0
ELLIPSE
  5
440
100
AcDbEntity
  8
0
100
AcDbEllipse
 62
7
  6
CONTINUOUS
 10
125.7586971321
 20
107.5693393016
 30
0.0
 11
0.1999995634
 21
0.1164181051
 31
0.0
 40
0.0035896273
 41
-0.7351277754
 42
-0.6748017824
  0
ELLIPSE
  5
441
100
AcDbEntity
  8
0
100
AcDbEllipse
 62
7
  6
CONTINUOUS
 10
185.5723060483
 20
73.6050759881
 30
0.0
 11
0.1998333781
 21
-0.0157785196
 31
0.0
 40
0.5172961965
 41
0.8262203412
 42
2.3446567905
  0
ELLIPSE
  5
442
100
AcDbEntity
  8
0
100
AcDbEllipse
 62
7
  6
CONTINUOUS
 10
121.9326957416
 20
110.3497893876
 30
0.0
 11
0.1998333781
 21
-0.0157785196
 31
0.0
 40
0.5172961965
 41
0.8262203412
 42
2.3446567905
  0
ELLIPSE
  5
443
100
AcDbEntity
  8
0
100
AcDbEllipse
 62
7
  6
CONTINUOUS
 10
184.0540785184
 20
72.3016614752
 30
0.0
 11
0.5413005334
 21
0.8416911418
 31
0.0
 40
0.6067084637
 41
0.7148472392
 42
0.8145158917
  0
ELLIPSE
  5
444
100
AcDbEntity
  8
0
100
AcDbEllipse
 62
7
  6
CONTINUOUS
 10
120.4144682116
 20
109.0463748747
 30
0.0
 11
0.5413005334
 21
0.8416911418
 31
0.0
 40
0.6067084637
 41
0.7148472392
 42
0.8145158917
  0
ELLIPSE
  5
445
100
AcDbEntity
  8
0
100
AcDbEllipse
 62
7
  6
CONTINUOUS
 10
172.3609338809
 20
79.7055335211
 30
0.0
 11
0.0858610644
 21
0.3627848639
 31
0.0
 40
0.5009985936
 41
-2.6944494219
 42
-2.6479073085
  0
ELLIPSE
  5
446
100
AcDbEntity
  8
0
100
AcDbEllipse
 62
7
  6
CONTINUOUS
 10
168.4567131935
 20
82.0423200794
 30
0.0
 11
0.2999972416
 21
-0.0022477848
 31
0.0
 40
0.5723275643
 41
0.7896864073
 42
2.3081228565
  0
ELLIPSE
  5
447
100
AcDbEntity
  8
0
100
AcDbEllipse
 62
7
  6
CONTINUOUS
 10
156.4510313043
 20
88.891711871
 30
0.0
 11
0.0858610644
 21
0.3627848639
 31
0.0
 40
0.5009985936
 41
-2.6944494219
 42
-2.6479073085
  0
ELLIPSE
  5
448
100
AcDbEntity
  8
0
100
AcDbEllipse
 62
7
  6
CONTINUOUS
 10
152.5468106168
 20
91.2284984293
 30
0.0
 11
0.2999972416
 21
-0.0022477848
 31
0.0
 40
0.5723275643
 41
0.7896864073
 42
2.3081228565
  0
ELLIPSE
  5
449
100
AcDbEntity
  8
0
100
AcDbEllipse
 62
7
  6
CONTINUOUS
 10
140.5411287276
 20
98.0778902208
 30
0.0
 11
0.0858610644
 21
0.3627848639
 31
0.0
 40
0.5009985936
 41
-2.6944494219
 42
-2.6479073085
  0
ELLIPSE
  5
44A
100
AcDbEntity
  8
0
100
AcDbEllipse
 62
7
  6
CONTINUOUS
 10
136.6369080401
 20
100.4146767791
 30
0.0
 11
0.2999972416
 21
-0.0022477848
 31
0.0
 40
0.5723275643
 41
0.7896864073
 42
2.3081228565
  0
ELLIPSE
  5
44B
100
AcDbEntity
  8
0
100
AcDbEllipse
 62
7
  6
CONTINUOUS
 10
172.148510728
 20
79.9107224521
 30
0.0
 11
0.2999972416
 21
-0.0022477848
 31
0.0
 40
0.5723275643
 41
-0.728750042
 42
0.7896864073
  0
ELLIPSE
  5
44C
100
AcDbEntity
  8
0
100
AcDbEllipse
 62
7
  6
CONTINUOUS
 10
156.2386081513
 20
89.0969008019
 30
0.0
 11
0.2999972416
 21
-0.0022477848
 31
0.0
 40
0.5723275643
 41
-0.728750042
 42
0.7896864073
  0
ELLIPSE
  5
44D
100
AcDbEntity
  8
0
100
AcDbEllipse
 62
7
  6
CONTINUOUS
 10
140.3287055746
 20
98.2830791518
 30
0.0
 11
0.2999972416
 21
-0.0022477848
 31
0.0
 40
0.5723275643
 41
-0.728750042
 42
0.7896864073
  0
ELLIPSE
  5
44E
100
AcDbEntity
  8
0
100
AcDbEllipse
 62
7
  6
CONTINUOUS
 10
125.7586971321
 20
108.1407041358
 30
0.0
 11
0.1998333781
 21
-0.0157785196
 31
0.0
 40
0.5172961965
 41
-0.692216108
 42
0.8262203412
  0
ELLIPSE
  5
44F
100
AcDbEntity
  8
0
100
AcDbEllipse
 62
7
  6
CONTINUOUS
 10
188.3004157767
 20
69.8498795614
 30
0.0
 11
0.4625183445
 21
0.8873459255
 31
0.0
 40
0.5463614449
 41
0.662201126
 42
0.7618697785
  0
ELLIPSE
  5
450
100
AcDbEntity
  8
0
100
AcDbEllipse
 62
7
  6
CONTINUOUS
 10
124.6608054699
 20
106.5945929609
 30
0.0
 11
0.4625183445
 21
0.8873459255
 31
0.0
 40
0.5463614449
 41
0.662201126
 42
0.7618697785
  0
ELLIPSE
  5
451
100
AcDbEntity
  8
0
100
AcDbEllipse
 62
7
  6
CONTINUOUS
 10
110.2694617445
 20
112.9440801596
 30
0.0
 11
-0.2500121243
 21
0.4330057017
 31
0.0
 40
0.5780352736
 41
0.7859587116
 42
2.3555370632
  0
ELLIPSE
  5
452
100
AcDbEntity
  8
ASSI
100
AcDbEllipse
 62
7
  6
CONTINUOUS
 10
110.2694617445
 20
112.9440801596
 30
0.0
 11
-0.2500121243
 21
0.4330057017
 31
0.0
 40
0.5780352736
 41
0.7859587116
 42
2.3555370632
  0
ENDSEC
  0
SECTION
  2
OBJECTS
  0
DICTIONARY
  5
C
100
AcDbDictionary
280
0
281
1
  3
ACAD_GROUP
350
D
  3
ACAD_MLINESTYLE
350
17
  3
ACAD_LAYOUT
350
1A
  3
ACAD_PLOTSETTINGS
350
19
  3
ACAD_PLOTSTYLENAME
350
E
  0
DICTIONARY
  5
D
102
{ACAD_REACTORS
330
C
102
}
100
AcDbDictionary
280
0
281
1
  0
ACDBDICTIONARYWDFLT
  5
E
102
{ACAD_REACTORS
330
C
102
}
100
AcDbDictionary
281
1
  3
Normal
350
F
100
AcDbDictionaryWithDefault
340
F
  0
DICTIONARY
  5
17
102
{ACAD_REACTORS
330
C
102
}
100
AcDbDictionary
280
0
281
1
  3
Standard
350
18
  0
DICTIONARY
  5
19
102
{ACAD_REACTORS
330
C
102
}
100
AcDbDictionary
281
1
  0
DICTIONARY
  5
1A
102
{ACAD_REACTORS
330
C
102
}
100
AcDbDictionary
281
1
  3
Model
350
453
  3
Layout1
350
454
  0
ACDBPLACEHOLDER
  5
F
102
{ACAD_REACTORS
330
E
102
}
  0
MLINESTYLE
  5
18
102
{ACAD_REACTORS
330
17
102
}
100
AcDbMlineStyle
  2
STANDARD
 70
0
  3

 62
256
 51
90.0
 52
90.0
 71
2
 49
0.5
 62
256
  6
BYLAYER
 49
-0.5
 62
256
  6
BYLAYER
  0
LAYOUT
  5
453
102
{ACAD_REACTORS
330
1A
102
}
100
AcDbPlotSettings
  1

  2
none_device
  4
ISO_A4_(297.00_x_210.00_MM)
  6

 40
0.0
 41
0.0
 42
0.0
 43
0.0
 44
297.0
 45
210.0
 46
0.0
 47
0.0
 48
0.0
 49
0.0
140
0.0
141
0.0
142
1.0
143
1.0
 70
1024
 72
1
 73
0
 74
0
  7

 75
0
147
1.0
148
0.0
149
0.0
100
AcDbLayout
  1
Model
 70
0
 71
0
 10
0.0
 20
0.0
 11
297.0
 21
210.0
 12
0.0
 22
0.0
 32
0.0
 14
0.0
 24
0.0
 34
0.0
 15
0.0
 25
0.0
 35
0.0
146
0.0
 13
0.0
 23
0.0
 33
0.0
 16
1.0
 26
0.0
 36
0.0
 17
0.0
 27
1.0
 37
0.0
 76
0
330
21C
345
0
346
0
  0
LAYOUT
  5
454
102
{ACAD_REACTORS
330
1A
102
}
100
AcDbPlotSettings
  1

  2
none_device
  4
ISO_A4_(297.00_x_210.00_MM)
  6

 40
0.0
 41
0.0
 42
0.0
 43
0.0
 44
297.0
 45
210.0
 46
0.0
 47
0.0
 48
0.0
 49
0.0
140
0.0
141
0.0
142
1.0
143
1.0
 70
0
 72
1
 73
0
 74
0
  7

 75
0
147
1.0
148
0.0
149
0.0
100
AcDbLayout
  1
Layout1
 70
0
 71
1
 10
0.0
 20
0.0
 11
297.0
 21
210.0
 12
0.0
 22
0.0
 32
0.0
 14
0.0
 24
0.0
 34
0.0
 15
0.0
 25
0.0
 35
0.0
146
0.0
 13
0.0
 23
0.0
 33
0.0
 16
1.0
 26
0.0
 36
0.0
 17
0.0
 27
1.0
 37
0.0
 76
0
330
21D
345
0
346
0
  0
ENDSEC
  0
EOF
