  0
SECTION
  2
HEADER
  9
$ACADVER
  1
AC1024
  9
$DWGCODEPAGE
  3
ANSI_1252
  9
$EXTMAX
 10
297.0
 20
210.0
 30
0.0
  9
$EXTMIN
 10
0.0
 20
0.0
 30
0.0
  9
$LIMMIN
 10
0.0
 20
0.0
  9
$LIMMAX
 10
297.0
 20
210.0
  9
$VIEWCTR
 10
148.5
 20
105.0
  9
$VIEWSIZE
 40
210.0
  9
$CLAYER
  8
0
  9
$LTSCALE
 40
16.335
  9
$CELTYPE
  6
BYLAYER
  9
$DIMSCALE
 40
1.0
  9
$DIMASZ
 40
3.0
  9
$DIMEXO
 40
0.5
  9
$DIMDLI
 40
11.286
  9
$DIMEXE
 40
1.5
  9
$DIMCEN
 40
2.673
  9
$DIMLFAC
 40
1.0
  9
$DIMBLK
  1
_FILLED
  9
$DIMALT
 70
0
  9
$DIMALTF
 40
0.0393700787
  9
$DIMTXT
 40
3.0
  9
$DIMTOL
 70
1
  9
$DIMLIM
 70
0
  9
$DIMTFAC
 40
1.0
  9
$DIMTP
 40
0.01
  9
$DIMTM
 40
0.01
  9
$DIMGAP
 40
0.625
  9
$DIMDSEP
 70
44
  9
$AUNITS
 70
0
  9
$PDMODE
 70
3
  9
$PDSIZE
 40
3.0
  9
$HANDSEED
  5
322
  9
$TILEMODE
 70
1
  9
$MEASUREMENT
 70
1
  9
$INSUNITS
 70
4
  0
ENDSEC
  0
SECTION
  2
CLASSES
  0
CLASS
  1
ACDBDICTIONARYWDFLT
  2
AcDbDictionaryWithDefault
  3
AutoCAD 2000
 90
0
 91
1
280
0
281
0
  0
CLASS
  1
ACDBPLACEHOLDER
  2
AcDbPlaceHolder
  3
AutoCAD 2000
 90
0
 91
1
280
0
281
0
  0
CLASS
  1
LAYOUT
  2
AcDbLayout
  3
AutoCAD 2000
 90
0
 91
0
280
0
281
0
  0
ENDSEC
  0
SECTION
  2
TABLES
  0
TABLE
  2
VPORT
  5
8
100
AcDbSymbolTable
 70
2
  0
VPORT
  5
1F4
100
AcDbSymbolTableRecord
100
AcDbViewportTableRecord
  2
*ACTIVE
 70
0
 10
0.0
 20
0.0
 11
1.0
 21
1.0
 12
148.5
 22
105.0
 13
0.0
 23
0.0
 14
1.0
 24
1.0
 15
0.0
 25
0.0
 16
0.0
 26
0.0
 36
1.0
 17
0.0
 27
0.0
 37
0.0
 40
210.0
 41
1.4142857143
 42
50.0
 43
0.0
 44
0.0
 50
0.0
 51
0.0
 71
0
 72
100
 73
1
 74
1
 75
0
 76
0
 77
0
 78
0
  0
ENDTAB
  0
TABLE
  2
LTYPE
  5
5
100
AcDbSymbolTable
 70
6
  0
LTYPE
  5
14
100
AcDbSymbolTableRecord
100
AcDbLinetypeTableRecord
  2
BYBLOCK
 70
0
  3

 72
65
 73
0
 40
0.0
  0
LTYPE
  5
15
100
AcDbSymbolTableRecord
100
AcDbLinetypeTableRecord
  2
BYLAYER
 70
0
  3

 72
65
 73
0
 40
0.0
  0
LTYPE
  5
16
100
AcDbSymbolTableRecord
100
AcDbLinetypeTableRecord
  2
CONTINUOUS
 70
64
  3
Solid line
 72
65
 73
0
 40
0.0
  0
LTYPE
  5
1F5
100
AcDbSymbolTableRecord
100
AcDbLinetypeTableRecord
  2
CENTER
 70
64
  3
____ _ ____ _ ____ _ ____ _ ____ _ ____ _ ____
 72
65
 73
4
 40
0.6
 49
0.375
 74
0
 49
-0.075
 74
0
 49
0.075
 74
0
 49
-0.075
 74
0
  0
LTYPE
  5
1F6
100
AcDbSymbolTableRecord
100
AcDbLinetypeTableRecord
  2
HIDDEN
 70
64
  3
- - - - - - - - - - - - - - - - - - - -
 72
65
 73
2
 40
0.2
 49
0.1
 74
0
 49
-0.1
 74
0
  0
LTYPE
  5
1F7
100
AcDbSymbolTableRecord
100
AcDbLinetypeTableRecord
  2
PHANTOM
 70
64
  3
_____ _ _ _____ _ _ _____ _ _ _____
 72
65
 73
6
 40
0.8
 49
0.45
 74
0
 49
-0.05
 74
0
 49
0.1
 74
0
 49
-0.05
 74
0
 49
0.1
 74
0
 49
-0.05
 74
0
  0
LTYPE
  5
1F8
100
AcDbSymbolTableRecord
100
AcDbLinetypeTableRecord
  2
DOT
 70
64
  3
. . . . . . . . . . . . . . . . . . . .
 72
65
 73
2
 40
0.2
 49
0.1
 74
0
 49
-0.1
 74
0
  0
LTYPE
  5
1F9
100
AcDbSymbolTableRecord
100
AcDbLinetypeTableRecord
  2
DASHED
 70
64
  3
- - - - - - - - - - - - - - - - - - - -
 72
65
 73
2
 40
0.2
 49
0.1
 74
0
 49
-0.1
 74
0
  0
ENDTAB
  0
TABLE
  2
LAYER
  5
2
100
AcDbSymbolTable
 70
36
  0
LAYER
  5
10
100
AcDbSymbolTableRecord
100
AcDbLayerTableRecord
  2
0
 70
0
 62
7
  6
CONTINUOUS
370
-3
390
F
  0
LAYER
  5
1FA
100
AcDbSymbolTableRecord
100
AcDbLayerTableRecord
  2
DEFAULT_1
 70
0
 62
7
  6
CENTER
370
-3
390
F
  0
LAYER
  5
1FB
100
AcDbSymbolTableRecord
100
AcDbLayerTableRecord
  2
DEFAULT_2
 70
0
 62
7
  6
HIDDEN
370
-3
390
F
  0
LAYER
  5
1FC
100
AcDbSymbolTableRecord
100
AcDbLayerTableRecord
  2
DEFAULT_3
 70
0
 62
7
  6
PHANTOM
370
-3
390
F
  0
LAYER
  5
1FD
100
AcDbSymbolTableRecord
100
AcDbLayerTableRecord
  2
ASSI
 70
0
 62
7
  6
CONTINUOUS
370
-3
390
F
  0
LAYER
  5
1FE
100
AcDbSymbolTableRecord
100
AcDbLayerTableRecord
  2
COORDINATE
 70
0
 62
7
  6
CONTINUOUS
370
-3
390
F
  0
LAYER
  5
1FF
100
AcDbSymbolTableRecord
100
AcDbLayerTableRecord
  2
COORD_ORIGINE
 70
0
 62
7
  6
CONTINUOUS
370
-3
390
F
  0
LAYER
  5
200
100
AcDbSymbolTableRecord
100
AcDbLayerTableRecord
  2
COPY_PUBLISH
 70
0
 62
7
  6
CONTINUOUS
370
-3
390
F
  0
LAYER
  5
201
100
AcDbSymbolTableRecord
100
AcDbLayerTableRecord
  2
COSMETIC
 70
0
 62
7
  6
CONTINUOUS
370
-3
390
F
  0
LAYER
  5
202
100
AcDbSymbolTableRecord
100
AcDbLayerTableRecord
  2
COSMETICI
 70
0
 62
7
  6
CONTINUOUS
370
-3
390
F
  0
LAYER
  5
203
100
AcDbSymbolTableRecord
100
AcDbLayerTableRecord
  2
CURVE
 70
0
 62
7
  6
CONTINUOUS
370
-3
390
F
  0
LAYER
  5
204
100
AcDbSymbolTableRecord
100
AcDbLayerTableRecord
  2
CURVE_COSTRUZIONE
 70
0
 62
7
  6
CONTINUOUS
370
-3
390
F
  0
LAYER
  5
205
100
AcDbSymbolTableRecord
100
AcDbLayerTableRecord
  2
CURVE_TASSELLI
 70
0
 62
7
  6
CONTINUOUS
370
-3
390
F
  0
LAYER
  5
206
100
AcDbSymbolTableRecord
100
AcDbLayerTableRecord
  2
DRAFT
 70
0
 62
7
  6
CONTINUOUS
370
-3
390
F
  0
LAYER
  5
207
100
AcDbSymbolTableRecord
100
AcDbLayerTableRecord
  2
IMPORT_IGES
 70
0
 62
7
  6
CONTINUOUS
370
-3
390
F
  0
LAYER
  5
208
100
AcDbSymbolTableRecord
100
AcDbLayerTableRecord
  2
INTFCLR_2
 70
0
 62
7
  6
CONTINUOUS
370
-3
390
F
  0
LAYER
  5
209
100
AcDbSymbolTableRecord
100
AcDbLayerTableRecord
  2
INTF_1
 70
0
 62
7
  6
CONTINUOUS
370
-3
390
F
  0
LAYER
  5
20A
100
AcDbSymbolTableRecord
100
AcDbLayerTableRecord
  2
INTF_21
 70
0
 62
7
  6
CONTINUOUS
370
-3
390
F
  0
LAYER
  5
20B
100
AcDbSymbolTableRecord
100
AcDbLayerTableRecord
  2
INTF_7
 70
0
 62
7
  6
CONTINUOUS
370
-3
390
F
  0
LAYER
  5
20C
100
AcDbSymbolTableRecord
100
AcDbLayerTableRecord
  2
INTF_CYAN
 70
0
 62
7
  6
CONTINUOUS
370
-3
390
F
  0
LAYER
  5
20D
100
AcDbSymbolTableRecord
100
AcDbLayerTableRecord
  2
NOTE
 70
0
 62
7
  6
CONTINUOUS
370
-3
390
F
  0
LAYER
  5
20E
100
AcDbSymbolTableRecord
100
AcDbLayerTableRecord
  2
PIANI
 70
0
 62
7
  6
CONTINUOUS
370
-3
390
F
  0
LAYER
  5
20F
100
AcDbSymbolTableRecord
100
AcDbLayerTableRecord
  2
PIANI_ORIGINE
 70
0
 62
7
  6
CONTINUOUS
370
-3
390
F
  0
LAYER
  5
210
100
AcDbSymbolTableRecord
100
AcDbLayerTableRecord
  2
PIANI_RIFERIMENTO
 70
0
 62
7
  6
CONTINUOUS
370
-3
390
F
  0
LAYER
  5
211
100
AcDbSymbolTableRecord
100
AcDbLayerTableRecord
  2
PUNTI
 70
0
 62
7
  6
CONTINUOUS
370
-3
390
F
  0
LAYER
  5
212
100
AcDbSymbolTableRecord
100
AcDbLayerTableRecord
  2
RACCORDO
 70
0
 62
7
  6
CONTINUOUS
370
-3
390
F
  0
LAYER
  5
213
100
AcDbSymbolTableRecord
100
AcDbLayerTableRecord
  2
RGB__255__255__255__
 70
0
 62
7
  6
CONTINUOUS
370
-3
390
F
  0
LAYER
  5
214
100
AcDbSymbolTableRecord
100
AcDbLayerTableRecord
  2
RGB____0____0____0__
 70
0
 62
7
  6
CONTINUOUS
370
-3
390
F
  0
LAYER
  5
215
100
AcDbSymbolTableRecord
100
AcDbLayerTableRecord
  2
SIMBOLI
 70
0
 62
7
  6
CONTINUOUS
370
-3
390
F
  0
LAYER
  5
216
100
AcDbSymbolTableRecord
100
AcDbLayerTableRecord
  2
SMUSSO
 70
0
 62
7
  6
CONTINUOUS
370
-3
390
F
  0
LAYER
  5
217
100
AcDbSymbolTableRecord
100
AcDbLayerTableRecord
  2
SNAPLINE
 70
0
 62
7
  6
CONTINUOUS
370
-3
390
F
  0
LAYER
  5
218
100
AcDbSymbolTableRecord
100
AcDbLayerTableRecord
  2
SUPERFICI
 70
0
 62
7
  6
CONTINUOUS
370
-3
390
F
  0
LAYER
  5
219
100
AcDbSymbolTableRecord
100
AcDbLayerTableRecord
  2
TRASH
 70
0
 62
7
  6
CONTINUOUS
370
-3
390
F
  0
LAYER
  5
21A
100
AcDbSymbolTableRecord
100
AcDbLayerTableRecord
  2
XSEC_DATUMS
 70
0
 62
7
  6
CONTINUOUS
370
-3
390
F
  0
ENDTAB
  0
TABLE
  2
STYLE
  5
3
100
AcDbSymbolTable
 70
1
  0
STYLE
  5
11
100
AcDbSymbolTableRecord
100
AcDbTextStyleTableRecord
  2
STANDARD
 70
0
 40
0.0
 41
0.8
 50
0.0
 71
0
 42
0.2
  3
txt
  4

  0
STYLE
  5
21B
100
AcDbSymbolTableRecord
100
AcDbTextStyleTableRecord
  2
TEXTSTYLE_1
 70
0
 40
0.0
 41
0.8
 50
0.0
 71
0
 42
0.2
  3
gdt
  4

  0
ENDTAB
  0
TABLE
  2
VIEW
  5
6
100
AcDbSymbolTable
 70
0
  0
ENDTAB
  0
TABLE
  2
UCS
  5
7
100
AcDbSymbolTable
 70
0
  0
ENDTAB
  0
TABLE
  2
APPID
  5
9
100
AcDbSymbolTable
 70
1
  0
APPID
  5
21C
100
AcDbSymbolTableRecord
100
AcDbRegAppTableRecord
  2
ACAD
 70
0
  0
ENDTAB
  0
TABLE
  2
BLOCK_RECORD
  5
1
100
AcDbSymbolTable
 70
0
  0
BLOCK_RECORD
  5
21D
100
AcDbSymbolTableRecord
100
AcDbBlockTableRecord
  2
*Model_Space
  0
BLOCK_RECORD
  5
21E
100
AcDbSymbolTableRecord
100
AcDbBlockTableRecord
  2
*Paper_Space
  0
BLOCK_RECORD
  5
21F
100
AcDbSymbolTableRecord
100
AcDbBlockTableRecord
  2
_FILLED
  0
ENDTAB
  0
TABLE
  2
DIMSTYLE
  5
A
100
AcDbSymbolTable
 70
1
100
AcDbDimStyleTable
 71
0
  0
DIMSTYLE
105
220
100
AcDbSymbolTableRecord
100
AcDbDimStyleTableRecord
  2
STANDARD
 70
0
  3

  4

 40
1.0
 41
3.0
 42
0.5
 43
0.38
 44
1.5
 45
0.0
 46
0.0
 47
0.01
 48
0.01
140
3.0
141
0.09
142
0.0
143
25.4
144
1.0
145
0.0
146
1.0
147
0.625
 71
1.0
 72
0.0
 73
0
 74
0
 75
0
 76
0
 77
1
 78
8
 79
2
170
0
171
1
172
0
173
0
174
0
175
0
176
0
177
0
178
0
270
2
179
2
271
2
272
2
273
2
274
2
275
0
280
0
281
0
282
0
283
1
284
8
285
0
286
0
287
3
288
0
340
11
278
44
341
21F
342
21F
343
21F
344
21F
  0
ENDTAB
  0
ENDSEC
  0
SECTION
  2
BLOCKS
  0
BLOCK
  5
20
100
AcDbEntity
  8
0
100
AcDbBlockBegin
  2
*Model_Space
 70
0
 10
0.0
 20
0.0
 30
0.0
  3
*Model_Space
  1

  0
ENDBLK
  5
21
100
AcDbEntity
  8
0
100
AcDbBlockEnd
  0
BLOCK
  5
1C
100
AcDbEntity
  8
0
100
AcDbBlockBegin
  2
*Paper_Space
 70
0
 10
0.0
 20
0.0
 30
0.0
  3
*Paper_Space
  1

  0
ENDBLK
  5
1D
100
AcDbEntity
  8
0
100
AcDbBlockEnd
  0
BLOCK
  5
221
100
AcDbEntity
  8
0
100
AcDbBlockBegin
  2
_FILLED
 70
64
 10
0.0
 20
0.0
  3
_FILLED
  1

  0
SOLID
  5
222
100
AcDbEntity
  8
0
  6
BYBLOCK
 62
0
100
AcDbTrace
 10
0.0
 20
0.0
 11
-1.0
 21
0.3166666667
 12
-1.0
 22
-0.3166666667
 13
-1.0
 23
-0.3166666667
  0
ENDBLK
  5
223
100
AcDbEntity
  8
0
  6
BYBLOCK
 62
0
100
AcDbBlockEnd
  0
ENDSEC
  0
SECTION
  2
ENTITIES
  0
LINE
  5
224
100
AcDbEntity
  8
SMUSSO
100
AcDbLine
 62
7
  6
CONTINUOUS
 10
87.4560077556
 20
181.797810631
 11
89.9308814897
 21
183.2267322527
  0
LINE
  5
225
100
AcDbEntity
  8
0
100
AcDbLine
 62
250
  6
CONTINUOUS
 10
92.9360853098
 20
183.8187856499
 11
90.8854756443
 21
182.6761188002
  0
LINE
  5
226
100
AcDbEntity
  8
0
100
AcDbLine
 62
7
  6
CONTINUOUS
 10
92.4578131563
 20
183.880360532
 11
90.5826332507
 21
182.8504584092
  0
LINE
  5
227
100
AcDbEntity
  8
SMUSSO
100
AcDbLine
 62
7
  6
CONTINUOUS
 10
87.4560077556
 20
181.797810631
 11
87.4560077556
 21
109.1319165415
  0
LWPOLYLINE
  5
228
100
AcDbEntity
  8
0
100
AcDbPolyline
 62
250
  6
CONTINUOUS
 90
8
 70
0
 10
106.7080644113
 20
152.0606040728
 10
106.7030108359
 20
152.0537299318
 10
106.6974446986
 20
152.0469832437
 10
106.6913797017
 20
152.0403814153
 10
106.6848278184
 20
152.0339373872
 10
106.677800639
 20
152.0276624728
 10
106.6703142568
 20
152.021570705
 10
106.6623841857
 20
152.0156739543
  0
LINE
  5
229
100
AcDbEntity
  8
0
100
AcDbLine
 62
250
  6
CONTINUOUS
 10
103.5780423666
 20
153.6286865092
 11
104.426454337
 21
154.1185489478
  0
LWPOLYLINE
  5
22A
100
AcDbEntity
  8
0
100
AcDbPolyline
 62
7
  6
CONTINUOUS
 90
15
 70
0
 10
103.8265415119
 20
154.1779707426
 10
103.844275988
 20
154.1876221994
 10
103.8811498587
 20
154.2042217073
 10
103.9198695308
 20
154.2172156902
 10
103.9603039154
 20
154.2265601384
 10
104.002316028
 20
154.2322234107
 10
104.0457638484
 20
154.2341863777
 10
104.0905001827
 20
154.2324424038
 10
104.1363729488
 20
154.2269975328
 10
104.1832268292
 20
154.217870395
 10
104.2309032653
 20
154.2050920682
 10
104.2792402831
 20
154.1887062138
 10
104.3280740784
 20
154.1687686912
 10
104.3772396017
 20
154.1453472132
 10
104.4265705041
 20
154.1185213294
  0
LWPOLYLINE
  5
22B
100
AcDbEntity
  8
0
100
AcDbPolyline
 62
250
  6
CONTINUOUS
 90
14
 70
0
 10
106.722813036
 20
152.0812812217
 10
106.7198882831
 20
152.0745541506
 10
106.7164289818
 20
152.0679301206
 10
106.7124410936
 20
152.0614172346
 10
106.7079260417
 20
152.0550166976
 10
106.702887252
 20
152.0487366515
 10
106.697336152
 20
152.0425943174
 10
106.6912863381
 20
152.0366044302
 10
106.6847497933
 20
152.0307793451
 10
106.6777381161
 20
152.0251298474
 10
106.6702672878
 20
152.0196673671
 10
106.662352791
 20
152.0144025259
 10
106.6540089738
 20
152.009345347
 10
106.6452518621
 20
152.00450558
  0
LWPOLYLINE
  5
22C
100
AcDbEntity
  8
0
100
AcDbPolyline
 62
250
  6
CONTINUOUS
 90
3
 70
0
 10
106.6623841857
 20
152.0156739543
 10
106.6540247178
 20
152.0099821379
 10
106.6452518621
 20
152.00450558
  0
LINE
  5
22D
100
AcDbEntity
  8
0
100
AcDbLine
 62
7
  6
CONTINUOUS
 10
102.8709355855
 20
118.6837586625
 11
102.8709355855
 21
153.6286865092
  0
LINE
  5
22E
100
AcDbEntity
  8
0
100
AcDbLine
 62
7
  6
CONTINUOUS
 10
103.5780423666
 20
118.6837586625
 11
103.5780423666
 21
153.6286865092
  0
LWPOLYLINE
  5
22F
100
AcDbEntity
  8
0
100
AcDbPolyline
 62
7
  6
CONTINUOUS
 90
15
 70
0
 10
103.5780423666
 20
153.6286865092
 10
103.5794775236
 20
153.6848178028
 10
103.5837783381
 20
153.7391037831
 10
103.5909305576
 20
153.7913606029
 10
103.6009103502
 20
153.841411553
 10
103.613684206
 20
153.8890867193
 10
103.6292088751
 20
153.9342237118
 10
103.6474319116
 20
153.976669579
 10
103.6682918103
 20
154.0162806618
 10
103.6917178124
 20
154.0529223601
 10
103.7176306136
 20
154.0864705695
 10
103.7459426039
 20
154.1168118093
 10
103.776557838
 20
154.1438432324
 10
103.8093726282
 20
154.1674733251
 10
103.8265415119
 20
154.1779707426
  0
LWPOLYLINE
  5
230
100
AcDbEntity
  8
0
100
AcDbPolyline
 62
7
  6
CONTINUOUS
 90
28
 70
0
 10
102.8709355855
 20
153.6286865092
 10
102.873025075
 20
153.7086232966
 10
102.8791111806
 20
153.7854417107
 10
102.8891939022
 20
153.8591417515
 10
102.9033340849
 20
153.9299518663
 10
102.9214708837
 20
153.9976436077
 10
102.9434217633
 20
154.0615316343
 10
102.9692255521
 20
154.1215770807
 10
102.9988434217
 20
154.1778188121
 10
103.0319763523
 20
154.2296880833
 10
103.0686599917
 20
154.277140359
 10
103.1088586921
 20
154.3202201744
 10
103.1521664907
 20
154.3584923895
 10
103.1986148087
 20
154.3919082033
 10
103.2481722248
 20
154.4205164168
 10
103.300338512
 20
154.4440282927
 10
103.3551401711
 20
154.4623922258
 10
103.4125507014
 20
154.4756598214
 10
103.4719903739
 20
154.4836971585
 10
103.5334800052
 20
154.4864511119
 10
103.5969987787
 20
154.4839748068
 10
103.6619045159
 20
154.4762936975
 10
103.7282114424
 20
154.4633547091
 10
103.7959053326
 20
154.4452109166
 10
103.8643013304
 20
154.4220469986
 10
103.9331711505
 20
154.3939245148
 10
104.0027430782
 20
154.3607819057
 10
104.0730171135
 20
154.3226191711
  0
LWPOLYLINE
  5
231
100
AcDbEntity
  8
0
100
AcDbPolyline
 62
250
  6
CONTINUOUS
 90
3
 70
0
 10
106.3085724187
 20
134.9406252003
 10
106.3116892306
 20
134.9554598391
 10
106.3125914102
 20
134.9688832449
  0
LWPOLYLINE
  5
232
100
AcDbEntity
  8
0
100
AcDbPolyline
 62
7
  6
CONTINUOUS
 90
14
 70
0
 10
106.32100829
 20
134.527652551
 10
106.3279778168
 20
134.5520742403
 10
106.3338883171
 20
134.5772566363
 10
106.3385451727
 20
134.6029630719
 10
106.3415983128
 20
134.6290218454
 10
106.3430391854
 20
134.6551702529
 10
106.3432286155
 20
134.6809439486
 10
106.3421494823
 20
134.705973881
 10
106.3396685458
 20
134.7301142217
 10
106.3360497029
 20
134.7531666214
 10
106.3313914992
 20
134.7748582086
 10
106.3256403863
 20
134.7951738631
 10
106.3188297531
 20
134.814294203
 10
106.3112648954
 20
134.8315769125
  0
LINE
  5
233
100
AcDbEntity
  8
0
100
AcDbLine
 62
250
  6
CONTINUOUS
 10
106.3037294562
 20
141.5841310314
 11
106.3121909059
 21
141.6028842012
  0
LINE
  5
234
100
AcDbEntity
  8
0
100
AcDbLine
 62
250
  6
CONTINUOUS
 10
106.3121909059
 20
141.6028842012
 11
106.3210082251
 21
141.6208919282
  0
LINE
  5
235
100
AcDbEntity
  8
0
100
AcDbLine
 62
7
  6
CONTINUOUS
 10
106.3418775405
 20
141.5568632072
 11
106.3403129788
 21
141.5555641027
  0
LWPOLYLINE
  5
236
100
AcDbEntity
  8
0
100
AcDbPolyline
 62
250
  6
CONTINUOUS
 90
10
 70
0
 10
106.2283933503
 20
141.1892378947
 10
106.2455519151
 20
141.2004249397
 10
106.2609767114
 20
141.212424262
 10
106.274552933
 20
141.2251465608
 10
106.2861795301
 20
141.2384971527
 10
106.295769964
 20
141.2523766798
 10
106.3032528502
 20
141.2666818492
 10
106.3085724876
 20
141.281306202
 10
106.3116892698
 20
141.2961408913
 10
106.3125914102
 20
141.3095638973
  0
LWPOLYLINE
  5
237
100
AcDbEntity
  8
0
100
AcDbPolyline
 62
250
  6
CONTINUOUS
 90
14
 70
0
 10
106.3210082892
 20
141.6208918358
 10
106.3324380279
 20
141.6282340703
 10
106.3433369342
 20
141.6356941291
 10
106.3536311622
 20
141.6434671012
 10
106.3633913736
 20
141.6519836248
 10
106.3723479755
 20
141.6612284086
 10
106.3801172385
 20
141.6705704615
 10
106.3868279159
 20
141.6799358915
 10
106.3925390098
 20
141.6896287531
 10
106.3970820823
 20
141.6992881594
 10
106.4005653313
 20
141.7088198634
 10
106.4030950285
 20
141.7184913778
 10
106.4046347006
 20
141.7282303034
 10
106.4051812604
 20
141.7373398998
  0
LWPOLYLINE
  5
238
100
AcDbEntity
  8
0
100
AcDbPolyline
 62
250
  6
CONTINUOUS
 90
10
 70
0
 10
106.6452518621
 20
124.5317641989
 10
106.5922192739
 20
125.5861840283
 10
106.5433320411
 20
126.6545943783
 10
106.4985901636
 20
127.7369952488
 10
106.4578522762
 20
128.8332958631
 10
106.4212597441
 20
129.9435869979
 10
106.3892366632
 20
131.0681409833
 10
106.3619243988
 20
132.2070485962
 10
106.3391815855
 20
133.3602190598
 10
106.3210082235
 20
134.5276523741
  0
LWPOLYLINE
  5
239
100
AcDbEntity
  8
0
100
AcDbPolyline
 62
7
  6
CONTINUOUS
 90
10
 70
0
 10
106.7290419728
 20
124.667730014
 10
106.6766104511
 20
125.7146097958
 10
106.6256755128
 20
126.8283528929
 10
106.5795700353
 20
127.9452713441
 10
106.5382950128
 20
129.0653298196
 10
106.5018510616
 20
130.188499966
 10
106.4702386632
 20
131.314761156
 10
106.4434586614
 20
132.4440851883
 10
106.4215120974
 20
133.5764361794
 10
106.4051803809
 20
134.6519238174
  0
LINE
  5
23A
100
AcDbEntity
  8
0
100
AcDbLine
 62
250
  6
CONTINUOUS
 10
106.7291788249
 20
124.663755762
 11
106.7290419864
 21
124.6677298413
  0
LWPOLYLINE
  5
23B
100
AcDbEntity
  8
RACCORDO
100
AcDbPolyline
 62
7
  6
CONTINUOUS
 90
28
 70
0
 10
106.0529161008
 20
120.1127197391
 10
106.0543919605
 20
120.0545817833
 10
106.0586889768
 20
119.9953893096
 10
106.0658071498
 20
119.9351423181
 10
106.0757895596
 20
119.8736302915
 10
106.0885931261
 20
119.8110637471
 10
106.104088609
 20
119.7480742369
 10
106.1223032723
 20
119.6846574773
 10
106.1432098521
 20
119.6208177519
 10
106.1665973154
 20
119.5571994645
 10
106.192490789
 20
119.4938048579
 10
106.2208651462
 20
119.4306316893
 10
106.2514339737
 20
119.3683176342
 10
106.2842194975
 20
119.3068713937
 10
106.3191994916
 20
119.2462842667
 10
106.356020865
 20
119.1871678248
 10
106.3947022674
 20
119.1295369634
 10
106.4352250491
 20
119.0733767872
 10
106.4771801695
 20
119.0192541818
 10
106.5205821357
 20
118.967189784
 10
106.5654164406
 20
118.917162957
 10
106.611230523
 20
118.869678676
 10
106.6580343062
 20
118.8247626922
 10
106.7058178668
 20
118.7823892544
 10
106.7540988735
 20
118.7429860836
 10
106.802716549
 20
118.7066957537
 10
106.8518316706
 20
118.6733756908
 10
106.9014442382
 20
118.643025895
  0
LINE
  5
23C
100
AcDbEntity
  8
RACCORDO
100
AcDbLine
 62
7
  6
CONTINUOUS
 10
106.0529161008
 20
153.1794503098
 11
106.0529161008
 21
120.1127197391
  0
LINE
  5
23D
100
AcDbEntity
  8
0
100
AcDbLine
 62
250
  6
CONTINUOUS
 10
106.2283933503
 20
134.8485571338
 11
106.2283933503
 21
141.1892378947
  0
LINE
  5
23E
100
AcDbEntity
  8
0
100
AcDbLine
 62
7
  6
CONTINUOUS
 10
106.3125914102
 20
134.9688832449
 11
106.3125914102
 21
141.3095640058
  0
LINE
  5
23F
100
AcDbEntity
  8
0
100
AcDbLine
 62
250
  6
CONTINUOUS
 10
106.6452518621
 20
118.837029565
 11
106.6452518621
 21
124.5317641989
  0
LINE
  5
240
100
AcDbEntity
  8
0
100
AcDbLine
 62
250
  6
CONTINUOUS
 10
106.6452518621
 20
152.0045055797
 11
106.6452518621
 21
152.8374430649
  0
LINE
  5
241
100
AcDbEntity
  8
0
100
AcDbLine
 62
7
  6
CONTINUOUS
 10
106.729449922
 20
118.7631026245
 11
106.729449922
 21
124.6520903099
  0
LINE
  5
242
100
AcDbEntity
  8
0
100
AcDbLine
 62
7
  6
CONTINUOUS
 10
106.729449922
 20
152.1248316911
 11
106.729449922
 21
152.7888281604
  0
LWPOLYLINE
  5
243
100
AcDbEntity
  8
0
100
AcDbPolyline
 62
7
  6
CONTINUOUS
 90
25
 70
0
 10
106.3125930046
 20
141.3095638974
 10
106.3126669224
 20
141.3207567486
 10
106.3128698759
 20
141.3312198092
 10
106.3132001639
 20
141.3416091789
 10
106.3136582208
 20
141.3519682196
 10
106.3142425668
 20
141.3622995605
 10
106.3149509653
 20
141.3725898836
 10
106.3157845898
 20
141.3828618515
 10
106.3167431048
 20
141.3931012645
 10
106.3178287228
 20
141.4033124357
 10
106.3190499813
 20
141.4135472734
 10
106.3204102148
 20
141.4238209003
 10
106.3219077741
 20
141.4341065127
 10
106.3235441611
 20
141.4443938195
 10
106.3253202564
 20
141.4546601447
 10
106.3272437064
 20
141.4649130281
 10
106.3293246085
 20
141.4751862761
 10
106.3315619
 20
141.4854665945
 10
106.3339576198
 20
141.4957414768
 10
106.3365290487
 20
141.5060419308
 10
106.3392866992
 20
141.5163488628
 10
106.3422305256
 20
141.526640239
 10
106.3453681195
 20
141.5369339445
 10
106.3486984775
 20
141.5471863299
 10
106.3497966636
 20
141.5504237195
  0
LWPOLYLINE
  5
244
100
AcDbEntity
  8
0
100
AcDbPolyline
 62
7
  6
CONTINUOUS
 90
10
 70
0
 10
106.4051812604
 20
141.7373398998
 10
106.4214211708
 20
142.8269301725
 10
106.4433462966
 20
143.9856055188
 10
106.4701056413
 20
145.147050512
 10
106.5016984633
 20
146.3112301572
 10
106.5381241589
 20
147.4781150179
 10
106.5793823784
 20
148.6476812831
 10
106.6254726166
 20
149.8198999649
 10
106.6763937142
 20
150.9947390729
 10
106.7290884185
 20
152.1101086597
  0
LWPOLYLINE
  5
245
100
AcDbEntity
  8
0
100
AcDbPolyline
 62
250
  6
CONTINUOUS
 90
17
 70
0
 10
106.2283933503
 20
141.1892378947
 10
106.2288425132
 20
141.2188206501
 10
106.2299422407
 20
141.2477615359
 10
106.2316925326
 20
141.2760605521
 10
106.2341257655
 20
141.3037187547
 10
106.2372095628
 20
141.3307350877
 10
106.2408467957
 20
141.3571063835
 10
106.2450293742
 20
141.3828359609
 10
106.2497653883
 20
141.4079205011
 10
106.254981979
 20
141.4323468798
 10
106.2606772319
 20
141.4561264664
 10
106.2668530615
 20
141.4792478915
 10
106.2734423523
 20
141.5016639225
 10
106.2804419296
 20
141.5233721649
 10
106.287854968
 20
141.5443750132
 10
106.295623876
 20
141.5646324186
 10
106.3037294562
 20
141.5841310314
  0
LWPOLYLINE
  5
246
100
AcDbEntity
  8
0
100
AcDbPolyline
 62
250
  6
CONTINUOUS
 90
7
 70
0
 10
106.3210082251
 20
141.6208919282
 10
106.3472326098
 20
143.2959927563
 10
106.384583483
 20
144.9932941633
 10
106.4330608449
 20
146.7127961491
 10
106.4926646954
 20
148.4544987138
 10
106.5633950344
 20
150.2184018573
 10
106.6452518621
 20
152.0045055797
  0
LWPOLYLINE
  5
247
100
AcDbEntity
  8
0
100
AcDbPolyline
 62
250
  6
CONTINUOUS
 90
10
 70
0
 10
106.729449922
 20
152.1248316911
 10
106.7292671039
 20
152.1187854368
 10
106.7285352863
 20
152.1113160769
 10
106.7272460328
 20
152.1038742249
 10
106.7254022434
 20
152.0964736571
 10
106.7230078757
 20
152.0891281874
 10
106.7200694422
 20
152.0818549206
 10
106.7165961626
 20
152.0746719162
 10
106.7125939898
 20
152.0675874672
 10
106.7080644113
 20
152.0606040728
  0
LWPOLYLINE
  5
248
100
AcDbEntity
  8
0
100
AcDbPolyline
 62
250
  6
CONTINUOUS
 90
6
 70
0
 10
106.7290884111
 20
152.1101083806
 10
106.7290210655
 20
152.1089058445
 10
106.728301468
 20
152.1019197603
 10
106.7270248199
 20
152.0949780627
 10
106.7251940248
 20
152.0880941285
 10
106.722813036
 20
152.0812812217
  0
LINE
  5
249
100
AcDbEntity
  8
0
100
AcDbLine
 62
250
  6
CONTINUOUS
 10
104.0730171135
 20
116.6016923833
 11
104.4265705041
 21
117.2140648183
  0
LWPOLYLINE
  5
24A
100
AcDbEntity
  8
0
100
AcDbPolyline
 62
250
  6
CONTINUOUS
 90
8
 70
0
 10
106.2283933503
 20
134.8485571338
 10
106.2455518858
 20
134.8597441579
 10
106.2609766568
 20
134.8717434544
 10
106.2745528586
 20
134.8844657228
 10
106.2861794431
 20
134.8978162801
 10
106.2957698729
 20
134.9116957685
 10
106.3032527647
 20
134.926000895
 10
106.3085724187
 20
134.9406252003
  0
LWPOLYLINE
  5
24B
100
AcDbEntity
  8
0
100
AcDbPolyline
 62
250
  6
CONTINUOUS
 90
15
 70
0
 10
106.32100829
 20
134.527652551
 10
106.3324379881
 20
134.5347748108
 10
106.3433368679
 20
134.5427956305
 10
106.3536310807
 20
134.5515197094
 10
106.3633912859
 20
134.5607972862
 10
106.3723478861
 20
134.5703372199
 10
106.3801171494
 20
134.5799502508
 10
106.3868278295
 20
134.5898912086
 10
106.392538927
 20
134.5999954824
 10
106.3970820024
 20
134.6098780479
 10
106.4005652532
 20
134.6197479361
 10
106.4030949514
 20
134.6298036217
 10
106.404634624
 20
134.6398710605
 10
106.4051878742
 20
134.6500165356
 10
106.4051836652
 20
134.6516406741
  0
LWPOLYLINE
  5
24C
100
AcDbEntity
  8
0
100
AcDbPolyline
 62
250
  6
CONTINUOUS
 90
19
 70
0
 10
106.6452518621
 20
124.5317641988
 10
106.6540294733
 20
124.5378736124
 10
106.6623923677
 20
124.5441977464
 10
106.6703243088
 20
124.5507256486
 10
106.6778112147
 20
124.5574478402
 10
106.6848368576
 20
124.564350751
 10
106.6913838125
 20
124.5714164048
 10
106.6974405364
 20
124.5786327348
 10
106.7029951998
 20
124.585986083
 10
106.7080334903
 20
124.5934550147
 10
106.7125443791
 20
124.6010200824
 10
106.7165249321
 20
124.6086728995
 10
106.7199736948
 20
124.6164084555
 10
106.7228851997
 20
124.6242174246
 10
106.7252513156
 20
124.6320814366
 10
106.7270665543
 20
124.6399819945
 10
106.7283275155
 20
124.6479043405
 10
106.7290320004
 20
124.6558346665
 10
106.7291788249
 20
124.663755762
  0
LWPOLYLINE
  5
24D
100
AcDbEntity
  8
0
100
AcDbPolyline
 62
250
  6
CONTINUOUS
 90
19
 70
0
 10
106.6452518621
 20
124.5317641988
 10
106.6540452558
 20
124.5372541463
 10
106.6624238396
 20
124.542960789
 10
106.6703713944
 20
124.5488737703
 10
106.6778738952
 20
124.5549835397
 10
106.6849150822
 20
124.5612777931
 10
106.6914774143
 20
124.567741148
 10
106.6975493566
 20
124.57436209
 10
106.7031190895
 20
124.5811275656
 10
106.7081721924
 20
124.5880187802
 10
106.7126976279
 20
124.5950172685
 10
106.7166924797
 20
124.6021147211
 10
106.7201552276
 20
124.6093073974
 10
106.7230804112
 20
124.6165862114
 10
106.7254598964
 20
124.6239335967
 10
106.7272881151
 20
124.6313331642
 10
106.7285616619
 20
124.6387707051
 10
106.7292783424
 20
124.6462327915
 10
106.729449922
 20
124.6520901506
  0
LINE
  5
24E
100
AcDbEntity
  8
SMUSSO
100
AcDbLine
 62
7
  6
CONTINUOUS
 10
87.4560077556
 20
109.1319165415
 11
199.3910112174
 21
44.5020878726
  0
LINE
  5
24F
100
AcDbEntity
  8
0
100
AcDbLine
 62
250
  6
CONTINUOUS
 10
121.3374425694
 20
114.047402898
 11
121.3374425694
 21
113.6400332601
  0
LINE
  5
250
100
AcDbEntity
  8
0
100
AcDbLine
 62
7
  6
CONTINUOUS
 10
121.3888136043
 20
114.1139804049
 11
121.3888136043
 21
113.6705785549
  0
LINE
  5
251
100
AcDbEntity
  8
0
100
AcDbLine
 62
250
  6
CONTINUOUS
 10
119.3874156219
 20
112.3512322397
 11
119.3929631564
 21
112.3683956066
  0
LINE
  5
252
100
AcDbEntity
  8
0
100
AcDbLine
 62
7
  6
CONTINUOUS
 10
113.8840391356
 20
114.6113631137
 11
113.901801372
 21
114.6421282095
  0
LINE
  5
253
100
AcDbEntity
  8
0
100
AcDbLine
 62
7
  6
CONTINUOUS
 10
114.1492887454
 20
114.6625537757
 11
114.2553547626
 21
114.8462655062
  0
LINE
  5
254
100
AcDbEntity
  8
0
100
AcDbLine
 62
7
  6
CONTINUOUS
 10
114.502842136
 20
114.8666910723
 11
114.6089081532
 21
115.0504028029
  0
LINE
  5
255
100
AcDbEntity
  8
0
100
AcDbLine
 62
7
  6
CONTINUOUS
 10
114.8563955266
 20
115.070828369
 11
114.9624615437
 21
115.2545400995
  0
LINE
  5
256
100
AcDbEntity
  8
0
100
AcDbLine
 62
7
  6
CONTINUOUS
 10
115.2099489172
 20
115.2749656657
 11
115.3160149343
 21
115.4586773962
  0
LINE
  5
257
100
AcDbEntity
  8
0
100
AcDbLine
 62
7
  6
CONTINUOUS
 10
115.5635023078
 20
115.4791029623
 11
115.6695683249
 21
115.6628146928
  0
LINE
  5
258
100
AcDbEntity
  8
0
100
AcDbLine
 62
7
  6
CONTINUOUS
 10
117.7731264321
 20
112.3658528504
 11
117.7908886685
 21
112.3966179462
  0
LINE
  5
259
100
AcDbEntity
  8
0
100
AcDbLine
 62
250
  6
CONTINUOUS
 10
103.5780423666
 20
118.6837586625
 11
106.0529161008
 21
120.1127197391
  0
LWPOLYLINE
  5
25A
100
AcDbEntity
  8
0
100
AcDbPolyline
 62
7
  6
CONTINUOUS
 90
9
 70
0
 10
106.3210082892
 20
141.6208918358
 10
106.3279764802
 20
141.6067060528
 10
106.3338862333
 20
141.5942846164
 10
106.3385429737
 20
141.5835850986
 10
106.3415969626
 20
141.5743042928
 10
106.3430395216
 20
141.5665586635
 10
106.3432305469
 20
141.5608973457
 10
106.3421519731
 20
141.5572498434
 10
106.3418775405
 20
141.5568632072
  0
LWPOLYLINE
  5
25B
100
AcDbEntity
  8
0
100
AcDbPolyline
 62
7
  6
CONTINUOUS
 90
19
 70
0
 10
106.3274727193
 20
134.8414223417
 10
106.3274549745
 20
134.8414640483
 10
106.3270686714
 20
134.842453671
 10
106.326302989
 20
134.8446309808
 10
106.3252810491
 20
134.8478630722
 10
106.3240707469
 20
134.8521431408
 10
106.3227421709
 20
134.8574464387
 10
106.3213904544
 20
134.8635584822
 10
106.3200558164
 20
134.8704072853
 10
106.3187620431
 20
134.8779930917
 10
106.3175506696
 20
134.8862007887
 10
106.316442786
 20
134.8949918954
 10
106.3154503437
 20
134.9043520363
 10
106.3145898765
 20
134.9142110796
 10
106.3138721864
 20
134.9245388711
 10
106.3133069785
 20
134.9353204277
 10
106.3129026773
 20
134.9465145003
 10
106.312663414
 20
134.9581044494
 10
106.312592822
 20
134.9688836816
  0
LWPOLYLINE
  5
25C
100
AcDbEntity
  8
0
100
AcDbPolyline
 62
250
  6
CONTINUOUS
 90
10
 70
0
 10
119.3929631564
 20
112.3683956066
 10
119.3952104075
 20
112.363113618
 10
119.3970605172
 20
112.3581098178
 10
119.3984797905
 20
112.353422044
 10
119.3994297639
 20
112.3491096669
 10
119.3998867597
 20
112.3451869097
 10
119.3998154993
 20
112.3416481338
 10
119.3991574014
 20
112.3385548158
 10
119.3978529232
 20
112.335981472
 10
119.3968876741
 20
112.3348600754
  0
LINE
  5
25D
100
AcDbEntity
  8
0
100
AcDbLine
 62
7
  6
CONTINUOUS
 10
118.0383760419
 20
112.4170435124
 11
118.1444420591
 21
112.6007552429
  0
LINE
  5
25E
100
AcDbEntity
  8
0
100
AcDbLine
 62
7
  6
CONTINUOUS
 10
118.3919294325
 20
112.621180809
 11
118.4979954497
 21
112.8048925396
  0
LINE
  5
25F
100
AcDbEntity
  8
0
100
AcDbLine
 62
7
  6
CONTINUOUS
 10
118.7454828231
 20
112.8253181057
 11
118.8515488403
 21
113.0090298362
  0
LINE
  5
260
100
AcDbEntity
  8
0
100
AcDbLine
 62
7
  6
CONTINUOUS
 10
119.0990362137
 20
113.0294554024
 11
119.2051022309
 21
113.2131671329
  0
LINE
  5
261
100
AcDbEntity
  8
0
100
AcDbLine
 62
7
  6
CONTINUOUS
 10
119.4525896043
 20
113.233592699
 11
119.5586556215
 21
113.4173044295
  0
LINE
  5
262
100
AcDbEntity
  8
0
100
AcDbLine
 62
250
  6
CONTINUOUS
 10
104.4265705041
 20
117.2140648183
 11
106.9014442382
 21
118.643025895
  0
LINE
  5
263
100
AcDbEntity
  8
0
100
AcDbLine
 62
7
  6
CONTINUOUS
 10
182.0668950783
 20
71.5690047392
 11
104.0730171135
 21
116.6016923833
  0
LINE
  5
264
100
AcDbEntity
  8
0
100
AcDbLine
 62
7
  6
CONTINUOUS
 10
182.4204484689
 20
72.1813771743
 11
104.4265705041
 21
117.2140648183
  0
LWPOLYLINE
  5
265
100
AcDbEntity
  8
0
100
AcDbPolyline
 62
7
  6
CONTINUOUS
 90
28
 70
0
 10
104.4265705041
 20
117.2140648183
 10
104.3772401639
 20
117.2442046616
 10
104.3280749962
 20
117.2775580061
 10
104.2792413494
 20
117.3140123473
 10
104.2309041801
 20
117.3534449237
 10
104.1832273996
 20
117.3957224023
 10
104.1363732734
 20
117.4407011538
 10
104.090500491
 20
117.4882289956
 10
104.0457642244
 20
117.5381453156
 10
104.0023164275
 20
117.5902806747
 10
103.960304237
 20
117.6444585486
 10
103.9198697428
 20
117.700495736
 10
103.8811499929
 20
117.7582023227
 10
103.8442760923
 20
117.8173828859
 10
103.8093727266
 20
117.8778372819
 10
103.7765579506
 20
117.9393610289
 10
103.7459427617
 20
118.0017460412
 10
103.7176308252
 20
118.0647810999
 10
103.691718043
 20
118.1282526619
 10
103.6682919992
 20
118.1919461713
 10
103.6474320445
 20
118.2556458528
 10
103.6292089933
 20
118.3191352154
 10
103.6136843768
 20
118.3821993924
 10
103.600910567
 20
118.444625063
 10
103.5909307456
 20
118.5062002692
 10
103.5837784454
 20
118.5667165108
 10
103.5794775563
 20
118.6259694175
 10
103.5780423666
 20
118.6837586625
  0
LWPOLYLINE
  5
266
100
AcDbEntity
  8
0
100
AcDbPolyline
 62
7
  6
CONTINUOUS
 90
28
 70
0
 10
104.0730171135
 20
116.6016923833
 10
104.0027427489
 20
116.6446805776
 10
103.9331705606
 20
116.6918780902
 10
103.8643005487
 20
116.7432849209
 10
103.7959044401
 20
116.7991031274
 10
103.7282105079
 20
116.8591306521
 10
103.6619035708
 20
116.9227613225
 10
103.5969978723
 20
116.9900317482
 10
103.5334791689
 20
117.0609053197
 10
103.4719895487
 20
117.134666036
 10
103.4125497562
 20
117.2113430808
 10
103.3551390469
 20
117.2909072705
 10
103.3003372765
 20
117.3725550532
 10
103.248170997
 20
117.4563073791
 10
103.1986136563
 20
117.542143298
 10
103.1521654539
 20
117.6291964073
 10
103.1088578312
 20
117.7174791526
 10
103.0686593468
 20
117.8069790883
 10
103.0319758759
 20
117.8967924753
 10
102.9988430184
 20
117.986922795
 10
102.9692251744
 20
118.077366566
 10
102.9434214194
 20
118.1672096059
 10
102.9214706055
 20
118.2564459079
 10
102.9033338807
 20
118.3450814787
 10
102.8891937644
 20
118.4322201558
 10
102.8791110963
 20
118.5175632184
 10
102.8730250366
 20
118.6014093873
 10
102.8709355855
 20
118.6837586625
  0
LINE
  5
267
100
AcDbEntity
  8
0
100
AcDbLine
 62
250
  6
CONTINUOUS
 10
119.3929631564
 20
112.3683956066
 11
119.7289081213
 21
112.6951491963
  0
LINE
  5
268
100
AcDbEntity
  8
0
100
AcDbLine
 62
7
  6
CONTINUOUS
 10
119.3968880213
 20
112.3348604131
 11
119.8258723946
 21
112.7521078749
  0
LWPOLYLINE
  5
269
100
AcDbEntity
  8
0
100
AcDbPolyline
 62
250
  6
CONTINUOUS
 90
6
 70
0
 10
119.3382737329
 20
112.2903964352
 10
119.3505847627
 20
112.298820338
 10
119.3618591299
 20
112.3092741468
 10
119.3718050028
 20
112.3215590098
 10
119.3803449343
 20
112.3355802942
 10
119.3874156219
 20
112.3512322397
  0
LINE
  5
26A
100
AcDbEntity
  8
0
100
AcDbLine
 62
7
  6
CONTINUOUS
 10
120.0909219421
 20
113.3958861402
 11
118.1475284794
 21
112.1496778007
  0
LINE
  5
26B
100
AcDbEntity
  8
0
100
AcDbLine
 62
7
  6
CONTINUOUS
 10
118.4767345309
 20
111.9595983524
 11
121.3374425694
 21
113.6400332601
  0
LINE
  5
26C
100
AcDbEntity
  8
0
100
AcDbLine
 62
7
  6
CONTINUOUS
 10
119.3382736748
 20
112.2903964016
 11
118.6228110986
 21
111.875255573
  0
LINE
  5
26D
100
AcDbEntity
  8
0
100
AcDbLine
 62
250
  6
CONTINUOUS
 10
119.3929631564
 20
112.3683956066
 11
118.5825780019
 21
111.8984856588
  0
LINE
  5
26E
100
AcDbEntity
  8
0
100
AcDbLine
 62
7
  6
CONTINUOUS
 10
113.901801372
 20
114.6421282095
 11
114.0432227282
 21
114.7237831282
  0
LINE
  5
26F
100
AcDbEntity
  8
0
100
AcDbLine
 62
7
  6
CONTINUOUS
 10
114.2553547626
 20
114.8462655062
 11
114.3967761188
 21
114.9279204249
  0
LINE
  5
270
100
AcDbEntity
  8
0
100
AcDbLine
 62
7
  6
CONTINUOUS
 10
114.6089081532
 20
115.0504028029
 11
114.7503295094
 21
115.1320577215
  0
LINE
  5
271
100
AcDbEntity
  8
0
100
AcDbLine
 62
7
  6
CONTINUOUS
 10
114.9624615437
 20
115.2545400995
 11
115.1038829
 21
115.3361950182
  0
LINE
  5
272
100
AcDbEntity
  8
0
100
AcDbLine
 62
7
  6
CONTINUOUS
 10
115.3160149343
 20
115.4586773962
 11
115.4574362906
 21
115.5403323148
  0
LINE
  5
273
100
AcDbEntity
  8
0
100
AcDbLine
 62
7
  6
CONTINUOUS
 10
115.6695683249
 20
115.6628146928
 11
115.8109896812
 21
115.7444696115
  0
LINE
  5
274
100
AcDbEntity
  8
0
100
AcDbLine
 62
7
  6
CONTINUOUS
 10
117.7908886685
 20
112.3966179462
 11
117.9323100247
 21
112.4782728649
  0
LINE
  5
275
100
AcDbEntity
  8
0
100
AcDbLine
 62
7
  6
CONTINUOUS
 10
118.1444420591
 20
112.6007552429
 11
118.2858634153
 21
112.6824101616
  0
LINE
  5
276
100
AcDbEntity
  8
0
100
AcDbLine
 62
7
  6
CONTINUOUS
 10
118.4979954497
 20
112.8048925396
 11
118.6394168059
 21
112.8865474582
  0
LINE
  5
277
100
AcDbEntity
  8
0
100
AcDbLine
 62
7
  6
CONTINUOUS
 10
118.8515488403
 20
113.0090298362
 11
118.9929701965
 21
113.0906847549
  0
LINE
  5
278
100
AcDbEntity
  8
0
100
AcDbLine
 62
7
  6
CONTINUOUS
 10
119.2051022309
 20
113.2131671329
 11
119.3465235871
 21
113.2948220515
  0
LINE
  5
279
100
AcDbEntity
  8
0
100
AcDbLine
 62
7
  6
CONTINUOUS
 10
119.5586556215
 20
113.4173044295
 11
119.7000769777
 21
113.4989593482
  0
LINE
  5
27A
100
AcDbEntity
  8
0
100
AcDbLine
 62
7
  6
CONTINUOUS
 10
119.8061429949
 20
113.4377299957
 11
117.8614216794
 21
112.3148722812
  0
LINE
  5
27B
100
AcDbEntity
  8
0
100
AcDbLine
 62
7
  6
CONTINUOUS
 10
113.6862275829
 20
114.7255770251
 11
115.8445846838
 21
115.847668054
  0
LINE
  5
27C
100
AcDbEntity
  8
0
100
AcDbLine
 62
7
  6
CONTINUOUS
 10
115.9186318367
 20
115.8821118501
 11
117.2289860924
 21
116.4195741767
  0
LINE
  5
27D
100
AcDbEntity
  8
RACCORDO
100
AcDbLine
 62
7
  6
CONTINUOUS
 10
106.9014442382
 20
118.643025895
 11
183.2689766064
 21
74.5493698156
  0
LINE
  5
27E
100
AcDbEntity
  8
0
100
AcDbLine
 62
7
  6
CONTINUOUS
 10
181.4304989753
 20
75.6519045467
 11
177.5414116788
 21
77.89741481
  0
LINE
  5
27F
100
AcDbEntity
  8
0
100
AcDbLine
 62
7
  6
CONTINUOUS
 10
117.7908886685
 20
112.3966179462
 11
113.901801372
 21
114.6421282095
  0
LINE
  5
280
100
AcDbEntity
  8
0
100
AcDbLine
 62
7
  6
CONTINUOUS
 10
181.6779863487
 20
75.6723301129
 11
177.682833035
 21
77.9790697287
  0
LINE
  5
281
100
AcDbEntity
  8
0
100
AcDbLine
 62
7
  6
CONTINUOUS
 10
114.0432227282
 20
114.7237831282
 11
118.0383760419
 21
112.4170435124
  0
LINE
  5
282
100
AcDbEntity
  8
0
100
AcDbLine
 62
7
  6
CONTINUOUS
 10
181.7840523659
 20
75.8560418434
 11
177.8949650693
 21
78.1015521067
  0
LINE
  5
283
100
AcDbEntity
  8
0
100
AcDbLine
 62
7
  6
CONTINUOUS
 10
118.1444420591
 20
112.6007552429
 11
114.2553547626
 21
114.8462655062
  0
LINE
  5
284
100
AcDbEntity
  8
0
100
AcDbLine
 62
7
  6
CONTINUOUS
 10
182.0315397393
 20
75.8764674095
 11
178.0363864256
 21
78.1832070254
  0
LINE
  5
285
100
AcDbEntity
  8
0
100
AcDbLine
 62
7
  6
CONTINUOUS
 10
114.3967761188
 20
114.9279204249
 11
118.3919294325
 21
112.621180809
  0
LINE
  5
286
100
AcDbEntity
  8
0
100
AcDbLine
 62
7
  6
CONTINUOUS
 10
182.1376057565
 20
76.0601791401
 11
178.2485184599
 21
78.3056894034
  0
LINE
  5
287
100
AcDbEntity
  8
0
100
AcDbLine
 62
7
  6
CONTINUOUS
 10
118.4979954497
 20
112.8048925396
 11
114.6089081532
 21
115.0504028029
  0
LINE
  5
288
100
AcDbEntity
  8
0
100
AcDbLine
 62
7
  6
CONTINUOUS
 10
182.3850931299
 20
76.0806047062
 11
178.3899398162
 21
78.387344322
  0
LINE
  5
289
100
AcDbEntity
  8
0
100
AcDbLine
 62
7
  6
CONTINUOUS
 10
114.7503295094
 20
115.1320577215
 11
118.7454828231
 21
112.8253181057
  0
LINE
  5
28A
100
AcDbEntity
  8
0
100
AcDbLine
 62
7
  6
CONTINUOUS
 10
182.4911591471
 20
76.2643164367
 11
178.6020718505
 21
78.5098267
  0
LINE
  5
28B
100
AcDbEntity
  8
0
100
AcDbLine
 62
7
  6
CONTINUOUS
 10
118.8515488403
 20
113.0090298362
 11
114.9624615437
 21
115.2545400995
  0
LINE
  5
28C
100
AcDbEntity
  8
0
100
AcDbLine
 62
7
  6
CONTINUOUS
 10
182.7386465205
 20
76.2847420029
 11
178.7434932068
 21
78.5914816187
  0
LINE
  5
28D
100
AcDbEntity
  8
0
100
AcDbLine
 62
7
  6
CONTINUOUS
 10
115.1038829
 20
115.3361950182
 11
119.0990362137
 21
113.0294554024
  0
LINE
  5
28E
100
AcDbEntity
  8
0
100
AcDbLine
 62
7
  6
CONTINUOUS
 10
182.8447125377
 20
76.4684537334
 11
178.9556252411
 21
78.7139639967
  0
LINE
  5
28F
100
AcDbEntity
  8
0
100
AcDbLine
 62
7
  6
CONTINUOUS
 10
119.2051022309
 20
113.2131671329
 11
115.3160149343
 21
115.4586773962
  0
LINE
  5
290
100
AcDbEntity
  8
0
100
AcDbLine
 62
7
  6
CONTINUOUS
 10
183.0921999111
 20
76.4888792995
 11
179.0970465974
 21
78.7956189154
  0
LINE
  5
291
100
AcDbEntity
  8
0
100
AcDbLine
 62
7
  6
CONTINUOUS
 10
115.4574362906
 20
115.5403323148
 11
119.4525896043
 21
113.233592699
  0
LINE
  5
292
100
AcDbEntity
  8
0
100
AcDbLine
 62
7
  6
CONTINUOUS
 10
183.1982659282
 20
76.67259103
 11
179.3091786317
 21
78.9181012933
  0
LINE
  5
293
100
AcDbEntity
  8
0
100
AcDbLine
 62
7
  6
CONTINUOUS
 10
119.5586556215
 20
113.4173044295
 11
115.6695683249
 21
115.6628146928
  0
LINE
  5
294
100
AcDbEntity
  8
0
100
AcDbLine
 62
7
  6
CONTINUOUS
 10
183.2689766064
 20
76.795073408
 11
179.450599988
 21
78.999756212
  0
LINE
  5
295
100
AcDbEntity
  8
0
100
AcDbLine
 62
7
  6
CONTINUOUS
 10
115.8109896812
 20
115.7444696115
 11
119.8061429949
 21
113.4377299957
  0
LINE
  5
296
100
AcDbEntity
  8
0
100
AcDbLine
 62
250
  6
CONTINUOUS
 10
183.2689766064
 20
76.917669184
 11
179.4841949906
 21
79.1029546545
  0
LINE
  5
297
100
AcDbEntity
  8
0
100
AcDbLine
 62
250
  6
CONTINUOUS
 10
120.0909219421
 20
113.3958861402
 11
115.8445846838
 21
115.847668054
  0
LINE
  5
298
100
AcDbEntity
  8
0
100
AcDbLine
 62
250
  6
CONTINUOUS
 10
183.2689766064
 20
76.9948668781
 11
179.5582421435
 21
79.1373984506
  0
LINE
  5
299
100
AcDbEntity
  8
0
100
AcDbLine
 62
250
  6
CONTINUOUS
 10
120.1575942981
 20
113.4345880516
 11
115.9186318367
 21
115.8821118501
  0
LINE
  5
29A
100
AcDbEntity
  8
0
100
AcDbLine
 62
7
  6
CONTINUOUS
 10
132.2791565466
 20
106.5198444912
 11
135.9709540812
 21
104.3882468638
  0
LINE
  5
29B
100
AcDbEntity
  8
0
100
AcDbLine
 62
7
  6
CONTINUOUS
 10
148.1890591233
 20
97.3336661413
 11
151.8808566579
 21
95.2020685139
  0
LINE
  5
29C
100
AcDbEntity
  8
0
100
AcDbLine
 62
7
  6
CONTINUOUS
 10
164.0989617
 20
88.1474877914
 11
167.7907592345
 21
86.0158901641
  0
LINE
  5
29D
100
AcDbEntity
  8
0
100
AcDbLine
 62
7
  6
CONTINUOUS
 10
117.5042335699
 20
116.3999378032
 11
121.3302349605
 21
114.1908525514
  0
LINE
  5
29E
100
AcDbEntity
  8
0
100
AcDbLine
 62
7
  6
CONTINUOUS
 10
181.1438438767
 20
79.6552244037
 11
183.2689766064
 21
78.4281993998
  0
LINE
  5
29F
100
AcDbEntity
  8
0
100
AcDbLine
 62
250
  6
CONTINUOUS
 10
135.9817654944
 20
104.1518858948
 11
135.9817654944
 21
103.7224880829
  0
LINE
  5
2A0
100
AcDbEntity
  8
0
100
AcDbLine
 62
7
  6
CONTINUOUS
 10
136.0588220468
 20
104.2663905651
 11
136.0588220468
 21
103.768306025
  0
LINE
  5
2A1
100
AcDbEntity
  8
0
100
AcDbLine
 62
7
  6
CONTINUOUS
 10
121.3374425694
 20
114.047402898
 11
120.1575942981
 21
113.4345880516
  0
LWPOLYLINE
  5
2A2
100
AcDbEntity
  8
0
100
AcDbPolyline
 62
250
  6
CONTINUOUS
 90
22
 70
0
 10
106.3210082235
 20
134.5276523741
 10
106.3133548343
 20
134.5340642527
 10
106.3059690409
 20
134.5413398458
 10
106.2988508433
 20
134.5494791532
 10
106.2919889031
 20
134.558479181
 10
106.2853945587
 20
134.5683429232
 10
106.2791018249
 20
134.5790793615
 10
106.2731085809
 20
134.5906914095
 10
106.2674169475
 20
134.6031761537
 10
106.2620673017
 20
134.6165338355
 10
106.2570614607
 20
134.6307531902
 10
106.2523976074
 20
134.6458454825
 10
106.2481106679
 20
134.6618447485
 10
106.2441967881
 20
134.6787470204
 10
106.2406598221
 20
134.696556266
 10
106.2375462587
 20
134.7153184247
 10
106.2348514445
 20
134.7350279689
 10
106.2325800329
 20
134.7556904263
 10
106.2307924728
 20
134.7773683192
 10
106.2295089138
 20
134.8000824885
 10
106.2287092063
 20
134.8238120933
 10
106.2283933503
 20
134.8485571338
  0
LINE
  5
2A3
100
AcDbEntity
  8
0
100
AcDbLine
 62
250
  6
CONTINUOUS
 10
134.391306392
 20
102.7707240163
 11
134.43672917
 21
102.8149040378
  0
LINE
  5
2A4
100
AcDbEntity
  8
0
100
AcDbLine
 62
7
  6
CONTINUOUS
 10
134.4154044613
 20
102.7568100931
 11
134.5336934433
 21
102.8718627164
  0
LINE
  5
2A5
100
AcDbEntity
  8
0
100
AcDbLine
 62
7
  6
CONTINUOUS
 10
129.7522058196
 20
105.4492825452
 11
131.8662853304
 21
106.5281125624
  0
LINE
  5
2A6
100
AcDbEntity
  8
0
100
AcDbLine
 62
250
  6
CONTINUOUS
 10
151.8916680711
 20
94.9657075449
 11
151.8916680711
 21
94.536309733
  0
LINE
  5
2A7
100
AcDbEntity
  8
0
100
AcDbLine
 62
7
  6
CONTINUOUS
 10
151.9687246235
 20
95.0802122152
 11
151.9687246235
 21
94.5821276752
  0
LINE
  5
2A8
100
AcDbEntity
  8
0
100
AcDbLine
 62
7
  6
CONTINUOUS
 10
135.9817654944
 20
104.1518858948
 11
134.078239753
 21
102.95148477
  0
LINE
  5
2A9
100
AcDbEntity
  8
0
100
AcDbLine
 62
7
  6
CONTINUOUS
 10
134.3762843215
 20
102.7793975715
 11
135.9817654944
 21
103.7224880829
  0
LINE
  5
2AA
100
AcDbEntity
  8
0
100
AcDbLine
 62
250
  6
CONTINUOUS
 10
102.8709355855
 20
118.6837586625
 11
103.5780423666
 21
118.6837586625
  0
LINE
  5
2AB
100
AcDbEntity
  8
0
100
AcDbLine
 62
250
  6
CONTINUOUS
 10
150.3012089687
 20
93.5845456664
 11
150.3466317467
 21
93.6287256879
  0
LINE
  5
2AC
100
AcDbEntity
  8
0
100
AcDbLine
 62
7
  6
CONTINUOUS
 10
150.325307038
 20
93.5706317432
 11
150.44359602
 21
93.6856843665
  0
LINE
  5
2AD
100
AcDbEntity
  8
0
100
AcDbLine
 62
7
  6
CONTINUOUS
 10
145.6621083963
 20
96.2631041953
 11
147.7761879071
 21
97.3419342126
  0
LINE
  5
2AE
100
AcDbEntity
  8
0
100
AcDbLine
 62
7
  6
CONTINUOUS
 10
104.0730171135
 20
154.3226191711
 11
182.0668950783
 21
109.289931527
  0
LWPOLYLINE
  5
2AF
100
AcDbEntity
  8
0
100
AcDbPolyline
 62
7
  6
CONTINUOUS
 90
28
 70
0
 10
182.0668950783
 20
109.289931527
 10
182.1371694429
 20
109.2469433327
 10
182.2067416312
 20
109.1997458202
 10
182.2756116432
 20
109.1483389894
 10
182.3440077517
 20
109.0925207829
 10
182.4117016839
 20
109.0324932582
 10
182.478008621
 20
108.9688625878
 10
182.5429143195
 20
108.9015921621
 10
182.606433023
 20
108.8307185906
 10
182.6679226431
 20
108.7569578743
 10
182.7273624357
 20
108.6802808295
 10
182.7847731449
 20
108.6007166398
 10
182.8395749154
 20
108.5190688571
 10
182.8917411949
 20
108.4353165312
 10
182.9412985355
 20
108.3494806123
 10
182.9877467379
 20
108.262427503
 10
183.0310543606
 20
108.1741447577
 10
183.071252845
 20
108.0846448221
 10
183.1079363159
 20
107.994831435
 10
183.1410691734
 20
107.9047011153
 10
183.1706870175
 20
107.8142573443
 10
183.1964907724
 20
107.7244143044
 10
183.2184415863
 20
107.6351780024
 10
183.2365783111
 20
107.5465424316
 10
183.2507184275
 20
107.4594037545
 10
183.2608010955
 20
107.3740606919
 10
183.2668871552
 20
107.290214523
 10
183.2689766064
 20
107.2078652478
  0
LINE
  5
2B0
100
AcDbEntity
  8
0
100
AcDbLine
 62
250
  6
CONTINUOUS
 10
167.8015706478
 20
85.7795291951
 11
167.8015706478
 21
85.3501313831
  0
LINE
  5
2B1
100
AcDbEntity
  8
0
100
AcDbLine
 62
7
  6
CONTINUOUS
 10
167.8786272002
 20
85.8940338654
 11
167.8786272002
 21
85.3959493253
  0
LINE
  5
2B2
100
AcDbEntity
  8
0
100
AcDbLine
 62
7
  6
CONTINUOUS
 10
151.8916680711
 20
94.9657075449
 11
149.9881423297
 21
93.7653064201
  0
LINE
  5
2B3
100
AcDbEntity
  8
0
100
AcDbLine
 62
7
  6
CONTINUOUS
 10
150.2861868982
 20
93.5932192217
 11
151.8916680711
 21
94.536309733
  0
LINE
  5
2B4
100
AcDbEntity
  8
SMUSSO
100
AcDbLine
 62
7
  6
CONTINUOUS
 10
199.3910112174
 20
117.9844522389
 11
201.1587781704
 21
119.0051387223
  0
LINE
  5
2B5
100
AcDbEntity
  8
SMUSSO
100
AcDbLine
 62
7
  6
CONTINUOUS
 10
199.3910112174
 20
117.1679425072
 11
198.6839044362
 21
116.7597073688
  0
LINE
  5
2B6
100
AcDbEntity
  8
SMUSSO
100
AcDbLine
 62
7
  6
CONTINUOUS
 10
200.0981179986
 20
116.7597073688
 11
201.8658849516
 21
117.7803938521
  0
LINE
  5
2B7
100
AcDbEntity
  8
0
100
AcDbLine
 62
250
  6
CONTINUOUS
 10
201.1234228313
 20
119.0261097004
 11
203.1740324968
 21
120.1687765501
  0
LINE
  5
2B8
100
AcDbEntity
  8
0
100
AcDbLine
 62
250
  6
CONTINUOUS
 10
203.2033423218
 20
120.152023928
 11
204.049650127
 21
119.9082653523
  0
LWPOLYLINE
  5
2B9
100
AcDbEntity
  8
0
100
AcDbPolyline
 62
250
  6
CONTINUOUS
 90
10
 70
0
 10
183.0325734632
 20
75.6236822071
 10
183.0348207143
 20
75.6184002185
 10
183.036670824
 20
75.6133964183
 10
183.0380900973
 20
75.6087086445
 10
183.0390400707
 20
75.6043962674
 10
183.0394970665
 20
75.6004735102
 10
183.0394258061
 20
75.5969347343
 10
183.0387677082
 20
75.5938414163
 10
183.03746323
 20
75.5912680725
 10
183.0364979809
 20
75.5901466759
  0
LINE
  5
2BA
100
AcDbEntity
  8
0
100
AcDbLine
 62
250
  6
CONTINUOUS
 10
201.8663231374
 20
117.7393686267
 11
203.881139278
 21
118.94403168
  0
LINE
  5
2BB
100
AcDbEntity
  8
SMUSSO
100
AcDbLine
 62
7
  6
CONTINUOUS
 10
198.6839044362
 20
116.7597073688
 11
87.4560077556
 21
180.9813008993
  0
LINE
  5
2BC
100
AcDbEntity
  8
SMUSSO
100
AcDbLine
 62
7
  6
CONTINUOUS
 10
199.3910112174
 20
117.1679425072
 11
200.0981179986
 21
116.7597073688
  0
LINE
  5
2BD
100
AcDbEntity
  8
SMUSSO
100
AcDbLine
 62
7
  6
CONTINUOUS
 10
199.3910112174
 20
117.9844522389
 11
88.1631145368
 21
182.2060457694
  0
LINE
  5
2BE
100
AcDbEntity
  8
0
100
AcDbLine
 62
250
  6
CONTINUOUS
 10
166.2111115454
 20
84.3983673165
 11
166.2565343234
 21
84.4425473381
  0
LINE
  5
2BF
100
AcDbEntity
  8
0
100
AcDbLine
 62
7
  6
CONTINUOUS
 10
166.2352096147
 20
84.3844533933
 11
166.3534985967
 21
84.4995060166
  0
LINE
  5
2C0
100
AcDbEntity
  8
0
100
AcDbLine
 62
7
  6
CONTINUOUS
 10
167.8015706478
 20
85.7795291951
 11
165.8980449064
 21
84.5791280703
  0
LINE
  5
2C1
100
AcDbEntity
  8
0
100
AcDbLine
 62
7
  6
CONTINUOUS
 10
166.1960894748
 20
84.4070408718
 11
167.8015706478
 21
85.3501313831
  0
LINE
  5
2C2
100
AcDbEntity
  8
0
100
AcDbLine
 62
7
  6
CONTINUOUS
 10
161.572010973
 20
87.0769258454
 11
163.6860904838
 21
88.1557558627
  0
LWPOLYLINE
  5
2C3
100
AcDbEntity
  8
0
100
AcDbPolyline
 62
7
  6
CONTINUOUS
 90
4
 70
0
 10
92.9082514221
 20
183.8350270912
 10
92.8668061114
 20
183.8578625968
 10
92.8254013135
 20
183.8773604919
 10
92.8057955422
 20
183.8854276912
  0
LINE
  5
2C4
100
AcDbEntity
  8
SMUSSO
100
AcDbLine
 62
7
  6
CONTINUOUS
 10
89.9308814897
 20
183.2267322527
 11
201.8658849516
 21
118.5969035839
  0
LINE
  5
2C5
100
AcDbEntity
  8
0
100
AcDbLine
 62
7
  6
CONTINUOUS
 10
92.9360853098
 20
183.8187856499
 11
203.1740324968
 21
120.1687765501
  0
LINE
  5
2C6
100
AcDbEntity
  8
0
100
AcDbLine
 62
7
  6
CONTINUOUS
 10
94.1817880231
 20
183.3445919634
 11
204.049650127
 21
119.9082653523
  0
LINE
  5
2C7
100
AcDbEntity
  8
0
100
AcDbLine
 62
7
  6
CONTINUOUS
 10
183.2689766064
 20
107.2078652478
 11
183.2689766064
 21
72.2629374011
  0
LWPOLYLINE
  5
2C8
100
AcDbEntity
  8
0
100
AcDbPolyline
 62
7
  6
CONTINUOUS
 90
15
 70
0
 10
183.2689766064
 20
72.6712119944
 10
183.2675414494
 20
72.6150807008
 10
183.2632406349
 20
72.5607947206
 10
183.2560884154
 20
72.5085379008
 10
183.2461086228
 20
72.4584869507
 10
183.233334767
 20
72.4108117843
 10
183.2178100979
 20
72.3656747919
 10
183.1995870614
 20
72.3232289247
 10
183.1787271627
 20
72.2836178418
 10
183.1553011606
 20
72.2469761436
 10
183.1293883594
 20
72.2134279342
 10
183.1010763691
 20
72.1830866944
 10
183.070461135
 20
72.1560552712
 10
183.0376463448
 20
72.1324251786
 10
183.0204774611
 20
72.1219277611
  0
LWPOLYLINE
  5
2C9
100
AcDbEntity
  8
0
100
AcDbPolyline
 62
7
  6
CONTINUOUS
 90
28
 70
0
 10
183.2689766064
 20
72.2629374011
 10
183.2668871168
 20
72.1830006137
 10
183.2608010113
 20
72.1061821996
 10
183.2507182896
 20
72.0324821588
 10
183.2365781069
 20
71.961672044
 10
183.2184413081
 20
71.8939803026
 10
183.1964904285
 20
71.830092276
 10
183.1706866398
 20
71.7700468296
 10
183.1410687702
 20
71.7138050982
 10
183.1079358395
 20
71.661935827
 10
183.0712522001
 20
71.6144835513
 10
183.0310534997
 20
71.5714037359
 10
182.9877457011
 20
71.5331315208
 10
182.9412973831
 20
71.499715707
 10
182.8917399671
 20
71.4711074935
 10
182.8395736798
 20
71.4475956176
 10
182.7847720207
 20
71.4292316845
 10
182.7273614904
 20
71.4159640889
 10
182.6679218179
 20
71.4079267519
 10
182.6064321866
 20
71.4051727984
 10
182.5429134131
 20
71.4076491035
 10
182.4780076759
 20
71.4153302128
 10
182.4117007494
 20
71.4282692012
 10
182.3440068592
 20
71.4464129937
 10
182.2756108614
 20
71.4695769117
 10
182.2067410414
 20
71.4976993955
 10
182.1371691137
 20
71.5308420046
 10
182.0668950783
 20
71.5690047392
  0
LINE
  5
2CA
100
AcDbEntity
  8
0
100
AcDbLine
 62
250
  6
CONTINUOUS
 10
102.8709355855
 20
153.6286865092
 11
103.5780423666
 21
153.6286865092
  0
LINE
  5
2CB
100
AcDbEntity
  8
0
100
AcDbLine
 62
250
  6
CONTINUOUS
 10
183.0270259287
 20
75.6065188402
 11
183.0325734632
 21
75.6236822071
  0
LINE
  5
2CC
100
AcDbEntity
  8
0
100
AcDbLine
 62
7
  6
CONTINUOUS
 10
177.5236494424
 20
77.8666497142
 11
177.5414116788
 21
77.89741481
  0
LINE
  5
2CD
100
AcDbEntity
  8
0
100
AcDbLine
 62
7
  6
CONTINUOUS
 10
177.7888990522
 20
77.9178403762
 11
177.8949650693
 21
78.1015521067
  0
LINE
  5
2CE
100
AcDbEntity
  8
0
100
AcDbLine
 62
7
  6
CONTINUOUS
 10
178.1424524428
 20
78.1219776728
 11
178.2485184599
 21
78.3056894034
  0
LINE
  5
2CF
100
AcDbEntity
  8
0
100
AcDbLine
 62
7
  6
CONTINUOUS
 10
178.4960058334
 20
78.3261149695
 11
178.6020718505
 21
78.5098267
  0
LINE
  5
2D0
100
AcDbEntity
  8
0
100
AcDbLine
 62
7
  6
CONTINUOUS
 10
178.8495592239
 20
78.5302522662
 11
178.9556252411
 21
78.7139639967
  0
LINE
  5
2D1
100
AcDbEntity
  8
0
100
AcDbLine
 62
7
  6
CONTINUOUS
 10
179.2031126145
 20
78.7343895628
 11
179.3091786317
 21
78.9181012933
  0
LINE
  5
2D2
100
AcDbEntity
  8
0
100
AcDbLine
 62
7
  6
CONTINUOUS
 10
177.5414116788
 20
77.89741481
 11
177.682833035
 21
77.9790697287
  0
LINE
  5
2D3
100
AcDbEntity
  8
0
100
AcDbLine
 62
7
  6
CONTINUOUS
 10
177.8949650693
 20
78.1015521067
 11
178.0363864256
 21
78.1832070254
  0
LINE
  5
2D4
100
AcDbEntity
  8
0
100
AcDbLine
 62
7
  6
CONTINUOUS
 10
178.2485184599
 20
78.3056894034
 11
178.3899398162
 21
78.387344322
  0
LINE
  5
2D5
100
AcDbEntity
  8
0
100
AcDbLine
 62
7
  6
CONTINUOUS
 10
178.6020718505
 20
78.5098267
 11
178.7434932068
 21
78.5914816187
  0
LINE
  5
2D6
100
AcDbEntity
  8
0
100
AcDbLine
 62
7
  6
CONTINUOUS
 10
178.9556252411
 20
78.7139639967
 11
179.0970465974
 21
78.7956189154
  0
LINE
  5
2D7
100
AcDbEntity
  8
0
100
AcDbLine
 62
7
  6
CONTINUOUS
 10
179.3091786317
 20
78.9181012933
 11
179.450599988
 21
78.999756212
  0
LINE
  5
2D8
100
AcDbEntity
  8
0
100
AcDbLine
 62
7
  6
CONTINUOUS
 10
177.3258378897
 20
77.9808636256
 11
179.4841949906
 21
79.1029546545
  0
LINE
  5
2D9
100
AcDbEntity
  8
0
100
AcDbLine
 62
7
  6
CONTINUOUS
 10
179.5582421435
 20
79.1373984506
 11
180.8685963992
 21
79.6748607772
  0
LWPOLYLINE
  5
2DA
100
AcDbEntity
  8
0
100
AcDbPolyline
 62
7
  6
CONTINUOUS
 90
11
 70
0
 10
92.8057955422
 20
183.8854276912
 10
92.7842054346
 20
183.8934336989
 10
92.7433300989
 20
183.9060292667
 10
92.7030026022
 20
183.9150517007
 10
92.6635512346
 20
183.920419722
 10
92.6252496381
 20
183.9221467167
 10
92.5881039917
 20
183.9202872515
 10
92.5520395656
 20
183.9148360527
 10
92.5171165558
 20
183.9057626345
 10
92.4835798634
 20
183.8930901721
 10
92.4578130205
 20
183.8803604574
  0
LINE
  5
2DB
100
AcDbEntity
  8
0
100
AcDbLine
 62
250
  6
CONTINUOUS
 10
92.9082514221
 20
183.8350270912
 11
94.1817880231
 21
183.3445919634
  0
LINE
  5
2DC
100
AcDbEntity
  8
0
100
AcDbLine
 62
7
  6
CONTINUOUS
 10
94.1747638919
 20
183.3480038711
 11
92.8057863595
 21
183.8854229404
  0
LINE
  5
2DD
100
AcDbEntity
  8
SMUSSO
100
AcDbLine
 62
7
  6
CONTINUOUS
 10
198.6839044362
 20
44.910323011
 11
198.6839044362
 21
116.7597073688
  0
LINE
  5
2DE
100
AcDbEntity
  8
SMUSSO
100
AcDbLine
 62
7
  6
CONTINUOUS
 10
199.3910112174
 20
117.9844522389
 11
199.3910112174
 21
117.1679425072
  0
LINE
  5
2DF
100
AcDbEntity
  8
SMUSSO
100
AcDbLine
 62
7
  6
CONTINUOUS
 10
200.0981179986
 20
44.910323011
 11
200.0981179986
 21
116.7597073688
  0
LINE
  5
2E0
100
AcDbEntity
  8
0
100
AcDbLine
 62
250
  6
CONTINUOUS
 10
203.8812868717
 20
118.977789524
 11
204.0932713123
 21
119.8327112432
  0
LINE
  5
2E1
100
AcDbEntity
  8
0
100
AcDbLine
 62
7
  6
CONTINUOUS
 10
181.4127367389
 20
75.6211394509
 11
181.4304989753
 21
75.6519045467
  0
LINE
  5
2E2
100
AcDbEntity
  8
0
100
AcDbLine
 62
7
  6
CONTINUOUS
 10
181.6779863487
 20
75.6723301129
 11
181.7840523659
 21
75.8560418434
  0
LINE
  5
2E3
100
AcDbEntity
  8
0
100
AcDbLine
 62
7
  6
CONTINUOUS
 10
182.0315397393
 20
75.8764674095
 11
182.1376057565
 21
76.0601791401
  0
LINE
  5
2E4
100
AcDbEntity
  8
0
100
AcDbLine
 62
7
  6
CONTINUOUS
 10
182.3850931299
 20
76.0806047062
 11
182.4911591471
 21
76.2643164367
  0
LINE
  5
2E5
100
AcDbEntity
  8
0
100
AcDbLine
 62
7
  6
CONTINUOUS
 10
182.7386465205
 20
76.2847420029
 11
182.8447125377
 21
76.4684537334
  0
LINE
  5
2E6
100
AcDbEntity
  8
0
100
AcDbLine
 62
7
  6
CONTINUOUS
 10
183.0921999111
 20
76.4888792995
 11
183.1982659282
 21
76.67259103
  0
LINE
  5
2E7
100
AcDbEntity
  8
0
100
AcDbLine
 62
250
  6
CONTINUOUS
 10
182.0668950783
 20
71.5690047392
 11
182.4204484689
 21
72.1813771743
  0
LINE
  5
2E8
100
AcDbEntity
  8
0
100
AcDbLine
 62
250
  6
CONTINUOUS
 10
183.0325734632
 20
75.6236822071
 11
183.2689766064
 21
75.8536174159
  0
LINE
  5
2E9
100
AcDbEntity
  8
0
100
AcDbLine
 62
7
  6
CONTINUOUS
 10
183.0364983281
 20
75.5901470136
 11
183.2689766064
 21
75.8162647409
  0
LWPOLYLINE
  5
2EA
100
AcDbEntity
  8
0
100
AcDbPolyline
 62
250
  6
CONTINUOUS
 90
6
 70
0
 10
182.9778840397
 20
75.5456830358
 10
182.9901950694
 20
75.5541069385
 10
183.0014694367
 20
75.5645607473
 10
183.0114153096
 20
75.5768456103
 10
183.0199552411
 20
75.5908668947
 10
183.0270259287
 20
75.6065188402
  0
LINE
  5
2EB
100
AcDbEntity
  8
0
100
AcDbLine
 62
7
  6
CONTINUOUS
 10
183.2689766064
 20
76.3551984555
 11
181.7871387862
 21
75.4049644012
  0
LINE
  5
2EC
100
AcDbEntity
  8
0
100
AcDbLine
 62
7
  6
CONTINUOUS
 10
182.1163448377
 20
75.2148849529
 11
183.2689766064
 21
75.8919630168
  0
LINE
  5
2ED
100
AcDbEntity
  8
0
100
AcDbLine
 62
7
  6
CONTINUOUS
 10
182.9778839816
 20
75.5456830021
 11
182.2624214054
 21
75.1305421735
  0
LINE
  5
2EE
100
AcDbEntity
  8
0
100
AcDbLine
 62
250
  6
CONTINUOUS
 10
183.0325734632
 20
75.6236822071
 11
182.2221883086
 21
75.1537722593
  0
LINE
  5
2EF
100
AcDbEntity
  8
0
100
AcDbLine
 62
7
  6
CONTINUOUS
 10
181.4304989753
 20
75.6519045467
 11
181.5719203315
 21
75.7335594654
  0
LINE
  5
2F0
100
AcDbEntity
  8
0
100
AcDbLine
 62
7
  6
CONTINUOUS
 10
181.7840523659
 20
75.8560418434
 11
181.9254737221
 21
75.9376967621
  0
LINE
  5
2F1
100
AcDbEntity
  8
0
100
AcDbLine
 62
7
  6
CONTINUOUS
 10
182.1376057565
 20
76.0601791401
 11
182.2790271127
 21
76.1418340587
  0
LINE
  5
2F2
100
AcDbEntity
  8
0
100
AcDbLine
 62
7
  6
CONTINUOUS
 10
182.4911591471
 20
76.2643164367
 11
182.6325805033
 21
76.3459713554
  0
LINE
  5
2F3
100
AcDbEntity
  8
0
100
AcDbLine
 62
7
  6
CONTINUOUS
 10
182.8447125377
 20
76.4684537334
 11
182.9861338939
 21
76.550108652
  0
LINE
  5
2F4
100
AcDbEntity
  8
0
100
AcDbLine
 62
7
  6
CONTINUOUS
 10
183.1982659282
 20
76.67259103
 11
183.2689766064
 21
76.7134184894
  0
LINE
  5
2F5
100
AcDbEntity
  8
0
100
AcDbLine
 62
7
  6
CONTINUOUS
 10
183.2689766064
 20
76.5909479479
 11
181.5010319862
 21
75.5701588817
  0
LINE
  5
2F6
100
AcDbEntity
  8
0
100
AcDbLine
 62
250
  6
CONTINUOUS
 10
182.4204484689
 20
72.1813771743
 11
183.2689766064
 21
72.6713066863
  0
LWPOLYLINE
  5
2F7
100
AcDbEntity
  8
0
100
AcDbPolyline
 62
7
  6
CONTINUOUS
 90
15
 70
0
 10
183.0204774611
 20
72.1219277611
 10
183.002742985
 20
72.1122763043
 10
182.9658691143
 20
72.0956767964
 10
182.9271494422
 20
72.0826828135
 10
182.8867150577
 20
72.0733383653
 10
182.844702945
 20
72.0676750929
 10
182.8012551246
 20
72.0657121259
 10
182.7565187903
 20
72.0674560998
 10
182.7106460242
 20
72.0729009708
 10
182.6637921438
 20
72.0820281087
 10
182.6161157077
 20
72.0948064355
 10
182.5677786899
 20
72.1111922898
 10
182.5189448946
 20
72.1311298124
 10
182.4697793713
 20
72.1545512905
 10
182.4204484689
 20
72.1813771743
  0
LWPOLYLINE
  5
2F8
100
AcDbEntity
  8
0
100
AcDbPolyline
 62
7
  6
CONTINUOUS
 90
25
 70
0
 10
203.8812868717
 20
118.977789524
 10
203.8803387647
 20
119.0313007224
 10
203.8765203836
 20
119.0860395096
 10
203.8698405253
 20
119.141806354
 10
203.8603091479
 20
119.1984918558
 10
203.8479572076
 20
119.2557904526
 10
203.832878477
 20
119.313193222
 10
203.8152213843
 20
119.3702812652
 10
203.7950362763
 20
119.4270356119
 10
203.7722812185
 20
119.4835427499
 10
203.7469599105
 20
119.5397295243
 10
203.7192148851
 20
119.5952323732
 10
203.6892032066
 20
119.6497036124
 10
203.6570355093
 20
119.7029302104
 10
203.6228409675
 20
119.7547098378
 10
203.5868421546
 20
119.8047326273
 10
203.5492826616
 20
119.8526933546
 10
203.5102239945
 20
119.898552236
 10
203.4696122182
 20
119.9423888344
 10
203.4274385867
 20
119.9841500652
 10
203.383991667
 20
120.0234979299
 10
203.3396653183
 20
120.0600967471
 10
203.2947086929
 20
120.0937669166
 10
203.2492115587
 20
120.1244451079
 10
203.2033423218
 20
120.152023928
  0
LINE
  5
2F9
100
AcDbEntity
  8
SMUSSO
100
AcDbLine
 62
7
  6
CONTINUOUS
 10
201.8658849516
 20
45.9310094944
 11
201.8658849516
 21
118.5969035839
  0
LINE
  5
2FA
100
AcDbEntity
  8
0
100
AcDbLine
 62
7
  6
CONTINUOUS
 10
203.881139278
 20
118.94403168
 11
203.881139278
 21
48.2377057098
  0
LINE
  5
2FB
100
AcDbEntity
  8
0
100
AcDbLine
 62
7
  6
CONTINUOUS
 10
204.0932713123
 20
119.8327112432
 11
204.0932713123
 21
49.5537089506
  0
LWPOLYLINE
  5
2FC
100
AcDbEntity
  8
0
100
AcDbPolyline
 62
7
  6
CONTINUOUS
 90
4
 70
0
 10
203.8737116911
 20
48.0916161091
 10
203.8765203837
 20
48.112570406
 10
203.8803387647
 20
48.1581740947
 10
203.8812868717
 20
48.2054818037
  0
LINE
  5
2FD
100
AcDbEntity
  8
0
100
AcDbLine
 62
7
  6
CONTINUOUS
 10
204.0927143892
 20
49.5459242474
 11
203.8737029653
 21
48.0916105185
  0
LINE
  5
2FE
100
AcDbEntity
  8
0
100
AcDbLine
 62
250
  6
CONTINUOUS
 10
203.8812868717
 20
48.2054818037
 11
204.0932713123
 21
49.5537089506
  0
LWPOLYLINE
  5
2FF
100
AcDbEntity
  8
0
100
AcDbPolyline
 62
7
  6
CONTINUOUS
 90
11
 70
0
 10
203.6953532376
 20
47.7927908533
 10
203.7192148895
 20
47.8087090722
 10
203.7469599158
 20
47.8314129936
 10
203.7722812241
 20
47.8571170462
 10
203.7950362811
 20
47.8856207486
 10
203.8152213881
 20
47.9168567305
 10
203.8328784798
 20
47.9508870679
 10
203.8479572094
 20
47.9877336949
 10
203.8603091488
 20
48.0271663485
 10
203.8698405257
 20
48.0688601106
 10
203.8737116911
 20
48.0916161091
  0
LINE
  5
300
100
AcDbEntity
  8
0
100
AcDbLine
 62
7
  6
CONTINUOUS
 10
201.8658849516
 20
46.6836749973
 11
203.695353372
 21
47.7927909348
  0
LINE
  5
301
100
AcDbEntity
  8
0
100
AcDbLine
 62
250
  6
CONTINUOUS
 10
201.8663231374
 20
47.0330426565
 11
203.881139278
 21
48.2377057098
  0
LINE
  5
302
100
AcDbEntity
  8
SMUSSO
100
AcDbLine
 62
7
  6
CONTINUOUS
 10
199.3910112174
 20
44.5020878726
 11
201.8658849516
 21
45.9310094944
  0
ARC
  5
303
100
AcDbEntity
  8
0
100
AcDbCircle
 62
7
  6
CONTINUOUS
 10
106.429449922
 20
124.6520903099
 40
0.3
100
AcDbArc
 50
359.9999695719
 51
2.9883509906
  0
ARC
  5
304
100
AcDbEntity
  8
0
100
AcDbCircle
 62
7
  6
CONTINUOUS
 10
106.429449922
 20
152.1248316911
 40
0.3
100
AcDbArc
 50
357.1869536691
 51
0.0000276221
  0
ARC
  5
305
100
AcDbEntity
  8
0
100
AcDbCircle
 62
7
  6
CONTINUOUS
 10
106.1052063292
 20
141.741218121
 40
0.3
100
AcDbArc
 50
322.0832111838
 51
359.2647577886
  0
ARC
  5
306
100
AcDbEntity
  8
0
100
AcDbCircle
 62
7
  6
CONTINUOUS
 10
106.1052062524
 20
134.6479786137
 40
0.3
100
AcDbArc
 50
0.700832293
 51
43.2479844087
  0
ARC
  5
307
100
AcDbEntity
  8
0
100
AcDbCircle
 62
7
  6
CONTINUOUS
 10
182.8271645792
 20
75.8053309318
 40
0.3
100
AcDbArc
 50
300.1089936051
 51
314.2001405101
  0
ARC
  5
308
100
AcDbEntity
  8
0
100
AcDbCircle
 62
7
  6
CONTINUOUS
 10
119.1875542724
 20
112.5500443313
 40
0.3
100
AcDbArc
 50
300.1089936051
 51
314.2001405101
  0
ELLIPSE
  5
309
100
AcDbEntity
  8
0
100
AcDbEllipse
 62
7
  6
CONTINUOUS
 10
204.0485423351
 20
49.5808140281
 30
0.0
 11
-0.0320188688
 21
0.0554549875
 31
0.0
 40
0.5632057935
 41
-2.5265952341
 42
-2.3686251639
  0
ELLIPSE
  5
30A
100
AcDbEntity
  8
0
100
AcDbEllipse
 62
7
  6
CONTINUOUS
 10
204.0485423351
 20
119.8572580674
 30
0.0
 11
-0.0312356712
 21
0.0540980115
 31
0.0
 40
0.5918118391
 41
-2.3438606673
 42
-0.7978336343
  0
ELLIPSE
  5
30B
100
AcDbEntity
  8
0
100
AcDbEllipse
 62
7
  6
CONTINUOUS
 10
94.182895815
 20
183.2923054281
 30
0.0
 11
-0.0320188688
 21
0.0554549875
 31
0.0
 40
0.5632057935
 41
-0.7730595434
 42
-0.6150059205
  0
ELLIPSE
  5
30C
100
AcDbEntity
  8
0
100
AcDbEllipse
 62
7
  6
CONTINUOUS
 10
135.7588220468
 20
103.5936814987
 30
0.0
 11
0.2999993451
 21
0.1746271577
 31
0.0
 40
0.0035896273
 41
-0.7351277754
 42
-0.0020894543
  0
ELLIPSE
  5
30D
100
AcDbEntity
  8
0
100
AcDbEllipse
 62
7
  6
CONTINUOUS
 10
151.6687246235
 20
94.4075031488
 30
0.0
 11
0.2999993451
 21
0.1746271577
 31
0.0
 40
0.0035896273
 41
-0.7351277754
 42
-0.0020894543
  0
ELLIPSE
  5
30E
100
AcDbEntity
  8
0
100
AcDbEllipse
 62
7
  6
CONTINUOUS
 10
167.5786272002
 20
85.2213247989
 30
0.0
 11
0.2999993451
 21
0.1746271577
 31
0.0
 40
0.0035896273
 41
-0.7351277754
 42
-0.0020894543
  0
ELLIPSE
  5
30F
100
AcDbEntity
  8
0
100
AcDbEllipse
 62
7
  6
CONTINUOUS
 10
121.1888136043
 20
113.554162204
 30
0.0
 11
0.1999995634
 21
0.1164181051
 31
0.0
 40
0.0035896273
 41
-0.7351277754
 42
-0.6748017824
  0
ELLIPSE
  5
310
100
AcDbEntity
  8
0
100
AcDbEllipse
 62
7
  6
CONTINUOUS
 10
181.0024225205
 20
79.5898988906
 30
0.0
 11
0.1998333781
 21
-0.0157785196
 31
0.0
 40
0.5172961965
 41
0.8262203412
 42
2.3446567905
  0
ELLIPSE
  5
311
100
AcDbEntity
  8
0
100
AcDbEllipse
 62
7
  6
CONTINUOUS
 10
117.3628122137
 20
116.3346122901
 30
0.0
 11
0.1998333781
 21
-0.0157785196
 31
0.0
 40
0.5172961965
 41
0.8262203412
 42
2.3446567905
  0
ELLIPSE
  5
312
100
AcDbEntity
  8
0
100
AcDbEllipse
 62
7
  6
CONTINUOUS
 10
163.8868296657
 20
88.0271429819
 30
0.0
 11
0.2999972416
 21
-0.0022477848
 31
0.0
 40
0.5723275643
 41
0.7896864073
 42
2.3081228565
  0
ELLIPSE
  5
313
100
AcDbEntity
  8
0
100
AcDbEllipse
 62
7
  6
CONTINUOUS
 10
147.976927089
 20
97.2133213317
 30
0.0
 11
0.2999972416
 21
-0.0022477848
 31
0.0
 40
0.5723275643
 41
0.7896864073
 42
2.3081228565
  0
ELLIPSE
  5
314
100
AcDbEntity
  8
0
100
AcDbEllipse
 62
7
  6
CONTINUOUS
 10
132.0670245123
 20
106.3994996816
 30
0.0
 11
0.2999972416
 21
-0.0022477848
 31
0.0
 40
0.5723275643
 41
0.7896864073
 42
2.3081228565
  0
ELLIPSE
  5
315
100
AcDbEntity
  8
0
100
AcDbEllipse
 62
7
  6
CONTINUOUS
 10
179.4841949906
 20
78.2864843777
 30
0.0
 11
0.5413005334
 21
0.8416911418
 31
0.0
 40
0.6067084637
 41
0.7148472392
 42
0.8145158917
  0
ELLIPSE
  5
316
100
AcDbEntity
  8
0
100
AcDbEllipse
 62
7
  6
CONTINUOUS
 10
115.8445846838
 20
115.0311977772
 30
0.0
 11
0.5413005334
 21
0.8416911418
 31
0.0
 40
0.6067084637
 41
0.7148472392
 42
0.8145158917
  0
ELLIPSE
  5
317
100
AcDbEntity
  8
0
100
AcDbEllipse
 62
7
  6
CONTINUOUS
 10
135.7588220468
 20
104.2679020543
 30
0.0
 11
0.2999972416
 21
-0.0022477848
 31
0.0
 40
0.5723275643
 41
-0.728750042
 42
0.7896864073
  0
ELLIPSE
  5
318
100
AcDbEntity
  8
0
100
AcDbEllipse
 62
7
  6
CONTINUOUS
 10
120.0909219421
 20
112.5794158634
 30
0.0
 11
0.4625183445
 21
0.8873459255
 31
0.0
 40
0.5463614449
 41
0.662201126
 42
0.7618697785
  0
ELLIPSE
  5
319
100
AcDbEntity
  8
0
100
AcDbEllipse
 62
7
  6
CONTINUOUS
 10
204.0390424668
 20
119.8691862257
 30
0.0
 11
1.1066889452
 21
-0.4882482052
 31
0.0
 40
0.0945009384
 41
-2.4253001261
 42
-2.3839902126
  0
ELLIPSE
  5
31A
100
AcDbEntity
  8
0
100
AcDbEllipse
 62
7
  6
CONTINUOUS
 10
93.8010952798
 20
183.5191953255
 30
0.0
 11
1.1066889452
 21
-0.4882482052
 31
0.0
 40
0.0945009384
 41
-2.4666100396
 42
-2.4253001261
  0
ELLIPSE
  5
31B
100
AcDbEntity
  8
0
100
AcDbEllipse
 62
7
  6
CONTINUOUS
 10
204.054141272
 20
49.1367083578
 30
0.0
 11
0.1304932868
 21
1.2025842266
 31
0.0
 40
0.0944494463
 41
-3.8578203675
 42
-3.816510454
  0
ELLIPSE
  5
31C
100
AcDbEntity
  8
0
100
AcDbEllipse
 62
7
  6
CONTINUOUS
 10
204.054141272
 20
119.843034328
 30
0.0
 11
0.1304932868
 21
1.2025842266
 31
0.0
 40
0.0944494463
 41
-3.899130281
 42
-3.8578203675
  0
ELLIPSE
  5
31D
100
AcDbEntity
  8
0
100
AcDbEllipse
 62
7
  6
CONTINUOUS
 10
121.1888136043
 20
114.1255270382
 30
0.0
 11
0.1998333781
 21
-0.0157785196
 31
0.0
 40
0.5172961965
 41
-0.692216108
 42
0.8262203412
  0
ELLIPSE
  5
31E
100
AcDbEntity
  8
0
100
AcDbEllipse
 62
7
  6
CONTINUOUS
 10
167.5786272002
 20
85.8955453545
 30
0.0
 11
0.2999972416
 21
-0.0022477848
 31
0.0
 40
0.5723275643
 41
-0.728750042
 42
0.7896864073
  0
ELLIPSE
  5
31F
100
AcDbEntity
  8
0
100
AcDbEllipse
 62
7
  6
CONTINUOUS
 10
151.6687246235
 20
95.0817237044
 30
0.0
 11
0.2999972416
 21
-0.0022477848
 31
0.0
 40
0.5723275643
 41
-0.728750042
 42
0.7896864073
  0
ENDSEC
  0
SECTION
  2
OBJECTS
  0
DICTIONARY
  5
C
100
AcDbDictionary
280
0
281
1
  3
ACAD_GROUP
350
D
  3
ACAD_MLINESTYLE
350
17
  3
ACAD_LAYOUT
350
1A
  3
ACAD_PLOTSETTINGS
350
19
  3
ACAD_PLOTSTYLENAME
350
E
  0
DICTIONARY
  5
D
102
{ACAD_REACTORS
330
C
102
}
100
AcDbDictionary
280
0
281
1
  0
ACDBDICTIONARYWDFLT
  5
E
102
{ACAD_REACTORS
330
C
102
}
100
AcDbDictionary
281
1
  3
Normal
350
F
100
AcDbDictionaryWithDefault
340
F
  0
DICTIONARY
  5
17
102
{ACAD_REACTORS
330
C
102
}
100
AcDbDictionary
280
0
281
1
  3
Standard
350
18
  0
DICTIONARY
  5
19
102
{ACAD_REACTORS
330
C
102
}
100
AcDbDictionary
281
1
  0
DICTIONARY
  5
1A
102
{ACAD_REACTORS
330
C
102
}
100
AcDbDictionary
281
1
  3
Model
350
320
  3
Layout1
350
321
  0
ACDBPLACEHOLDER
  5
F
102
{ACAD_REACTORS
330
E
102
}
  0
MLINESTYLE
  5
18
102
{ACAD_REACTORS
330
17
102
}
100
AcDbMlineStyle
  2
STANDARD
 70
0
  3

 62
256
 51
90.0
 52
90.0
 71
2
 49
0.5
 62
256
  6
BYLAYER
 49
-0.5
 62
256
  6
BYLAYER
  0
LAYOUT
  5
320
102
{ACAD_REACTORS
330
1A
102
}
100
AcDbPlotSettings
  1

  2
none_device
  4
ISO_A4_(297.00_x_210.00_MM)
  6

 40
0.0
 41
0.0
 42
0.0
 43
0.0
 44
297.0
 45
210.0
 46
0.0
 47
0.0
 48
0.0
 49
0.0
140
0.0
141
0.0
142
1.0
143
1.0
 70
1024
 72
1
 73
0
 74
0
  7

 75
0
147
1.0
148
0.0
149
0.0
100
AcDbLayout
  1
Model
 70
0
 71
0
 10
0.0
 20
0.0
 11
297.0
 21
210.0
 12
0.0
 22
0.0
 32
0.0
 14
0.0
 24
0.0
 34
0.0
 15
0.0
 25
0.0
 35
0.0
146
0.0
 13
0.0
 23
0.0
 33
0.0
 16
1.0
 26
0.0
 36
0.0
 17
0.0
 27
1.0
 37
0.0
 76
0
330
21D
345
0
346
0
  0
LAYOUT
  5
321
102
{ACAD_REACTORS
330
1A
102
}
100
AcDbPlotSettings
  1

  2
none_device
  4
ISO_A4_(297.00_x_210.00_MM)
  6

 40
0.0
 41
0.0
 42
0.0
 43
0.0
 44
297.0
 45
210.0
 46
0.0
 47
0.0
 48
0.0
 49
0.0
140
0.0
141
0.0
142
1.0
143
1.0
 70
0
 72
1
 73
0
 74
0
  7

 75
0
147
1.0
148
0.0
149
0.0
100
AcDbLayout
  1
Layout1
 70
0
 71
1
 10
0.0
 20
0.0
 11
297.0
 21
210.0
 12
0.0
 22
0.0
 32
0.0
 14
0.0
 24
0.0
 34
0.0
 15
0.0
 25
0.0
 35
0.0
146
0.0
 13
0.0
 23
0.0
 33
0.0
 16
1.0
 26
0.0
 36
0.0
 17
0.0
 27
1.0
 37
0.0
 76
0
330
21E
345
0
346
0
  0
ENDSEC
  0
EOF
