  0
SECTION
  2
HEADER
  9
$ACADVER
  1
AC1024
  9
$DWGCODEPAGE
  3
ANSI_1252
  9
$EXTMAX
 10
297.0
 20
210.0
 30
0.0
  9
$EXTMIN
 10
0.0
 20
0.0
 30
0.0
  9
$LIMMIN
 10
0.0
 20
0.0
  9
$LIMMAX
 10
297.0
 20
210.0
  9
$VIEWCTR
 10
148.5
 20
105.0
  9
$VIEWSIZE
 40
210.0
  9
$CLAYER
  8
0
  9
$LTSCALE
 40
16.335
  9
$CELTYPE
  6
BYLAYER
  9
$DIMSCALE
 40
1.0
  9
$DIMASZ
 40
3.0
  9
$DIMEXO
 40
0.5
  9
$DIMDLI
 40
11.286
  9
$DIMEXE
 40
1.5
  9
$DIMCEN
 40
2.673
  9
$DIMLFAC
 40
1.0
  9
$DIMBLK
  1
_FILLED
  9
$DIMALT
 70
0
  9
$DIMALTF
 40
0.0393700787
  9
$DIMTXT
 40
3.0
  9
$DIMTOL
 70
1
  9
$DIMLIM
 70
0
  9
$DIMTFAC
 40
1.0
  9
$DIMTP
 40
0.01
  9
$DIMTM
 40
0.01
  9
$DIMGAP
 40
0.625
  9
$DIMDSEP
 70
44
  9
$AUNITS
 70
0
  9
$PDMODE
 70
3
  9
$PDSIZE
 40
3.0
  9
$HANDSEED
  5
3F2
  9
$TILEMODE
 70
1
  9
$MEASUREMENT
 70
1
  9
$INSUNITS
 70
4
  0
ENDSEC
  0
SECTION
  2
CLASSES
  0
CLASS
  1
ACDBDICTIONARYWDFLT
  2
AcDbDictionaryWithDefault
  3
AutoCAD 2000
 90
0
 91
1
280
0
281
0
  0
CLASS
  1
ACDBPLACEHOLDER
  2
AcDbPlaceHolder
  3
AutoCAD 2000
 90
0
 91
1
280
0
281
0
  0
CLASS
  1
LAYOUT
  2
AcDbLayout
  3
AutoCAD 2000
 90
0
 91
0
280
0
281
0
  0
ENDSEC
  0
SECTION
  2
TABLES
  0
TABLE
  2
VPORT
  5
8
100
AcDbSymbolTable
 70
2
  0
VPORT
  5
1F4
100
AcDbSymbolTableRecord
100
AcDbViewportTableRecord
  2
*ACTIVE
 70
0
 10
0.0
 20
0.0
 11
1.0
 21
1.0
 12
148.5
 22
105.0
 13
0.0
 23
0.0
 14
1.0
 24
1.0
 15
0.0
 25
0.0
 16
0.0
 26
0.0
 36
1.0
 17
0.0
 27
0.0
 37
0.0
 40
210.0
 41
1.4142857143
 42
50.0
 43
0.0
 44
0.0
 50
0.0
 51
0.0
 71
0
 72
100
 73
1
 74
1
 75
0
 76
0
 77
0
 78
0
  0
ENDTAB
  0
TABLE
  2
LTYPE
  5
5
100
AcDbSymbolTable
 70
6
  0
LTYPE
  5
14
100
AcDbSymbolTableRecord
100
AcDbLinetypeTableRecord
  2
BYBLOCK
 70
0
  3

 72
65
 73
0
 40
0.0
  0
LTYPE
  5
15
100
AcDbSymbolTableRecord
100
AcDbLinetypeTableRecord
  2
BYLAYER
 70
0
  3

 72
65
 73
0
 40
0.0
  0
LTYPE
  5
16
100
AcDbSymbolTableRecord
100
AcDbLinetypeTableRecord
  2
CONTINUOUS
 70
64
  3
Solid line
 72
65
 73
0
 40
0.0
  0
LTYPE
  5
1F5
100
AcDbSymbolTableRecord
100
AcDbLinetypeTableRecord
  2
CENTER
 70
64
  3
____ _ ____ _ ____ _ ____ _ ____ _ ____ _ ____
 72
65
 73
4
 40
0.6
 49
0.375
 74
0
 49
-0.075
 74
0
 49
0.075
 74
0
 49
-0.075
 74
0
  0
LTYPE
  5
1F6
100
AcDbSymbolTableRecord
100
AcDbLinetypeTableRecord
  2
HIDDEN
 70
64
  3
- - - - - - - - - - - - - - - - - - - -
 72
65
 73
2
 40
0.2
 49
0.1
 74
0
 49
-0.1
 74
0
  0
LTYPE
  5
1F7
100
AcDbSymbolTableRecord
100
AcDbLinetypeTableRecord
  2
PHANTOM
 70
64
  3
_____ _ _ _____ _ _ _____ _ _ _____
 72
65
 73
6
 40
0.8
 49
0.45
 74
0
 49
-0.05
 74
0
 49
0.1
 74
0
 49
-0.05
 74
0
 49
0.1
 74
0
 49
-0.05
 74
0
  0
LTYPE
  5
1F8
100
AcDbSymbolTableRecord
100
AcDbLinetypeTableRecord
  2
DOT
 70
64
  3
. . . . . . . . . . . . . . . . . . . .
 72
65
 73
2
 40
0.2
 49
0.1
 74
0
 49
-0.1
 74
0
  0
LTYPE
  5
1F9
100
AcDbSymbolTableRecord
100
AcDbLinetypeTableRecord
  2
DASHED
 70
64
  3
- - - - - - - - - - - - - - - - - - - -
 72
65
 73
2
 40
0.2
 49
0.1
 74
0
 49
-0.1
 74
0
  0
ENDTAB
  0
TABLE
  2
LAYER
  5
2
100
AcDbSymbolTable
 70
36
  0
LAYER
  5
10
100
AcDbSymbolTableRecord
100
AcDbLayerTableRecord
  2
0
 70
0
 62
7
  6
CONTINUOUS
370
-3
390
F
  0
LAYER
  5
1FA
100
AcDbSymbolTableRecord
100
AcDbLayerTableRecord
  2
DEFAULT_1
 70
0
 62
7
  6
CENTER
370
-3
390
F
  0
LAYER
  5
1FB
100
AcDbSymbolTableRecord
100
AcDbLayerTableRecord
  2
DEFAULT_2
 70
0
 62
7
  6
HIDDEN
370
-3
390
F
  0
LAYER
  5
1FC
100
AcDbSymbolTableRecord
100
AcDbLayerTableRecord
  2
DEFAULT_3
 70
0
 62
7
  6
PHANTOM
370
-3
390
F
  0
LAYER
  5
1FD
100
AcDbSymbolTableRecord
100
AcDbLayerTableRecord
  2
ASSI
 70
0
 62
7
  6
CONTINUOUS
370
-3
390
F
  0
LAYER
  5
1FE
100
AcDbSymbolTableRecord
100
AcDbLayerTableRecord
  2
COORDINATE
 70
0
 62
7
  6
CONTINUOUS
370
-3
390
F
  0
LAYER
  5
1FF
100
AcDbSymbolTableRecord
100
AcDbLayerTableRecord
  2
COORD_ORIGINE
 70
0
 62
7
  6
CONTINUOUS
370
-3
390
F
  0
LAYER
  5
200
100
AcDbSymbolTableRecord
100
AcDbLayerTableRecord
  2
COPY_PUBLISH
 70
0
 62
7
  6
CONTINUOUS
370
-3
390
F
  0
LAYER
  5
201
100
AcDbSymbolTableRecord
100
AcDbLayerTableRecord
  2
COSMETIC
 70
0
 62
7
  6
CONTINUOUS
370
-3
390
F
  0
LAYER
  5
202
100
AcDbSymbolTableRecord
100
AcDbLayerTableRecord
  2
COSMETICI
 70
0
 62
7
  6
CONTINUOUS
370
-3
390
F
  0
LAYER
  5
203
100
AcDbSymbolTableRecord
100
AcDbLayerTableRecord
  2
CURVA_TASSELLO
 70
0
 62
7
  6
CONTINUOUS
370
-3
390
F
  0
LAYER
  5
204
100
AcDbSymbolTableRecord
100
AcDbLayerTableRecord
  2
CURVE
 70
0
 62
7
  6
CONTINUOUS
370
-3
390
F
  0
LAYER
  5
205
100
AcDbSymbolTableRecord
100
AcDbLayerTableRecord
  2
DRAFT
 70
0
 62
7
  6
CONTINUOUS
370
-3
390
F
  0
LAYER
  5
206
100
AcDbSymbolTableRecord
100
AcDbLayerTableRecord
  2
IMPORT_IGES
 70
0
 62
7
  6
CONTINUOUS
370
-3
390
F
  0
LAYER
  5
207
100
AcDbSymbolTableRecord
100
AcDbLayerTableRecord
  2
INTFCLR_2
 70
0
 62
7
  6
CONTINUOUS
370
-3
390
F
  0
LAYER
  5
208
100
AcDbSymbolTableRecord
100
AcDbLayerTableRecord
  2
INTF_1
 70
0
 62
7
  6
CONTINUOUS
370
-3
390
F
  0
LAYER
  5
209
100
AcDbSymbolTableRecord
100
AcDbLayerTableRecord
  2
INTF_21
 70
0
 62
7
  6
CONTINUOUS
370
-3
390
F
  0
LAYER
  5
20A
100
AcDbSymbolTableRecord
100
AcDbLayerTableRecord
  2
INTF_7
 70
0
 62
7
  6
CONTINUOUS
370
-3
390
F
  0
LAYER
  5
20B
100
AcDbSymbolTableRecord
100
AcDbLayerTableRecord
  2
INTF_9
 70
0
 62
7
  6
CONTINUOUS
370
-3
390
F
  0
LAYER
  5
20C
100
AcDbSymbolTableRecord
100
AcDbLayerTableRecord
  2
NOTE
 70
0
 62
7
  6
CONTINUOUS
370
-3
390
F
  0
LAYER
  5
20D
100
AcDbSymbolTableRecord
100
AcDbLayerTableRecord
  2
PIANI
 70
0
 62
7
  6
CONTINUOUS
370
-3
390
F
  0
LAYER
  5
20E
100
AcDbSymbolTableRecord
100
AcDbLayerTableRecord
  2
PIANI_ORIGINE
 70
0
 62
7
  6
CONTINUOUS
370
-3
390
F
  0
LAYER
  5
20F
100
AcDbSymbolTableRecord
100
AcDbLayerTableRecord
  2
PIANI_RIFERIMENTO
 70
0
 62
7
  6
CONTINUOUS
370
-3
390
F
  0
LAYER
  5
210
100
AcDbSymbolTableRecord
100
AcDbLayerTableRecord
  2
PUNTI
 70
0
 62
7
  6
CONTINUOUS
370
-3
390
F
  0
LAYER
  5
211
100
AcDbSymbolTableRecord
100
AcDbLayerTableRecord
  2
RACCORDO
 70
0
 62
7
  6
CONTINUOUS
370
-3
390
F
  0
LAYER
  5
212
100
AcDbSymbolTableRecord
100
AcDbLayerTableRecord
  2
RGB__255__255__255__
 70
0
 62
7
  6
CONTINUOUS
370
-3
390
F
  0
LAYER
  5
213
100
AcDbSymbolTableRecord
100
AcDbLayerTableRecord
  2
RGB____0____0____0__
 70
0
 62
7
  6
CONTINUOUS
370
-3
390
F
  0
LAYER
  5
214
100
AcDbSymbolTableRecord
100
AcDbLayerTableRecord
  2
SIMBOLI
 70
0
 62
7
  6
CONTINUOUS
370
-3
390
F
  0
LAYER
  5
215
100
AcDbSymbolTableRecord
100
AcDbLayerTableRecord
  2
SMUSSO
 70
0
 62
7
  6
CONTINUOUS
370
-3
390
F
  0
LAYER
  5
216
100
AcDbSymbolTableRecord
100
AcDbLayerTableRecord
  2
SNAPLINE
 70
0
 62
7
  6
CONTINUOUS
370
-3
390
F
  0
LAYER
  5
217
100
AcDbSymbolTableRecord
100
AcDbLayerTableRecord
  2
SUPERFICI
 70
0
 62
7
  6
CONTINUOUS
370
-3
390
F
  0
LAYER
  5
218
100
AcDbSymbolTableRecord
100
AcDbLayerTableRecord
  2
TRASH
 70
0
 62
7
  6
CONTINUOUS
370
-3
390
F
  0
LAYER
  5
219
100
AcDbSymbolTableRecord
100
AcDbLayerTableRecord
  2
XSEC_DATUMS
 70
0
 62
7
  6
CONTINUOUS
370
-3
390
F
  0
ENDTAB
  0
TABLE
  2
STYLE
  5
3
100
AcDbSymbolTable
 70
1
  0
STYLE
  5
11
100
AcDbSymbolTableRecord
100
AcDbTextStyleTableRecord
  2
STANDARD
 70
0
 40
0.0
 41
0.8
 50
0.0
 71
0
 42
0.2
  3
txt
  4

  0
STYLE
  5
21A
100
AcDbSymbolTableRecord
100
AcDbTextStyleTableRecord
  2
TEXTSTYLE_1
 70
0
 40
0.0
 41
0.8
 50
0.0
 71
0
 42
0.2
  3
gdt
  4

  0
ENDTAB
  0
TABLE
  2
VIEW
  5
6
100
AcDbSymbolTable
 70
0
  0
ENDTAB
  0
TABLE
  2
UCS
  5
7
100
AcDbSymbolTable
 70
0
  0
ENDTAB
  0
TABLE
  2
APPID
  5
9
100
AcDbSymbolTable
 70
1
  0
APPID
  5
21B
100
AcDbSymbolTableRecord
100
AcDbRegAppTableRecord
  2
ACAD
 70
0
  0
ENDTAB
  0
TABLE
  2
BLOCK_RECORD
  5
1
100
AcDbSymbolTable
 70
0
  0
BLOCK_RECORD
  5
21C
100
AcDbSymbolTableRecord
100
AcDbBlockTableRecord
  2
*Model_Space
  0
BLOCK_RECORD
  5
21D
100
AcDbSymbolTableRecord
100
AcDbBlockTableRecord
  2
*Paper_Space
  0
BLOCK_RECORD
  5
21E
100
AcDbSymbolTableRecord
100
AcDbBlockTableRecord
  2
_FILLED
  0
ENDTAB
  0
TABLE
  2
DIMSTYLE
  5
A
100
AcDbSymbolTable
 70
1
100
AcDbDimStyleTable
 71
0
  0
DIMSTYLE
105
21F
100
AcDbSymbolTableRecord
100
AcDbDimStyleTableRecord
  2
STANDARD
 70
0
  3

  4

 40
1.0
 41
3.0
 42
0.5
 43
0.38
 44
1.5
 45
0.0
 46
0.0
 47
0.01
 48
0.01
140
3.0
141
0.09
142
0.0
143
25.4
144
1.0
145
0.0
146
1.0
147
0.625
 71
1
 72
0
 73
0
 74
0
 75
0
 76
0
 77
1
 78
8
 79
2
170
0
171
1
172
0
173
0
174
0
175
0
176
0
177
0
178
0
270
2
179
2
271
2
272
2
273
2
274
2
275
0
280
0
281
0
282
0
283
1
284
8
285
0
286
0
287
3
288
0
340
11
278
44
341
21E
342
21E
343
21E
344
21E
  0
ENDTAB
  0
ENDSEC
  0
SECTION
  2
BLOCKS
  0
BLOCK
  5
20
100
AcDbEntity
  8
0
100
AcDbBlockBegin
  2
*Model_Space
 70
0
 10
0.0
 20
0.0
 30
0.0
  3
*Model_Space
  1

  0
ENDBLK
  5
21
100
AcDbEntity
  8
0
100
AcDbBlockEnd
  0
BLOCK
  5
1C
100
AcDbEntity
  8
0
100
AcDbBlockBegin
  2
*Paper_Space
 70
0
 10
0.0
 20
0.0
 30
0.0
  3
*Paper_Space
  1

  0
ENDBLK
  5
1D
100
AcDbEntity
  8
0
100
AcDbBlockEnd
  0
BLOCK
  5
220
100
AcDbEntity
  8
0
100
AcDbBlockBegin
  2
_FILLED
 70
64
 10
0.0
 20
0.0
  3
_FILLED
  1

  0
SOLID
  5
221
100
AcDbEntity
  8
0
  6
BYBLOCK
 62
0
100
AcDbTrace
 10
0.0
 20
0.0
 11
-1.0
 21
0.3166666667
 12
-1.0
 22
-0.3166666667
 13
-1.0
 23
-0.3166666667
  0
ENDBLK
  5
222
100
AcDbEntity
  8
0
  6
BYBLOCK
 62
0
100
AcDbBlockEnd
  0
ENDSEC
  0
SECTION
  2
ENTITIES
  0
LINE
  5
223
100
AcDbEntity
  8
SMUSSO
100
AcDbLine
 62
7
  6
CONTINUOUS
 10
-45.0274205459
 20
59.3397676688
 11
-41.2396067588
 21
61.8433345602
  0
LINE
  5
224
100
AcDbEntity
  8
ASSI
100
AcDbLine
 62
7
  6
CONTINUOUS
 10
-45.0274205459
 20
59.3397676688
 11
-41.2396067588
 21
61.8433345602
  0
LINE
  5
225
100
AcDbEntity
  8
SMUSSO
100
AcDbLine
 62
7
  6
CONTINUOUS
 10
-44.3198832767
 20
59.7482118627
 11
-40.5320694895
 21
62.251778754
  0
LINE
  5
226
100
AcDbEntity
  8
ASSI
100
AcDbLine
 62
7
  6
CONTINUOUS
 10
-44.3198832767
 20
59.7482118627
 11
-40.5320694895
 21
62.251778754
  0
LINE
  5
227
100
AcDbEntity
  8
SMUSSO
100
AcDbLine
 62
7
  6
CONTINUOUS
 10
-44.3406468908
 20
59.7353725117
 11
-44.3198832767
 21
59.7482118627
  0
LINE
  5
228
100
AcDbEntity
  8
ASSI
100
AcDbLine
 62
7
  6
CONTINUOUS
 10
-44.3406468908
 20
59.7353725117
 11
-44.3198832767
 21
59.7482118627
  0
LINE
  5
229
100
AcDbEntity
  8
SMUSSO
100
AcDbLine
 62
7
  6
CONTINUOUS
 10
-41.2396067588
 20
61.8433345602
 11
-40.5320694895
 21
62.251778754
  0
LINE
  5
22A
100
AcDbEntity
  8
ASSI
100
AcDbLine
 62
7
  6
CONTINUOUS
 10
-41.2396067588
 20
61.8433345602
 11
-40.5320694895
 21
62.251778754
  0
LINE
  5
22B
100
AcDbEntity
  8
SMUSSO
100
AcDbLine
 62
7
  6
CONTINUOUS
 10
-44.3406468908
 20
59.7353725117
 11
-45.0270452385
 21
59.3391313073
  0
LINE
  5
22C
100
AcDbEntity
  8
ASSI
100
AcDbLine
 62
7
  6
CONTINUOUS
 10
-44.3406468908
 20
59.7353725117
 11
-45.0270452385
 21
59.3391313073
  0
LINE
  5
22D
100
AcDbEntity
  8
SMUSSO
100
AcDbLine
 62
7
  6
CONTINUOUS
 10
-44.7233361907
 20
58.3201440733
 11
-45.0023121248
 21
58.1590979978
  0
LINE
  5
22E
100
AcDbEntity
  8
ASSI
100
AcDbLine
 62
7
  6
CONTINUOUS
 10
-44.7233361907
 20
58.3201440733
 11
-45.0023121248
 21
58.1590979978
  0
LINE
  5
22F
100
AcDbEntity
  8
CURVE
100
AcDbLine
 62
250
  6
CONTINUOUS
 10
43.3548407276
 20
-55.3787693924
 11
42.0964399064
 21
-55.6553921924
  0
LINE
  5
230
100
AcDbEntity
  8
CURVE
100
AcDbLine
 62
250
  6
CONTINUOUS
 10
42.0964399064
 20
-55.2296551971
 11
43.924631083
 21
-54.9013620047
  0
LINE
  5
231
100
AcDbEntity
  8
SMUSSO
100
AcDbLine
 62
7
  6
CONTINUOUS
 10
-44.7233361907
 20
58.3201440733
 11
-44.3406468908
 21
59.7353725117
  0
LINE
  5
232
100
AcDbEntity
  8
ASSI
100
AcDbLine
 62
7
  6
CONTINUOUS
 10
-44.7233361907
 20
58.3201440733
 11
-44.3406468908
 21
59.7353725117
  0
LINE
  5
233
100
AcDbEntity
  8
CURVE
100
AcDbLine
 62
250
  6
CONTINUOUS
 10
42.5987804353
 20
-51.1706906246
 11
43.2772455626
 21
-51.0175160448
  0
LINE
  5
234
100
AcDbEntity
  8
CURVE
100
AcDbLine
 62
250
  6
CONTINUOUS
 10
43.5596592572
 20
-50.9526041056
 11
43.924631083
 21
-50.873652894
  0
LINE
  5
235
100
AcDbEntity
  8
CURVE
100
AcDbLine
 62
250
  6
CONTINUOUS
 10
43.924631083
 20
-51.2950585144
 11
42.0964399064
 21
-51.6392230726
  0
LINE
  5
236
100
AcDbEntity
  8
CURVE
100
AcDbLine
 62
250
  6
CONTINUOUS
 10
43.111457186
 20
-52.838182211
 11
42.0964399064
 21
-52.9586619011
  0
LINE
  5
237
100
AcDbEntity
  8
CURVE
100
AcDbLine
 62
250
  6
CONTINUOUS
 10
42.7358331935
 20
-52.506330148
 11
43.924631083
 21
-52.3728017292
  0
LINE
  5
238
100
AcDbEntity
  8
SMUSSO
100
AcDbLine
 62
7
  6
CONTINUOUS
 10
-45.0023121248
 20
-12.6725356016
 11
-45.0270452385
 21
-12.2163000241
  0
LINE
  5
239
100
AcDbEntity
  8
ASSI
100
AcDbLine
 62
7
  6
CONTINUOUS
 10
-45.0023121248
 20
-12.6725356016
 11
-45.0270452385
 21
-12.2163000241
  0
LINE
  5
23A
100
AcDbEntity
  8
SMUSSO
100
AcDbLine
 62
7
  6
CONTINUOUS
 10
39.5270270784
 20
-61.4787166561
 11
40.9439862093
 21
-61.8548961119
  0
LINE
  5
23B
100
AcDbEntity
  8
ASSI
100
AcDbLine
 62
7
  6
CONTINUOUS
 10
39.5270270784
 20
-61.4787166561
 11
40.9439862093
 21
-61.8548961119
  0
LINE
  5
23C
100
AcDbEntity
  8
SMUSSO
100
AcDbLine
 62
7
  6
CONTINUOUS
 10
-45.0023121248
 20
58.1590979978
 11
-45.0270452385
 21
59.3391313073
  0
LINE
  5
23D
100
AcDbEntity
  8
ASSI
100
AcDbLine
 62
7
  6
CONTINUOUS
 10
-45.0023121248
 20
58.1590979978
 11
-45.0270452385
 21
59.3391313073
  0
LINE
  5
23E
100
AcDbEntity
  8
SMUSSO
100
AcDbLine
 62
7
  6
CONTINUOUS
 10
-45.0270452385
 20
-12.2163000241
 11
-45.0274205459
 21
-12.1921071634
  0
LINE
  5
23F
100
AcDbEntity
  8
ASSI
100
AcDbLine
 62
7
  6
CONTINUOUS
 10
-45.0270452385
 20
-12.2163000241
 11
-45.0274205459
 21
-12.1921071634
  0
LINE
  5
240
100
AcDbEntity
  8
SMUSSO
100
AcDbLine
 62
7
  6
CONTINUOUS
 10
-45.0274205459
 20
59.3397676688
 11
-45.0274205459
 21
-12.1921071634
  0
LINE
  5
241
100
AcDbEntity
  8
ASSI
100
AcDbLine
 62
7
  6
CONTINUOUS
 10
-45.0274205459
 20
59.3397676688
 11
-45.0274205459
 21
-12.1921071634
  0
LINE
  5
242
100
AcDbEntity
  8
SMUSSO
100
AcDbLine
 62
7
  6
CONTINUOUS
 10
-45.0023121248
 20
58.1590979978
 11
-45.0023121248
 21
-12.6725356016
  0
LINE
  5
243
100
AcDbEntity
  8
ASSI
100
AcDbLine
 62
7
  6
CONTINUOUS
 10
-45.0023121248
 20
58.1590979978
 11
-45.0023121248
 21
-12.6725356016
  0
LINE
  5
244
100
AcDbEntity
  8
SMUSSO
100
AcDbLine
 62
7
  6
CONTINUOUS
 10
-45.0023121248
 20
-12.6725356016
 11
-44.7233361907
 21
-13.1557360931
  0
LINE
  5
245
100
AcDbEntity
  8
ASSI
100
AcDbLine
 62
7
  6
CONTINUOUS
 10
-45.0023121248
 20
-12.6725356016
 11
-44.7233361907
 21
-13.1557360931
  0
LWPOLYLINE
  5
246
100
AcDbEntity
  8
0
100
AcDbPolyline
 62
7
  6
CONTINUOUS
 90
13
 70
0
 10
-26.4951546666
 20
30.6377657296
 10
-26.4945044328
 20
30.6380456915
 10
-26.4894022654
 20
30.6397823494
 10
-26.4824391254
 20
30.6411975121
 10
-26.4733951701
 20
30.6419574369
 10
-26.4621731736
 20
30.6417213582
 10
-26.4487993481
 20
30.6401638184
 10
-26.4333038362
 20
30.6369907593
 10
-26.4160215115
 20
30.6320134277
 10
-26.3975290392
 20
30.6252332017
 10
-26.3781843817
 20
30.6167062289
 10
-26.3581450221
 20
30.6064496352
 10
-26.349105469
 20
30.6013710521
  0
LWPOLYLINE
  5
247
100
AcDbEntity
  8
ASSI
100
AcDbPolyline
 62
7
  6
CONTINUOUS
 90
13
 70
0
 10
-26.4951546666
 20
30.6377657296
 10
-26.4945044328
 20
30.6380456915
 10
-26.4894022654
 20
30.6397823494
 10
-26.4824391254
 20
30.6411975121
 10
-26.4733951701
 20
30.6419574369
 10
-26.4621731736
 20
30.6417213582
 10
-26.4487993481
 20
30.6401638184
 10
-26.4333038362
 20
30.6369907593
 10
-26.4160215115
 20
30.6320134277
 10
-26.3975290392
 20
30.6252332017
 10
-26.3781843817
 20
30.6167062289
 10
-26.3581450221
 20
30.6064496352
 10
-26.349105469
 20
30.6013710521
  0
LINE
  5
248
100
AcDbEntity
  8
0
100
AcDbLine
 62
250
  6
CONTINUOUS
 10
-26.6115646092
 20
30.4023265016
 11
-26.2623198825
 21
30.5512620416
  0
LINE
  5
249
100
AcDbEntity
  8
ASSI
100
AcDbLine
 62
250
  6
CONTINUOUS
 10
-26.6115646092
 20
30.4023265016
 11
-26.2623198825
 21
30.5512620416
  0
LINE
  5
24A
100
AcDbEntity
  8
SMUSSO
100
AcDbLine
 62
7
  6
CONTINUOUS
 10
-44.7233361907
 20
-13.1557360931
 11
-44.3406468908
 21
-13.4051768352
  0
LINE
  5
24B
100
AcDbEntity
  8
ASSI
100
AcDbLine
 62
7
  6
CONTINUOUS
 10
-44.7233361907
 20
-13.1557360931
 11
-44.3406468908
 21
-13.4051768352
  0
LINE
  5
24C
100
AcDbEntity
  8
SMUSSO
100
AcDbLine
 62
7
  6
CONTINUOUS
 10
-44.3198832767
 20
-13.4175976608
 11
40.2579502919
 21
-62.251778754
  0
LINE
  5
24D
100
AcDbEntity
  8
ASSI
100
AcDbLine
 62
7
  6
CONTINUOUS
 10
-44.3198832767
 20
-13.4175976608
 11
40.2579502919
 21
-62.251778754
  0
LINE
  5
24E
100
AcDbEntity
  8
SMUSSO
100
AcDbLine
 62
7
  6
CONTINUOUS
 10
-44.7233361907
 20
-13.1557360931
 11
39.2480511443
 21
-61.6397627316
  0
LINE
  5
24F
100
AcDbEntity
  8
ASSI
100
AcDbLine
 62
7
  6
CONTINUOUS
 10
-44.7233361907
 20
-13.1557360931
 11
39.2480511443
 21
-61.6397627316
  0
LINE
  5
250
100
AcDbEntity
  8
SMUSSO
100
AcDbLine
 62
7
  6
CONTINUOUS
 10
-44.3198832767
 20
-13.4175976608
 11
-44.3406468908
 21
-13.4051768352
  0
LINE
  5
251
100
AcDbEntity
  8
ASSI
100
AcDbLine
 62
7
  6
CONTINUOUS
 10
-44.3198832767
 20
-13.4175976608
 11
-44.3406468908
 21
-13.4051768352
  0
LINE
  5
252
100
AcDbEntity
  8
SMUSSO
100
AcDbLine
 62
7
  6
CONTINUOUS
 10
39.2480511443
 20
-61.6397627316
 11
40.2575878617
 21
-62.2511373164
  0
LINE
  5
253
100
AcDbEntity
  8
ASSI
100
AcDbLine
 62
7
  6
CONTINUOUS
 10
39.2480511443
 20
-61.6397627316
 11
40.2575878617
 21
-62.2511373164
  0
LINE
  5
254
100
AcDbEntity
  8
0
100
AcDbLine
 62
250
  6
CONTINUOUS
 10
-26.8841977712
 20
-5.8436054662
 11
-26.8841977712
 21
30.4078235535
  0
LINE
  5
255
100
AcDbEntity
  8
ASSI
100
AcDbLine
 62
250
  6
CONTINUOUS
 10
-26.8841977712
 20
-5.8436054662
 11
-26.8841977712
 21
30.4078235535
  0
LINE
  5
256
100
AcDbEntity
  8
0
100
AcDbLine
 62
250
  6
CONTINUOUS
 10
-26.6115646092
 20
-5.8491025181
 11
-26.6115646092
 21
30.4023265016
  0
LINE
  5
257
100
AcDbEntity
  8
ASSI
100
AcDbLine
 62
250
  6
CONTINUOUS
 10
-26.6115646092
 20
-5.8491025181
 11
-26.6115646092
 21
30.4023265016
  0
LINE
  5
258
100
AcDbEntity
  8
RACCORDO
100
AcDbLine
 62
7
  6
CONTINUOUS
 10
-25.5418362165
 20
30.1352638027
 11
-25.5418362165
 21
-5.2314625531
  0
LINE
  5
259
100
AcDbEntity
  8
ASSI
100
AcDbLine
 62
7
  6
CONTINUOUS
 10
-25.5418362165
 20
30.1352638027
 11
-25.5418362165
 21
-5.2314625531
  0
LINE
  5
25A
100
AcDbEntity
  8
0
100
AcDbLine
 62
250
  6
CONTINUOUS
 10
-25.3314889854
 20
30.0138119477
 11
-25.3314889854
 21
-5.1099919647
  0
LINE
  5
25B
100
AcDbEntity
  8
ASSI
100
AcDbLine
 62
250
  6
CONTINUOUS
 10
-25.3314889854
 20
30.0138119477
 11
-25.3314889854
 21
-5.1099919647
  0
LINE
  5
25C
100
AcDbEntity
  8
0
100
AcDbLine
 62
7
  6
CONTINUOUS
 10
-25.2088437755
 20
29.9429981406
 11
-25.2088437755
 21
-4.9205918352
  0
LINE
  5
25D
100
AcDbEntity
  8
ASSI
100
AcDbLine
 62
7
  6
CONTINUOUS
 10
-25.2088437755
 20
29.9429981406
 11
-25.2088437755
 21
-4.9205918352
  0
LINE
  5
25E
100
AcDbEntity
  8
0
100
AcDbLine
 62
7
  6
CONTINUOUS
 10
-25.1175721478
 20
-5.2733039105
 11
-25.1175721478
 21
10.9356936936
  0
LINE
  5
25F
100
AcDbEntity
  8
0
100
AcDbLine
 62
7
  6
CONTINUOUS
 10
-25.1175721478
 20
15.8345251763
 11
-25.1175721478
 21
29.8902990467
  0
LINE
  5
260
100
AcDbEntity
  8
0
100
AcDbLine
 62
7
  6
CONTINUOUS
 10
-24.4191703693
 20
16.2377700838
 11
-25.1175721478
 21
15.834520254
  0
LINE
  5
261
100
AcDbEntity
  8
0
100
AcDbLine
 62
250
  6
CONTINUOUS
 10
-21.9874634081
 20
17.6417747182
 11
-24.4191375066
 21
16.237751749
  0
LINE
  5
262
100
AcDbEntity
  8
0
100
AcDbLine
 62
250
  6
CONTINUOUS
 10
-21.7753636825
 20
17.2744072176
 11
-24.9054401134
 21
15.46713411
  0
LINE
  5
263
100
AcDbEntity
  8
0
100
AcDbLine
 62
7
  6
CONTINUOUS
 10
-22.5524355234
 20
17.9009816467
 11
-24.3349723094
 21
16.9423910484
  0
LINE
  5
264
100
AcDbEntity
  8
0
100
AcDbLine
 62
250
  6
CONTINUOUS
 10
-22.4066455137
 20
17.8838052124
 11
-24.3349723094
 21
16.8468134648
  0
LINE
  5
265
100
AcDbEntity
  8
0
100
AcDbLine
 62
7
  6
CONTINUOUS
 10
-24.9054401134
 20
15.46713411
 11
-24.9054401134
 21
11.0581200039
  0
LINE
  5
266
100
AcDbEntity
  8
0
100
AcDbLine
 62
250
  6
CONTINUOUS
 10
-24.4191703693
 20
-5.902354923
 11
-24.4191703693
 21
11.2598865182
  0
LINE
  5
267
100
AcDbEntity
  8
0
100
AcDbLine
 62
250
  6
CONTINUOUS
 10
-24.4191703693
 20
16.2377700838
 11
-24.4191703693
 21
29.4870506128
  0
LINE
  5
268
100
AcDbEntity
  8
0
100
AcDbLine
 62
7
  6
CONTINUOUS
 10
-24.3349723094
 20
-5.9509698275
 11
-24.3349723094
 21
11.3119558614
  0
LINE
  5
269
100
AcDbEntity
  8
0
100
AcDbLine
 62
7
  6
CONTINUOUS
 10
-24.3349723094
 20
16.3551476035
 11
-24.3349723094
 21
29.4384357083
  0
LINE
  5
26A
100
AcDbEntity
  8
0
100
AcDbLine
 62
250
  6
CONTINUOUS
 10
-21.7753636825
 20
17.2744072176
 11
-21.7753636825
 21
12.9938062209
  0
LINE
  5
26B
100
AcDbEntity
  8
0
100
AcDbLine
 62
7
  6
CONTINUOUS
 10
-21.6911656226
 20
17.3947333287
 11
-21.6911656226
 21
13.114132332
  0
LINE
  5
26C
100
AcDbEntity
  8
0
100
AcDbLine
 62
250
  6
CONTINUOUS
 10
-21.7753636825
 20
12.9938062209
 11
-24.9054401134
 21
11.0581200039
  0
LINE
  5
26D
100
AcDbEntity
  8
0
100
AcDbLine
 62
7
  6
CONTINUOUS
 10
-21.8333759489
 20
12.8589805754
 11
-24.9649575494
 21
10.922363539
  0
LINE
  5
26E
100
AcDbEntity
  8
0
100
AcDbLine
 62
250
  6
CONTINUOUS
 10
20.9151437116
 20
-34.0124831493
 11
-26.390428758
 21
-6.6988384834
  0
LINE
  5
26F
100
AcDbEntity
  8
ASSI
100
AcDbLine
 62
250
  6
CONTINUOUS
 10
20.9151437116
 20
-34.0124831493
 11
-26.390428758
 21
-6.6988384834
  0
LINE
  5
270
100
AcDbEntity
  8
0
100
AcDbLine
 62
250
  6
CONTINUOUS
 10
21.0467000127
 20
-33.7736279106
 11
-26.2588724569
 21
-6.4599832447
  0
LINE
  5
271
100
AcDbEntity
  8
ASSI
100
AcDbLine
 62
250
  6
CONTINUOUS
 10
21.0467000127
 20
-33.7736279106
 11
-26.2588724569
 21
-6.4599832447
  0
LINE
  5
272
100
AcDbEntity
  8
RACCORDO
100
AcDbLine
 62
7
  6
CONTINUOUS
 10
-25.1891440642
 20
-5.8423432797
 11
21.3503340811
 21
-32.7136546841
  0
LINE
  5
273
100
AcDbEntity
  8
ASSI
100
AcDbLine
 62
7
  6
CONTINUOUS
 10
-25.1891440642
 20
-5.8423432797
 11
21.3503340811
 21
-32.7136546841
  0
LINE
  5
274
100
AcDbEntity
  8
0
100
AcDbLine
 62
250
  6
CONTINUOUS
 10
-24.9787968331
 20
-5.7208726913
 11
21.3503340811
 21
-32.4707322408
  0
LINE
  5
275
100
AcDbEntity
  8
ASSI
100
AcDbLine
 62
250
  6
CONTINUOUS
 10
-24.9787968331
 20
-5.7208726913
 11
21.3503340811
 21
-32.4707322408
  0
LINE
  5
276
100
AcDbEntity
  8
0
100
AcDbLine
 62
7
  6
CONTINUOUS
 10
-24.7534473908
 20
-5.7093475602
 11
21.3503340811
 21
-32.329093166
  0
LINE
  5
277
100
AcDbEntity
  8
ASSI
100
AcDbLine
 62
7
  6
CONTINUOUS
 10
-24.7534473908
 20
-5.7093475602
 11
21.3503340811
 21
-32.329093166
  0
LINE
  5
278
100
AcDbEntity
  8
0
100
AcDbLine
 62
7
  6
CONTINUOUS
 10
18.3694948952
 20
-30.543260115
 11
14.4804075987
 21
-28.2977498517
  0
LINE
  5
279
100
AcDbEntity
  8
0
100
AcDbLine
 62
7
  6
CONTINUOUS
 10
-13.4503102582
 20
-12.1709034153
 11
-17.3393975547
 21
-9.925393152
  0
LINE
  5
27A
100
AcDbEntity
  8
0
100
AcDbLine
 62
7
  6
CONTINUOUS
 10
18.6169822686
 20
-30.5228345489
 11
14.6218289549
 21
-28.2160949331
  0
LINE
  5
27B
100
AcDbEntity
  8
0
100
AcDbLine
 62
7
  6
CONTINUOUS
 10
-17.1979761985
 20
-9.8437382333
 11
-13.2028228848
 21
-12.1504778491
  0
LINE
  5
27C
100
AcDbEntity
  8
0
100
AcDbLine
 62
7
  6
CONTINUOUS
 10
18.7230482858
 20
-30.3391228184
 11
14.8339609893
 21
-28.0936125551
  0
LINE
  5
27D
100
AcDbEntity
  8
0
100
AcDbLine
 62
7
  6
CONTINUOUS
 10
-13.0967568676
 20
-11.9667661186
 11
-16.9858441641
 21
-9.7212558553
  0
LINE
  5
27E
100
AcDbEntity
  8
0
100
AcDbLine
 62
7
  6
CONTINUOUS
 10
18.9705356592
 20
-30.3186972522
 11
14.9753823455
 21
-28.0119576364
  0
LINE
  5
27F
100
AcDbEntity
  8
0
100
AcDbLine
 62
7
  6
CONTINUOUS
 10
-16.8444228079
 20
-9.6396009366
 11
-12.8492694942
 21
-11.9463405525
  0
LINE
  5
280
100
AcDbEntity
  8
0
100
AcDbLine
 62
7
  6
CONTINUOUS
 10
19.0766016764
 20
-30.1349855217
 11
15.1875143799
 21
-27.8894752584
  0
LINE
  5
281
100
AcDbEntity
  8
0
100
AcDbLine
 62
7
  6
CONTINUOUS
 10
-12.743203477
 20
-11.762628822
 11
-16.6322907735
 21
-9.5171185587
  0
LINE
  5
282
100
AcDbEntity
  8
0
100
AcDbLine
 62
7
  6
CONTINUOUS
 10
19.3240890498
 20
-30.1145599556
 11
15.3289357361
 21
-27.8078203397
  0
LINE
  5
283
100
AcDbEntity
  8
0
100
AcDbLine
 62
7
  6
CONTINUOUS
 10
-16.4908694173
 20
-9.43546364
 11
-12.4957161036
 21
-11.7422032558
  0
LINE
  5
284
100
AcDbEntity
  8
0
100
AcDbLine
 62
7
  6
CONTINUOUS
 10
19.430155067
 20
-29.930848225
 11
15.5410677705
 21
-27.6853379617
  0
LINE
  5
285
100
AcDbEntity
  8
0
100
AcDbLine
 62
7
  6
CONTINUOUS
 10
-12.3896500864
 20
-11.5584915253
 11
-16.2787373829
 21
-9.312981262
  0
LINE
  5
286
100
AcDbEntity
  8
0
100
AcDbLine
 62
7
  6
CONTINUOUS
 10
19.6776424404
 20
-29.9104226589
 11
15.6824891267
 21
-27.6036830431
  0
LINE
  5
287
100
AcDbEntity
  8
0
100
AcDbLine
 62
7
  6
CONTINUOUS
 10
-16.1373160267
 20
-9.2313263433
 11
-12.142162713
 21
-11.5380659591
  0
LINE
  5
288
100
AcDbEntity
  8
0
100
AcDbLine
 62
7
  6
CONTINUOUS
 10
19.7837084576
 20
-29.7267109284
 11
15.8946211611
 21
-27.4812006651
  0
LINE
  5
289
100
AcDbEntity
  8
0
100
AcDbLine
 62
7
  6
CONTINUOUS
 10
-12.0360966958
 20
-11.3543542286
 11
-15.9251839923
 21
-9.1088439653
  0
LINE
  5
28A
100
AcDbEntity
  8
0
100
AcDbLine
 62
7
  6
CONTINUOUS
 10
20.031195831
 20
-29.7062853622
 11
16.0360425173
 21
-27.3995457464
  0
LINE
  5
28B
100
AcDbEntity
  8
0
100
AcDbLine
 62
7
  6
CONTINUOUS
 10
-15.7837626361
 20
-9.0271890467
 11
-11.7886093224
 21
-11.3339286625
  0
LINE
  5
28C
100
AcDbEntity
  8
0
100
AcDbLine
 62
7
  6
CONTINUOUS
 10
20.1372618482
 20
-29.5225736317
 11
16.2481745517
 21
-27.2770633684
  0
LINE
  5
28D
100
AcDbEntity
  8
0
100
AcDbLine
 62
7
  6
CONTINUOUS
 10
-11.6825433052
 20
-11.150216932
 11
-15.5716306017
 21
-8.9047066687
  0
LINE
  5
28E
100
AcDbEntity
  8
0
100
AcDbLine
 62
7
  6
CONTINUOUS
 10
20.3847492216
 20
-29.5021480656
 11
16.3895959079
 21
-27.1954084497
  0
LINE
  5
28F
100
AcDbEntity
  8
0
100
AcDbLine
 62
7
  6
CONTINUOUS
 10
-15.4302092455
 20
-8.82305175
 11
-11.4350559318
 21
-11.1297913658
  0
LINE
  5
290
100
AcDbEntity
  8
0
100
AcDbLine
 62
7
  6
CONTINUOUS
 10
20.4908152388
 20
-29.318436335
 11
16.6017279422
 21
-27.0729260717
  0
LINE
  5
291
100
AcDbEntity
  8
0
100
AcDbLine
 62
7
  6
CONTINUOUS
 10
-11.3289899146
 20
-10.9460796353
 11
-15.2180772111
 21
-8.700569372
  0
LINE
  5
292
100
AcDbEntity
  8
0
100
AcDbLine
 62
7
  6
CONTINUOUS
 10
20.7383026122
 20
-29.2980107689
 11
16.7431492985
 21
-26.9912711531
  0
LINE
  5
293
100
AcDbEntity
  8
0
100
AcDbLine
 62
7
  6
CONTINUOUS
 10
-15.0766558549
 20
-8.6189144533
 11
-11.0815025412
 21
-10.9256540692
  0
LINE
  5
294
100
AcDbEntity
  8
0
100
AcDbLine
 62
250
  6
CONTINUOUS
 10
21.0230815594
 20
-29.3398546244
 11
16.7767443011
 21
-26.8880727106
  0
LINE
  5
295
100
AcDbEntity
  8
0
100
AcDbLine
 62
250
  6
CONTINUOUS
 10
-10.796723594
 20
-10.9674979247
 11
-15.0430608523
 21
-8.5157160108
  0
LINE
  5
296
100
AcDbEntity
  8
0
100
AcDbLine
 62
250
  6
CONTINUOUS
 10
21.0897539154
 20
-29.301152713
 11
16.8507914541
 21
-26.8536289145
  0
LINE
  5
297
100
AcDbEntity
  8
0
100
AcDbLine
 62
250
  6
CONTINUOUS
 10
-10.730051238
 20
-10.9287960133
 11
-14.9690136993
 21
-8.4812722148
  0
LWPOLYLINE
  5
298
100
AcDbEntity
  8
0
100
AcDbPolyline
 62
7
  6
CONTINUOUS
 90
27
 70
0
 10
-24.7534701358
 20
-5.7093344299
 10
-24.7720077257
 20
-5.6980511037
 10
-24.7934271791
 20
-5.6836418532
 10
-24.8166145769
 20
-5.6664691284
 10
-24.841097815
 20
-5.6466149241
 10
-24.8666154362
 20
-5.6240590615
 10
-24.8929236453
 20
-5.5987911078
 10
-24.9195842105
 20
-5.5710355231
 10
-24.9463374034
 20
-5.5408998839
 10
-24.9729310099
 20
-5.5085114176
 10
-24.9989841476
 20
-5.4742086445
 10
-25.024263075
 20
-5.4382123507
 10
-25.0485553095
 20
-5.4007471156
 10
-25.0715714404
 20
-5.3622139732
 10
-25.0931425879
 20
-5.3228928016
 10
-25.1131175203
 20
-5.2830717947
 10
-25.1313000291
 20
-5.2432020991
 10
-25.1476084268
 20
-5.2035825702
 10
-25.1619764495
 20
-5.1645254794
 10
-25.1743101556
 20
-5.1265234617
 10
-25.1846321907
 20
-5.0898555956
 10
-25.1929865048
 20
-5.0547995726
 10
-25.199406838
 20
-5.0218397762
 10
-25.2040306629
 20
-4.9911733538
 10
-25.2070123917
 20
-4.9630115059
 10
-25.2085251068
 20
-4.9377994709
 10
-25.2088437769
 20
-4.9206137
  0
LWPOLYLINE
  5
299
100
AcDbEntity
  8
ASSI
100
AcDbPolyline
 62
7
  6
CONTINUOUS
 90
27
 70
0
 10
-24.7534701358
 20
-5.7093344299
 10
-24.7720077257
 20
-5.6980511037
 10
-24.7934271791
 20
-5.6836418532
 10
-24.8166145769
 20
-5.6664691284
 10
-24.841097815
 20
-5.6466149241
 10
-24.8666154362
 20
-5.6240590615
 10
-24.8929236453
 20
-5.5987911078
 10
-24.9195842105
 20
-5.5710355231
 10
-24.9463374034
 20
-5.5408998839
 10
-24.9729310099
 20
-5.5085114176
 10
-24.9989841476
 20
-5.4742086445
 10
-25.024263075
 20
-5.4382123507
 10
-25.0485553095
 20
-5.4007471156
 10
-25.0715714404
 20
-5.3622139732
 10
-25.0931425879
 20
-5.3228928016
 10
-25.1131175203
 20
-5.2830717947
 10
-25.1313000291
 20
-5.2432020991
 10
-25.1476084268
 20
-5.2035825702
 10
-25.1619764495
 20
-5.1645254794
 10
-25.1743101556
 20
-5.1265234617
 10
-25.1846321907
 20
-5.0898555956
 10
-25.1929865048
 20
-5.0547995726
 10
-25.199406838
 20
-5.0218397762
 10
-25.2040306629
 20
-4.9911733538
 10
-25.2070123917
 20
-4.9630115059
 10
-25.2085251068
 20
-4.9377994709
 10
-25.2088437769
 20
-4.9206137
  0
LINE
  5
29A
100
AcDbEntity
  8
0
100
AcDbLine
 62
7
  6
CONTINUOUS
 10
-17.3674276885
 20
-9.9739427678
 11
-17.3393975547
 21
-9.925393152
  0
LINE
  5
29B
100
AcDbEntity
  8
0
100
AcDbLine
 62
7
  6
CONTINUOUS
 10
-17.0919101813
 20
-9.9049675858
 11
-16.9858441641
 21
-9.7212558553
  0
LINE
  5
29C
100
AcDbEntity
  8
0
100
AcDbLine
 62
7
  6
CONTINUOUS
 10
-16.7383567907
 20
-9.7008302892
 11
-16.6322907735
 21
-9.5171185587
  0
LINE
  5
29D
100
AcDbEntity
  8
0
100
AcDbLine
 62
7
  6
CONTINUOUS
 10
-13.3834119661
 20
-7.9634462616
 11
-9.5574105756
 21
-10.1725315135
  0
LINE
  5
29E
100
AcDbEntity
  8
0
100
AcDbLine
 62
7
  6
CONTINUOUS
 10
18.4363931873
 20
-26.3358029614
 11
21.3503340811
 21
-28.0182759132
  0
LINE
  5
29F
100
AcDbEntity
  8
0
100
AcDbLine
 62
7
  6
CONTINUOUS
 10
2.5935925386
 20
-17.149472765
 11
6.2853900731
 21
-19.2810703924
  0
LINE
  5
2A0
100
AcDbEntity
  8
0
100
AcDbLine
 62
250
  6
CONTINUOUS
 10
-9.5502029667
 20
-10.3159811668
 11
-9.5502029667
 21
-10.7233508047
  0
LINE
  5
2A1
100
AcDbEntity
  8
0
100
AcDbLine
 62
7
  6
CONTINUOUS
 10
-9.4988319318
 20
-10.24940366
 11
-9.4988319318
 21
-10.6928055099
  0
LINE
  5
2A2
100
AcDbEntity
  8
0
100
AcDbLine
 62
7
  6
CONTINUOUS
 10
-16.3848034001
 20
-9.4966929925
 11
-16.2787373829
 21
-9.312981262
  0
LINE
  5
2A3
100
AcDbEntity
  8
0
100
AcDbLine
 62
7
  6
CONTINUOUS
 10
-16.0312500095
 20
-9.2925556958
 11
-15.9251839923
 21
-9.1088439653
  0
LINE
  5
2A4
100
AcDbEntity
  8
0
100
AcDbLine
 62
7
  6
CONTINUOUS
 10
-15.6776966189
 20
-9.0884183992
 11
-15.5716306017
 21
-8.9047066687
  0
LINE
  5
2A5
100
AcDbEntity
  8
0
100
AcDbLine
 62
7
  6
CONTINUOUS
 10
-15.3241432283
 20
-8.8842811025
 11
-15.2180772111
 21
-8.700569372
  0
LINE
  5
2A6
100
AcDbEntity
  8
0
100
AcDbLine
 62
7
  6
CONTINUOUS
 10
-13.478340392
 20
-12.2194530311
 11
-13.4503102582
 21
-12.1709034153
  0
LINE
  5
2A7
100
AcDbEntity
  8
0
100
AcDbLine
 62
7
  6
CONTINUOUS
 10
-13.2028228848
 20
-12.1504778491
 11
-13.0967568676
 21
-11.9667661186
  0
LINE
  5
2A8
100
AcDbEntity
  8
0
100
AcDbLine
 62
7
  6
CONTINUOUS
 10
-12.8492694942
 20
-11.9463405525
 11
-12.743203477
 21
-11.762628822
  0
LINE
  5
2A9
100
AcDbEntity
  8
0
100
AcDbLine
 62
7
  6
CONTINUOUS
 10
-12.4957161036
 20
-11.7422032558
 11
-12.3896500864
 21
-11.5584915253
  0
LINE
  5
2AA
100
AcDbEntity
  8
0
100
AcDbLine
 62
7
  6
CONTINUOUS
 10
-12.142162713
 20
-11.5380659591
 11
-12.0360966958
 21
-11.3543542286
  0
LINE
  5
2AB
100
AcDbEntity
  8
0
100
AcDbLine
 62
7
  6
CONTINUOUS
 10
-11.7886093224
 20
-11.3339286625
 11
-11.6825433052
 21
-11.150216932
  0
LINE
  5
2AC
100
AcDbEntity
  8
0
100
AcDbLine
 62
250
  6
CONTINUOUS
 10
-26.6115646092
 20
-5.8491025181
 11
-25.3314889854
 21
-5.1099919647
  0
LINE
  5
2AD
100
AcDbEntity
  8
ASSI
100
AcDbLine
 62
250
  6
CONTINUOUS
 10
-26.6115646092
 20
-5.8491025181
 11
-25.3314889854
 21
-5.1099919647
  0
LINE
  5
2AE
100
AcDbEntity
  8
0
100
AcDbLine
 62
250
  6
CONTINUOUS
 10
-26.2588724569
 20
-6.4599832447
 11
-24.9787968331
 21
-5.7208726913
  0
LINE
  5
2AF
100
AcDbEntity
  8
ASSI
100
AcDbLine
 62
250
  6
CONTINUOUS
 10
-26.2588724569
 20
-6.4599832447
 11
-24.9787968331
 21
-5.7208726913
  0
LINE
  5
2B0
100
AcDbEntity
  8
SMUSSO
100
AcDbLine
 62
7
  6
CONTINUOUS
 10
-45.0274205459
 20
59.3397676688
 11
-45.0270452385
 21
59.3391313073
  0
LINE
  5
2B1
100
AcDbEntity
  8
ASSI
100
AcDbLine
 62
7
  6
CONTINUOUS
 10
-45.0274205459
 20
59.3397676688
 11
-45.0270452385
 21
59.3391313073
  0
LINE
  5
2B2
100
AcDbEntity
  8
0
100
AcDbLine
 62
7
  6
CONTINUOUS
 10
-11.4350559318
 20
-11.1297913658
 11
-11.3289899146
 21
-10.9460796353
  0
LINE
  5
2B3
100
AcDbEntity
  8
0
100
AcDbLine
 62
250
  6
CONTINUOUS
 10
-11.4946823797
 20
-11.9949884583
 11
-11.1587374147
 21
-11.6682348685
  0
LINE
  5
2B4
100
AcDbEntity
  8
0
100
AcDbLine
 62
7
  6
CONTINUOUS
 10
-11.4907575222
 20
-12.028523659
 11
-11.0617731415
 21
-11.6112761899
  0
LINE
  5
2B5
100
AcDbEntity
  8
0
100
AcDbLine
 62
7
  6
CONTINUOUS
 10
-17.3393975547
 20
-9.925393152
 11
-17.1979761985
 21
-9.8437382333
  0
LINE
  5
2B6
100
AcDbEntity
  8
0
100
AcDbLine
 62
7
  6
CONTINUOUS
 10
-16.9858441641
 20
-9.7212558553
 11
-16.8444228079
 21
-9.6396009366
  0
LINE
  5
2B7
100
AcDbEntity
  8
0
100
AcDbLine
 62
7
  6
CONTINUOUS
 10
-16.6322907735
 20
-9.5171185587
 11
-16.4908694173
 21
-9.43546364
  0
LINE
  5
2B8
100
AcDbEntity
  8
0
100
AcDbLine
 62
7
  6
CONTINUOUS
 10
-16.2787373829
 20
-9.312981262
 11
-16.1373160267
 21
-9.2313263433
  0
LINE
  5
2B9
100
AcDbEntity
  8
0
100
AcDbLine
 62
7
  6
CONTINUOUS
 10
-15.9251839923
 20
-9.1088439653
 11
-15.7837626361
 21
-9.0271890467
  0
LINE
  5
2BA
100
AcDbEntity
  8
0
100
AcDbLine
 62
7
  6
CONTINUOUS
 10
-15.5716306017
 20
-8.9047066687
 11
-15.4302092455
 21
-8.82305175
  0
LINE
  5
2BB
100
AcDbEntity
  8
0
100
AcDbLine
 62
7
  6
CONTINUOUS
 10
-15.2180772111
 20
-8.700569372
 11
-15.0766558549
 21
-8.6189144533
  0
LINE
  5
2BC
100
AcDbEntity
  8
0
100
AcDbLine
 62
7
  6
CONTINUOUS
 10
-17.5951112778
 20
-9.8424811169
 11
-15.0430608523
 21
-8.5157160108
  0
LINE
  5
2BD
100
AcDbEntity
  8
SMUSSO
100
AcDbLine
 62
7
  6
CONTINUOUS
 10
39.5270270784
 20
9.3529169433
 11
40.9439862093
 21
9.7005352194
  0
LINE
  5
2BE
100
AcDbEntity
  8
ASSI
100
AcDbLine
 62
7
  6
CONTINUOUS
 10
39.5270270784
 20
9.3529169433
 11
40.9439862093
 21
9.7005352194
  0
LINE
  5
2BF
100
AcDbEntity
  8
0
100
AcDbLine
 62
7
  6
CONTINUOUS
 10
-10.796723594
 20
-10.9674979247
 11
-13.0946001183
 21
-12.4410198556
  0
LINE
  5
2C0
100
AcDbEntity
  8
0
100
AcDbLine
 62
7
  6
CONTINUOUS
 10
-12.7817774076
 20
-12.6216397682
 11
-9.5502029667
 21
-10.7233508047
  0
LINE
  5
2C1
100
AcDbEntity
  8
0
100
AcDbLine
 62
7
  6
CONTINUOUS
 10
-11.5493718679
 20
-12.0729876671
 11
-12.6380004614
 21
-12.704654775
  0
LINE
  5
2C2
100
AcDbEntity
  8
0
100
AcDbLine
 62
250
  6
CONTINUOUS
 10
-11.4946823797
 20
-11.9949884583
 11
-12.6783564593
 21
-12.6813537276
  0
LINE
  5
2C3
100
AcDbEntity
  8
0
100
AcDbLine
 62
7
  6
CONTINUOUS
 10
-13.4503102582
 20
-12.1709034153
 11
-13.3088889019
 21
-12.0892484966
  0
LINE
  5
2C4
100
AcDbEntity
  8
0
100
AcDbLine
 62
7
  6
CONTINUOUS
 10
-13.0967568676
 20
-11.9667661186
 11
-12.9553355113
 21
-11.8851112
  0
LINE
  5
2C5
100
AcDbEntity
  8
0
100
AcDbLine
 62
7
  6
CONTINUOUS
 10
-12.743203477
 20
-11.762628822
 11
-12.6017821208
 21
-11.6809739033
  0
LINE
  5
2C6
100
AcDbEntity
  8
0
100
AcDbLine
 62
7
  6
CONTINUOUS
 10
-12.3896500864
 20
-11.5584915253
 11
-12.2482287302
 21
-11.4768366066
  0
LINE
  5
2C7
100
AcDbEntity
  8
0
100
AcDbLine
 62
7
  6
CONTINUOUS
 10
-12.0360966958
 20
-11.3543542286
 11
-11.8946753396
 21
-11.27269931
  0
LINE
  5
2C8
100
AcDbEntity
  8
0
100
AcDbLine
 62
7
  6
CONTINUOUS
 10
-11.6825433052
 20
-11.150216932
 11
-11.541121949
 21
-11.0685620133
  0
LINE
  5
2C9
100
AcDbEntity
  8
0
100
AcDbLine
 62
7
  6
CONTINUOUS
 10
-11.3289899146
 20
-10.9460796353
 11
-11.1875685584
 21
-10.8644247166
  0
LINE
  5
2CA
100
AcDbEntity
  8
0
100
AcDbLine
 62
7
  6
CONTINUOUS
 10
-11.0815025412
 20
-10.9256540692
 11
-13.4003120498
 21
-12.2645056179
  0
LINE
  5
2CB
100
AcDbEntity
  8
0
100
AcDbLine
 62
7
  6
CONTINUOUS
 10
-9.5502029667
 20
-10.3159811668
 11
-10.730051238
 21
-10.9287960133
  0
LINE
  5
2CC
100
AcDbEntity
  8
0
100
AcDbLine
 62
7
  6
CONTINUOUS
 10
-14.9690136993
 20
-8.4812722148
 11
-13.6586594436
 21
-7.9438098881
  0
LINE
  5
2CD
100
AcDbEntity
  8
0
100
AcDbLine
 62
250
  6
CONTINUOUS
 10
-22.4066455137
 20
17.8838052124
 11
-21.9874634081
 21
17.6417747182
  0
LINE
  5
2CE
100
AcDbEntity
  8
0
100
AcDbLine
 62
7
  6
CONTINUOUS
 10
-22.2603404801
 20
17.8965672592
 11
-21.8411583745
 21
17.654536765
  0
LINE
  5
2CF
100
AcDbEntity
  8
SMUSSO
100
AcDbLine
 62
7
  6
CONTINUOUS
 10
40.2575878617
 20
-62.2511373164
 11
40.2579502919
 21
-62.251778754
  0
LINE
  5
2D0
100
AcDbEntity
  8
ASSI
100
AcDbLine
 62
7
  6
CONTINUOUS
 10
40.2575878617
 20
-62.2511373164
 11
40.2579502919
 21
-62.251778754
  0
LINE
  5
2D1
100
AcDbEntity
  8
0
100
AcDbLine
 62
250
  6
CONTINUOUS
 10
6.2962014864
 20
-19.5174313614
 11
6.2962014864
 21
-19.9464540554
  0
LINE
  5
2D2
100
AcDbEntity
  8
0
100
AcDbLine
 62
7
  6
CONTINUOUS
 10
6.3732580387
 20
-19.4029266911
 11
6.3732580387
 21
-19.8009724759
  0
LINE
  5
2D3
100
AcDbEntity
  8
SMUSSO
100
AcDbLine
 62
7
  6
CONTINUOUS
 10
40.2579502919
 20
10.9140307694
 11
44.3198832767
 21
13.2593246716
  0
LINE
  5
2D4
100
AcDbEntity
  8
ASSI
100
AcDbLine
 62
7
  6
CONTINUOUS
 10
40.2579502919
 20
10.9140307694
 11
44.3198832767
 21
13.2593246716
  0
LINE
  5
2D5
100
AcDbEntity
  8
SMUSSO
100
AcDbLine
 62
7
  6
CONTINUOUS
 10
40.9654875612
 20
9.688540272
 11
45.0274205459
 21
12.0338341742
  0
LINE
  5
2D6
100
AcDbEntity
  8
ASSI
100
AcDbLine
 62
7
  6
CONTINUOUS
 10
40.9654875612
 20
9.688540272
 11
45.0274205459
 21
12.0338341742
  0
LINE
  5
2D7
100
AcDbEntity
  8
0
100
AcDbLine
 62
7
  6
CONTINUOUS
 10
-26.3490122338
 20
30.6013171188
 11
20.9565602361
 21
3.2876724528
  0
LINE
  5
2D8
100
AcDbEntity
  8
ASSI
100
AcDbLine
 62
7
  6
CONTINUOUS
 10
-26.3490122338
 20
30.6013171188
 11
20.9565602361
 21
3.2876724528
  0
LINE
  5
2D9
100
AcDbEntity
  8
0
100
AcDbLine
 62
250
  6
CONTINUOUS
 10
-26.390428758
 20
30.692864491
 11
20.9151437116
 21
3.3792198251
  0
LINE
  5
2DA
100
AcDbEntity
  8
ASSI
100
AcDbLine
 62
250
  6
CONTINUOUS
 10
-26.390428758
 20
30.692864491
 11
20.9151437116
 21
3.3792198251
  0
LWPOLYLINE
  5
2DB
100
AcDbEntity
  8
0
100
AcDbPolyline
 62
7
  6
CONTINUOUS
 90
24
 70
0
 10
20.9566055385
 20
3.2876463194
 10
20.9749855085
 20
3.2764718206
 10
20.9990163784
 20
3.260208386
 10
21.0239178358
 20
3.2414043249
 10
21.0492974091
 20
3.2201811135
 10
21.0749282313
 20
3.196587651
 10
21.1005994803
 20
3.1706833678
 10
21.1259817269
 20
3.1426848659
 10
21.1508576041
 20
3.1127419022
 10
21.1750231098
 20
3.081015307
 10
21.1982037568
 20
3.0478016754
 10
21.2202207429
 20
3.0133194286
 10
21.2409088712
 20
2.9777970456
 10
21.2600617846
 20
2.941586336
 10
21.2775598929
 20
2.9049417473
 10
21.2932975333
 20
2.8681279731
 10
21.3071476335
 20
2.8315345478
 10
21.3190675122
 20
2.7954194349
 10
21.3290312569
 20
2.7600459176
 10
21.3370086337
 20
2.7258126584
 10
21.343047605
 20
2.6929381802
 10
21.3472143693
 20
2.6616455433
 10
21.3495935083
 20
2.632335895
 10
21.3503341087
 20
2.6057024224
  0
LWPOLYLINE
  5
2DC
100
AcDbEntity
  8
ASSI
100
AcDbPolyline
 62
7
  6
CONTINUOUS
 90
24
 70
0
 10
20.9566055385
 20
3.2876463194
 10
20.9749855085
 20
3.2764718206
 10
20.9990163784
 20
3.260208386
 10
21.0239178358
 20
3.2414043249
 10
21.0492974091
 20
3.2201811135
 10
21.0749282313
 20
3.196587651
 10
21.1005994803
 20
3.1706833678
 10
21.1259817269
 20
3.1426848659
 10
21.1508576041
 20
3.1127419022
 10
21.1750231098
 20
3.081015307
 10
21.1982037568
 20
3.0478016754
 10
21.2202207429
 20
3.0133194286
 10
21.2409088712
 20
2.9777970456
 10
21.2600617846
 20
2.941586336
 10
21.2775598929
 20
2.9049417473
 10
21.2932975333
 20
2.8681279731
 10
21.3071476335
 20
2.8315345478
 10
21.3190675122
 20
2.7954194349
 10
21.3290312569
 20
2.7600459176
 10
21.3370086337
 20
2.7258126584
 10
21.343047605
 20
2.6929381802
 10
21.3472143693
 20
2.6616455433
 10
21.3495935083
 20
2.632335895
 10
21.3503341087
 20
2.6057024224
  0
LINE
  5
2DD
100
AcDbEntity
  8
0
100
AcDbLine
 62
7
  6
CONTINUOUS
 10
5.1063515615
 20
-20.6457698977
 11
4.7635708915
 21
-20.9791721692
  0
LINE
  5
2DE
100
AcDbEntity
  8
0
100
AcDbLine
 62
7
  6
CONTINUOUS
 10
6.2962014864
 20
-19.5174313614
 11
2.8859619573
 21
-21.6679961146
  0
LINE
  5
2DF
100
AcDbEntity
  8
0
100
AcDbLine
 62
7
  6
CONTINUOUS
 10
3.1281251691
 20
-21.8078181181
 11
6.286850641
 21
-19.9523220397
  0
LINE
  5
2E0
100
AcDbEntity
  8
0
100
AcDbLine
 62
7
  6
CONTINUOUS
 10
4.5304469378
 20
-21.1605736287
 11
3.2719021153
 21
-21.8908331249
  0
LINE
  5
2E1
100
AcDbEntity
  8
0
100
AcDbLine
 62
250
  6
CONTINUOUS
 10
4.7635708915
 20
-20.9791721692
 11
3.2315461174
 21
-21.8675320775
  0
LINE
  5
2E2
100
AcDbEntity
  8
0
100
AcDbLine
 62
7
  6
CONTINUOUS
 10
-1.6067333772
 20
-19.0739701352
 11
2.1807213223
 21
-17.1412046937
  0
LINE
  5
2E3
100
AcDbEntity
  8
0
100
AcDbLine
 62
7
  6
CONTINUOUS
 10
21.3503340811
 20
2.6056417266
 11
21.3503340811
 21
-33.6457872934
  0
LINE
  5
2E4
100
AcDbEntity
  8
ASSI
100
AcDbLine
 62
7
  6
CONTINUOUS
 10
21.3503340811
 20
2.6056417266
 11
21.3503340811
 21
-33.6457872934
  0
LINE
  5
2E5
100
AcDbEntity
  8
0
100
AcDbLine
 62
250
  6
CONTINUOUS
 10
21.4089127248
 20
2.5239868079
 11
21.4089127248
 21
-33.7274422118
  0
LINE
  5
2E6
100
AcDbEntity
  8
ASSI
100
AcDbLine
 62
250
  6
CONTINUOUS
 10
21.4089127248
 20
2.5239868079
 11
21.4089127248
 21
-33.7274422118
  0
LWPOLYLINE
  5
2E7
100
AcDbEntity
  8
0
100
AcDbPolyline
 62
7
  6
CONTINUOUS
 90
12
 70
0
 10
21.3503341796
 20
-33.6459019244
 10
21.350235931
 20
-33.6552045869
 10
21.349145349
 20
-33.6778398067
 10
21.3468916279
 20
-33.6990046667
 10
21.3435377015
 20
-33.7185530523
 10
21.3392141518
 20
-33.7361459394
 10
21.3342092031
 20
-33.7512749169
 10
21.328854937
 20
-33.7637387343
 10
21.3234254921
 20
-33.7736592927
 10
21.3182212086
 20
-33.7811721659
 10
21.3134923309
 20
-33.7865308318
 10
21.3094231155
 20
-33.7901010277
  0
LWPOLYLINE
  5
2E8
100
AcDbEntity
  8
ASSI
100
AcDbPolyline
 62
7
  6
CONTINUOUS
 90
12
 70
0
 10
21.3503341796
 20
-33.6459019244
 10
21.350235931
 20
-33.6552045869
 10
21.349145349
 20
-33.6778398067
 10
21.3468916279
 20
-33.6990046667
 10
21.3435377015
 20
-33.7185530523
 10
21.3392141518
 20
-33.7361459394
 10
21.3342092031
 20
-33.7512749169
 10
21.328854937
 20
-33.7637387343
 10
21.3234254921
 20
-33.7736592927
 10
21.3182212086
 20
-33.7811721659
 10
21.3134923309
 20
-33.7865308318
 10
21.3094231155
 20
-33.7901010277
  0
LINE
  5
2E9
100
AcDbEntity
  8
SMUSSO
100
AcDbLine
 62
7
  6
CONTINUOUS
 10
39.2480511443
 20
9.8361174348
 11
40.2575878617
 21
10.8894120305
  0
LINE
  5
2EA
100
AcDbEntity
  8
ASSI
100
AcDbLine
 62
7
  6
CONTINUOUS
 10
39.2480511443
 20
9.8361174348
 11
40.2575878617
 21
10.8894120305
  0
LINE
  5
2EB
100
AcDbEntity
  8
0
100
AcDbLine
 62
7
  6
CONTINUOUS
 10
14.4523774649
 20
-28.3462994675
 11
14.4804075987
 21
-28.2977498517
  0
LINE
  5
2EC
100
AcDbEntity
  8
0
100
AcDbLine
 62
7
  6
CONTINUOUS
 10
14.7278949721
 20
-28.2773242856
 11
14.8339609893
 21
-28.0936125551
  0
LINE
  5
2ED
100
AcDbEntity
  8
0
100
AcDbLine
 62
7
  6
CONTINUOUS
 10
15.0814483627
 20
-28.0731869889
 11
15.1875143799
 21
-27.8894752584
  0
LINE
  5
2EE
100
AcDbEntity
  8
0
100
AcDbLine
 62
7
  6
CONTINUOUS
 10
15.4350017533
 20
-27.8690496923
 11
15.5410677705
 21
-27.6853379617
  0
LINE
  5
2EF
100
AcDbEntity
  8
0
100
AcDbLine
 62
7
  6
CONTINUOUS
 10
15.7885551439
 20
-27.6649123956
 11
15.8946211611
 21
-27.4812006651
  0
LINE
  5
2F0
100
AcDbEntity
  8
0
100
AcDbLine
 62
7
  6
CONTINUOUS
 10
16.1421085345
 20
-27.4607750989
 11
16.2481745517
 21
-27.2770633684
  0
LINE
  5
2F1
100
AcDbEntity
  8
0
100
AcDbLine
 62
7
  6
CONTINUOUS
 10
16.4956619251
 20
-27.2566378023
 11
16.6017279422
 21
-27.0729260717
  0
LINE
  5
2F2
100
AcDbEntity
  8
0
100
AcDbLine
 62
7
  6
CONTINUOUS
 10
18.3414647614
 20
-30.5918097308
 11
18.3694948952
 21
-30.543260115
  0
LINE
  5
2F3
100
AcDbEntity
  8
0
100
AcDbLine
 62
7
  6
CONTINUOUS
 10
18.6169822686
 20
-30.5228345489
 11
18.7230482858
 21
-30.3391228184
  0
LINE
  5
2F4
100
AcDbEntity
  8
0
100
AcDbLine
 62
7
  6
CONTINUOUS
 10
16.8507914541
 20
-26.8536289145
 11
18.1611457098
 21
-26.3161665879
  0
LINE
  5
2F5
100
AcDbEntity
  8
SMUSSO
100
AcDbLine
 62
7
  6
CONTINUOUS
 10
40.9439862093
 20
9.7005352194
 11
40.9654875612
 21
9.688540272
  0
LINE
  5
2F6
100
AcDbEntity
  8
ASSI
100
AcDbLine
 62
7
  6
CONTINUOUS
 10
40.9439862093
 20
9.7005352194
 11
40.9654875612
 21
9.688540272
  0
LINE
  5
2F7
100
AcDbEntity
  8
SMUSSO
100
AcDbLine
 62
7
  6
CONTINUOUS
 10
39.2480511443
 20
9.8361174348
 11
-44.7233361907
 21
58.3201440733
  0
LINE
  5
2F8
100
AcDbEntity
  8
ASSI
100
AcDbLine
 62
7
  6
CONTINUOUS
 10
39.2480511443
 20
9.8361174348
 11
-44.7233361907
 21
58.3201440733
  0
LINE
  5
2F9
100
AcDbEntity
  8
SMUSSO
100
AcDbLine
 62
7
  6
CONTINUOUS
 10
40.2579502919
 20
10.9140307694
 11
-44.3198832767
 21
59.7482118627
  0
LINE
  5
2FA
100
AcDbEntity
  8
ASSI
100
AcDbLine
 62
7
  6
CONTINUOUS
 10
40.2579502919
 20
10.9140307694
 11
-44.3198832767
 21
59.7482118627
  0
LINE
  5
2FB
100
AcDbEntity
  8
0
100
AcDbLine
 62
7
  6
CONTINUOUS
 10
18.9705356592
 20
-30.3186972522
 11
19.0766016764
 21
-30.1349855217
  0
LINE
  5
2FC
100
AcDbEntity
  8
0
100
AcDbLine
 62
7
  6
CONTINUOUS
 10
19.3240890498
 20
-30.1145599556
 11
19.430155067
 21
-29.930848225
  0
LINE
  5
2FD
100
AcDbEntity
  8
0
100
AcDbLine
 62
7
  6
CONTINUOUS
 10
19.6776424404
 20
-29.9104226589
 11
19.7837084576
 21
-29.7267109284
  0
LINE
  5
2FE
100
AcDbEntity
  8
0
100
AcDbLine
 62
7
  6
CONTINUOUS
 10
20.031195831
 20
-29.7062853622
 11
20.1372618482
 21
-29.5225736317
  0
LINE
  5
2FF
100
AcDbEntity
  8
0
100
AcDbLine
 62
7
  6
CONTINUOUS
 10
20.3847492216
 20
-29.5021480656
 11
20.4908152388
 21
-29.318436335
  0
LINE
  5
300
100
AcDbEntity
  8
0
100
AcDbLine
 62
250
  6
CONTINUOUS
 10
20.3251227737
 20
-30.367345158
 11
20.6610677387
 21
-30.0405915682
  0
LINE
  5
301
100
AcDbEntity
  8
0
100
AcDbLine
 62
7
  6
CONTINUOUS
 10
20.3290476312
 20
-30.4008803587
 11
20.7580320119
 21
-29.9836328897
  0
LINE
  5
302
100
AcDbEntity
  8
0
100
AcDbLine
 62
7
  6
CONTINUOUS
 10
21.0230815594
 20
-29.3398546244
 11
18.725205035
 21
-30.8133765554
  0
LINE
  5
303
100
AcDbEntity
  8
0
100
AcDbLine
 62
7
  6
CONTINUOUS
 10
19.0380277458
 20
-30.993996468
 11
21.3503340811
 21
-29.6357032655
  0
LINE
  5
304
100
AcDbEntity
  8
0
100
AcDbLine
 62
7
  6
CONTINUOUS
 10
20.2704332855
 20
-30.4453443669
 11
19.181804692
 21
-31.0770114748
  0
LINE
  5
305
100
AcDbEntity
  8
0
100
AcDbLine
 62
250
  6
CONTINUOUS
 10
20.3251227737
 20
-30.367345158
 11
19.1414486941
 21
-31.0537104274
  0
LINE
  5
306
100
AcDbEntity
  8
0
100
AcDbLine
 62
7
  6
CONTINUOUS
 10
14.4804075987
 20
-28.2977498517
 11
14.6218289549
 21
-28.2160949331
  0
LINE
  5
307
100
AcDbEntity
  8
0
100
AcDbLine
 62
7
  6
CONTINUOUS
 10
14.8339609893
 20
-28.0936125551
 11
14.9753823455
 21
-28.0119576364
  0
LINE
  5
308
100
AcDbEntity
  8
0
100
AcDbLine
 62
7
  6
CONTINUOUS
 10
15.1875143799
 20
-27.8894752584
 11
15.3289357361
 21
-27.8078203397
  0
LINE
  5
309
100
AcDbEntity
  8
0
100
AcDbLine
 62
7
  6
CONTINUOUS
 10
15.5410677705
 20
-27.6853379617
 11
15.6824891267
 21
-27.6036830431
  0
LINE
  5
30A
100
AcDbEntity
  8
0
100
AcDbLine
 62
7
  6
CONTINUOUS
 10
15.8946211611
 20
-27.4812006651
 11
16.0360425173
 21
-27.3995457464
  0
LINE
  5
30B
100
AcDbEntity
  8
0
100
AcDbLine
 62
7
  6
CONTINUOUS
 10
16.2481745517
 20
-27.2770633684
 11
16.3895959079
 21
-27.1954084497
  0
LINE
  5
30C
100
AcDbEntity
  8
0
100
AcDbLine
 62
7
  6
CONTINUOUS
 10
16.6017279422
 20
-27.0729260717
 11
16.7431492985
 21
-26.9912711531
  0
LINE
  5
30D
100
AcDbEntity
  8
0
100
AcDbLine
 62
7
  6
CONTINUOUS
 10
18.3694948952
 20
-30.543260115
 11
18.5109162515
 21
-30.4616051964
  0
LINE
  5
30E
100
AcDbEntity
  8
0
100
AcDbLine
 62
7
  6
CONTINUOUS
 10
18.7230482858
 20
-30.3391228184
 11
18.864469642
 21
-30.2574678997
  0
LINE
  5
30F
100
AcDbEntity
  8
0
100
AcDbLine
 62
7
  6
CONTINUOUS
 10
19.0766016764
 20
-30.1349855217
 11
19.2180230326
 21
-30.053330603
  0
LINE
  5
310
100
AcDbEntity
  8
0
100
AcDbLine
 62
7
  6
CONTINUOUS
 10
19.430155067
 20
-29.930848225
 11
19.5715764232
 21
-29.8491933064
  0
LINE
  5
311
100
AcDbEntity
  8
0
100
AcDbLine
 62
7
  6
CONTINUOUS
 10
19.7837084576
 20
-29.7267109284
 11
19.9251298138
 21
-29.6450560097
  0
LINE
  5
312
100
AcDbEntity
  8
0
100
AcDbLine
 62
7
  6
CONTINUOUS
 10
20.1372618482
 20
-29.5225736317
 11
20.2786832044
 21
-29.440918713
  0
LINE
  5
313
100
AcDbEntity
  8
0
100
AcDbLine
 62
7
  6
CONTINUOUS
 10
20.4908152388
 20
-29.318436335
 11
20.632236595
 21
-29.2367814164
  0
LINE
  5
314
100
AcDbEntity
  8
0
100
AcDbLine
 62
7
  6
CONTINUOUS
 10
20.7383026122
 20
-29.2980107689
 11
18.4194931036
 21
-30.6368623177
  0
LINE
  5
315
100
AcDbEntity
  8
0
100
AcDbLine
 62
7
  6
CONTINUOUS
 10
14.2246938756
 20
-28.2148378166
 11
16.7767443011
 21
-26.8880727106
  0
LINE
  5
316
100
AcDbEntity
  8
0
100
AcDbLine
 62
7
  6
CONTINUOUS
 10
21.3503340811
 20
-29.1658070096
 11
21.0897539154
 21
-29.301152713
  0
LINE
  5
317
100
AcDbEntity
  8
SMUSSO
100
AcDbLine
 62
7
  6
CONTINUOUS
 10
44.3198832767
 20
13.2593246716
 11
-40.5320694895
 21
62.251778754
  0
LINE
  5
318
100
AcDbEntity
  8
ASSI
100
AcDbLine
 62
7
  6
CONTINUOUS
 10
44.3198832767
 20
13.2593246716
 11
-40.5320694895
 21
62.251778754
  0
LINE
  5
319
100
AcDbEntity
  8
SMUSSO
100
AcDbLine
 62
7
  6
CONTINUOUS
 10
39.5270270784
 20
-61.4787166561
 11
39.5270270784
 21
9.3529169433
  0
LINE
  5
31A
100
AcDbEntity
  8
ASSI
100
AcDbLine
 62
7
  6
CONTINUOUS
 10
39.5270270784
 20
-61.4787166561
 11
39.5270270784
 21
9.3529169433
  0
LINE
  5
31B
100
AcDbEntity
  8
SMUSSO
100
AcDbLine
 62
7
  6
CONTINUOUS
 10
40.9654875612
 20
-61.8433345602
 11
40.9654875612
 21
9.688540272
  0
LINE
  5
31C
100
AcDbEntity
  8
ASSI
100
AcDbLine
 62
7
  6
CONTINUOUS
 10
40.9654875612
 20
-61.8433345602
 11
40.9654875612
 21
9.688540272
  0
LINE
  5
31D
100
AcDbEntity
  8
SMUSSO
100
AcDbLine
 62
7
  6
CONTINUOUS
 10
40.2579502919
 20
10.9140307694
 11
40.2575878617
 21
10.8894120305
  0
LINE
  5
31E
100
AcDbEntity
  8
ASSI
100
AcDbLine
 62
7
  6
CONTINUOUS
 10
40.2579502919
 20
10.9140307694
 11
40.2575878617
 21
10.8894120305
  0
LINE
  5
31F
100
AcDbEntity
  8
0
100
AcDbLine
 62
250
  6
CONTINUOUS
 10
21.0467000127
 20
-33.7736279106
 11
21.3503340811
 21
-33.5455924266
  0
LINE
  5
320
100
AcDbEntity
  8
ASSI
100
AcDbLine
 62
250
  6
CONTINUOUS
 10
21.0467000127
 20
-33.7736279106
 11
21.3503340811
 21
-33.5455924266
  0
LINE
  5
321
100
AcDbEntity
  8
0
100
AcDbLine
 62
7
  6
CONTINUOUS
 10
21.3092174793
 20
-33.7902552512
 11
21.3088569715
 21
-33.790525252
  0
LINE
  5
322
100
AcDbEntity
  8
ASSI
100
AcDbLine
 62
7
  6
CONTINUOUS
 10
21.3092174793
 20
-33.7902552512
 11
21.3088569715
 21
-33.790525252
  0
LINE
  5
323
100
AcDbEntity
  8
SMUSSO
100
AcDbLine
 62
7
  6
CONTINUOUS
 10
39.5270270784
 20
9.3529169433
 11
39.2480511443
 21
9.8361174348
  0
LINE
  5
324
100
AcDbEntity
  8
ASSI
100
AcDbLine
 62
7
  6
CONTINUOUS
 10
39.5270270784
 20
9.3529169433
 11
39.2480511443
 21
9.8361174348
  0
LINE
  5
325
100
AcDbEntity
  8
SMUSSO
100
AcDbLine
 62
7
  6
CONTINUOUS
 10
40.9439862093
 20
9.7005352194
 11
40.2575878617
 21
10.8894120305
  0
LINE
  5
326
100
AcDbEntity
  8
ASSI
100
AcDbLine
 62
7
  6
CONTINUOUS
 10
40.9439862093
 20
9.7005352194
 11
40.2575878617
 21
10.8894120305
  0
LINE
  5
327
100
AcDbEntity
  8
CURVE
100
AcDbLine
 62
250
  6
CONTINUOUS
 10
42.0963309347
 20
-54.6455849069
 11
42.0963309347
 21
-55.071613382
  0
LINE
  5
328
100
AcDbEntity
  8
CURVE
100
AcDbLine
 62
250
  6
CONTINUOUS
 10
42.0964399064
 20
-56.9081629569
 11
42.0964399064
 21
-56.4453647428
  0
LINE
  5
329
100
AcDbEntity
  8
CURVE
100
AcDbLine
 62
250
  6
CONTINUOUS
 10
42.0964399064
 20
-55.6553921924
 11
42.0964399064
 21
-55.2296551971
  0
LINE
  5
32A
100
AcDbEntity
  8
CURVE
100
AcDbLine
 62
250
  6
CONTINUOUS
 10
42.0964399064
 20
-54.2318950436
 11
42.0964399064
 21
-53.8062192836
  0
LINE
  5
32B
100
AcDbEntity
  8
CURVE
100
AcDbLine
 62
250
  6
CONTINUOUS
 10
42.0964399064
 20
-52.9586619011
 11
42.0964399064
 21
-52.5371485066
  0
LINE
  5
32C
100
AcDbEntity
  8
CURVE
100
AcDbLine
 62
250
  6
CONTINUOUS
 10
42.0964399064
 20
-51.6392230726
 11
42.0964399064
 21
-51.227091738
  0
LINE
  5
32D
100
AcDbEntity
  8
CURVE
100
AcDbLine
 62
250
  6
CONTINUOUS
 10
42.9097646912
 20
-49.3842007395
 11
42.9097646912
 21
-49.6276717307
  0
LINE
  5
32E
100
AcDbEntity
  8
CURVE
100
AcDbLine
 62
250
  6
CONTINUOUS
 10
43.209178179
 20
-49.452334305
 11
43.209178179
 21
-49.2239080702
  0
LINE
  5
32F
100
AcDbEntity
  8
CURVE
100
AcDbLine
 62
250
  6
CONTINUOUS
 10
43.2772455626
 20
-51.0175160448
 11
43.2772455626
 21
-50.6096238239
  0
LINE
  5
330
100
AcDbEntity
  8
CURVE
100
AcDbLine
 62
250
  6
CONTINUOUS
 10
43.5596592572
 20
-50.3724244093
 11
43.5596592572
 21
-50.9526041056
  0
LINE
  5
331
100
AcDbEntity
  8
CURVE
100
AcDbLine
 62
250
  6
CONTINUOUS
 10
43.924631083
 20
-54.0872154023
 11
43.924631083
 21
-53.6611869272
  0
LINE
  5
332
100
AcDbEntity
  8
CURVE
100
AcDbLine
 62
250
  6
CONTINUOUS
 10
43.9246310951
 20
-49.4914325069
 11
43.9246310951
 21
-49.0671183405
  0
LINE
  5
333
100
AcDbEntity
  8
CURVE
100
AcDbLine
 62
250
  6
CONTINUOUS
 10
43.9246310951
 20
-48.4147146479
 11
43.9246310951
 21
-48.0049248698
  0
LINE
  5
334
100
AcDbEntity
  8
CURVE
100
AcDbLine
 62
250
  6
CONTINUOUS
 10
43.924631083
 20
-49.6165352417
 11
43.924631083
 21
-50.0655514375
  0
LINE
  5
335
100
AcDbEntity
  8
CURVE
100
AcDbLine
 62
250
  6
CONTINUOUS
 10
43.924631083
 20
-50.873652894
 11
43.924631083
 21
-51.2950585144
  0
LINE
  5
336
100
AcDbEntity
  8
CURVE
100
AcDbLine
 62
250
  6
CONTINUOUS
 10
43.924631083
 20
-51.361956823
 11
43.924631083
 21
-51.7787257087
  0
LINE
  5
337
100
AcDbEntity
  8
CURVE
100
AcDbLine
 62
250
  6
CONTINUOUS
 10
43.924631083
 20
-52.3728017292
 11
43.924631083
 21
-52.432552657
  0
LINE
  5
338
100
AcDbEntity
  8
CURVE
100
AcDbLine
 62
250
  6
CONTINUOUS
 10
43.924631083
 20
-53.0242723442
 11
43.924631083
 21
-53.4318428758
  0
LINE
  5
339
100
AcDbEntity
  8
CURVE
100
AcDbLine
 62
250
  6
CONTINUOUS
 10
43.924631083
 20
-54.9013620047
 11
43.924631083
 21
-55.2767995321
  0
LINE
  5
33A
100
AcDbEntity
  8
SMUSSO
100
AcDbLine
 62
7
  6
CONTINUOUS
 10
45.0274205459
 20
-59.8145560459
 11
45.0274205459
 21
12.0338341742
  0
LINE
  5
33B
100
AcDbEntity
  8
ASSI
100
AcDbLine
 62
7
  6
CONTINUOUS
 10
45.0274205459
 20
-59.8145560459
 11
45.0274205459
 21
12.0338341742
  0
LINE
  5
33C
100
AcDbEntity
  8
SMUSSO
100
AcDbLine
 62
7
  6
CONTINUOUS
 10
44.3198832767
 20
13.2593246716
 11
45.0274205459
 21
12.0338341742
  0
LINE
  5
33D
100
AcDbEntity
  8
ASSI
100
AcDbLine
 62
7
  6
CONTINUOUS
 10
44.3198832767
 20
13.2593246716
 11
45.0274205459
 21
12.0338341742
  0
LINE
  5
33E
100
AcDbEntity
  8
CURVE
100
AcDbLine
 62
7
  6
CONTINUOUS
 10
42.2029796843
 20
-49.2412374745
 11
42.6470369366
 21
-48.7971802222
  0
LINE
  5
33F
100
AcDbEntity
  8
CURVE
100
AcDbLine
 62
7
  6
CONTINUOUS
 10
42.1050159443
 20
-49.5492119285
 11
42.9034858356
 21
-48.7507420372
  0
LINE
  5
340
100
AcDbEntity
  8
CURVE
100
AcDbLine
 62
7
  6
CONTINUOUS
 10
42.0797814811
 20
-49.7844571057
 11
42.4341143809
 21
-49.4301242059
  0
LINE
  5
341
100
AcDbEntity
  8
CURVE
100
AcDbLine
 62
7
  6
CONTINUOUS
 10
42.6843972941
 20
-49.1798412927
 11
43.039884322
 21
-48.8243542648
  0
LINE
  5
342
100
AcDbEntity
  8
CURVE
100
AcDbLine
 62
7
  6
CONTINUOUS
 10
43.1241419203
 20
-48.7400966665
 11
43.5357662464
 21
-48.3284723404
  0
LINE
  5
343
100
AcDbEntity
  8
CURVE
100
AcDbLine
 62
7
  6
CONTINUOUS
 10
42.0758884107
 20
-49.9983608901
 11
42.3909223422
 21
-49.6833269586
  0
LINE
  5
344
100
AcDbEntity
  8
CURVE
100
AcDbLine
 62
7
  6
CONTINUOUS
 10
42.8668355822
 20
-49.2074137187
 11
43.9246310951
 21
-48.1496182057
  0
LINE
  5
345
100
AcDbEntity
  8
CURVE
100
AcDbLine
 62
7
  6
CONTINUOUS
 10
42.0871405313
 20
-50.1971194835
 11
42.4050147144
 21
-49.8792453004
  0
LINE
  5
346
100
AcDbEntity
  8
CURVE
100
AcDbLine
 62
7
  6
CONTINUOUS
 10
42.9093971021
 20
-49.3748629128
 11
43.2889866899
 21
-48.995273325
  0
LINE
  5
347
100
AcDbEntity
  8
CURVE
100
AcDbLine
 62
7
  6
CONTINUOUS
 10
43.5265390267
 20
-48.7577209881
 11
43.9246310951
 21
-48.3596289197
  0
LINE
  5
348
100
AcDbEntity
  8
CURVE
100
AcDbLine
 62
7
  6
CONTINUOUS
 10
42.1075372335
 20
-50.3867334954
 11
42.8162469282
 21
-49.6780238006
  0
LINE
  5
349
100
AcDbEntity
  8
CURVE
100
AcDbLine
 62
7
  6
CONTINUOUS
 10
42.9097646912
 20
-49.5845060376
 11
43.209178179
 21
-49.2850925498
  0
LINE
  5
34A
100
AcDbEntity
  8
CURVE
100
AcDbLine
 62
7
  6
CONTINUOUS
 10
42.3825667712
 20
-50.3217146717
 11
43.3018364239
 21
-49.402445019
  0
LINE
  5
34B
100
AcDbEntity
  8
CURVE
100
AcDbLine
 62
7
  6
CONTINUOUS
 10
42.837551524
 20
-50.0767406329
 11
43.7568211767
 21
-49.1574709802
  0
LINE
  5
34C
100
AcDbEntity
  8
CURVE
100
AcDbLine
 62
7
  6
CONTINUOUS
 10
43.2925362768
 20
-49.8317665941
 11
43.9246310951
 21
-49.1996717758
  0
LINE
  5
34D
100
AcDbEntity
  8
CURVE
100
AcDbLine
 62
7
  6
CONTINUOUS
 10
42.0964399064
 20
-51.2378736785
 11
42.1870111722
 21
-51.1473024127
  0
LINE
  5
34E
100
AcDbEntity
  8
CURVE
100
AcDbLine
 62
7
  6
CONTINUOUS
 10
43.7475210296
 20
-49.5867925553
 11
43.9246310951
 21
-49.4096824898
  0
LINE
  5
34F
100
AcDbEntity
  8
CURVE
100
AcDbLine
 62
7
  6
CONTINUOUS
 10
42.0964399064
 20
-51.4478843926
 11
43.924631083
 21
-49.6196932159
  0
LINE
  5
350
100
AcDbEntity
  8
CURVE
100
AcDbLine
 62
7
  6
CONTINUOUS
 10
42.1194422214
 20
-51.6348927916
 11
43.924631083
 21
-49.8297039299
  0
LINE
  5
351
100
AcDbEntity
  8
CURVE
100
AcDbLine
 62
7
  6
CONTINUOUS
 10
42.3781570784
 20
-51.5861886486
 11
42.8504805019
 21
-51.1138652251
  0
LINE
  5
352
100
AcDbEntity
  8
CURVE
100
AcDbLine
 62
7
  6
CONTINUOUS
 10
43.2772455626
 20
-50.6871001643
 11
43.5596592572
 21
-50.4046864697
  0
LINE
  5
353
100
AcDbEntity
  8
CURVE
100
AcDbLine
 62
7
  6
CONTINUOUS
 10
43.7623266471
 20
-50.2020190799
 11
43.924631083
 21
-50.0397146439
  0
LINE
  5
354
100
AcDbEntity
  8
CURVE
100
AcDbLine
 62
7
  6
CONTINUOUS
 10
42.6368719353
 20
-51.5374845056
 11
43.1217302826
 21
-51.0526261583
  0
LINE
  5
355
100
AcDbEntity
  8
CURVE
100
AcDbLine
 62
7
  6
CONTINUOUS
 10
43.2772455626
 20
-50.8971108783
 11
43.5596592572
 21
-50.6146971838
  0
LINE
  5
356
100
AcDbEntity
  8
CURVE
100
AcDbLine
 62
7
  6
CONTINUOUS
 10
42.8955867923
 20
-51.4887803626
 11
43.5596592572
 21
-50.8247078978
  0
LINE
  5
357
100
AcDbEntity
  8
CURVE
100
AcDbLine
 62
7
  6
CONTINUOUS
 10
43.1543016493
 20
-51.4400762197
 11
43.6644401008
 21
-50.9299377682
  0
LINE
  5
358
100
AcDbEntity
  8
CURVE
100
AcDbLine
 62
7
  6
CONTINUOUS
 10
42.0964399064
 20
-52.7079486766
 11
42.5746261334
 21
-52.2297624495
  0
LINE
  5
359
100
AcDbEntity
  8
CURVE
100
AcDbLine
 62
7
  6
CONTINUOUS
 10
43.4130165063
 20
-51.3913720767
 11
43.924631083
 21
-50.8797575
  0
LINE
  5
35A
100
AcDbEntity
  8
CURVE
100
AcDbLine
 62
7
  6
CONTINUOUS
 10
42.0964399064
 20
-52.9179593906
 11
43.1625894296
 21
-51.8518098674
  0
LINE
  5
35B
100
AcDbEntity
  8
CURVE
100
AcDbLine
 62
7
  6
CONTINUOUS
 10
43.6717313633
 20
-51.3426679337
 11
43.924631083
 21
-51.089768214
  0
LINE
  5
35C
100
AcDbEntity
  8
CURVE
100
AcDbLine
 62
250
  6
CONTINUOUS
 10
42.0964399064
 20
-51.227091738
 11
43.924631083
 21
-49.6165352417
  0
LINE
  5
35D
100
AcDbEntity
  8
CURVE
100
AcDbLine
 62
250
  6
CONTINUOUS
 10
43.924631083
 20
-50.0655514375
 11
43.5596592572
 21
-50.3724244093
  0
LINE
  5
35E
100
AcDbEntity
  8
CURVE
100
AcDbLine
 62
250
  6
CONTINUOUS
 10
43.2772455626
 20
-50.6096238239
 11
42.5987804353
 21
-51.1706906246
  0
LINE
  5
35F
100
AcDbEntity
  8
CURVE
100
AcDbLine
 62
250
  6
CONTINUOUS
 10
42.0964399064
 20
-52.5371485066
 11
43.924631083
 21
-51.361956823
  0
LINE
  5
360
100
AcDbEntity
  8
CURVE
100
AcDbLine
 62
250
  6
CONTINUOUS
 10
43.924631083
 20
-51.7787257087
 11
42.7358331935
 21
-52.506330148
  0
LINE
  5
361
100
AcDbEntity
  8
CURVE
100
AcDbLine
 62
250
  6
CONTINUOUS
 10
43.0712478173
 20
-48.8556152283
 11
43.0604448031
 21
-48.8614318145
  0
LINE
  5
362
100
AcDbEntity
  8
CURVE
100
AcDbLine
 62
250
  6
CONTINUOUS
 10
43.9246310951
 20
-49.0671183405
 11
43.209178179
 21
-49.452334305
  0
LINE
  5
363
100
AcDbEntity
  8
CURVE
100
AcDbLine
 62
250
  6
CONTINUOUS
 10
42.9097646912
 20
-49.6276717307
 11
42.4078906545
 21
-49.897892016
  0
LINE
  5
364
100
AcDbEntity
  8
CURVE
100
AcDbLine
 62
250
  6
CONTINUOUS
 10
42.1177995647
 20
-50.4642712992
 11
43.9246310951
 21
-49.4914325069
  0
LINE
  5
365
100
AcDbEntity
  8
CURVE
100
AcDbLine
 62
250
  6
CONTINUOUS
 10
42.730857063
 20
-53.5750901621
 11
43.924631083
 21
-53.0242723442
  0
LINE
  5
366
100
AcDbEntity
  8
CURVE
100
AcDbLine
 62
250
  6
CONTINUOUS
 10
43.924631083
 20
-53.4318428758
 11
42.0964399064
 21
-54.2318950436
  0
LINE
  5
367
100
AcDbEntity
  8
CURVE
100
AcDbLine
 62
7
  6
CONTINUOUS
 10
42.2885511762
 20
-52.9358588348
 11
43.7505527257
 21
-51.4738572853
  0
LINE
  5
368
100
AcDbEntity
  8
CURVE
100
AcDbLine
 62
7
  6
CONTINUOUS
 10
42.5268469237
 20
-52.9075738013
 11
42.9524178462
 21
-52.4820028789
  0
LINE
  5
369
100
AcDbEntity
  8
CURVE
100
AcDbLine
 62
7
  6
CONTINUOUS
 10
43.2314065188
 20
-52.2030142062
 11
43.924631083
 21
-51.509789642
  0
LINE
  5
36A
100
AcDbEntity
  8
CURVE
100
AcDbLine
 62
7
  6
CONTINUOUS
 10
42.7651426713
 20
-52.8792887677
 11
43.1890022453
 21
-52.4554291938
  0
LINE
  5
36B
100
AcDbEntity
  8
CURVE
100
AcDbLine
 62
7
  6
CONTINUOUS
 10
43.7727418163
 20
-51.8716896227
 11
43.924631083
 21
-51.719800356
  0
LINE
  5
36C
100
AcDbEntity
  8
CURVE
100
AcDbLine
 62
7
  6
CONTINUOUS
 10
43.0034384189
 20
-52.8510037342
 11
43.4255866443
 21
-52.4288555087
  0
LINE
  5
36D
100
AcDbEntity
  8
CURVE
100
AcDbLine
 62
7
  6
CONTINUOUS
 10
42.0964399064
 20
-53.9680129607
 11
43.6621710434
 21
-52.4022818237
  0
LINE
  5
36E
100
AcDbEntity
  8
CURVE
100
AcDbLine
 62
7
  6
CONTINUOUS
 10
42.0964399064
 20
-54.1780236747
 11
43.8987554425
 21
-52.3757081386
  0
LINE
  5
36F
100
AcDbEntity
  8
CURVE
100
AcDbLine
 62
7
  6
CONTINUOUS
 10
42.3740799634
 20
-54.1103943317
 11
43.0623275074
 21
-53.4221467877
  0
LINE
  5
370
100
AcDbEntity
  8
CURVE
100
AcDbLine
 62
7
  6
CONTINUOUS
 10
42.7475116988
 20
-53.9469733103
 11
43.4522534984
 21
-53.2422315107
  0
LINE
  5
371
100
AcDbEntity
  8
CURVE
100
AcDbLine
 62
7
  6
CONTINUOUS
 10
42.0963309347
 20
-54.8081647885
 11
42.4485575702
 21
-54.4559381529
  0
LINE
  5
372
100
AcDbEntity
  8
CURVE
100
AcDbLine
 62
7
  6
CONTINUOUS
 10
43.1209434343
 20
-53.7835522888
 11
43.8421794894
 21
-53.0623162337
  0
LINE
  5
373
100
AcDbEntity
  8
CURVE
100
AcDbLine
 62
7
  6
CONTINUOUS
 10
42.0963309347
 20
-55.0181755025
 11
42.903542323
 21
-54.2109641141
  0
LINE
  5
374
100
AcDbEntity
  8
CURVE
100
AcDbLine
 62
7
  6
CONTINUOUS
 10
43.4943751697
 20
-53.6201312674
 11
43.924631083
 21
-53.1898753541
  0
LINE
  5
375
100
AcDbEntity
  8
CURVE
100
AcDbLine
 62
7
  6
CONTINUOUS
 10
42.4355434016
 20
-54.8889737496
 11
43.3585270758
 21
-53.9659900753
  0
LINE
  5
376
100
AcDbEntity
  8
CURVE
100
AcDbLine
 62
7
  6
CONTINUOUS
 10
43.8678069052
 20
-53.4567102459
 11
43.924631083
 21
-53.3998860681
  0
LINE
  5
377
100
AcDbEntity
  8
CURVE
100
AcDbLine
 62
7
  6
CONTINUOUS
 10
42.0964399064
 20
-55.4380879588
 11
42.3504938086
 21
-55.1840340566
  0
LINE
  5
378
100
AcDbEntity
  8
CURVE
100
AcDbLine
 62
7
  6
CONTINUOUS
 10
42.8905281544
 20
-54.6439997108
 11
43.8135118286
 21
-53.7210160365
  0
LINE
  5
379
100
AcDbEntity
  8
CURVE
100
AcDbLine
 62
7
  6
CONTINUOUS
 10
42.0964399064
 20
-55.6480986728
 11
42.6064710406
 21
-55.1380675386
  0
LINE
  5
37A
100
AcDbEntity
  8
CURVE
100
AcDbLine
 62
7
  6
CONTINUOUS
 10
43.3455129072
 20
-54.399025672
 11
43.924631083
 21
-53.8199074961
  0
LINE
  5
37B
100
AcDbEntity
  8
CURVE
100
AcDbLine
 62
7
  6
CONTINUOUS
 10
42.3562740831
 20
-55.59827521
 11
42.8624482727
 21
-55.0921010205
  0
LINE
  5
37C
100
AcDbEntity
  8
CURVE
100
AcDbLine
 62
7
  6
CONTINUOUS
 10
43.80049766
 20
-54.1540516332
 11
43.924631083
 21
-54.0299182101
  0
LINE
  5
37D
100
AcDbEntity
  8
CURVE
100
AcDbLine
 62
7
  6
CONTINUOUS
 10
42.6254567795
 20
-55.5391032277
 11
43.1184255047
 21
-55.0461345025
  0
LINE
  5
37E
100
AcDbEntity
  8
CURVE
100
AcDbLine
 62
7
  6
CONTINUOUS
 10
42.8946394758
 20
-55.4799312454
 11
43.3744027368
 21
-55.0001679844
  0
LINE
  5
37F
100
AcDbEntity
  8
CURVE
100
AcDbLine
 62
7
  6
CONTINUOUS
 10
42.0964399064
 20
-56.4881415288
 11
42.377090622
 21
-56.2074908132
  0
LINE
  5
380
100
AcDbEntity
  8
CURVE
100
AcDbLine
 62
7
  6
CONTINUOUS
 10
43.1638221722
 20
-55.420759263
 11
43.6303799688
 21
-54.9542014664
  0
LINE
  5
381
100
AcDbEntity
  8
CURVE
100
AcDbLine
 62
7
  6
CONTINUOUS
 10
42.0964399064
 20
-56.6981522429
 11
43.8863572009
 21
-54.9082349483
  0
LINE
  5
382
100
AcDbEntity
  8
CURVE
100
AcDbLine
 62
7
  6
CONTINUOUS
 10
42.0964399064
 20
-56.9081629569
 11
43.924631083
 21
-55.0799717802
  0
LINE
  5
383
100
AcDbEntity
  8
CURVE
100
AcDbLine
 62
250
  6
CONTINUOUS
 10
43.924631083
 20
-52.432552657
 11
42.730857063
 21
-53.5750901621
  0
LINE
  5
384
100
AcDbEntity
  8
CURVE
100
AcDbLine
 62
250
  6
CONTINUOUS
 10
42.0964399064
 20
-53.8062192836
 11
43.111457186
 21
-52.838182211
  0
LINE
  5
385
100
AcDbEntity
  8
CURVE
100
AcDbLine
 62
250
  6
CONTINUOUS
 10
43.924631083
 20
-55.2767995321
 11
42.0964399064
 21
-56.9081629569
  0
LINE
  5
386
100
AcDbEntity
  8
CURVE
100
AcDbLine
 62
250
  6
CONTINUOUS
 10
42.0964399064
 20
-56.4453647428
 11
43.3548407276
 21
-55.3787693924
  0
LINE
  5
387
100
AcDbEntity
  8
SMUSSO
100
AcDbLine
 62
7
  6
CONTINUOUS
 10
39.2480511443
 20
-61.6397627316
 11
39.5270270784
 21
-61.4787166561
  0
LINE
  5
388
100
AcDbEntity
  8
ASSI
100
AcDbLine
 62
7
  6
CONTINUOUS
 10
39.2480511443
 20
-61.6397627316
 11
39.5270270784
 21
-61.4787166561
  0
LINE
  5
389
100
AcDbEntity
  8
SMUSSO
100
AcDbLine
 62
7
  6
CONTINUOUS
 10
40.2575878617
 20
-62.2511373164
 11
40.9439862093
 21
-61.8548961119
  0
LINE
  5
38A
100
AcDbEntity
  8
ASSI
100
AcDbLine
 62
7
  6
CONTINUOUS
 10
40.2575878617
 20
-62.2511373164
 11
40.9439862093
 21
-61.8548961119
  0
LINE
  5
38B
100
AcDbEntity
  8
SMUSSO
100
AcDbLine
 62
7
  6
CONTINUOUS
 10
45.0274205459
 20
-59.8145560459
 11
44.3198832767
 21
-60.2230002398
  0
LINE
  5
38C
100
AcDbEntity
  8
ASSI
100
AcDbLine
 62
7
  6
CONTINUOUS
 10
45.0274205459
 20
-59.8145560459
 11
44.3198832767
 21
-60.2230002398
  0
LINE
  5
38D
100
AcDbEntity
  8
CURVE
100
AcDbLine
 62
250
  6
CONTINUOUS
 10
43.924631083
 20
-53.6611869272
 11
42.0963309347
 21
-54.6455849069
  0
LINE
  5
38E
100
AcDbEntity
  8
CURVE
100
AcDbLine
 62
250
  6
CONTINUOUS
 10
42.0963309347
 20
-55.071613382
 11
43.924631083
 21
-54.0872154023
  0
LINE
  5
38F
100
AcDbEntity
  8
SMUSSO
100
AcDbLine
 62
7
  6
CONTINUOUS
 10
40.9654875612
 20
-61.8433345602
 11
40.9439862093
 21
-61.8548961119
  0
LINE
  5
390
100
AcDbEntity
  8
ASSI
100
AcDbLine
 62
7
  6
CONTINUOUS
 10
40.9654875612
 20
-61.8433345602
 11
40.9439862093
 21
-61.8548961119
  0
LINE
  5
391
100
AcDbEntity
  8
SMUSSO
100
AcDbLine
 62
7
  6
CONTINUOUS
 10
40.9654875612
 20
-61.8433345602
 11
45.0274205459
 21
-59.8145560459
  0
LINE
  5
392
100
AcDbEntity
  8
ASSI
100
AcDbLine
 62
7
  6
CONTINUOUS
 10
40.9654875612
 20
-61.8433345602
 11
45.0274205459
 21
-59.8145560459
  0
LINE
  5
393
100
AcDbEntity
  8
SMUSSO
100
AcDbLine
 62
7
  6
CONTINUOUS
 10
40.2579502919
 20
-62.251778754
 11
44.3198832767
 21
-60.2230002398
  0
LINE
  5
394
100
AcDbEntity
  8
ASSI
100
AcDbLine
 62
7
  6
CONTINUOUS
 10
40.2579502919
 20
-62.251778754
 11
44.3198832767
 21
-60.2230002398
  0
ARC
  5
395
100
AcDbEntity
  8
0
100
AcDbCircle
 62
7
  6
CONTINUOUS
 10
-21.9911656226
 20
17.3947333287
 40
0.3
100
AcDbArc
 50
0.0007992921
 51
59.9992007414
  0
ARC
  5
396
100
AcDbEntity
  8
0
100
AcDbCircle
 62
7
  6
CONTINUOUS
 10
-22.4103477282
 20
17.6367638229
 40
0.3
100
AcDbArc
 50
60.0005489507
 51
118.2699256376
  0
ARC
  5
397
100
AcDbEntity
  8
0
100
AcDbCircle
 62
7
  6
CONTINUOUS
 10
-21.9911656226
 20
13.114132332
 40
0.3
100
AcDbArc
 50
301.7332683128
 51
359.9978457589
  0
ARC
  5
398
100
AcDbEntity
  8
0
100
AcDbCircle
 62
7
  6
CONTINUOUS
 10
-11.7000912703
 20
-11.8133397414
 40
0.3
100
AcDbArc
 50
300.108989087
 51
314.2001405653
  0
ARC
  5
399
100
AcDbEntity
  8
0
100
AcDbCircle
 62
7
  6
CONTINUOUS
 10
20.1197138831
 20
-30.1856964412
 40
0.3
100
AcDbArc
 50
300.108989087
 51
314.2001405653
  0
ARC
  5
39A
100
AcDbEntity
  8
0
100
AcDbCircle
 62
7
  6
CONTINUOUS
 10
6.1974231853
 20
-19.798422497
 40
0.1779620607
100
AcDbArc
 50
303.7143364849
 51
315.9708985531
  0
ARC
  5
39B
100
AcDbEntity
  8
0
100
AcDbCircle
 62
250
  6
CONTINUOUS
 10
-11.5997560295
 20
-11.9861805028
 40
0.1003698288
100
AcDbArc
 50
300.1329173735
 51
304.4953588459
  0
ARC
  5
39C
100
AcDbEntity
  8
0
100
AcDbCircle
 62
250
  6
CONTINUOUS
 10
20.2200491239
 20
-30.3585372026
 40
0.1003698288
100
AcDbArc
 50
300.1329173735
 51
304.4953588459
  0
SPLINE
  5
39D
100
AcDbEntity
  8
0
100
AcDbSpline
 62
7
  6
CONTINUOUS
 70
0
 71
3
 72
11
 73
7
 74
0
 42
0.0000001
 43
0.0000001
 44
0.0000000001
 40
0.0
 40
0.0
 40
0.0
 40
0.0
 40
0.2902707218
 40
0.5494825361
 40
0.7821401989
 40
1.0
 40
1.0
 40
1.0
 40
1.0
 10
-25.1175721478
 20
10.9356936936
 30
0.0
 10
-25.104130537
 20
10.9279326761
 30
0.0
 10
-25.0773968775
 20
10.9152627065
 30
0.0
 10
-25.0362912526
 20
10.9056381018
 30
0.0
 10
-24.9978158242
 20
10.9072115146
 30
0.0
 10
-24.9748645041
 20
10.9162349664
 30
0.0
 10
-24.9649576896
 20
10.9223637748
 30
0.0
  0
SPLINE
  5
39E
100
AcDbEntity
  8
0
100
AcDbSpline
 62
7
  6
CONTINUOUS
 70
0
 71
3
 72
9
 73
5
 74
0
 42
0.0000001
 43
0.0000001
 44
0.0000000001
 40
0.0
 40
0.0
 40
0.0
 40
0.0
 40
0.5018288403
 40
1.0
 40
1.0
 40
1.0
 40
1.0
 10
4.5304525229
 20
-21.1605835833
 30
0.0
 10
4.5732719183
 20
-21.1357494207
 30
0.0
 10
4.6543593008
 20
-21.0788962771
 30
0.0
 10
4.7283457871
 20
-21.0134335231
 30
0.0
 10
4.7635708915
 20
-20.9791721692
 30
0.0
  0
SPLINE
  5
39F
100
AcDbEntity
  8
0
100
AcDbSpline
 62
7
  6
CONTINUOUS
 70
0
 71
3
 72
9
 73
5
 74
0
 42
0.0000001
 43
0.0000001
 44
0.0000000001
 40
0.0
 40
0.0
 40
0.0
 40
0.0
 40
0.4988041848
 40
1.0
 40
1.0
 40
1.0
 40
1.0
 10
6.325375572
 20
-19.9221103371
 30
0.0
 10
6.3407087738
 20
-19.9062195401
 30
0.0
 10
6.3656779542
 20
-19.8680172151
 30
0.0
 10
6.373323892
 20
-19.8231703952
 30
0.0
 10
6.3733114441
 20
-19.800982299
 30
0.0
  0
SPLINE
  5
3A0
100
AcDbEntity
  8
0
100
AcDbSpline
 62
250
  6
CONTINUOUS
 70
0
 71
3
 72
9
 73
5
 74
0
 42
0.0000001
 43
0.0000001
 44
0.0000000001
 40
0.0
 40
0.0
 40
0.0
 40
0.0
 40
0.4808335491
 40
1.0
 40
1.0
 40
1.0
 40
1.0
 10
-11.5429126331
 20
-12.0689025121
 30
0.0
 10
-11.5336794239
 20
-12.0625583074
 30
0.0
 10
-11.5166435766
 20
-12.0459938543
 30
0.0
 10
-11.5054436909
 20
-12.0251999051
 30
0.0
 10
-11.50095598
 20
-12.0139673853
 30
0.0
  0
SPLINE
  5
3A1
100
AcDbEntity
  8
0
100
AcDbSpline
 62
250
  6
CONTINUOUS
 70
0
 71
3
 72
8
 73
4
 74
0
 42
0.0000001
 43
0.0000001
 44
0.0000000001
 40
0.0
 40
0.0
 40
0.0
 40
0.0
 40
1.0
 40
1.0
 40
1.0
 40
1.0
 10
-11.50095598
 20
-12.0139673853
 30
0.0
 10
-11.4984839269
 20
-12.0077799579
 30
0.0
 10
-11.4964044396
 20
-12.0014250578
 30
0.0
 10
-11.4946823797
 20
-11.9949884583
 30
0.0
  0
SPLINE
  5
3A2
100
AcDbEntity
  8
0
100
AcDbSpline
 62
250
  6
CONTINUOUS
 70
0
 71
3
 72
9
 73
5
 74
0
 42
0.0000001
 43
0.0000001
 44
0.0000000001
 40
0.0
 40
0.0
 40
0.0
 40
0.0
 40
0.4808335491
 40
1.0
 40
1.0
 40
1.0
 40
1.0
 10
20.2768925203
 20
-30.4412592118
 30
0.0
 10
20.2861257295
 20
-30.4349150072
 30
0.0
 10
20.3031615767
 20
-30.418350554
 30
0.0
 10
20.3143614625
 20
-30.3975566049
 30
0.0
 10
20.3188491734
 20
-30.386324085
 30
0.0
  0
SPLINE
  5
3A3
100
AcDbEntity
  8
0
100
AcDbSpline
 62
250
  6
CONTINUOUS
 70
0
 71
3
 72
8
 73
4
 74
0
 42
0.0000001
 43
0.0000001
 44
0.0000000001
 40
0.0
 40
0.0
 40
0.0
 40
0.0
 40
1.0
 40
1.0
 40
1.0
 40
1.0
 10
20.3188491734
 20
-30.386324085
 30
0.0
 10
20.3213212265
 20
-30.3801366577
 30
0.0
 10
20.3234007138
 20
-30.3737817575
 30
0.0
 10
20.3251227737
 20
-30.367345158
 30
0.0
  0
SPLINE
  5
3A4
100
AcDbEntity
  8
0
100
AcDbSpline
 62
7
  6
CONTINUOUS
 70
0
 71
3
 72
11
 73
7
 74
0
 42
0.0000001
 43
0.0000001
 44
0.0000000001
 40
0.0
 40
0.0
 40
0.0
 40
0.0
 40
0.2372348155
 40
0.5000006517
 40
0.7627642473
 40
1.0
 40
1.0
 40
1.0
 40
1.0
 10
-24.9054401134
 20
15.46713411
 30
0.0
 10
-24.9054401134
 20
15.501907166
 30
0.0
 10
-24.9184815542
 20
15.5752430233
 30
0.0
 10
-24.9639426368
 20
15.6782924459
 30
0.0
 10
-25.0304640347
 20
15.7691823894
 30
0.0
 10
-25.087458164
 20
15.8171377395
 30
0.0
 10
-25.1175721478
 20
15.8345251763
 30
0.0
  0
SPLINE
  5
3A5
100
AcDbEntity
  8
0
100
AcDbSpline
 62
250
  6
CONTINUOUS
 70
0
 71
3
 72
11
 73
7
 74
0
 42
0.0000001
 43
0.0000001
 44
0.0000000001
 40
0.0
 40
0.0
 40
0.0
 40
0.0
 40
0.2187603581
 40
0.4523095269
 40
0.7113215761
 40
1.0
 40
1.0
 40
1.0
 40
1.0
 10
-21.6911656688
 20
17.3947333287
 30
0.0
 10
-21.6911664869
 20
17.3835634627
 30
0.0
 10
-21.6951868976
 20
17.3603187733
 30
0.0
 10
-21.7124362824
 20
17.3278097223
 30
0.0
 10
-21.7397733238
 20
17.2982824603
 30
0.0
 10
-21.7627126546
 20
17.2819712953
 30
0.0
 10
-21.7753636825
 20
17.2744072176
 30
0.0
  0
SPLINE
  5
3A6
100
AcDbEntity
  8
0
100
AcDbSpline
 62
250
  6
CONTINUOUS
 70
0
 71
3
 72
11
 73
7
 74
0
 42
0.0000001
 43
0.0000001
 44
0.0000000001
 40
0.0
 40
0.0
 40
0.0
 40
0.0
 40
0.2187556894
 40
0.4523030936
 40
0.7113134247
 40
1.0
 40
1.0
 40
1.0
 40
1.0
 10
-21.841162019
 20
17.6545388216
 30
0.0
 10
-21.8508355442
 20
17.6601227531
 30
0.0
 10
-21.8729762241
 20
17.6682619134
 30
0.0
 10
-21.9097537606
 20
17.6695755721
 30
0.0
 10
-21.9489927564
 20
17.660661891
 30
0.0
 10
-21.9745874231
 20
17.6489496387
 30
0.0
 10
-21.9874634081
 20
17.6417747182
 30
0.0
  0
SPLINE
  5
3A7
100
AcDbEntity
  8
0
100
AcDbSpline
 62
250
  6
CONTINUOUS
 70
0
 71
3
 72
11
 73
7
 74
0
 42
0.0000001
 43
0.0000001
 44
0.0000000001
 40
0.0
 40
0.0
 40
0.0
 40
0.0
 40
0.2187504078
 40
0.4522967227
 40
0.7113126141
 40
1.0
 40
1.0
 40
1.0
 40
1.0
 10
-22.2603502408
 20
17.8965728406
 30
0.0
 10
-22.2700235065
 20
17.9021556661
 30
0.0
 10
-22.2921631426
 20
17.9102933277
 30
0.0
 10
-22.328938996
 20
17.9116055458
 30
0.0
 10
-22.3681762474
 20
17.90269158
 30
0.0
 10
-22.3937700781
 20
17.8909798267
 30
0.0
 10
-22.4066455137
 20
17.8838052124
 30
0.0
  0
SPLINE
  5
3A8
100
AcDbEntity
  8
0
100
AcDbSpline
 62
250
  6
CONTINUOUS
 70
0
 71
3
 72
11
 73
7
 74
0
 42
0.0000001
 43
0.0000001
 44
0.0000000001
 40
0.0
 40
0.0
 40
0.0
 40
0.0
 40
0.2187601249
 40
0.4523110155
 40
0.711323703
 40
1.0
 40
1.0
 40
1.0
 40
1.0
 10
-21.6911656702
 20
13.1141210525
 30
0.0
 10
-21.6911677548
 20
13.1029520119
 30
0.0
 10
-21.695190154
 20
13.0797094411
 30
0.0
 10
-21.7124401946
 20
13.0472037896
 30
0.0
 10
-21.7397759994
 20
13.0176794676
 30
0.0
 10
-21.762713669
 20
13.0013696921
 30
0.0
 10
-21.7753636825
 20
12.9938062209
 30
0.0
  0
SPLINE
  5
3A9
100
AcDbEntity
  8
0
100
AcDbSpline
 62
250
  6
CONTINUOUS
 70
0
 71
3
 72
11
 73
7
 74
0
 42
0.0000001
 43
0.0000001
 44
0.0000000001
 40
0.0
 40
0.0
 40
0.0
 40
0.0
 40
0.2187326905
 40
0.4522634167
 40
0.7112958566
 40
1.0
 40
1.0
 40
1.0
 40
1.0
 10
-22.5524353979
 20
17.9009814133
 30
0.0
 10
-22.5426022159
 20
17.9062672987
 30
0.0
 10
-22.5202376667
 20
17.913732778
 30
0.0
 10
-22.4834521238
 20
17.9139332203
 30
0.0
 10
-22.44451564
 20
17.9038390143
 30
0.0
 10
-22.4192945087
 20
17.8913634666
 30
0.0
 10
-22.4066455137
 20
17.8838052124
 30
0.0
  0
SPLINE
  5
3AA
100
AcDbEntity
  8
0
100
AcDbSpline
 62
7
  6
CONTINUOUS
 70
0
 71
3
 72
11
 73
7
 74
0
 42
0.0000001
 43
0.0000001
 44
0.0000000001
 40
0.0
 40
0.0
 40
0.0
 40
0.0
 40
0.2177615105
 40
0.4513621975
 40
0.7109010312
 40
1.0
 40
1.0
 40
1.0
 40
1.0
 10
-24.9649576896
 20
10.9223637748
 30
0.0
 10
-24.9554277625
 20
10.9282594235
 30
0.0
 10
-24.9376807038
 20
10.9439939471
 30
0.0
 10
-24.9188479532
 20
10.9759013069
 30
0.0
 10
-24.9076518464
 20
11.0149186716
 30
0.0
 10
-24.9054401134
 20
11.0432427587
 30
0.0
 10
-24.9054401134
 20
11.0581200039
 30
0.0
  0
SPLINE
  5
3AB
100
AcDbEntity
  8
0
100
AcDbSpline
 62
250
  6
CONTINUOUS
 70
0
 71
3
 72
11
 73
7
 74
0
 42
0.0000001
 43
0.0000001
 44
0.0000000001
 40
0.0
 40
0.0
 40
0.0
 40
0.0
 40
0.2377546645
 40
0.500005962
 40
0.762254009
 40
1.0
 40
1.0
 40
1.0
 40
1.0
 10
-21.9874634081
 20
17.6417747182
 30
0.0
 10
-21.9569608181
 20
17.6247564635
 30
0.0
 10
-21.8992271097
 20
17.5773292926
 30
0.0
 10
-21.8322190541
 20
17.4864907694
 30
0.0
 10
-21.787054958
 20
17.3830420719
 30
0.0
 10
-21.7748496746
 20
17.3093310744
 30
0.0
 10
-21.7753636825
 20
17.2744072176
 30
0.0
  0
SPLINE
  5
3AC
100
AcDbEntity
  8
0
100
AcDbSpline
 62
250
  6
CONTINUOUS
 70
0
 71
3
 72
11
 73
7
 74
0
 42
0.0000001
 43
0.0000001
 44
0.0000000001
 40
0.0
 40
0.0
 40
0.0
 40
0.0
 40
0.2886987287
 40
0.547729285
 40
0.7812621972
 40
1.0
 40
1.0
 40
1.0
 40
1.0
 10
-21.7753636825
 20
12.9938062209
 30
0.0
 10
-21.7751429891
 20
12.9790752879
 30
0.0
 10
-21.7769498461
 20
12.9510001413
 30
0.0
 10
-21.787675219
 20
12.912239524
 30
0.0
 10
-21.8062388341
 20
12.8804872751
 30
0.0
 10
-21.8238833633
 20
12.8648534121
 30
0.0
 10
-21.8333760898
 20
12.8589808031
 30
0.0
  0
SPLINE
  5
3AD
100
AcDbEntity
  8
0
100
AcDbSpline
 62
7
  6
CONTINUOUS
 70
0
 71
3
 72
11
 73
7
 74
0
 42
0.0000001
 43
0.0000001
 44
0.0000000001
 40
0.0
 40
0.0
 40
0.0
 40
0.0
 40
0.2899762507
 40
0.5490287071
 40
0.7820006739
 40
1.0
 40
1.0
 40
1.0
 40
1.0
 10
-24.4191375066
 20
16.237751749
 30
0.0
 10
-24.4065101505
 20
16.2450426511
 30
0.0
 10
-24.3836437844
 20
16.2608318099
 30
0.0
 10
-24.3562787804
 20
16.2895514597
 30
0.0
 10
-24.3389926851
 20
16.3213545922
 30
0.0
 10
-24.3349727272
 20
16.3441858097
 30
0.0
 10
-24.3349729746
 20
16.35514761
 30
0.0
  0
SPLINE
  5
3AE
100
AcDbEntity
  8
0
100
AcDbSpline
 62
250
  6
CONTINUOUS
 70
0
 71
3
 72
10
 73
6
 74
0
 42
0.0000001
 43
0.0000001
 44
0.0000000001
 40
0.0
 40
0.0
 40
0.0
 40
0.0
 40
0.3605966183
 40
0.6415348434
 40
1.0
 40
1.0
 40
1.0
 40
1.0
 10
-11.4946823797
 20
-11.9949884583
 30
0.0
 10
-11.4929674439
 20
-11.9988257713
 30
0.0
 10
-11.4901708598
 20
-12.0058717083
 30
0.0
 10
-11.4872203662
 20
-12.0168180357
 30
0.0
 10
-11.4877642205
 20
-12.0256102391
 30
0.0
 10
-11.4907585822
 20
-12.0285242649
 30
0.0
  0
SPLINE
  5
3AF
100
AcDbEntity
  8
0
100
AcDbSpline
 62
250
  6
CONTINUOUS
 70
0
 71
3
 72
10
 73
6
 74
0
 42
0.0000001
 43
0.0000001
 44
0.0000000001
 40
0.0
 40
0.0
 40
0.0
 40
0.0
 40
0.3605966183
 40
0.6415348434
 40
1.0
 40
1.0
 40
1.0
 40
1.0
 10
20.3251227737
 20
-30.367345158
 30
0.0
 10
20.3268377095
 20
-30.3711824711
 30
0.0
 10
20.3296342936
 20
-30.378228408
 30
0.0
 10
20.3325847872
 20
-30.3891747355
 30
0.0
 10
20.3320409329
 20
-30.3979669388
 30
0.0
 10
20.3290465712
 20
-30.4008809647
 30
0.0
  0
SPLINE
  5
3B0
100
AcDbEntity
  8
0
100
AcDbSpline
 62
250
  6
CONTINUOUS
 70
0
 71
3
 72
9
 73
5
 74
0
 42
0.0000001
 43
0.0000001
 44
0.0000000001
 40
0.0
 40
0.0
 40
0.0
 40
0.0
 40
0.2597496334
 40
1.0
 40
1.0
 40
1.0
 40
1.0
 10
21.4089127248
 20
-33.7274422118
 30
0.0
 10
21.4089124002
 20
-33.7366084447
 30
0.0
 10
21.4081729901
 20
-33.7718883497
 30
0.0
 10
21.4044046479
 20
-33.8071427084
 30
0.0
 10
21.3995399861
 20
-33.832808241
 30
0.0
  0
SPLINE
  5
3B1
100
AcDbEntity
  8
0
100
AcDbSpline
 62
250
  6
CONTINUOUS
 70
0
 71
3
 72
15
 73
11
 74
0
 42
0.0000001
 43
0.0000001
 44
0.0000000001
 40
0.0
 40
0.0
 40
0.0
 40
0.0
 40
0.1336011175
 40
0.2550750405
 40
0.3681401493
 40
0.4784359791
 40
0.5923571646
 40
0.7153235809
 40
0.8508063266
 40
1.0
 40
1.0
 40
1.0
 40
1.0
 10
21.3995399861
 20
-33.832808241
 30
0.0
 10
21.3943336784
 20
-33.8602762676
 30
0.0
 10
21.3797977713
 20
-33.9120688195
 30
0.0
 10
21.3427277465
 20
-33.9804590303
 30
0.0
 10
21.2920083726
 20
-34.0331969794
 30
0.0
 10
21.2291884399
 20
-34.0677166451
 30
0.0
 10
21.1570698624
 20
-34.0825487627
 30
0.0
 10
21.0785442023
 20
-34.0778127357
 30
0.0
 10
20.9959927336
 20
-34.054328551
 30
0.0
 10
20.9421813707
 20
-34.0280924312
 30
0.0
 10
20.9151437116
 20
-34.0124831493
 30
0.0
  0
SPLINE
  5
3B2
100
AcDbEntity
  8
0
100
AcDbSpline
 62
250
  6
CONTINUOUS
 70
0
 71
3
 72
11
 73
7
 74
0
 42
0.0000001
 43
0.0000001
 44
0.0000000001
 40
0.0
 40
0.0
 40
0.0
 40
0.0
 40
0.2216876661
 40
0.4565284453
 40
0.7144750612
 40
1.0
 40
1.0
 40
1.0
 40
1.0
 10
-25.2088451759
 20
-4.9206136998
 30
0.0
 10
-25.2088515206
 20
-4.9379415138
 30
0.0
 10
-25.2146013368
 20
-4.9738331802
 30
0.0
 10
-25.2394986682
 20
-5.0245682918
 30
0.0
 10
-25.2792498965
 20
-5.0712797594
 30
0.0
 10
-25.3128986033
 20
-5.0976440788
 30
0.0
 10
-25.3314889854
 20
-5.1099919647
 30
0.0
  0
SPLINE
  5
3B3
100
AcDbEntity
  8
0
100
AcDbSpline
 62
250
  6
CONTINUOUS
 70
0
 71
3
 72
11
 73
7
 74
0
 42
0.0000001
 43
0.0000001
 44
0.0000000001
 40
0.0
 40
0.0
 40
0.0
 40
0.0
 40
0.2216783403
 40
0.4565150057
 40
0.7144647266
 40
1.0
 40
1.0
 40
1.0
 40
1.0
 10
-24.7534708341
 20
-5.7093356397
 30
0.0
 10
-24.7684796471
 20
-5.7006775922
 30
0.0
 10
-24.802437025
 20
-5.6877123931
 30
0.0
 10
-24.8588229341
 20
-5.6839098248
 30
0.0
 10
-24.9191516811
 20
-5.6949838845
 30
0.0
 10
-24.9588080026
 20
-5.7109453278
 30
0.0
 10
-24.9787968331
 20
-5.7208726913
 30
0.0
  0
SPLINE
  5
3B4
100
AcDbEntity
  8
0
100
AcDbSpline
 62
250
  6
CONTINUOUS
 70
0
 71
3
 72
11
 73
7
 74
0
 42
0.0000001
 43
0.0000001
 44
0.0000000001
 40
0.0
 40
0.0
 40
0.0
 40
0.0
 40
0.2203938202
 40
0.4516170075
 40
0.7090801208
 40
1.0
 40
1.0
 40
1.0
 40
1.0
 10
21.3088551365
 20
-33.7905250466
 30
0.0
 10
21.2924731622
 20
-33.802762486
 30
0.0
 10
21.2537750433
 20
-33.8216963054
 30
0.0
 10
21.1869455407
 20
-33.827051302
 30
0.0
 10
21.1156227739
 20
-33.8106224496
 30
0.0
 10
21.0697181535
 20
-33.7877241739
 30
0.0
 10
21.0467000127
 20
-33.7736279106
 30
0.0
  0
SPLINE
  5
3B5
100
AcDbEntity
  8
0
100
AcDbSpline
 62
250
  6
CONTINUOUS
 70
0
 71
3
 72
11
 73
7
 74
0
 42
0.0000001
 43
0.0000001
 44
0.0000000001
 40
0.0
 40
0.0
 40
0.0
 40
0.0
 40
0.2908831205
 40
0.5483299289
 40
0.7795827961
 40
1.0
 40
1.0
 40
1.0
 40
1.0
 10
-26.6115646092
 20
30.4023265016
 30
0.0
 10
-26.6122626329
 20
30.4293001151
 30
0.0
 10
-26.6091414125
 20
30.4804886327
 30
0.0
 10
-26.5877138281
 20
30.5504538183
 30
0.0
 10
-26.5496739556
 20
30.6056486965
 30
0.0
 10
-26.5139336987
 20
30.6296971517
 30
0.0
 10
-26.4951481164
 20
30.6377685087
 30
0.0
  0
SPLINE
  5
3B6
100
AcDbEntity
  8
0
100
AcDbSpline
 62
250
  6
CONTINUOUS
 70
0
 71
3
 72
11
 73
7
 74
0
 42
0.0000001
 43
0.0000001
 44
0.0000000001
 40
0.0
 40
0.0
 40
0.0
 40
0.0
 40
0.2379233746
 40
0.4999811907
 40
0.7620363772
 40
1.0
 40
1.0
 40
1.0
 40
1.0
 10
-26.2588724569
 20
-6.4599832447
 30
0.0
 10
-26.310019607
 20
-6.4321469058
 30
0.0
 10
-26.4069895673
 20
-6.3540187417
 30
0.0
 10
-26.5191269303
 20
-6.2030041727
 30
0.0
 10
-26.5938533606
 20
-6.030377714
 30
0.0
 10
-26.6130323593
 20
-5.9073252437
 30
0.0
 10
-26.6115646092
 20
-5.8491025181
 30
0.0
  0
SPLINE
  5
3B7
100
AcDbEntity
  8
0
100
AcDbSpline
 62
250
  6
CONTINUOUS
 70
0
 71
3
 72
9
 73
5
 74
0
 42
0.0000001
 43
0.0000001
 44
0.0000000001
 40
0.0
 40
0.0
 40
0.0
 40
0.0
 40
0.2393669304
 40
1.0
 40
1.0
 40
1.0
 40
1.0
 10
20.9151437116
 20
3.3792198251
 30
0.0
 10
20.9260018122
 20
3.3729499813
 30
0.0
 10
20.9706118487
 20
3.3454618275
 30
0.0
 10
21.0122223905
 20
3.3132203857
 30
0.0
 10
21.0420798415
 20
3.2868388851
 30
0.0
  0
SPLINE
  5
3B8
100
AcDbEntity
  8
0
100
AcDbSpline
 62
250
  6
CONTINUOUS
 70
0
 71
3
 72
9
 73
5
 74
0
 42
0.0000001
 43
0.0000001
 44
0.0000000001
 40
0.0
 40
0.0
 40
0.0
 40
0.0
 40
0.4992892719
 40
1.0
 40
1.0
 40
1.0
 40
1.0
 10
21.0420798415
 20
3.2868388851
 30
0.0
 10
21.1292209618
 20
3.2098425764
 30
0.0
 10
21.2759554977
 20
3.0236718999
 30
0.0
 10
21.3657729593
 20
2.8043793636
 30
0.0
 10
21.3902395167
 20
2.6903596426
 30
0.0
  0
SPLINE
  5
3B9
100
AcDbEntity
  8
0
100
AcDbSpline
 62
250
  6
CONTINUOUS
 70
0
 71
3
 72
9
 73
5
 74
0
 42
0.0000001
 43
0.0000001
 44
0.0000000001
 40
0.0
 40
0.0
 40
0.0
 40
0.0
 40
0.2608801738
 40
1.0
 40
1.0
 40
1.0
 40
1.0
 10
21.3902395167
 20
2.6903596426
 30
0.0
 10
21.3932970855
 20
2.6761106767
 30
0.0
 10
21.4037317204
 20
2.6212349191
 30
0.0
 10
21.4089109297
 20
2.5652756191
 30
0.0
 10
21.4089127248
 20
2.5239868079
 30
0.0
  0
SPLINE
  5
3BA
100
AcDbEntity
  8
0
100
AcDbSpline
 62
250
  6
CONTINUOUS
 70
0
 71
3
 72
11
 73
7
 74
0
 42
0.0000001
 43
0.0000001
 44
0.0000000001
 40
0.0
 40
0.0
 40
0.0
 40
0.0
 40
0.2349082147
 40
0.4999468933
 40
0.7650096486
 40
1.0
 40
1.0
 40
1.0
 40
1.0
 10
-25.3314889854
 20
-5.1099919647
 30
0.0
 10
-25.3282360328
 20
-5.1666780567
 30
0.0
 10
-25.301501732
 20
-5.2861633302
 30
0.0
 10
-25.2241449489
 20
-5.4552324464
 30
0.0
 10
-25.1164018961
 20
-5.6067807821
 30
0.0
 10
-25.0262788171
 20
-5.689702019
 30
0.0
 10
-24.9787968331
 20
-5.7208726913
 30
0.0
  0
SPLINE
  5
3BB
100
AcDbEntity
  8
0
100
AcDbSpline
 62
250
  6
CONTINUOUS
 70
0
 71
3
 72
10
 73
6
 74
0
 42
0.0000001
 43
0.0000001
 44
0.0000000001
 40
0.0
 40
0.0
 40
0.0
 40
0.0
 40
0.5477335017
 40
0.7815732361
 40
1.0
 40
1.0
 40
1.0
 40
1.0
 10
20.9151437116
 20
3.3792198251
 30
0.0
 10
20.9151437117
 20
3.3601206979
 30
0.0
 10
20.9192081069
 20
3.3319948599
 30
0.0
 10
20.9376126782
 20
3.3018541489
 30
0.0
 10
20.949969122
 20
3.2914891169
 30
0.0
 10
20.956563794
 20
3.2876786134
 30
0.0
  0
SPLINE
  5
3BC
100
AcDbEntity
  8
0
100
AcDbSpline
 62
250
  6
CONTINUOUS
 70
0
 71
3
 72
10
 73
6
 74
0
 42
0.0000001
 43
0.0000001
 44
0.0000000001
 40
0.0
 40
0.0
 40
0.0
 40
0.0
 40
0.5477265046
 40
0.7815686222
 40
1.0
 40
1.0
 40
1.0
 40
1.0
 10
21.4089127248
 20
2.5239868079
 30
0.0
 10
21.3923706325
 20
2.5335380047
 30
0.0
 10
21.3700429337
 20
2.5511240405
 30
0.0
 10
21.3531416671
 20
2.5821381477
 30
0.0
 10
21.3503436413
 20
2.5980241293
 30
0.0
 10
21.3503411933
 20
2.6056417273
 30
0.0
  0
SPLINE
  5
3BD
100
AcDbEntity
  8
0
100
AcDbSpline
 62
250
  6
CONTINUOUS
 70
0
 71
3
 72
10
 73
6
 74
0
 42
0.0000001
 43
0.0000001
 44
0.0000000001
 40
0.0
 40
0.0
 40
0.0
 40
0.0
 40
0.5477070348
 40
0.7815740797
 40
1.0
 40
1.0
 40
1.0
 40
1.0
 10
21.4089127248
 20
-33.7274422118
 30
0.0
 10
21.3923889252
 20
-33.7179015771
 30
0.0
 10
21.3700854713
 20
-33.7003397097
 30
0.0
 10
21.3531756788
 20
-33.6693754662
 30
0.0
 10
21.3503567915
 20
-33.6535111588
 30
0.0
 10
21.3503413284
 20
-33.6459019196
 30
0.0
  0
SPLINE
  5
3BE
100
AcDbEntity
  8
0
100
AcDbSpline
 62
250
  6
CONTINUOUS
 70
0
 71
3
 72
11
 73
7
 74
0
 42
0.0000001
 43
0.0000001
 44
0.0000000001
 40
0.0
 40
0.0
 40
0.0
 40
0.0
 40
0.2352630083
 40
0.4957635095
 40
0.7585500269
 40
1.0
 40
1.0
 40
1.0
 40
1.0
 10
20.9151437116
 20
-34.0124831493
 30
0.0
 10
20.9151437116
 20
-33.9903927515
 30
0.0
 10
20.9230575816
 20
-33.9438045521
 30
0.0
 10
20.9510019338
 20
-33.8777575252
 30
0.0
 10
20.9922794433
 20
-33.8184016923
 30
0.0
 10
21.0277620348
 20
-33.7860915505
 30
0.0
 10
21.0467000127
 20
-33.7736279106
 30
0.0
  0
SPLINE
  5
3BF
100
AcDbEntity
  8
0
100
AcDbSpline
 62
250
  6
CONTINUOUS
 70
0
 71
3
 72
11
 73
7
 74
0
 42
0.0000001
 43
0.0000001
 44
0.0000000001
 40
0.0
 40
0.0
 40
0.0
 40
0.0
 40
0.2352630411
 40
0.4957635506
 40
0.7585500538
 40
1.0
 40
1.0
 40
1.0
 40
1.0
 10
-26.390428758
 20
-6.6988384834
 30
0.0
 10
-26.3904287581
 20
-6.6767480826
 30
0.0
 10
-26.3825148868
 20
-6.6301598791
 30
0.0
 10
-26.3545705312
 20
-6.5641128508
 30
0.0
 10
-26.3132930221
 20
-6.5047570214
 30
0.0
 10
-26.2778104329
 20
-6.472446883
 30
0.0
 10
-26.2588724569
 20
-6.4599832447
 30
0.0
  0
SPLINE
  5
3C0
100
AcDbEntity
  8
0
100
AcDbSpline
 62
250
  6
CONTINUOUS
 70
0
 71
3
 72
11
 73
7
 74
0
 42
0.0000001
 43
0.0000001
 44
0.0000000001
 40
0.0
 40
0.0
 40
0.0
 40
0.0
 40
0.2352688722
 40
0.4957698352
 40
0.7585534177
 40
1.0
 40
1.0
 40
1.0
 40
1.0
 10
-26.8841977712
 20
-5.8436054662
 30
0.0
 10
-26.8650666228
 20
-5.8546515516
 30
0.0
 10
-26.8207626804
 20
-5.8710936483
 30
0.0
 10
-26.7495912934
 20
-5.879917659
 30
0.0
 10
-26.6775488689
 20
-5.8738476645
 30
0.0
 10
-26.6318267763
 20
-5.8592724092
 30
0.0
 10
-26.6115646092
 20
-5.8491025181
 30
0.0
  0
SPLINE
  5
3C1
100
AcDbEntity
  8
0
100
AcDbSpline
 62
250
  6
CONTINUOUS
 70
0
 71
3
 72
11
 73
7
 74
0
 42
0.0000001
 43
0.0000001
 44
0.0000000001
 40
0.0
 40
0.0
 40
0.0
 40
0.0
 40
0.2352689048
 40
0.4957698765
 40
0.7585534451
 40
1.0
 40
1.0
 40
1.0
 40
1.0
 10
-26.8841977712
 20
30.4078235535
 30
0.0
 10
-26.8650666201
 20
30.3967774667
 30
0.0
 10
-26.8207626736
 20
30.3803353695
 30
0.0
 10
-26.7495912838
 20
30.3715113608
 30
0.0
 10
-26.6775488626
 20
30.3775813576
 30
0.0
 10
-26.6318267741
 20
30.392156612
 30
0.0
 10
-26.6115646092
 20
30.4023265016
 30
0.0
  0
SPLINE
  5
3C2
100
AcDbEntity
  8
0
100
AcDbSpline
 62
250
  6
CONTINUOUS
 70
0
 71
3
 72
10
 73
6
 74
0
 42
0.0000001
 43
0.0000001
 44
0.0000000001
 40
0.0
 40
0.0
 40
0.0
 40
0.0
 40
0.5477151509
 40
0.7815783295
 40
1.0
 40
1.0
 40
1.0
 40
1.0
 10
-26.390428758
 20
30.692864491
 30
0.0
 10
-26.390428758
 20
30.6737852137
 30
0.0
 10
-26.3863726375
 20
30.6456904622
 30
0.0
 10
-26.368012652
 20
30.6155662387
 30
0.0
 10
-26.3556836467
 20
30.6051944101
 30
0.0
 10
-26.3491018908
 20
30.6013772402
 30
0.0
  0
SPLINE
  5
3C3
100
AcDbEntity
  8
0
100
AcDbSpline
 62
250
  6
CONTINUOUS
 70
0
 71
3
 72
15
 73
11
 74
0
 42
0.0000001
 43
0.0000001
 44
0.0000000001
 40
0.0
 40
0.0
 40
0.0
 40
0.0
 40
0.1448876585
 40
0.2745243341
 40
0.3911126568
 40
0.4999691755
 40
0.6088256319
 40
0.7254136866
 40
0.8550800113
 40
1.0
 40
1.0
 40
1.0
 40
1.0
 10
-26.8841977712
 20
30.4078235535
 30
0.0
 10
-26.8841962499
 20
30.4432294026
 30
0.0
 10
-26.8788711019
 20
30.5105471674
 30
0.0
 10
-26.8516852771
 20
30.6030404108
 30
0.0
 10
-26.805835645
 20
30.6781765003
 30
0.0
 10
-26.7421120393
 20
30.7318314845
 30
0.0
 10
-26.6637842225
 20
30.7601905464
 30
0.0
 10
-26.5757824181
 20
30.7623337805
 30
0.0
 10
-26.4820735626
 20
30.7396240832
 30
0.0
 10
-26.4210982406
 20
30.7105708881
 30
0.0
 10
-26.390428758
 20
30.692864491
 30
0.0
  0
SPLINE
  5
3C4
100
AcDbEntity
  8
0
100
AcDbSpline
 62
250
  6
CONTINUOUS
 70
0
 71
3
 72
11
 73
7
 74
0
 42
0.0000001
 43
0.0000001
 44
0.0000000001
 40
0.0
 40
0.0
 40
0.0
 40
0.0
 40
0.2371982273
 40
0.4999814088
 40
0.7627620186
 40
1.0
 40
1.0
 40
1.0
 40
1.0
 10
-26.390428758
 20
-6.6988384834
 30
0.0
 10
-26.4605206633
 20
-6.6583642804
 30
0.0
 10
-26.5932564624
 20
-6.5468138565
 30
0.0
 10
-26.7481741446
 20
-6.3352505764
 30
0.0
 10
-26.8539511248
 20
-6.0952987821
 30
0.0
 10
-26.8841934516
 20
-5.9245575036
 30
0.0
 10
-26.8841977712
 20
-5.8436054662
 30
0.0
  0
SPLINE
  5
3C5
100
AcDbEntity
  8
ASSI
100
AcDbSpline
 62
250
  6
CONTINUOUS
 70
0
 71
3
 72
11
 73
7
 74
0
 42
0.0000001
 43
0.0000001
 44
0.0000000001
 40
0.0
 40
0.0
 40
0.0
 40
0.0
 40
0.2908831205
 40
0.5483299289
 40
0.7795827961
 40
1.0
 40
1.0
 40
1.0
 40
1.0
 10
-26.6115646092
 20
30.4023265016
 30
0.0
 10
-26.6122626329
 20
30.4293001151
 30
0.0
 10
-26.6091414125
 20
30.4804886327
 30
0.0
 10
-26.5877138281
 20
30.5504538183
 30
0.0
 10
-26.5496739556
 20
30.6056486965
 30
0.0
 10
-26.5139336987
 20
30.6296971517
 30
0.0
 10
-26.4951481164
 20
30.6377685087
 30
0.0
  0
SPLINE
  5
3C6
100
AcDbEntity
  8
ASSI
100
AcDbSpline
 62
250
  6
CONTINUOUS
 70
0
 71
3
 72
11
 73
7
 74
0
 42
0.0000001
 43
0.0000001
 44
0.0000000001
 40
0.0
 40
0.0
 40
0.0
 40
0.0
 40
0.2379233746
 40
0.4999811907
 40
0.7620363772
 40
1.0
 40
1.0
 40
1.0
 40
1.0
 10
-26.2588724569
 20
-6.4599832447
 30
0.0
 10
-26.310019607
 20
-6.4321469058
 30
0.0
 10
-26.4069895673
 20
-6.3540187417
 30
0.0
 10
-26.5191269303
 20
-6.2030041727
 30
0.0
 10
-26.5938533606
 20
-6.030377714
 30
0.0
 10
-26.6130323593
 20
-5.9073252437
 30
0.0
 10
-26.6115646092
 20
-5.8491025181
 30
0.0
  0
SPLINE
  5
3C7
100
AcDbEntity
  8
ASSI
100
AcDbSpline
 62
250
  6
CONTINUOUS
 70
0
 71
3
 72
11
 73
7
 74
0
 42
0.0000001
 43
0.0000001
 44
0.0000000001
 40
0.0
 40
0.0
 40
0.0
 40
0.0
 40
0.2349082147
 40
0.4999468933
 40
0.7650096486
 40
1.0
 40
1.0
 40
1.0
 40
1.0
 10
-25.3314889854
 20
-5.1099919647
 30
0.0
 10
-25.3282360328
 20
-5.1666780567
 30
0.0
 10
-25.301501732
 20
-5.2861633302
 30
0.0
 10
-25.2241449489
 20
-5.4552324464
 30
0.0
 10
-25.1164018961
 20
-5.6067807821
 30
0.0
 10
-25.0262788171
 20
-5.689702019
 30
0.0
 10
-24.9787968331
 20
-5.7208726913
 30
0.0
  0
SPLINE
  5
3C8
100
AcDbEntity
  8
ASSI
100
AcDbSpline
 62
250
  6
CONTINUOUS
 70
0
 71
3
 72
10
 73
6
 74
0
 42
0.0000001
 43
0.0000001
 44
0.0000000001
 40
0.0
 40
0.0
 40
0.0
 40
0.0
 40
0.5477335017
 40
0.7815732361
 40
1.0
 40
1.0
 40
1.0
 40
1.0
 10
20.9151437116
 20
3.3792198251
 30
0.0
 10
20.9151437117
 20
3.3601206979
 30
0.0
 10
20.9192081069
 20
3.3319948599
 30
0.0
 10
20.9376126782
 20
3.3018541489
 30
0.0
 10
20.949969122
 20
3.2914891169
 30
0.0
 10
20.956563794
 20
3.2876786134
 30
0.0
  0
SPLINE
  5
3C9
100
AcDbEntity
  8
ASSI
100
AcDbSpline
 62
250
  6
CONTINUOUS
 70
0
 71
3
 72
10
 73
6
 74
0
 42
0.0000001
 43
0.0000001
 44
0.0000000001
 40
0.0
 40
0.0
 40
0.0
 40
0.0
 40
0.5477265046
 40
0.7815686222
 40
1.0
 40
1.0
 40
1.0
 40
1.0
 10
21.4089127248
 20
2.5239868079
 30
0.0
 10
21.3923706325
 20
2.5335380047
 30
0.0
 10
21.3700429337
 20
2.5511240405
 30
0.0
 10
21.3531416671
 20
2.5821381477
 30
0.0
 10
21.3503436413
 20
2.5980241293
 30
0.0
 10
21.3503411933
 20
2.6056417273
 30
0.0
  0
SPLINE
  5
3CA
100
AcDbEntity
  8
ASSI
100
AcDbSpline
 62
250
  6
CONTINUOUS
 70
0
 71
3
 72
10
 73
6
 74
0
 42
0.0000001
 43
0.0000001
 44
0.0000000001
 40
0.0
 40
0.0
 40
0.0
 40
0.0
 40
0.5477070348
 40
0.7815740797
 40
1.0
 40
1.0
 40
1.0
 40
1.0
 10
21.4089127248
 20
-33.7274422118
 30
0.0
 10
21.3923889252
 20
-33.7179015771
 30
0.0
 10
21.3700854713
 20
-33.7003397097
 30
0.0
 10
21.3531756788
 20
-33.6693754662
 30
0.0
 10
21.3503567915
 20
-33.6535111588
 30
0.0
 10
21.3503413284
 20
-33.6459019196
 30
0.0
  0
SPLINE
  5
3CB
100
AcDbEntity
  8
ASSI
100
AcDbSpline
 62
250
  6
CONTINUOUS
 70
0
 71
3
 72
11
 73
7
 74
0
 42
0.0000001
 43
0.0000001
 44
0.0000000001
 40
0.0
 40
0.0
 40
0.0
 40
0.0
 40
0.2352630083
 40
0.4957635095
 40
0.7585500269
 40
1.0
 40
1.0
 40
1.0
 40
1.0
 10
20.9151437116
 20
-34.0124831493
 30
0.0
 10
20.9151437116
 20
-33.9903927515
 30
0.0
 10
20.9230575816
 20
-33.9438045521
 30
0.0
 10
20.9510019338
 20
-33.8777575252
 30
0.0
 10
20.9922794433
 20
-33.8184016923
 30
0.0
 10
21.0277620348
 20
-33.7860915505
 30
0.0
 10
21.0467000127
 20
-33.7736279106
 30
0.0
  0
SPLINE
  5
3CC
100
AcDbEntity
  8
ASSI
100
AcDbSpline
 62
250
  6
CONTINUOUS
 70
0
 71
3
 72
11
 73
7
 74
0
 42
0.0000001
 43
0.0000001
 44
0.0000000001
 40
0.0
 40
0.0
 40
0.0
 40
0.0
 40
0.2352630411
 40
0.4957635506
 40
0.7585500538
 40
1.0
 40
1.0
 40
1.0
 40
1.0
 10
-26.390428758
 20
-6.6988384834
 30
0.0
 10
-26.3904287581
 20
-6.6767480826
 30
0.0
 10
-26.3825148868
 20
-6.6301598791
 30
0.0
 10
-26.3545705312
 20
-6.5641128508
 30
0.0
 10
-26.3132930221
 20
-6.5047570214
 30
0.0
 10
-26.2778104329
 20
-6.472446883
 30
0.0
 10
-26.2588724569
 20
-6.4599832447
 30
0.0
  0
SPLINE
  5
3CD
100
AcDbEntity
  8
ASSI
100
AcDbSpline
 62
250
  6
CONTINUOUS
 70
0
 71
3
 72
11
 73
7
 74
0
 42
0.0000001
 43
0.0000001
 44
0.0000000001
 40
0.0
 40
0.0
 40
0.0
 40
0.0
 40
0.2352688722
 40
0.4957698352
 40
0.7585534177
 40
1.0
 40
1.0
 40
1.0
 40
1.0
 10
-26.8841977712
 20
-5.8436054662
 30
0.0
 10
-26.8650666228
 20
-5.8546515516
 30
0.0
 10
-26.8207626804
 20
-5.8710936483
 30
0.0
 10
-26.7495912934
 20
-5.879917659
 30
0.0
 10
-26.6775488689
 20
-5.8738476645
 30
0.0
 10
-26.6318267763
 20
-5.8592724092
 30
0.0
 10
-26.6115646092
 20
-5.8491025181
 30
0.0
  0
SPLINE
  5
3CE
100
AcDbEntity
  8
ASSI
100
AcDbSpline
 62
250
  6
CONTINUOUS
 70
0
 71
3
 72
11
 73
7
 74
0
 42
0.0000001
 43
0.0000001
 44
0.0000000001
 40
0.0
 40
0.0
 40
0.0
 40
0.0
 40
0.2352689048
 40
0.4957698765
 40
0.7585534451
 40
1.0
 40
1.0
 40
1.0
 40
1.0
 10
-26.8841977712
 20
30.4078235535
 30
0.0
 10
-26.8650666201
 20
30.3967774667
 30
0.0
 10
-26.8207626736
 20
30.3803353695
 30
0.0
 10
-26.7495912838
 20
30.3715113608
 30
0.0
 10
-26.6775488626
 20
30.3775813576
 30
0.0
 10
-26.6318267741
 20
30.392156612
 30
0.0
 10
-26.6115646092
 20
30.4023265016
 30
0.0
  0
SPLINE
  5
3CF
100
AcDbEntity
  8
ASSI
100
AcDbSpline
 62
250
  6
CONTINUOUS
 70
0
 71
3
 72
10
 73
6
 74
0
 42
0.0000001
 43
0.0000001
 44
0.0000000001
 40
0.0
 40
0.0
 40
0.0
 40
0.0
 40
0.5477151509
 40
0.7815783295
 40
1.0
 40
1.0
 40
1.0
 40
1.0
 10
-26.390428758
 20
30.692864491
 30
0.0
 10
-26.390428758
 20
30.6737852137
 30
0.0
 10
-26.3863726375
 20
30.6456904622
 30
0.0
 10
-26.368012652
 20
30.6155662387
 30
0.0
 10
-26.3556836467
 20
30.6051944101
 30
0.0
 10
-26.3491018908
 20
30.6013772402
 30
0.0
  0
SPLINE
  5
3D0
100
AcDbEntity
  8
ASSI
100
AcDbSpline
 62
250
  6
CONTINUOUS
 70
0
 71
3
 72
11
 73
7
 74
0
 42
0.0000001
 43
0.0000001
 44
0.0000000001
 40
0.0
 40
0.0
 40
0.0
 40
0.0
 40
0.2216876661
 40
0.4565284453
 40
0.7144750612
 40
1.0
 40
1.0
 40
1.0
 40
1.0
 10
-25.2088451759
 20
-4.9206136998
 30
0.0
 10
-25.2088515206
 20
-4.9379415138
 30
0.0
 10
-25.2146013368
 20
-4.9738331802
 30
0.0
 10
-25.2394986682
 20
-5.0245682918
 30
0.0
 10
-25.2792498965
 20
-5.0712797594
 30
0.0
 10
-25.3128986033
 20
-5.0976440788
 30
0.0
 10
-25.3314889854
 20
-5.1099919647
 30
0.0
  0
SPLINE
  5
3D1
100
AcDbEntity
  8
ASSI
100
AcDbSpline
 62
250
  6
CONTINUOUS
 70
0
 71
3
 72
11
 73
7
 74
0
 42
0.0000001
 43
0.0000001
 44
0.0000000001
 40
0.0
 40
0.0
 40
0.0
 40
0.0
 40
0.2216783403
 40
0.4565150057
 40
0.7144647266
 40
1.0
 40
1.0
 40
1.0
 40
1.0
 10
-24.7534708341
 20
-5.7093356397
 30
0.0
 10
-24.7684796471
 20
-5.7006775922
 30
0.0
 10
-24.802437025
 20
-5.6877123931
 30
0.0
 10
-24.8588229341
 20
-5.6839098248
 30
0.0
 10
-24.9191516811
 20
-5.6949838845
 30
0.0
 10
-24.9588080026
 20
-5.7109453278
 30
0.0
 10
-24.9787968331
 20
-5.7208726913
 30
0.0
  0
SPLINE
  5
3D2
100
AcDbEntity
  8
ASSI
100
AcDbSpline
 62
250
  6
CONTINUOUS
 70
0
 71
3
 72
9
 73
5
 74
0
 42
0.0000001
 43
0.0000001
 44
0.0000000001
 40
0.0
 40
0.0
 40
0.0
 40
0.0
 40
0.2393669304
 40
1.0
 40
1.0
 40
1.0
 40
1.0
 10
20.9151437116
 20
3.3792198251
 30
0.0
 10
20.9260018122
 20
3.3729499813
 30
0.0
 10
20.9706118487
 20
3.3454618275
 30
0.0
 10
21.0122223905
 20
3.3132203857
 30
0.0
 10
21.0420798415
 20
3.2868388851
 30
0.0
  0
SPLINE
  5
3D3
100
AcDbEntity
  8
ASSI
100
AcDbSpline
 62
250
  6
CONTINUOUS
 70
0
 71
3
 72
9
 73
5
 74
0
 42
0.0000001
 43
0.0000001
 44
0.0000000001
 40
0.0
 40
0.0
 40
0.0
 40
0.0
 40
0.4992892719
 40
1.0
 40
1.0
 40
1.0
 40
1.0
 10
21.0420798415
 20
3.2868388851
 30
0.0
 10
21.1292209618
 20
3.2098425764
 30
0.0
 10
21.2759554977
 20
3.0236718999
 30
0.0
 10
21.3657729593
 20
2.8043793636
 30
0.0
 10
21.3902395167
 20
2.6903596426
 30
0.0
  0
SPLINE
  5
3D4
100
AcDbEntity
  8
ASSI
100
AcDbSpline
 62
250
  6
CONTINUOUS
 70
0
 71
3
 72
9
 73
5
 74
0
 42
0.0000001
 43
0.0000001
 44
0.0000000001
 40
0.0
 40
0.0
 40
0.0
 40
0.0
 40
0.2608801738
 40
1.0
 40
1.0
 40
1.0
 40
1.0
 10
21.3902395167
 20
2.6903596426
 30
0.0
 10
21.3932970855
 20
2.6761106767
 30
0.0
 10
21.4037317204
 20
2.6212349191
 30
0.0
 10
21.4089109297
 20
2.5652756191
 30
0.0
 10
21.4089127248
 20
2.5239868079
 30
0.0
  0
SPLINE
  5
3D5
100
AcDbEntity
  8
ASSI
100
AcDbSpline
 62
250
  6
CONTINUOUS
 70
0
 71
3
 72
15
 73
11
 74
0
 42
0.0000001
 43
0.0000001
 44
0.0000000001
 40
0.0
 40
0.0
 40
0.0
 40
0.0
 40
0.1448876585
 40
0.2745243341
 40
0.3911126568
 40
0.4999691755
 40
0.6088256319
 40
0.7254136866
 40
0.8550800113
 40
1.0
 40
1.0
 40
1.0
 40
1.0
 10
-26.8841977712
 20
30.4078235535
 30
0.0
 10
-26.8841962499
 20
30.4432294026
 30
0.0
 10
-26.8788711019
 20
30.5105471674
 30
0.0
 10
-26.8516852771
 20
30.6030404108
 30
0.0
 10
-26.805835645
 20
30.6781765003
 30
0.0
 10
-26.7421120393
 20
30.7318314845
 30
0.0
 10
-26.6637842225
 20
30.7601905464
 30
0.0
 10
-26.5757824181
 20
30.7623337805
 30
0.0
 10
-26.4820735626
 20
30.7396240832
 30
0.0
 10
-26.4210982406
 20
30.7105708881
 30
0.0
 10
-26.390428758
 20
30.692864491
 30
0.0
  0
SPLINE
  5
3D6
100
AcDbEntity
  8
ASSI
100
AcDbSpline
 62
250
  6
CONTINUOUS
 70
0
 71
3
 72
11
 73
7
 74
0
 42
0.0000001
 43
0.0000001
 44
0.0000000001
 40
0.0
 40
0.0
 40
0.0
 40
0.0
 40
0.2371982273
 40
0.4999814088
 40
0.7627620186
 40
1.0
 40
1.0
 40
1.0
 40
1.0
 10
-26.390428758
 20
-6.6988384834
 30
0.0
 10
-26.4605206633
 20
-6.6583642804
 30
0.0
 10
-26.5932564624
 20
-6.5468138565
 30
0.0
 10
-26.7481741446
 20
-6.3352505764
 30
0.0
 10
-26.8539511248
 20
-6.0952987821
 30
0.0
 10
-26.8841934516
 20
-5.9245575036
 30
0.0
 10
-26.8841977712
 20
-5.8436054662
 30
0.0
  0
SPLINE
  5
3D7
100
AcDbEntity
  8
ASSI
100
AcDbSpline
 62
250
  6
CONTINUOUS
 70
0
 71
3
 72
11
 73
7
 74
0
 42
0.0000001
 43
0.0000001
 44
0.0000000001
 40
0.0
 40
0.0
 40
0.0
 40
0.0
 40
0.2203938202
 40
0.4516170075
 40
0.7090801208
 40
1.0
 40
1.0
 40
1.0
 40
1.0
 10
21.3088551365
 20
-33.7905250466
 30
0.0
 10
21.2924731622
 20
-33.802762486
 30
0.0
 10
21.2537750433
 20
-33.8216963054
 30
0.0
 10
21.1869455407
 20
-33.827051302
 30
0.0
 10
21.1156227739
 20
-33.8106224496
 30
0.0
 10
21.0697181535
 20
-33.7877241739
 30
0.0
 10
21.0467000127
 20
-33.7736279106
 30
0.0
  0
SPLINE
  5
3D8
100
AcDbEntity
  8
ASSI
100
AcDbSpline
 62
250
  6
CONTINUOUS
 70
0
 71
3
 72
9
 73
5
 74
0
 42
0.0000001
 43
0.0000001
 44
0.0000000001
 40
0.0
 40
0.0
 40
0.0
 40
0.0
 40
0.2597496334
 40
1.0
 40
1.0
 40
1.0
 40
1.0
 10
21.4089127248
 20
-33.7274422118
 30
0.0
 10
21.4089124002
 20
-33.7366084447
 30
0.0
 10
21.4081729901
 20
-33.7718883497
 30
0.0
 10
21.4044046479
 20
-33.8071427084
 30
0.0
 10
21.3995399861
 20
-33.832808241
 30
0.0
  0
SPLINE
  5
3D9
100
AcDbEntity
  8
ASSI
100
AcDbSpline
 62
250
  6
CONTINUOUS
 70
0
 71
3
 72
15
 73
11
 74
0
 42
0.0000001
 43
0.0000001
 44
0.0000000001
 40
0.0
 40
0.0
 40
0.0
 40
0.0
 40
0.1336011175
 40
0.2550750405
 40
0.3681401493
 40
0.4784359791
 40
0.5923571646
 40
0.7153235809
 40
0.8508063266
 40
1.0
 40
1.0
 40
1.0
 40
1.0
 10
21.3995399861
 20
-33.832808241
 30
0.0
 10
21.3943336784
 20
-33.8602762676
 30
0.0
 10
21.3797977713
 20
-33.9120688195
 30
0.0
 10
21.3427277465
 20
-33.9804590303
 30
0.0
 10
21.2920083726
 20
-34.0331969794
 30
0.0
 10
21.2291884399
 20
-34.0677166451
 30
0.0
 10
21.1570698624
 20
-34.0825487627
 30
0.0
 10
21.0785442023
 20
-34.0778127357
 30
0.0
 10
20.9959927336
 20
-34.054328551
 30
0.0
 10
20.9421813707
 20
-34.0280924312
 30
0.0
 10
20.9151437116
 20
-34.0124831493
 30
0.0
  0
SPLINE
  5
3DA
100
AcDbEntity
  8
CURVE
100
AcDbSpline
 62
250
  6
CONTINUOUS
 70
0
 71
3
 72
9
 73
5
 74
0
 42
0.0000001
 43
0.0000001
 44
0.0000000001
 40
0.0
 40
0.0
 40
0.0
 40
0.0
 40
0.2426586216
 40
1.0
 40
1.0
 40
1.0
 40
1.0
 10
43.4298174039
 20
-48.4169855186
 30
0.0
 10
43.3965961014
 20
-48.4449764149
 30
0.0
 10
43.2624403859
 20
-48.5558038258
 30
0.0
 10
43.1110509768
 20
-48.7227472196
 30
0.0
 10
43.0712478173
 20
-48.8556152283
 30
0.0
  0
SPLINE
  5
3DB
100
AcDbEntity
  8
CURVE
100
AcDbSpline
 62
250
  6
CONTINUOUS
 70
0
 71
3
 72
9
 73
5
 74
0
 42
0.0000001
 43
0.0000001
 44
0.0000000001
 40
0.0
 40
0.0
 40
0.0
 40
0.0
 40
0.1980141723
 40
1.0
 40
1.0
 40
1.0
 40
1.0
 10
43.9246310951
 20
-48.0049248698
 30
0.0
 10
43.892035783
 20
-48.0323580225
 30
0.0
 10
43.7270547748
 20
-48.1695608711
 30
0.0
 10
43.5618047618
 20
-48.3057762763
 30
0.0
 10
43.4298174039
 20
-48.4169855186
 30
0.0
  0
SPLINE
  5
3DC
100
AcDbEntity
  8
CURVE
100
AcDbSpline
 62
250
  6
CONTINUOUS
 70
0
 71
3
 72
9
 73
5
 74
0
 42
0.0000001
 43
0.0000001
 44
0.0000000001
 40
0.0
 40
0.0
 40
0.0
 40
0.0
 40
0.5586214172
 40
1.0
 40
1.0
 40
1.0
 40
1.0
 10
43.3702637322
 20
-48.8994902564
 30
0.0
 10
43.471182617
 20
-48.8028269329
 30
0.0
 10
43.6580559051
 20
-48.646547268
 30
0.0
 10
43.8427676835
 20
-48.4850669912
 30
0.0
 10
43.9246310951
 20
-48.4147146479
 30
0.0
  0
SPLINE
  5
3DD
100
AcDbEntity
  8
CURVE
100
AcDbSpline
 62
250
  6
CONTINUOUS
 70
0
 71
3
 72
9
 73
5
 74
0
 42
0.0000001
 43
0.0000001
 44
0.0000000001
 40
0.0
 40
0.0
 40
0.0
 40
0.0
 40
0.3559141631
 40
1.0
 40
1.0
 40
1.0
 40
1.0
 10
43.209178179
 20
-49.2239080702
 30
0.0
 10
43.209178179
 20
-49.1867827713
 30
0.0
 10
43.2293151407
 20
-49.0691410484
 30
0.0
 10
43.3139203432
 20
-48.9534326974
 30
0.0
 10
43.3702637322
 20
-48.8994902564
 30
0.0
  0
SPLINE
  5
3DE
100
AcDbEntity
  8
CURVE
100
AcDbSpline
 62
250
  6
CONTINUOUS
 70
0
 71
3
 72
9
 73
5
 74
0
 42
0.0000001
 43
0.0000001
 44
0.0000000001
 40
0.0
 40
0.0
 40
0.0
 40
0.0
 40
0.2957417834
 40
1.0
 40
1.0
 40
1.0
 40
1.0
 10
42.1370475746
 20
-49.4025348593
 30
0.0
 10
42.10528707
 20
-49.5177785455
 30
0.0
 10
42.0535155543
 20
-49.8984185819
 30
0.0
 10
42.0854015216
 20
-50.2358659625
 30
0.0
 10
42.1177995647
 20
-50.4642712992
 30
0.0
  0
SPLINE
  5
3DF
100
AcDbEntity
  8
CURVE
100
AcDbSpline
 62
250
  6
CONTINUOUS
 70
0
 71
3
 72
17
 73
13
 74
0
 42
0.0000001
 43
0.0000001
 44
0.0000000001
 40
0.0
 40
0.0
 40
0.0
 40
0.0
 40
0.0559780952
 40
0.1687540387
 40
0.321006234
 40
0.4122750837
 40
0.516613223
 40
0.6013931059
 40
0.6776022439
 40
0.8103422694
 40
0.9200404832
 40
1.0
 40
1.0
 40
1.0
 40
1.0
 10
43.0604448031
 20
-48.8614318145
 30
0.0
 10
43.0577250637
 20
-48.8393651003
 30
0.0
 10
43.0155284743
 20
-48.802271724
 30
0.0
 10
42.9350900033
 20
-48.7463887611
 30
0.0
 10
42.8112674658
 20
-48.7400200269
 30
0.0
 10
42.6820925321
 20
-48.7770341538
 30
0.0
 10
42.5748800336
 20
-48.8317030325
 30
0.0
 10
42.4747444297
 20
-48.9017276849
 30
0.0
 10
42.3683425389
 20
-48.9980604846
 30
0.0
 10
42.2640663664
 20
-49.1275370424
 30
0.0
 10
42.1825196602
 20
-49.2749825878
 30
0.0
 10
42.1473493128
 20
-49.365108574
 30
0.0
 10
42.1370475746
 20
-49.4025348593
 30
0.0
  0
SPLINE
  5
3E0
100
AcDbEntity
  8
CURVE
100
AcDbSpline
 62
250
  6
CONTINUOUS
 70
0
 71
3
 72
9
 73
5
 74
0
 42
0.0000001
 43
0.0000001
 44
0.0000000001
 40
0.0
 40
0.0
 40
0.0
 40
0.0
 40
0.5206208722
 40
1.0
 40
1.0
 40
1.0
 40
1.0
 10
42.625664613
 20
-49.2062278952
 30
0.0
 10
42.7046983507
 20
-49.1623129062
 30
0.0
 10
42.8773467732
 20
-49.1316866335
 30
0.0
 10
42.9081394659
 20
-49.303843942
 30
0.0
 10
42.9097646912
 20
-49.3842007395
 30
0.0
  0
SPLINE
  5
3E1
100
AcDbEntity
  8
CURVE
100
AcDbSpline
 62
250
  6
CONTINUOUS
 70
0
 71
3
 72
9
 73
5
 74
0
 42
0.0000001
 43
0.0000001
 44
0.0000000001
 40
0.0
 40
0.0
 40
0.0
 40
0.0
 40
0.5013510385
 40
1.0
 40
1.0
 40
1.0
 40
1.0
 10
42.3971287686
 20
-49.5699316234
 30
0.0
 10
42.4036222376
 20
-49.5039960527
 30
0.0
 10
42.4528767944
 20
-49.3511854293
 30
0.0
 10
42.5696691691
 20
-49.2373548266
 30
0.0
 10
42.625664613
 20
-49.2062278952
 30
0.0
  0
SPLINE
  5
3E2
100
AcDbEntity
  8
CURVE
100
AcDbSpline
 62
250
  6
CONTINUOUS
 70
0
 71
3
 72
9
 73
5
 74
0
 42
0.0000001
 43
0.0000001
 44
0.0000000001
 40
0.0
 40
0.0
 40
0.0
 40
0.0
 40
0.2703953699
 40
1.0
 40
1.0
 40
1.0
 40
1.0
 10
42.4078906545
 20
-49.897892016
 30
0.0
 10
42.4033457905
 20
-49.8706041301
 30
0.0
 10
42.3883980951
 20
-49.7683398582
 30
0.0
 10
42.3887225926
 20
-49.6553079858
 30
0.0
 10
42.3971287686
 20
-49.5699316234
 30
0.0
  0
ELLIPSE
  5
3E3
100
AcDbEntity
  8
0
100
AcDbEllipse
 62
7
  6
CONTINUOUS
 10
-9.6988319318
 20
-10.8092218608
 30
0.0
 11
0.1999995634
 21
0.1164181051
 31
0.0
 40
0.0035896273
 41
-0.7351277754
 42
-0.6748017824
  0
ELLIPSE
  5
3E4
100
AcDbEntity
  8
0
100
AcDbEllipse
 62
7
  6
CONTINUOUS
 10
18.294971831
 20
-26.4011284745
 30
0.0
 11
0.1998333781
 21
-0.0157785196
 31
0.0
 40
0.5172961965
 41
0.8262203412
 42
2.3446567905
  0
ELLIPSE
  5
3E5
100
AcDbEntity
  8
0
100
AcDbEllipse
 62
7
  6
CONTINUOUS
 10
-13.5248333224
 20
-8.0287717747
 30
0.0
 11
0.1998333781
 21
-0.0157785196
 31
0.0
 40
0.5172961965
 41
0.8262203412
 42
2.3446567905
  0
ELLIPSE
  5
3E6
100
AcDbEntity
  8
0
100
AcDbEllipse
 62
7
  6
CONTINUOUS
 10
2.3814605042
 20
-17.2698175746
 30
0.0
 11
0.2999972416
 21
-0.0022477848
 31
0.0
 40
0.5723275643
 41
0.7896864073
 42
2.3081228565
  0
ELLIPSE
  5
3E7
100
AcDbEntity
  8
0
100
AcDbEllipse
 62
7
  6
CONTINUOUS
 10
16.7767443011
 20
-27.7045429874
 30
0.0
 11
0.5413005334
 21
0.8416911418
 31
0.0
 40
0.6067084637
 41
0.7148472392
 42
0.8145158917
  0
ELLIPSE
  5
3E8
100
AcDbEntity
  8
0
100
AcDbEllipse
 62
7
  6
CONTINUOUS
 10
-15.0430608523
 20
-9.3321862876
 30
0.0
 11
0.5413005334
 21
0.8416911418
 31
0.0
 40
0.6067084637
 41
0.7148472392
 42
0.8145158917
  0
ELLIPSE
  5
3E9
100
AcDbEntity
  8
0
100
AcDbEllipse
 62
7
  6
CONTINUOUS
 10
6.2856811916
 20
-19.6066041329
 30
0.0
 11
0.0858610644
 21
0.3627848639
 31
0.0
 40
0.5009985936
 41
-2.6944494219
 42
-2.6479073085
  0
ELLIPSE
  5
3EA
100
AcDbEntity
  8
0
100
AcDbEllipse
 62
7
  6
CONTINUOUS
 10
-9.6988319318
 20
-10.2378570266
 30
0.0
 11
0.1998333781
 21
-0.0157785196
 31
0.0
 40
0.5172961965
 41
-0.692216108
 42
0.8262203412
  0
ELLIPSE
  5
3EB
100
AcDbEntity
  8
0
100
AcDbEllipse
 62
7
  6
CONTINUOUS
 10
6.0732580387
 20
-19.4014152019
 30
0.0
 11
0.2999972416
 21
-0.0022477848
 31
0.0
 40
0.5723275643
 41
-0.728750042
 42
0.7896864073
  0
ELLIPSE
  5
3EC
100
AcDbEntity
  8
0
100
AcDbEllipse
 62
7
  6
CONTINUOUS
 10
21.0230815594
 20
-30.1563249012
 30
0.0
 11
0.4625183445
 21
0.8873459255
 31
0.0
 40
0.5463614449
 41
0.662201126
 42
0.7618697785
  0
ELLIPSE
  5
3ED
100
AcDbEntity
  8
0
100
AcDbEllipse
 62
7
  6
CONTINUOUS
 10
-10.796723594
 20
-11.7839682015
 30
0.0
 11
0.4625183445
 21
0.8873459255
 31
0.0
 40
0.5463614449
 41
0.662201126
 42
0.7618697785
  0
ELLIPSE
  5
3EE
100
AcDbEntity
  8
RACCORDO
100
AcDbEllipse
 62
7
  6
CONTINUOUS
 10
-25.1874194845
 20
-5.4341070233
 30
0.0
 11
-0.2500122581
 21
0.4330056244
 31
0.0
 40
0.5801478137
 41
0.7877823601
 42
2.353712702
  0
ELLIPSE
  5
3EF
100
AcDbEntity
  8
ASSI
100
AcDbEllipse
 62
7
  6
CONTINUOUS
 10
-25.1874194845
 20
-5.4341070233
 30
0.0
 11
-0.2500122581
 21
0.4330056244
 31
0.0
 40
0.5801478137
 41
0.7877823601
 42
2.353712702
  0
ENDSEC
  0
SECTION
  2
OBJECTS
  0
DICTIONARY
  5
C
100
AcDbDictionary
280
0
281
1
  3
ACAD_GROUP
350
D
  3
ACAD_MLINESTYLE
350
17
  3
ACAD_LAYOUT
350
1A
  3
ACAD_PLOTSETTINGS
350
19
  3
ACAD_PLOTSTYLENAME
350
E
  0
DICTIONARY
  5
D
102
{ACAD_REACTORS
330
C
102
}
100
AcDbDictionary
280
0
281
1
  0
ACDBDICTIONARYWDFLT
  5
E
102
{ACAD_REACTORS
330
C
102
}
100
AcDbDictionary
281
1
  3
Normal
350
F
100
AcDbDictionaryWithDefault
340
F
  0
DICTIONARY
  5
17
102
{ACAD_REACTORS
330
C
102
}
100
AcDbDictionary
280
0
281
1
  3
Standard
350
18
  0
DICTIONARY
  5
19
102
{ACAD_REACTORS
330
C
102
}
100
AcDbDictionary
281
1
  0
DICTIONARY
  5
1A
102
{ACAD_REACTORS
330
C
102
}
100
AcDbDictionary
281
1
  3
Model
350
3F0
  3
Layout1
350
3F1
  0
ACDBPLACEHOLDER
  5
F
102
{ACAD_REACTORS
330
E
102
}
  0
MLINESTYLE
  5
18
102
{ACAD_REACTORS
330
17
102
}
100
AcDbMlineStyle
  2
STANDARD
 70
0
  3

 62
256
 51
90.0
 52
90.0
 71
2
 49
0.5
 62
256
  6
BYLAYER
 49
-0.5
 62
256
  6
BYLAYER
  0
LAYOUT
  5
3F0
102
{ACAD_REACTORS
330
1A
102
}
100
AcDbPlotSettings
  1

  2
none_device
  4
ISO_A4_(297.00_x_210.00_MM)
  6

 40
0.0
 41
0.0
 42
0.0
 43
0.0
 44
297.0
 45
210.0
 46
0.0
 47
0.0
 48
0.0
 49
0.0
140
0.0
141
0.0
142
1.0
143
1.0
 70
1024
 72
1
 73
0
 74
0
  7

 75
0
147
1.0
148
0.0
149
0.0
100
AcDbLayout
  1
Model
 70
0
 71
0
 10
0.0
 20
0.0
 11
297.0
 21
210.0
 12
0.0
 22
0.0
 32
0.0
 14
0.0
 24
0.0
 34
0.0
 15
0.0
 25
0.0
 35
0.0
146
0.0
 13
0.0
 23
0.0
 33
0.0
 16
1.0
 26
0.0
 36
0.0
 17
0.0
 27
1.0
 37
0.0
 76
0
330
21C
345
0
346
0
  0
LAYOUT
  5
3F1
102
{ACAD_REACTORS
330
1A
102
}
100
AcDbPlotSettings
  1

  2
none_device
  4
ISO_A4_(297.00_x_210.00_MM)
  6

 40
0.0
 41
0.0
 42
0.0
 43
0.0
 44
297.0
 45
210.0
 46
0.0
 47
0.0
 48
0.0
 49
0.0
140
0.0
141
0.0
142
1.0
143
1.0
 70
0
 72
1
 73
0
 74
0
  7

 75
0
147
1.0
148
0.0
149
0.0
100
AcDbLayout
  1
Layout1
 70
0
 71
1
 10
0.0
 20
0.0
 11
297.0
 21
210.0
 12
0.0
 22
0.0
 32
0.0
 14
0.0
 24
0.0
 34
0.0
 15
0.0
 25
0.0
 35
0.0
146
0.0
 13
0.0
 23
0.0
 33
0.0
 16
1.0
 26
0.0
 36
0.0
 17
0.0
 27
1.0
 37
0.0
 76
0
330
21D
345
0
346
0
  0
ENDSEC
  0
EOF
