  0
SECTION
  2
HEADER
  9
$ACADVER
  1
AC1024
  9
$DWGCODEPAGE
  3
ANSI_1252
  9
$EXTMAX
 10
297.0
 20
210.0
 30
0.0
  9
$EXTMIN
 10
0.0
 20
0.0
 30
0.0
  9
$LIMMIN
 10
0.0
 20
0.0
  9
$LIMMAX
 10
297.0
 20
210.0
  9
$VIEWCTR
 10
148.5
 20
105.0
  9
$VIEWSIZE
 40
210.0
  9
$CLAYER
  8
0
  9
$LTSCALE
 40
16.335
  9
$CELTYPE
  6
BYLAYER
  9
$DIMSCALE
 40
1.0
  9
$DIMASZ
 40
3.0
  9
$DIMEXO
 40
0.5
  9
$DIMDLI
 40
11.286
  9
$DIMEXE
 40
1.5
  9
$DIMCEN
 40
2.673
  9
$DIMLFAC
 40
1.0
  9
$DIMBLK
  1
_FILLED
  9
$DIMALT
 70
0
  9
$DIMALTF
 40
0.0393700787
  9
$DIMTXT
 40
3.0
  9
$DIMTOL
 70
1
  9
$DIMLIM
 70
0
  9
$DIMTFAC
 40
1.0
  9
$DIMTP
 40
0.01
  9
$DIMTM
 40
0.01
  9
$DIMGAP
 40
0.625
  9
$DIMDSEP
 70
44
  9
$AUNITS
 70
0
  9
$PDMODE
 70
3
  9
$PDSIZE
 40
3.0
  9
$HANDSEED
  5
3C5
  9
$TILEMODE
 70
1
  9
$MEASUREMENT
 70
1
  9
$INSUNITS
 70
4
  0
ENDSEC
  0
SECTION
  2
CLASSES
  0
CLASS
  1
ACDBDICTIONARYWDFLT
  2
AcDbDictionaryWithDefault
  3
AutoCAD 2000
 90
0
 91
1
280
0
281
0
  0
CLASS
  1
ACDBPLACEHOLDER
  2
AcDbPlaceHolder
  3
AutoCAD 2000
 90
0
 91
1
280
0
281
0
  0
CLASS
  1
LAYOUT
  2
AcDbLayout
  3
AutoCAD 2000
 90
0
 91
0
280
0
281
0
  0
ENDSEC
  0
SECTION
  2
TABLES
  0
TABLE
  2
VPORT
  5
8
100
AcDbSymbolTable
 70
2
  0
VPORT
  5
1F4
100
AcDbSymbolTableRecord
100
AcDbViewportTableRecord
  2
*ACTIVE
 70
0
 10
0.0
 20
0.0
 11
1.0
 21
1.0
 12
148.5
 22
105.0
 13
0.0
 23
0.0
 14
1.0
 24
1.0
 15
0.0
 25
0.0
 16
0.0
 26
0.0
 36
1.0
 17
0.0
 27
0.0
 37
0.0
 40
210.0
 41
1.4142857143
 42
50.0
 43
0.0
 44
0.0
 50
0.0
 51
0.0
 71
0
 72
100
 73
1
 74
1
 75
0
 76
0
 77
0
 78
0
  0
ENDTAB
  0
TABLE
  2
LTYPE
  5
5
100
AcDbSymbolTable
 70
6
  0
LTYPE
  5
14
100
AcDbSymbolTableRecord
100
AcDbLinetypeTableRecord
  2
BYBLOCK
 70
0
  3

 72
65
 73
0
 40
0.0
  0
LTYPE
  5
15
100
AcDbSymbolTableRecord
100
AcDbLinetypeTableRecord
  2
BYLAYER
 70
0
  3

 72
65
 73
0
 40
0.0
  0
LTYPE
  5
16
100
AcDbSymbolTableRecord
100
AcDbLinetypeTableRecord
  2
CONTINUOUS
 70
64
  3
Solid line
 72
65
 73
0
 40
0.0
  0
LTYPE
  5
1F5
100
AcDbSymbolTableRecord
100
AcDbLinetypeTableRecord
  2
CENTER
 70
64
  3
____ _ ____ _ ____ _ ____ _ ____ _ ____ _ ____
 72
65
 73
4
 40
0.6
 49
0.375
 74
0
 49
-0.075
 74
0
 49
0.075
 74
0
 49
-0.075
 74
0
  0
LTYPE
  5
1F6
100
AcDbSymbolTableRecord
100
AcDbLinetypeTableRecord
  2
HIDDEN
 70
64
  3
- - - - - - - - - - - - - - - - - - - -
 72
65
 73
2
 40
0.2
 49
0.1
 74
0
 49
-0.1
 74
0
  0
LTYPE
  5
1F7
100
AcDbSymbolTableRecord
100
AcDbLinetypeTableRecord
  2
PHANTOM
 70
64
  3
_____ _ _ _____ _ _ _____ _ _ _____
 72
65
 73
6
 40
0.8
 49
0.45
 74
0
 49
-0.05
 74
0
 49
0.1
 74
0
 49
-0.05
 74
0
 49
0.1
 74
0
 49
-0.05
 74
0
  0
LTYPE
  5
1F8
100
AcDbSymbolTableRecord
100
AcDbLinetypeTableRecord
  2
DOT
 70
64
  3
. . . . . . . . . . . . . . . . . . . .
 72
65
 73
2
 40
0.2
 49
0.1
 74
0
 49
-0.1
 74
0
  0
LTYPE
  5
1F9
100
AcDbSymbolTableRecord
100
AcDbLinetypeTableRecord
  2
DASHED
 70
64
  3
- - - - - - - - - - - - - - - - - - - -
 72
65
 73
2
 40
0.2
 49
0.1
 74
0
 49
-0.1
 74
0
  0
ENDTAB
  0
TABLE
  2
LAYER
  5
2
100
AcDbSymbolTable
 70
36
  0
LAYER
  5
10
100
AcDbSymbolTableRecord
100
AcDbLayerTableRecord
  2
0
 70
0
 62
7
  6
CONTINUOUS
370
-3
390
F
  0
LAYER
  5
1FA
100
AcDbSymbolTableRecord
100
AcDbLayerTableRecord
  2
DEFAULT_1
 70
0
 62
7
  6
CENTER
370
-3
390
F
  0
LAYER
  5
1FB
100
AcDbSymbolTableRecord
100
AcDbLayerTableRecord
  2
DEFAULT_2
 70
0
 62
7
  6
HIDDEN
370
-3
390
F
  0
LAYER
  5
1FC
100
AcDbSymbolTableRecord
100
AcDbLayerTableRecord
  2
DEFAULT_3
 70
0
 62
7
  6
PHANTOM
370
-3
390
F
  0
LAYER
  5
1FD
100
AcDbSymbolTableRecord
100
AcDbLayerTableRecord
  2
ASSI
 70
0
 62
7
  6
CONTINUOUS
370
-3
390
F
  0
LAYER
  5
1FE
100
AcDbSymbolTableRecord
100
AcDbLayerTableRecord
  2
COORDINATE
 70
0
 62
7
  6
CONTINUOUS
370
-3
390
F
  0
LAYER
  5
1FF
100
AcDbSymbolTableRecord
100
AcDbLayerTableRecord
  2
COORD_ORIGINE
 70
0
 62
7
  6
CONTINUOUS
370
-3
390
F
  0
LAYER
  5
200
100
AcDbSymbolTableRecord
100
AcDbLayerTableRecord
  2
COPY_PUBLISH
 70
0
 62
7
  6
CONTINUOUS
370
-3
390
F
  0
LAYER
  5
201
100
AcDbSymbolTableRecord
100
AcDbLayerTableRecord
  2
COSMETIC
 70
0
 62
7
  6
CONTINUOUS
370
-3
390
F
  0
LAYER
  5
202
100
AcDbSymbolTableRecord
100
AcDbLayerTableRecord
  2
COSMETICI
 70
0
 62
7
  6
CONTINUOUS
370
-3
390
F
  0
LAYER
  5
203
100
AcDbSymbolTableRecord
100
AcDbLayerTableRecord
  2
CURVA_TASSELLO
 70
0
 62
7
  6
CONTINUOUS
370
-3
390
F
  0
LAYER
  5
204
100
AcDbSymbolTableRecord
100
AcDbLayerTableRecord
  2
CURVE
 70
0
 62
7
  6
CONTINUOUS
370
-3
390
F
  0
LAYER
  5
205
100
AcDbSymbolTableRecord
100
AcDbLayerTableRecord
  2
DRAFT
 70
0
 62
7
  6
CONTINUOUS
370
-3
390
F
  0
LAYER
  5
206
100
AcDbSymbolTableRecord
100
AcDbLayerTableRecord
  2
IMPORT_IGES
 70
0
 62
7
  6
CONTINUOUS
370
-3
390
F
  0
LAYER
  5
207
100
AcDbSymbolTableRecord
100
AcDbLayerTableRecord
  2
INTFCLR_2
 70
0
 62
7
  6
CONTINUOUS
370
-3
390
F
  0
LAYER
  5
208
100
AcDbSymbolTableRecord
100
AcDbLayerTableRecord
  2
INTF_1
 70
0
 62
7
  6
CONTINUOUS
370
-3
390
F
  0
LAYER
  5
209
100
AcDbSymbolTableRecord
100
AcDbLayerTableRecord
  2
INTF_21
 70
0
 62
7
  6
CONTINUOUS
370
-3
390
F
  0
LAYER
  5
20A
100
AcDbSymbolTableRecord
100
AcDbLayerTableRecord
  2
INTF_7
 70
0
 62
7
  6
CONTINUOUS
370
-3
390
F
  0
LAYER
  5
20B
100
AcDbSymbolTableRecord
100
AcDbLayerTableRecord
  2
NOTE
 70
0
 62
7
  6
CONTINUOUS
370
-3
390
F
  0
LAYER
  5
20C
100
AcDbSymbolTableRecord
100
AcDbLayerTableRecord
  2
PIANI
 70
0
 62
7
  6
CONTINUOUS
370
-3
390
F
  0
LAYER
  5
20D
100
AcDbSymbolTableRecord
100
AcDbLayerTableRecord
  2
PIANI_ORIGINE
 70
0
 62
7
  6
CONTINUOUS
370
-3
390
F
  0
LAYER
  5
20E
100
AcDbSymbolTableRecord
100
AcDbLayerTableRecord
  2
PIANI_RIFERIMENTO
 70
0
 62
7
  6
CONTINUOUS
370
-3
390
F
  0
LAYER
  5
20F
100
AcDbSymbolTableRecord
100
AcDbLayerTableRecord
  2
PUNTI
 70
0
 62
7
  6
CONTINUOUS
370
-3
390
F
  0
LAYER
  5
210
100
AcDbSymbolTableRecord
100
AcDbLayerTableRecord
  2
RACCORDO
 70
0
 62
7
  6
CONTINUOUS
370
-3
390
F
  0
LAYER
  5
211
100
AcDbSymbolTableRecord
100
AcDbLayerTableRecord
  2
RGB__255__255__255__
 70
0
 62
7
  6
CONTINUOUS
370
-3
390
F
  0
LAYER
  5
212
100
AcDbSymbolTableRecord
100
AcDbLayerTableRecord
  2
RGB____0____0____0__
 70
0
 62
7
  6
CONTINUOUS
370
-3
390
F
  0
LAYER
  5
213
100
AcDbSymbolTableRecord
100
AcDbLayerTableRecord
  2
SIMBOLI
 70
0
 62
7
  6
CONTINUOUS
370
-3
390
F
  0
LAYER
  5
214
100
AcDbSymbolTableRecord
100
AcDbLayerTableRecord
  2
SMUSSO
 70
0
 62
7
  6
CONTINUOUS
370
-3
390
F
  0
LAYER
  5
215
100
AcDbSymbolTableRecord
100
AcDbLayerTableRecord
  2
SNAPLINE
 70
0
 62
7
  6
CONTINUOUS
370
-3
390
F
  0
LAYER
  5
216
100
AcDbSymbolTableRecord
100
AcDbLayerTableRecord
  2
SUPERFICI
 70
0
 62
7
  6
CONTINUOUS
370
-3
390
F
  0
LAYER
  5
217
100
AcDbSymbolTableRecord
100
AcDbLayerTableRecord
  2
TRASH
 70
0
 62
7
  6
CONTINUOUS
370
-3
390
F
  0
LAYER
  5
218
100
AcDbSymbolTableRecord
100
AcDbLayerTableRecord
  2
WHITE
 70
0
 62
7
  6
CONTINUOUS
370
-3
390
F
  0
LAYER
  5
219
100
AcDbSymbolTableRecord
100
AcDbLayerTableRecord
  2
XSEC_DATUMS
 70
0
 62
7
  6
CONTINUOUS
370
-3
390
F
  0
ENDTAB
  0
TABLE
  2
STYLE
  5
3
100
AcDbSymbolTable
 70
1
  0
STYLE
  5
11
100
AcDbSymbolTableRecord
100
AcDbTextStyleTableRecord
  2
STANDARD
 70
0
 40
0.0
 41
0.8
 50
0.0
 71
0
 42
0.2
  3
txt
  4

  0
STYLE
  5
21A
100
AcDbSymbolTableRecord
100
AcDbTextStyleTableRecord
  2
TEXTSTYLE_1
 70
0
 40
0.0
 41
0.8
 50
0.0
 71
0
 42
0.2
  3
gdt
  4

  0
ENDTAB
  0
TABLE
  2
VIEW
  5
6
100
AcDbSymbolTable
 70
0
  0
ENDTAB
  0
TABLE
  2
UCS
  5
7
100
AcDbSymbolTable
 70
0
  0
ENDTAB
  0
TABLE
  2
APPID
  5
9
100
AcDbSymbolTable
 70
1
  0
APPID
  5
21B
100
AcDbSymbolTableRecord
100
AcDbRegAppTableRecord
  2
ACAD
 70
0
  0
ENDTAB
  0
TABLE
  2
BLOCK_RECORD
  5
1
100
AcDbSymbolTable
 70
0
  0
BLOCK_RECORD
  5
21C
100
AcDbSymbolTableRecord
100
AcDbBlockTableRecord
  2
*Model_Space
  0
BLOCK_RECORD
  5
21D
100
AcDbSymbolTableRecord
100
AcDbBlockTableRecord
  2
*Paper_Space
  0
BLOCK_RECORD
  5
21E
100
AcDbSymbolTableRecord
100
AcDbBlockTableRecord
  2
_FILLED
  0
ENDTAB
  0
TABLE
  2
DIMSTYLE
  5
A
100
AcDbSymbolTable
 70
1
100
AcDbDimStyleTable
 71
0
  0
DIMSTYLE
105
21F
100
AcDbSymbolTableRecord
100
AcDbDimStyleTableRecord
  2
STANDARD
 70
0
  3

  4

 40
1.0
 41
3.0
 42
0.5
 43
0.38
 44
1.5
 45
0.0
 46
0.0
 47
0.01
 48
0.01
140
3.0
141
0.09
142
0.0
143
25.4
144
1.0
145
0.0
146
1.0
147
0.625
 71
1
 72
0
 73
0
 74
0
 75
0
 76
0
 77
1
 78
8
 79
2
170
0
171
1
172
0
173
0
174
0
175
0
176
0
177
0
178
0
270
2
179
2
271
2
272
2
273
2
274
2
275
0
280
0
281
0
282
0
283
1
284
8
285
0
286
0
287
3
288
0
340
11
278
44
341
21E
342
21E
343
21E
344
21E
  0
ENDTAB
  0
ENDSEC
  0
SECTION
  2
BLOCKS
  0
BLOCK
  5
20
100
AcDbEntity
  8
0
100
AcDbBlockBegin
  2
*Model_Space
 70
0
 10
0.0
 20
0.0
 30
0.0
  3
*Model_Space
  1

  0
ENDBLK
  5
21
100
AcDbEntity
  8
0
100
AcDbBlockEnd
  0
BLOCK
  5
1C
100
AcDbEntity
  8
0
100
AcDbBlockBegin
  2
*Paper_Space
 70
0
 10
0.0
 20
0.0
 30
0.0
  3
*Paper_Space
  1

  0
ENDBLK
  5
1D
100
AcDbEntity
  8
0
100
AcDbBlockEnd
  0
BLOCK
  5
220
100
AcDbEntity
  8
0
100
AcDbBlockBegin
  2
_FILLED
 70
64
 10
0.0
 20
0.0
  3
_FILLED
  1

  0
SOLID
  5
221
100
AcDbEntity
  8
0
  6
BYBLOCK
 62
0
100
AcDbTrace
 10
0.0
 20
0.0
 11
-1.0
 21
0.3166666667
 12
-1.0
 22
-0.3166666667
 13
-1.0
 23
-0.3166666667
  0
ENDBLK
  5
222
100
AcDbEntity
  8
0
  6
BYBLOCK
 62
0
100
AcDbBlockEnd
  0
ENDSEC
  0
SECTION
  2
ENTITIES
  0
LINE
  5
223
100
AcDbEntity
  8
SMUSSO
100
AcDbLine
 62
7
  6
CONTINUOUS
 10
-45.2790502819
 20
59.9717885173
 11
-42.8041765477
 21
61.400710139
  0
LINE
  5
224
100
AcDbEntity
  8
0
100
AcDbLine
 62
7
  6
CONTINUOUS
 10
-40.2763192461
 20
62.0547740689
 11
-42.1716762627
 21
61.0355124015
  0
LINE
  5
225
100
AcDbEntity
  8
ASSI
100
AcDbLine
 62
7
  6
CONTINUOUS
 10
-40.2763192461
 20
62.0547740689
 11
-42.1716762627
 21
61.0355124015
  0
LINE
  5
226
100
AcDbEntity
  8
0
100
AcDbLine
 62
250
  6
CONTINUOUS
 10
-39.7990804235
 20
61.9928257184
 11
-41.8854836138
 21
60.8708256013
  0
LINE
  5
227
100
AcDbEntity
  8
ASSI
100
AcDbLine
 62
250
  6
CONTINUOUS
 10
-39.7990804235
 20
61.9928257184
 11
-41.8854836138
 21
60.8708256013
  0
LINE
  5
228
100
AcDbEntity
  8
0
100
AcDbLine
 62
250
  6
CONTINUOUS
 10
43.1165202174
 20
-53.9639511185
 11
44.0250793235
 21
-53.7254348465
  0
LINE
  5
229
100
AcDbEntity
  8
0
100
AcDbLine
 62
250
  6
CONTINUOUS
 10
44.4364651779
 20
-53.3497920701
 11
43.1165202174
 21
-53.6403831313
  0
LINE
  5
22A
100
AcDbEntity
  8
0
100
AcDbLine
 62
250
  6
CONTINUOUS
 10
43.9690556238
 20
-50.4125448318
 11
43.4792072709
 21
-50.544206031
  0
LINE
  5
22B
100
AcDbEntity
  8
0
100
AcDbLine
 62
250
  6
CONTINUOUS
 10
44.4364651779
 20
-50.2886580307
 11
44.1729571016
 21
-50.3568645699
  0
LINE
  5
22C
100
AcDbEntity
  8
0
100
AcDbLine
 62
250
  6
CONTINUOUS
 10
43.1165202174
 20
-50.9115876028
 11
44.4364651779
 21
-50.6089348262
  0
LINE
  5
22D
100
AcDbEntity
  8
0
100
AcDbLine
 62
250
  6
CONTINUOUS
 10
43.1165202174
 20
-51.9143861944
 11
43.8493574812
 21
-51.8000104144
  0
LINE
  5
22E
100
AcDbEntity
  8
0
100
AcDbLine
 62
250
  6
CONTINUOUS
 10
44.4364651779
 20
-51.4280398525
 11
43.5781590601
 21
-51.5562368428
  0
LINE
  5
22F
100
AcDbEntity
  8
SMUSSO
100
AcDbLine
 62
7
  6
CONTINUOUS
 10
-45.2790502819
 20
59.9717885173
 11
-45.2790502819
 21
-12.6941055722
  0
LINE
  5
230
100
AcDbEntity
  8
0
100
AcDbLine
 62
250
  6
CONTINUOUS
 10
-26.4346545633
 20
30.2308072112
 11
-25.5861674299
 21
30.7207130479
  0
LINE
  5
231
100
AcDbEntity
  8
SMUSSO
100
AcDbLine
 62
7
  6
CONTINUOUS
 10
-45.2790502819
 20
-12.6941055722
 11
40.2808702417
 21
-62.0952919099
  0
LINE
  5
232
100
AcDbEntity
  8
0
100
AcDbLine
 62
7
  6
CONTINUOUS
 10
-27.1417613444
 20
-4.7141206355
 11
-27.1417613444
 21
30.2308072112
  0
LINE
  5
233
100
AcDbEntity
  8
0
100
AcDbLine
 62
7
  6
CONTINUOUS
 10
-26.4346545633
 20
-4.7141206355
 11
-26.4346545633
 21
30.2308072112
  0
LINE
  5
234
100
AcDbEntity
  8
RACCORDO
100
AcDbLine
 62
7
  6
CONTINUOUS
 10
-23.9597808291
 20
29.7815710118
 11
-23.9597808291
 21
-3.2851595589
  0
LINE
  5
235
100
AcDbEntity
  8
0
100
AcDbLine
 62
250
  6
CONTINUOUS
 10
-23.3674450678
 20
-4.5607036374
 11
-23.3674450678
 21
29.4395637669
  0
LINE
  5
236
100
AcDbEntity
  8
ASSI
100
AcDbLine
 62
250
  6
CONTINUOUS
 10
-23.3674450678
 20
-4.5607036374
 11
-23.3674450678
 21
29.4395637669
  0
LINE
  5
237
100
AcDbEntity
  8
0
100
AcDbLine
 62
7
  6
CONTINUOUS
 10
-23.2832470079
 20
-4.634979421
 11
-23.2832470079
 21
29.3909488624
  0
LINE
  5
238
100
AcDbEntity
  8
ASSI
100
AcDbLine
 62
7
  6
CONTINUOUS
 10
-23.2832470079
 20
-4.634979421
 11
-23.2832470079
 21
29.3909488624
  0
LINE
  5
239
100
AcDbEntity
  8
0
100
AcDbLine
 62
250
  6
CONTINUOUS
 10
-25.9396798164
 20
-6.7961869147
 11
-25.5861264258
 21
-6.1838144797
  0
LINE
  5
23A
100
AcDbEntity
  8
0
100
AcDbLine
 62
7
  6
CONTINUOUS
 10
20.2343929951
 20
-33.456517859
 11
-25.9396798164
 21
-6.7961869147
  0
LINE
  5
23B
100
AcDbEntity
  8
0
100
AcDbLine
 62
7
  6
CONTINUOUS
 10
20.5879463857
 20
-32.844145424
 11
-25.5861264258
 21
-6.1838144797
  0
LINE
  5
23C
100
AcDbEntity
  8
RACCORDO
100
AcDbLine
 62
7
  6
CONTINUOUS
 10
-23.1112526917
 20
-4.754853403
 11
21.4364745231
 21
-30.4761527827
  0
LINE
  5
23D
100
AcDbEntity
  8
0
100
AcDbLine
 62
7
  6
CONTINUOUS
 10
19.597996892
 20
-29.3736180515
 11
15.7089095955
 21
-27.1281077882
  0
LINE
  5
23E
100
AcDbEntity
  8
ASSI
100
AcDbLine
 62
7
  6
CONTINUOUS
 10
19.597996892
 20
-29.3736180515
 11
15.7089095955
 21
-27.1281077882
  0
LINE
  5
23F
100
AcDbEntity
  8
0
100
AcDbLine
 62
7
  6
CONTINUOUS
 10
-12.2218082614
 20
-11.0012613518
 11
-16.1108955579
 21
-8.7557510885
  0
LINE
  5
240
100
AcDbEntity
  8
ASSI
100
AcDbLine
 62
7
  6
CONTINUOUS
 10
-12.2218082614
 20
-11.0012613518
 11
-16.1108955579
 21
-8.7557510885
  0
LINE
  5
241
100
AcDbEntity
  8
0
100
AcDbLine
 62
7
  6
CONTINUOUS
 10
19.8454842654
 20
-29.3531924854
 11
15.8503309517
 21
-27.0464528696
  0
LINE
  5
242
100
AcDbEntity
  8
ASSI
100
AcDbLine
 62
7
  6
CONTINUOUS
 10
19.8454842654
 20
-29.3531924854
 11
15.8503309517
 21
-27.0464528696
  0
LINE
  5
243
100
AcDbEntity
  8
0
100
AcDbLine
 62
7
  6
CONTINUOUS
 10
-15.9694742017
 20
-8.6740961698
 11
-11.974320888
 21
-10.9808357856
  0
LINE
  5
244
100
AcDbEntity
  8
ASSI
100
AcDbLine
 62
7
  6
CONTINUOUS
 10
-15.9694742017
 20
-8.6740961698
 11
-11.974320888
 21
-10.9808357856
  0
LINE
  5
245
100
AcDbEntity
  8
0
100
AcDbLine
 62
7
  6
CONTINUOUS
 10
19.9515502826
 20
-29.1694807549
 11
16.0624629861
 21
-26.9239704916
  0
LINE
  5
246
100
AcDbEntity
  8
ASSI
100
AcDbLine
 62
7
  6
CONTINUOUS
 10
19.9515502826
 20
-29.1694807549
 11
16.0624629861
 21
-26.9239704916
  0
LINE
  5
247
100
AcDbEntity
  8
0
100
AcDbLine
 62
7
  6
CONTINUOUS
 10
-11.8682548708
 20
-10.7971240551
 11
-15.7573421673
 21
-8.5516137918
  0
LINE
  5
248
100
AcDbEntity
  8
ASSI
100
AcDbLine
 62
7
  6
CONTINUOUS
 10
-11.8682548708
 20
-10.7971240551
 11
-15.7573421673
 21
-8.5516137918
  0
LINE
  5
249
100
AcDbEntity
  8
0
100
AcDbLine
 62
7
  6
CONTINUOUS
 10
20.199037656
 20
-29.1490551887
 11
16.2038843423
 21
-26.8423155729
  0
LINE
  5
24A
100
AcDbEntity
  8
ASSI
100
AcDbLine
 62
7
  6
CONTINUOUS
 10
20.199037656
 20
-29.1490551887
 11
16.2038843423
 21
-26.8423155729
  0
LINE
  5
24B
100
AcDbEntity
  8
0
100
AcDbLine
 62
7
  6
CONTINUOUS
 10
-15.6159208111
 20
-8.4699588732
 11
-11.6207674974
 21
-10.776698489
  0
LINE
  5
24C
100
AcDbEntity
  8
ASSI
100
AcDbLine
 62
7
  6
CONTINUOUS
 10
-15.6159208111
 20
-8.4699588732
 11
-11.6207674974
 21
-10.776698489
  0
LINE
  5
24D
100
AcDbEntity
  8
0
100
AcDbLine
 62
7
  6
CONTINUOUS
 10
20.3051036732
 20
-28.9653434582
 11
16.4160163767
 21
-26.7198331949
  0
LINE
  5
24E
100
AcDbEntity
  8
ASSI
100
AcDbLine
 62
7
  6
CONTINUOUS
 10
20.3051036732
 20
-28.9653434582
 11
16.4160163767
 21
-26.7198331949
  0
LINE
  5
24F
100
AcDbEntity
  8
0
100
AcDbLine
 62
7
  6
CONTINUOUS
 10
-11.5147014802
 20
-10.5929867585
 11
-15.4037887767
 21
-8.3474764952
  0
LINE
  5
250
100
AcDbEntity
  8
ASSI
100
AcDbLine
 62
7
  6
CONTINUOUS
 10
-11.5147014802
 20
-10.5929867585
 11
-15.4037887767
 21
-8.3474764952
  0
LINE
  5
251
100
AcDbEntity
  8
0
100
AcDbLine
 62
7
  6
CONTINUOUS
 10
20.5525910466
 20
-28.9449178921
 11
16.5574377329
 21
-26.6381782762
  0
LINE
  5
252
100
AcDbEntity
  8
ASSI
100
AcDbLine
 62
7
  6
CONTINUOUS
 10
20.5525910466
 20
-28.9449178921
 11
16.5574377329
 21
-26.6381782762
  0
LINE
  5
253
100
AcDbEntity
  8
0
100
AcDbLine
 62
7
  6
CONTINUOUS
 10
-15.2623674205
 20
-8.2658215765
 11
-11.2672141068
 21
-10.5725611923
  0
LINE
  5
254
100
AcDbEntity
  8
ASSI
100
AcDbLine
 62
7
  6
CONTINUOUS
 10
-15.2623674205
 20
-8.2658215765
 11
-11.2672141068
 21
-10.5725611923
  0
LINE
  5
255
100
AcDbEntity
  8
0
100
AcDbLine
 62
7
  6
CONTINUOUS
 10
-16.1286577943
 20
-8.7865161843
 11
-16.1108955579
 21
-8.7557510885
  0
LINE
  5
256
100
AcDbEntity
  8
ASSI
100
AcDbLine
 62
7
  6
CONTINUOUS
 10
-16.1286577943
 20
-8.7865161843
 11
-16.1108955579
 21
-8.7557510885
  0
LINE
  5
257
100
AcDbEntity
  8
0
100
AcDbLine
 62
7
  6
CONTINUOUS
 10
20.6586570638
 20
-28.7612061615
 11
16.7695697672
 21
-26.5156958982
  0
LINE
  5
258
100
AcDbEntity
  8
ASSI
100
AcDbLine
 62
7
  6
CONTINUOUS
 10
20.6586570638
 20
-28.7612061615
 11
16.7695697672
 21
-26.5156958982
  0
LINE
  5
259
100
AcDbEntity
  8
0
100
AcDbLine
 62
7
  6
CONTINUOUS
 10
-11.1611480896
 20
-10.3888494618
 11
-15.0502353861
 21
-8.1433391985
  0
LINE
  5
25A
100
AcDbEntity
  8
ASSI
100
AcDbLine
 62
7
  6
CONTINUOUS
 10
-11.1611480896
 20
-10.3888494618
 11
-15.0502353861
 21
-8.1433391985
  0
LINE
  5
25B
100
AcDbEntity
  8
0
100
AcDbLine
 62
7
  6
CONTINUOUS
 10
20.9061444372
 20
-28.7407805954
 11
16.9109911235
 21
-26.4340409796
  0
LINE
  5
25C
100
AcDbEntity
  8
ASSI
100
AcDbLine
 62
7
  6
CONTINUOUS
 10
20.9061444372
 20
-28.7407805954
 11
16.9109911235
 21
-26.4340409796
  0
LINE
  5
25D
100
AcDbEntity
  8
0
100
AcDbLine
 62
7
  6
CONTINUOUS
 10
-14.9088140299
 20
-8.0616842798
 11
-10.9136607162
 21
-10.3684238957
  0
LINE
  5
25E
100
AcDbEntity
  8
ASSI
100
AcDbLine
 62
7
  6
CONTINUOUS
 10
-14.9088140299
 20
-8.0616842798
 11
-10.9136607162
 21
-10.3684238957
  0
LINE
  5
25F
100
AcDbEntity
  8
0
100
AcDbLine
 62
7
  6
CONTINUOUS
 10
21.0122104544
 20
-28.5570688649
 11
17.1231231578
 21
-26.3115586016
  0
LINE
  5
260
100
AcDbEntity
  8
ASSI
100
AcDbLine
 62
7
  6
CONTINUOUS
 10
21.0122104544
 20
-28.5570688649
 11
17.1231231578
 21
-26.3115586016
  0
LINE
  5
261
100
AcDbEntity
  8
0
100
AcDbLine
 62
7
  6
CONTINUOUS
 10
-10.807594699
 20
-10.1847121651
 11
-14.6966819956
 21
-7.9392019018
  0
LINE
  5
262
100
AcDbEntity
  8
ASSI
100
AcDbLine
 62
7
  6
CONTINUOUS
 10
-10.807594699
 20
-10.1847121651
 11
-14.6966819956
 21
-7.9392019018
  0
LINE
  5
263
100
AcDbEntity
  8
0
100
AcDbLine
 62
7
  6
CONTINUOUS
 10
21.2596978278
 20
-28.5366432987
 11
17.2645445141
 21
-26.2299036829
  0
LINE
  5
264
100
AcDbEntity
  8
ASSI
100
AcDbLine
 62
7
  6
CONTINUOUS
 10
21.2596978278
 20
-28.5366432987
 11
17.2645445141
 21
-26.2299036829
  0
LINE
  5
265
100
AcDbEntity
  8
0
100
AcDbLine
 62
7
  6
CONTINUOUS
 10
-14.5552606393
 20
-7.8575469832
 11
-10.5601073256
 21
-10.164286599
  0
LINE
  5
266
100
AcDbEntity
  8
ASSI
100
AcDbLine
 62
7
  6
CONTINUOUS
 10
-14.5552606393
 20
-7.8575469832
 11
-10.5601073256
 21
-10.164286599
  0
LINE
  5
267
100
AcDbEntity
  8
0
100
AcDbLine
 62
7
  6
CONTINUOUS
 10
21.365763845
 20
-28.3529315682
 11
17.4766765484
 21
-26.1074213049
  0
LINE
  5
268
100
AcDbEntity
  8
ASSI
100
AcDbLine
 62
7
  6
CONTINUOUS
 10
21.365763845
 20
-28.3529315682
 11
17.4766765484
 21
-26.1074213049
  0
LINE
  5
269
100
AcDbEntity
  8
0
100
AcDbLine
 62
7
  6
CONTINUOUS
 10
-10.4540413084
 20
-9.9805748685
 11
-14.343128605
 21
-7.7350646052
  0
LINE
  5
26A
100
AcDbEntity
  8
ASSI
100
AcDbLine
 62
7
  6
CONTINUOUS
 10
-10.4540413084
 20
-9.9805748685
 11
-14.343128605
 21
-7.7350646052
  0
LINE
  5
26B
100
AcDbEntity
  8
0
100
AcDbLine
 62
7
  6
CONTINUOUS
 10
21.4364745231
 20
-28.2304491902
 11
17.6180979047
 21
-26.0257663863
  0
LINE
  5
26C
100
AcDbEntity
  8
ASSI
100
AcDbLine
 62
7
  6
CONTINUOUS
 10
21.4364745231
 20
-28.2304491902
 11
17.6180979047
 21
-26.0257663863
  0
LINE
  5
26D
100
AcDbEntity
  8
0
100
AcDbLine
 62
7
  6
CONTINUOUS
 10
-14.2017072487
 20
-7.6534096865
 11
-10.206553935
 21
-9.9601493023
  0
LINE
  5
26E
100
AcDbEntity
  8
ASSI
100
AcDbLine
 62
7
  6
CONTINUOUS
 10
-14.2017072487
 20
-7.6534096865
 11
-10.206553935
 21
-9.9601493023
  0
LINE
  5
26F
100
AcDbEntity
  8
0
100
AcDbLine
 62
250
  6
CONTINUOUS
 10
21.4364745231
 20
-28.1078534143
 11
17.6516929073
 21
-25.9225679438
  0
LINE
  5
270
100
AcDbEntity
  8
ASSI
100
AcDbLine
 62
250
  6
CONTINUOUS
 10
21.4364745231
 20
-28.1078534143
 11
17.6516929073
 21
-25.9225679438
  0
LINE
  5
271
100
AcDbEntity
  8
0
100
AcDbLine
 62
250
  6
CONTINUOUS
 10
-9.9217749878
 20
-10.0019931579
 11
-14.1681122461
 21
-7.550211244
  0
LINE
  5
272
100
AcDbEntity
  8
ASSI
100
AcDbLine
 62
250
  6
CONTINUOUS
 10
-9.9217749878
 20
-10.0019931579
 11
-14.1681122461
 21
-7.550211244
  0
LINE
  5
273
100
AcDbEntity
  8
0
100
AcDbLine
 62
250
  6
CONTINUOUS
 10
21.4364745231
 20
-28.0306557201
 11
17.7257400602
 21
-25.8881241477
  0
LINE
  5
274
100
AcDbEntity
  8
ASSI
100
AcDbLine
 62
250
  6
CONTINUOUS
 10
21.4364745231
 20
-28.0306557201
 11
17.7257400602
 21
-25.8881241477
  0
LINE
  5
275
100
AcDbEntity
  8
0
100
AcDbLine
 62
250
  6
CONTINUOUS
 10
-9.8551026318
 20
-9.9632912465
 11
-14.0940650931
 21
-7.515767448
  0
LINE
  5
276
100
AcDbEntity
  8
ASSI
100
AcDbLine
 62
250
  6
CONTINUOUS
 10
-9.8551026318
 20
-9.9632912465
 11
-14.0940650931
 21
-7.515767448
  0
LINE
  5
277
100
AcDbEntity
  8
0
100
AcDbLine
 62
7
  6
CONTINUOUS
 10
-12.50846336
 20
-6.9979414948
 11
-8.6824619694
 21
-9.2070267466
  0
LINE
  5
278
100
AcDbEntity
  8
ASSI
100
AcDbLine
 62
7
  6
CONTINUOUS
 10
-12.50846336
 20
-6.9979414948
 11
-8.6824619694
 21
-9.2070267466
  0
LINE
  5
279
100
AcDbEntity
  8
0
100
AcDbLine
 62
7
  6
CONTINUOUS
 10
19.3113417934
 20
-25.3702981945
 11
21.4364745231
 21
-26.5973231985
  0
LINE
  5
27A
100
AcDbEntity
  8
ASSI
100
AcDbLine
 62
7
  6
CONTINUOUS
 10
19.3113417934
 20
-25.3702981945
 11
21.4364745231
 21
-26.5973231985
  0
LINE
  5
27B
100
AcDbEntity
  8
0
100
AcDbLine
 62
7
  6
CONTINUOUS
 10
3.4685411448
 20
-16.1839679982
 11
7.1603386793
 21
-18.3155656255
  0
LINE
  5
27C
100
AcDbEntity
  8
ASSI
100
AcDbLine
 62
7
  6
CONTINUOUS
 10
3.4685411448
 20
-16.1839679982
 11
7.1603386793
 21
-18.3155656255
  0
LINE
  5
27D
100
AcDbEntity
  8
0
100
AcDbLine
 62
250
  6
CONTINUOUS
 10
-8.6752543605
 20
-9.3504764
 11
-8.6752543605
 21
-9.7578460379
  0
LINE
  5
27E
100
AcDbEntity
  8
ASSI
100
AcDbLine
 62
250
  6
CONTINUOUS
 10
-8.6752543605
 20
-9.3504764
 11
-8.6752543605
 21
-9.7578460379
  0
LINE
  5
27F
100
AcDbEntity
  8
0
100
AcDbLine
 62
7
  6
CONTINUOUS
 10
-8.6238833256
 20
-9.2838988932
 11
-8.6238833256
 21
-9.7273007431
  0
LINE
  5
280
100
AcDbEntity
  8
ASSI
100
AcDbLine
 62
7
  6
CONTINUOUS
 10
-8.6238833256
 20
-9.2838988932
 11
-8.6238833256
 21
-9.7273007431
  0
LINE
  5
281
100
AcDbEntity
  8
0
100
AcDbLine
 62
7
  6
CONTINUOUS
 10
-15.8634081845
 20
-8.7353255223
 11
-15.7573421673
 21
-8.5516137918
  0
LINE
  5
282
100
AcDbEntity
  8
ASSI
100
AcDbLine
 62
7
  6
CONTINUOUS
 10
-15.8634081845
 20
-8.7353255223
 11
-15.7573421673
 21
-8.5516137918
  0
LINE
  5
283
100
AcDbEntity
  8
0
100
AcDbLine
 62
7
  6
CONTINUOUS
 10
-15.5098547939
 20
-8.5311882257
 11
-15.4037887767
 21
-8.3474764952
  0
LINE
  5
284
100
AcDbEntity
  8
ASSI
100
AcDbLine
 62
7
  6
CONTINUOUS
 10
-15.5098547939
 20
-8.5311882257
 11
-15.4037887767
 21
-8.3474764952
  0
LINE
  5
285
100
AcDbEntity
  8
0
100
AcDbLine
 62
7
  6
CONTINUOUS
 10
-15.1563014033
 20
-8.327050929
 11
-15.0502353861
 21
-8.1433391985
  0
LINE
  5
286
100
AcDbEntity
  8
ASSI
100
AcDbLine
 62
7
  6
CONTINUOUS
 10
-15.1563014033
 20
-8.327050929
 11
-15.0502353861
 21
-8.1433391985
  0
LINE
  5
287
100
AcDbEntity
  8
0
100
AcDbLine
 62
7
  6
CONTINUOUS
 10
-14.8027480127
 20
-8.1229136324
 11
-14.6966819956
 21
-7.9392019018
  0
LINE
  5
288
100
AcDbEntity
  8
ASSI
100
AcDbLine
 62
7
  6
CONTINUOUS
 10
-14.8027480127
 20
-8.1229136324
 11
-14.6966819956
 21
-7.9392019018
  0
LINE
  5
289
100
AcDbEntity
  8
0
100
AcDbLine
 62
7
  6
CONTINUOUS
 10
-14.4491946221
 20
-7.9187763357
 11
-14.343128605
 21
-7.7350646052
  0
LINE
  5
28A
100
AcDbEntity
  8
ASSI
100
AcDbLine
 62
7
  6
CONTINUOUS
 10
-14.4491946221
 20
-7.9187763357
 11
-14.343128605
 21
-7.7350646052
  0
LINE
  5
28B
100
AcDbEntity
  8
0
100
AcDbLine
 62
7
  6
CONTINUOUS
 10
-12.2395704978
 20
-11.0320264476
 11
-12.2218082614
 21
-11.0012613518
  0
LINE
  5
28C
100
AcDbEntity
  8
ASSI
100
AcDbLine
 62
7
  6
CONTINUOUS
 10
-12.2395704978
 20
-11.0320264476
 11
-12.2218082614
 21
-11.0012613518
  0
LINE
  5
28D
100
AcDbEntity
  8
0
100
AcDbLine
 62
7
  6
CONTINUOUS
 10
-11.974320888
 20
-10.9808357856
 11
-11.8682548708
 21
-10.7971240551
  0
LINE
  5
28E
100
AcDbEntity
  8
ASSI
100
AcDbLine
 62
7
  6
CONTINUOUS
 10
-11.974320888
 20
-10.9808357856
 11
-11.8682548708
 21
-10.7971240551
  0
LINE
  5
28F
100
AcDbEntity
  8
0
100
AcDbLine
 62
7
  6
CONTINUOUS
 10
-11.6207674974
 20
-10.776698489
 11
-11.5147014802
 21
-10.5929867585
  0
LINE
  5
290
100
AcDbEntity
  8
ASSI
100
AcDbLine
 62
7
  6
CONTINUOUS
 10
-11.6207674974
 20
-10.776698489
 11
-11.5147014802
 21
-10.5929867585
  0
LINE
  5
291
100
AcDbEntity
  8
0
100
AcDbLine
 62
7
  6
CONTINUOUS
 10
-11.2672141068
 20
-10.5725611923
 11
-11.1611480896
 21
-10.3888494618
  0
LINE
  5
292
100
AcDbEntity
  8
ASSI
100
AcDbLine
 62
7
  6
CONTINUOUS
 10
-11.2672141068
 20
-10.5725611923
 11
-11.1611480896
 21
-10.3888494618
  0
LINE
  5
293
100
AcDbEntity
  8
0
100
AcDbLine
 62
250
  6
CONTINUOUS
 10
-26.4346545633
 20
-4.7141206355
 11
-23.9597808291
 21
-3.2851595589
  0
LINE
  5
294
100
AcDbEntity
  8
0
100
AcDbLine
 62
250
  6
CONTINUOUS
 10
-25.5861264258
 20
-6.1838144797
 11
-23.1112526917
 21
-4.754853403
  0
LINE
  5
295
100
AcDbEntity
  8
0
100
AcDbLine
 62
250
  6
CONTINUOUS
 10
-27.1417613444
 20
-4.7141206355
 11
-26.4346545633
 21
-4.7141206355
  0
LINE
  5
296
100
AcDbEntity
  8
0
100
AcDbLine
 62
7
  6
CONTINUOUS
 10
-10.9136607162
 20
-10.3684238957
 11
-10.807594699
 21
-10.1847121651
  0
LINE
  5
297
100
AcDbEntity
  8
ASSI
100
AcDbLine
 62
7
  6
CONTINUOUS
 10
-10.9136607162
 20
-10.3684238957
 11
-10.807594699
 21
-10.1847121651
  0
LINE
  5
298
100
AcDbEntity
  8
0
100
AcDbLine
 62
7
  6
CONTINUOUS
 10
-10.5601073256
 20
-10.164286599
 11
-10.4540413084
 21
-9.9805748685
  0
LINE
  5
299
100
AcDbEntity
  8
ASSI
100
AcDbLine
 62
7
  6
CONTINUOUS
 10
-10.5601073256
 20
-10.164286599
 11
-10.4540413084
 21
-9.9805748685
  0
LINE
  5
29A
100
AcDbEntity
  8
0
100
AcDbLine
 62
250
  6
CONTINUOUS
 10
-10.6197337735
 20
-11.0294836915
 11
-10.2837888086
 21
-10.7027301017
  0
LINE
  5
29B
100
AcDbEntity
  8
ASSI
100
AcDbLine
 62
250
  6
CONTINUOUS
 10
-10.6197337735
 20
-11.0294836915
 11
-10.2837888086
 21
-10.7027301017
  0
LINE
  5
29C
100
AcDbEntity
  8
0
100
AcDbLine
 62
7
  6
CONTINUOUS
 10
-10.6158088788
 20
-11.063018856
 11
-10.1868245353
 21
-10.6457714231
  0
LINE
  5
29D
100
AcDbEntity
  8
ASSI
100
AcDbLine
 62
7
  6
CONTINUOUS
 10
-10.6158088788
 20
-11.063018856
 11
-10.1868245353
 21
-10.6457714231
  0
LINE
  5
29E
100
AcDbEntity
  8
0
100
AcDbLine
 62
7
  6
CONTINUOUS
 10
-16.1108955579
 20
-8.7557510885
 11
-15.9694742017
 21
-8.6740961698
  0
LINE
  5
29F
100
AcDbEntity
  8
ASSI
100
AcDbLine
 62
7
  6
CONTINUOUS
 10
-16.1108955579
 20
-8.7557510885
 11
-15.9694742017
 21
-8.6740961698
  0
LINE
  5
2A0
100
AcDbEntity
  8
0
100
AcDbLine
 62
7
  6
CONTINUOUS
 10
-15.7573421673
 20
-8.5516137918
 11
-15.6159208111
 21
-8.4699588732
  0
LINE
  5
2A1
100
AcDbEntity
  8
ASSI
100
AcDbLine
 62
7
  6
CONTINUOUS
 10
-15.7573421673
 20
-8.5516137918
 11
-15.6159208111
 21
-8.4699588732
  0
LINE
  5
2A2
100
AcDbEntity
  8
0
100
AcDbLine
 62
7
  6
CONTINUOUS
 10
-15.4037887767
 20
-8.3474764952
 11
-15.2623674205
 21
-8.2658215765
  0
LINE
  5
2A3
100
AcDbEntity
  8
ASSI
100
AcDbLine
 62
7
  6
CONTINUOUS
 10
-15.4037887767
 20
-8.3474764952
 11
-15.2623674205
 21
-8.2658215765
  0
LINE
  5
2A4
100
AcDbEntity
  8
0
100
AcDbLine
 62
7
  6
CONTINUOUS
 10
-15.0502353861
 20
-8.1433391985
 11
-14.9088140299
 21
-8.0616842798
  0
LINE
  5
2A5
100
AcDbEntity
  8
ASSI
100
AcDbLine
 62
7
  6
CONTINUOUS
 10
-15.0502353861
 20
-8.1433391985
 11
-14.9088140299
 21
-8.0616842798
  0
LINE
  5
2A6
100
AcDbEntity
  8
0
100
AcDbLine
 62
7
  6
CONTINUOUS
 10
-14.6966819956
 20
-7.9392019018
 11
-14.5552606393
 21
-7.8575469832
  0
LINE
  5
2A7
100
AcDbEntity
  8
ASSI
100
AcDbLine
 62
7
  6
CONTINUOUS
 10
-14.6966819956
 20
-7.9392019018
 11
-14.5552606393
 21
-7.8575469832
  0
LINE
  5
2A8
100
AcDbEntity
  8
0
100
AcDbLine
 62
7
  6
CONTINUOUS
 10
-14.343128605
 20
-7.7350646052
 11
-14.2017072487
 21
-7.6534096865
  0
LINE
  5
2A9
100
AcDbEntity
  8
ASSI
100
AcDbLine
 62
7
  6
CONTINUOUS
 10
-14.343128605
 20
-7.7350646052
 11
-14.2017072487
 21
-7.6534096865
  0
LINE
  5
2AA
100
AcDbEntity
  8
0
100
AcDbLine
 62
7
  6
CONTINUOUS
 10
-16.326469347
 20
-8.6723022729
 11
-14.1681122461
 21
-7.550211244
  0
LINE
  5
2AB
100
AcDbEntity
  8
ASSI
100
AcDbLine
 62
7
  6
CONTINUOUS
 10
-16.326469347
 20
-8.6723022729
 11
-14.1681122461
 21
-7.550211244
  0
LINE
  5
2AC
100
AcDbEntity
  8
0
100
AcDbLine
 62
7
  6
CONTINUOUS
 10
-9.9217749878
 20
-10.0019931579
 11
-11.8651684505
 21
-11.2482014974
  0
LINE
  5
2AD
100
AcDbEntity
  8
ASSI
100
AcDbLine
 62
7
  6
CONTINUOUS
 10
-9.9217749878
 20
-10.0019931579
 11
-11.8651684505
 21
-11.2482014974
  0
LINE
  5
2AE
100
AcDbEntity
  8
0
100
AcDbLine
 62
7
  6
CONTINUOUS
 10
-11.535962399
 20
-11.4382809456
 11
-8.6752543605
 21
-9.7578460379
  0
LINE
  5
2AF
100
AcDbEntity
  8
ASSI
100
AcDbLine
 62
7
  6
CONTINUOUS
 10
-11.535962399
 20
-11.4382809456
 11
-8.6752543605
 21
-9.7578460379
  0
LINE
  5
2B0
100
AcDbEntity
  8
0
100
AcDbLine
 62
7
  6
CONTINUOUS
 10
-10.6744232286
 20
-11.1074828811
 11
-11.3898858313
 21
-11.522623725
  0
LINE
  5
2B1
100
AcDbEntity
  8
ASSI
100
AcDbLine
 62
7
  6
CONTINUOUS
 10
-10.6744232286
 20
-11.1074828811
 11
-11.3898858313
 21
-11.522623725
  0
LINE
  5
2B2
100
AcDbEntity
  8
0
100
AcDbLine
 62
250
  6
CONTINUOUS
 10
-10.6197337735
 20
-11.0294836915
 11
-11.430118928
 21
-11.4993936392
  0
LINE
  5
2B3
100
AcDbEntity
  8
ASSI
100
AcDbLine
 62
250
  6
CONTINUOUS
 10
-10.6197337735
 20
-11.0294836915
 11
-11.430118928
 21
-11.4993936392
  0
LINE
  5
2B4
100
AcDbEntity
  8
0
100
AcDbLine
 62
7
  6
CONTINUOUS
 10
-12.2218082614
 20
-11.0012613518
 11
-12.0803869052
 21
-10.9196064331
  0
LINE
  5
2B5
100
AcDbEntity
  8
ASSI
100
AcDbLine
 62
7
  6
CONTINUOUS
 10
-12.2218082614
 20
-11.0012613518
 11
-12.0803869052
 21
-10.9196064331
  0
LINE
  5
2B6
100
AcDbEntity
  8
0
100
AcDbLine
 62
7
  6
CONTINUOUS
 10
-11.8682548708
 20
-10.7971240551
 11
-11.7268335146
 21
-10.7154691365
  0
LINE
  5
2B7
100
AcDbEntity
  8
ASSI
100
AcDbLine
 62
7
  6
CONTINUOUS
 10
-11.8682548708
 20
-10.7971240551
 11
-11.7268335146
 21
-10.7154691365
  0
LINE
  5
2B8
100
AcDbEntity
  8
0
100
AcDbLine
 62
7
  6
CONTINUOUS
 10
-11.5147014802
 20
-10.5929867585
 11
-11.373280124
 21
-10.5113318398
  0
LINE
  5
2B9
100
AcDbEntity
  8
ASSI
100
AcDbLine
 62
7
  6
CONTINUOUS
 10
-11.5147014802
 20
-10.5929867585
 11
-11.373280124
 21
-10.5113318398
  0
LINE
  5
2BA
100
AcDbEntity
  8
0
100
AcDbLine
 62
7
  6
CONTINUOUS
 10
-11.1611480896
 20
-10.3888494618
 11
-11.0197267334
 21
-10.3071945431
  0
LINE
  5
2BB
100
AcDbEntity
  8
ASSI
100
AcDbLine
 62
7
  6
CONTINUOUS
 10
-11.1611480896
 20
-10.3888494618
 11
-11.0197267334
 21
-10.3071945431
  0
LINE
  5
2BC
100
AcDbEntity
  8
0
100
AcDbLine
 62
7
  6
CONTINUOUS
 10
-10.807594699
 20
-10.1847121651
 11
-10.6661733428
 21
-10.1030572465
  0
LINE
  5
2BD
100
AcDbEntity
  8
ASSI
100
AcDbLine
 62
7
  6
CONTINUOUS
 10
-10.807594699
 20
-10.1847121651
 11
-10.6661733428
 21
-10.1030572465
  0
LINE
  5
2BE
100
AcDbEntity
  8
0
100
AcDbLine
 62
7
  6
CONTINUOUS
 10
-10.4540413084
 20
-9.9805748685
 11
-10.3126199522
 21
-9.8989199498
  0
LINE
  5
2BF
100
AcDbEntity
  8
ASSI
100
AcDbLine
 62
7
  6
CONTINUOUS
 10
-10.4540413084
 20
-9.9805748685
 11
-10.3126199522
 21
-9.8989199498
  0
LINE
  5
2C0
100
AcDbEntity
  8
0
100
AcDbLine
 62
7
  6
CONTINUOUS
 10
-10.206553935
 20
-9.9601493023
 11
-12.1512752505
 21
-11.0830070168
  0
LINE
  5
2C1
100
AcDbEntity
  8
ASSI
100
AcDbLine
 62
7
  6
CONTINUOUS
 10
-10.206553935
 20
-9.9601493023
 11
-12.1512752505
 21
-11.0830070168
  0
LINE
  5
2C2
100
AcDbEntity
  8
0
100
AcDbLine
 62
7
  6
CONTINUOUS
 10
-8.6752543605
 20
-9.3504764
 11
-9.8551026318
 21
-9.9632912465
  0
LINE
  5
2C3
100
AcDbEntity
  8
ASSI
100
AcDbLine
 62
7
  6
CONTINUOUS
 10
-8.6752543605
 20
-9.3504764
 11
-9.8551026318
 21
-9.9632912465
  0
LINE
  5
2C4
100
AcDbEntity
  8
0
100
AcDbLine
 62
7
  6
CONTINUOUS
 10
-14.0940650931
 20
-7.515767448
 11
-12.7837108375
 21
-6.9783051213
  0
LINE
  5
2C5
100
AcDbEntity
  8
ASSI
100
AcDbLine
 62
7
  6
CONTINUOUS
 10
-14.0940650931
 20
-7.515767448
 11
-12.7837108375
 21
-6.9783051213
  0
LINE
  5
2C6
100
AcDbEntity
  8
0
100
AcDbLine
 62
250
  6
CONTINUOUS
 10
7.1711500926
 20
-18.5519265946
 11
7.1711500926
 21
-18.9809492886
  0
LINE
  5
2C7
100
AcDbEntity
  8
ASSI
100
AcDbLine
 62
250
  6
CONTINUOUS
 10
7.1711500926
 20
-18.5519265946
 11
7.1711500926
 21
-18.9809492886
  0
LINE
  5
2C8
100
AcDbEntity
  8
0
100
AcDbLine
 62
7
  6
CONTINUOUS
 10
7.2482066449
 20
-18.4374219242
 11
7.2482066449
 21
-18.835467709
  0
LINE
  5
2C9
100
AcDbEntity
  8
ASSI
100
AcDbLine
 62
7
  6
CONTINUOUS
 10
7.2482066449
 20
-18.4374219242
 11
7.2482066449
 21
-18.835467709
  0
LINE
  5
2CA
100
AcDbEntity
  8
SMUSSO
100
AcDbLine
 62
7
  6
CONTINUOUS
 10
40.2808702417
 20
11.3870724564
 11
42.0486371947
 21
12.4077589397
  0
LINE
  5
2CB
100
AcDbEntity
  8
0
100
AcDbLine
 62
250
  6
CONTINUOUS
 10
42.0491830762
 20
12.408001003
 11
44.0639992168
 21
13.5713345854
  0
LINE
  5
2CC
100
AcDbEntity
  8
ASSI
100
AcDbLine
 62
250
  6
CONTINUOUS
 10
42.0491830762
 20
12.408001003
 11
44.0639992168
 21
13.5713345854
  0
LINE
  5
2CD
100
AcDbEntity
  8
SMUSSO
100
AcDbLine
 62
7
  6
CONTINUOUS
 10
40.2808702417
 20
10.5705627246
 11
39.5737634605
 21
10.1623275862
  0
LINE
  5
2CE
100
AcDbEntity
  8
0
100
AcDbLine
 62
250
  6
CONTINUOUS
 10
42.7561821616
 20
11.1834426674
 11
44.7709983022
 21
12.3467762498
  0
LINE
  5
2CF
100
AcDbEntity
  8
ASSI
100
AcDbLine
 62
250
  6
CONTINUOUS
 10
42.7561821616
 20
11.1834426674
 11
44.7709983022
 21
12.3467762498
  0
LINE
  5
2D0
100
AcDbEntity
  8
SMUSSO
100
AcDbLine
 62
7
  6
CONTINUOUS
 10
40.9879770229
 20
10.1623275862
 11
42.7557439759
 21
11.1830140696
  0
LINE
  5
2D1
100
AcDbEntity
  8
0
100
AcDbLine
 62
7
  6
CONTINUOUS
 10
-0.3346258278
 20
-17.905792296
 11
3.0556699285
 21
-16.1756999269
  0
LINE
  5
2D2
100
AcDbEntity
  8
ASSI
100
AcDbLine
 62
7
  6
CONTINUOUS
 10
-0.3346258278
 20
-17.905792296
 11
3.0556699285
 21
-16.1756999269
  0
LINE
  5
2D3
100
AcDbEntity
  8
0
100
AcDbLine
 62
7
  6
CONTINUOUS
 10
-25.9396798164
 20
30.9247398731
 11
20.2343929951
 21
4.2644089288
  0
LINE
  5
2D4
100
AcDbEntity
  8
0
100
AcDbLine
 62
7
  6
CONTINUOUS
 10
5.9813001677
 20
-19.6802651309
 11
5.6385194977
 21
-20.0136674024
  0
LINE
  5
2D5
100
AcDbEntity
  8
ASSI
100
AcDbLine
 62
7
  6
CONTINUOUS
 10
5.9813001677
 20
-19.6802651309
 11
5.6385194977
 21
-20.0136674024
  0
LINE
  5
2D6
100
AcDbEntity
  8
0
100
AcDbLine
 62
7
  6
CONTINUOUS
 10
7.1711500926
 20
-18.5519265946
 11
4.1185140822
 21
-20.4769794691
  0
LINE
  5
2D7
100
AcDbEntity
  8
ASSI
100
AcDbLine
 62
7
  6
CONTINUOUS
 10
7.1711500926
 20
-18.5519265946
 11
4.1185140822
 21
-20.4769794691
  0
LINE
  5
2D8
100
AcDbEntity
  8
0
100
AcDbLine
 62
7
  6
CONTINUOUS
 10
4.3739401777
 20
-20.6244592954
 11
7.1617992471
 21
-18.9868172729
  0
LINE
  5
2D9
100
AcDbEntity
  8
ASSI
100
AcDbLine
 62
7
  6
CONTINUOUS
 10
4.3739401777
 20
-20.6244592954
 11
7.1617992471
 21
-18.9868172729
  0
LINE
  5
2DA
100
AcDbEntity
  8
0
100
AcDbLine
 62
7
  6
CONTINUOUS
 10
5.405395544
 20
-20.1950688619
 11
4.5200167454
 21
-20.7088020749
  0
LINE
  5
2DB
100
AcDbEntity
  8
ASSI
100
AcDbLine
 62
7
  6
CONTINUOUS
 10
5.405395544
 20
-20.1950688619
 11
4.5200167454
 21
-20.7088020749
  0
LINE
  5
2DC
100
AcDbEntity
  8
0
100
AcDbLine
 62
250
  6
CONTINUOUS
 10
5.6385194977
 20
-20.0136674024
 11
4.4797836487
 21
-20.6855719891
  0
LINE
  5
2DD
100
AcDbEntity
  8
ASSI
100
AcDbLine
 62
250
  6
CONTINUOUS
 10
5.6385194977
 20
-20.0136674024
 11
4.4797836487
 21
-20.6855719891
  0
LINE
  5
2DE
100
AcDbEntity
  8
0
100
AcDbLine
 62
7
  6
CONTINUOUS
 10
21.4364745231
 20
2.1823426496
 11
21.4364745231
 21
-32.7625851972
  0
LINE
  5
2DF
100
AcDbEntity
  8
0
100
AcDbLine
 62
250
  6
CONTINUOUS
 10
44.0895337081
 20
13.5567215897
 11
44.9395748411
 21
13.3108476413
  0
LINE
  5
2E0
100
AcDbEntity
  8
ASSI
100
AcDbLine
 62
250
  6
CONTINUOUS
 10
44.0895337081
 20
13.5567215897
 11
44.9395748411
 21
13.3108476413
  0
LINE
  5
2E1
100
AcDbEntity
  8
0
100
AcDbLine
 62
7
  6
CONTINUOUS
 10
15.6911473591
 20
-27.1588728841
 11
15.7089095955
 21
-27.1281077882
  0
LINE
  5
2E2
100
AcDbEntity
  8
ASSI
100
AcDbLine
 62
7
  6
CONTINUOUS
 10
15.6911473591
 20
-27.1588728841
 11
15.7089095955
 21
-27.1281077882
  0
LINE
  5
2E3
100
AcDbEntity
  8
0
100
AcDbLine
 62
7
  6
CONTINUOUS
 10
15.9563969689
 20
-27.1076822221
 11
16.0624629861
 21
-26.9239704916
  0
LINE
  5
2E4
100
AcDbEntity
  8
ASSI
100
AcDbLine
 62
7
  6
CONTINUOUS
 10
15.9563969689
 20
-27.1076822221
 11
16.0624629861
 21
-26.9239704916
  0
LINE
  5
2E5
100
AcDbEntity
  8
0
100
AcDbLine
 62
7
  6
CONTINUOUS
 10
16.3099503595
 20
-26.9035449254
 11
16.4160163767
 21
-26.7198331949
  0
LINE
  5
2E6
100
AcDbEntity
  8
ASSI
100
AcDbLine
 62
7
  6
CONTINUOUS
 10
16.3099503595
 20
-26.9035449254
 11
16.4160163767
 21
-26.7198331949
  0
LINE
  5
2E7
100
AcDbEntity
  8
0
100
AcDbLine
 62
7
  6
CONTINUOUS
 10
16.6635037501
 20
-26.6994076288
 11
16.7695697672
 21
-26.5156958982
  0
LINE
  5
2E8
100
AcDbEntity
  8
ASSI
100
AcDbLine
 62
7
  6
CONTINUOUS
 10
16.6635037501
 20
-26.6994076288
 11
16.7695697672
 21
-26.5156958982
  0
LINE
  5
2E9
100
AcDbEntity
  8
0
100
AcDbLine
 62
7
  6
CONTINUOUS
 10
17.0170571407
 20
-26.4952703321
 11
17.1231231578
 21
-26.3115586016
  0
LINE
  5
2EA
100
AcDbEntity
  8
ASSI
100
AcDbLine
 62
7
  6
CONTINUOUS
 10
17.0170571407
 20
-26.4952703321
 11
17.1231231578
 21
-26.3115586016
  0
LINE
  5
2EB
100
AcDbEntity
  8
0
100
AcDbLine
 62
7
  6
CONTINUOUS
 10
17.3706105313
 20
-26.2911330354
 11
17.4766765484
 21
-26.1074213049
  0
LINE
  5
2EC
100
AcDbEntity
  8
ASSI
100
AcDbLine
 62
7
  6
CONTINUOUS
 10
17.3706105313
 20
-26.2911330354
 11
17.4766765484
 21
-26.1074213049
  0
LINE
  5
2ED
100
AcDbEntity
  8
0
100
AcDbLine
 62
7
  6
CONTINUOUS
 10
15.7089095955
 20
-27.1281077882
 11
15.8503309517
 21
-27.0464528696
  0
LINE
  5
2EE
100
AcDbEntity
  8
ASSI
100
AcDbLine
 62
7
  6
CONTINUOUS
 10
15.7089095955
 20
-27.1281077882
 11
15.8503309517
 21
-27.0464528696
  0
LINE
  5
2EF
100
AcDbEntity
  8
0
100
AcDbLine
 62
7
  6
CONTINUOUS
 10
16.0624629861
 20
-26.9239704916
 11
16.2038843423
 21
-26.8423155729
  0
LINE
  5
2F0
100
AcDbEntity
  8
ASSI
100
AcDbLine
 62
7
  6
CONTINUOUS
 10
16.0624629861
 20
-26.9239704916
 11
16.2038843423
 21
-26.8423155729
  0
LINE
  5
2F1
100
AcDbEntity
  8
0
100
AcDbLine
 62
7
  6
CONTINUOUS
 10
16.4160163767
 20
-26.7198331949
 11
16.5574377329
 21
-26.6381782762
  0
LINE
  5
2F2
100
AcDbEntity
  8
ASSI
100
AcDbLine
 62
7
  6
CONTINUOUS
 10
16.4160163767
 20
-26.7198331949
 11
16.5574377329
 21
-26.6381782762
  0
LINE
  5
2F3
100
AcDbEntity
  8
0
100
AcDbLine
 62
7
  6
CONTINUOUS
 10
16.7695697672
 20
-26.5156958982
 11
16.9109911235
 21
-26.4340409796
  0
LINE
  5
2F4
100
AcDbEntity
  8
ASSI
100
AcDbLine
 62
7
  6
CONTINUOUS
 10
16.7695697672
 20
-26.5156958982
 11
16.9109911235
 21
-26.4340409796
  0
LINE
  5
2F5
100
AcDbEntity
  8
0
100
AcDbLine
 62
7
  6
CONTINUOUS
 10
17.1231231578
 20
-26.3115586016
 11
17.2645445141
 21
-26.2299036829
  0
LINE
  5
2F6
100
AcDbEntity
  8
ASSI
100
AcDbLine
 62
7
  6
CONTINUOUS
 10
17.1231231578
 20
-26.3115586016
 11
17.2645445141
 21
-26.2299036829
  0
LINE
  5
2F7
100
AcDbEntity
  8
0
100
AcDbLine
 62
7
  6
CONTINUOUS
 10
17.4766765484
 20
-26.1074213049
 11
17.6180979047
 21
-26.0257663863
  0
LINE
  5
2F8
100
AcDbEntity
  8
ASSI
100
AcDbLine
 62
7
  6
CONTINUOUS
 10
17.4766765484
 20
-26.1074213049
 11
17.6180979047
 21
-26.0257663863
  0
LINE
  5
2F9
100
AcDbEntity
  8
0
100
AcDbLine
 62
7
  6
CONTINUOUS
 10
15.4933358064
 20
-27.0446589727
 11
17.6516929073
 21
-25.9225679438
  0
LINE
  5
2FA
100
AcDbEntity
  8
ASSI
100
AcDbLine
 62
7
  6
CONTINUOUS
 10
15.4933358064
 20
-27.0446589727
 11
17.6516929073
 21
-25.9225679438
  0
LINE
  5
2FB
100
AcDbEntity
  8
0
100
AcDbLine
 62
7
  6
CONTINUOUS
 10
17.7257400602
 20
-25.8881241477
 11
19.0360943159
 21
-25.350661821
  0
LINE
  5
2FC
100
AcDbEntity
  8
ASSI
100
AcDbLine
 62
7
  6
CONTINUOUS
 10
17.7257400602
 20
-25.8881241477
 11
19.0360943159
 21
-25.350661821
  0
LINE
  5
2FD
100
AcDbEntity
  8
0
100
AcDbLine
 62
250
  6
CONTINUOUS
 10
-27.1417613444
 20
30.2308072112
 11
-26.4346545633
 21
30.2308072112
  0
LINE
  5
2FE
100
AcDbEntity
  8
SMUSSO
100
AcDbLine
 62
7
  6
CONTINUOUS
 10
39.5737634605
 20
10.1623275862
 11
-45.2790502819
 21
59.1552787856
  0
LINE
  5
2FF
100
AcDbEntity
  8
SMUSSO
100
AcDbLine
 62
7
  6
CONTINUOUS
 10
40.2808702417
 20
10.5705627246
 11
40.9879770229
 21
10.1623275862
  0
LINE
  5
300
100
AcDbEntity
  8
SMUSSO
100
AcDbLine
 62
7
  6
CONTINUOUS
 10
40.2808702417
 20
11.3870724564
 11
-44.5719435007
 21
60.3800236557
  0
LINE
  5
301
100
AcDbEntity
  8
0
100
AcDbLine
 62
7
  6
CONTINUOUS
 10
19.5802346556
 20
-29.4043831474
 11
19.597996892
 21
-29.3736180515
  0
LINE
  5
302
100
AcDbEntity
  8
ASSI
100
AcDbLine
 62
7
  6
CONTINUOUS
 10
19.5802346556
 20
-29.4043831474
 11
19.597996892
 21
-29.3736180515
  0
LINE
  5
303
100
AcDbEntity
  8
0
100
AcDbLine
 62
7
  6
CONTINUOUS
 10
19.8454842654
 20
-29.3531924854
 11
19.9515502826
 21
-29.1694807549
  0
LINE
  5
304
100
AcDbEntity
  8
ASSI
100
AcDbLine
 62
7
  6
CONTINUOUS
 10
19.8454842654
 20
-29.3531924854
 11
19.9515502826
 21
-29.1694807549
  0
LINE
  5
305
100
AcDbEntity
  8
0
100
AcDbLine
 62
7
  6
CONTINUOUS
 10
20.199037656
 20
-29.1490551887
 11
20.3051036732
 21
-28.9653434582
  0
LINE
  5
306
100
AcDbEntity
  8
ASSI
100
AcDbLine
 62
7
  6
CONTINUOUS
 10
20.199037656
 20
-29.1490551887
 11
20.3051036732
 21
-28.9653434582
  0
LINE
  5
307
100
AcDbEntity
  8
0
100
AcDbLine
 62
7
  6
CONTINUOUS
 10
20.5525910466
 20
-28.9449178921
 11
20.6586570638
 21
-28.7612061615
  0
LINE
  5
308
100
AcDbEntity
  8
ASSI
100
AcDbLine
 62
7
  6
CONTINUOUS
 10
20.5525910466
 20
-28.9449178921
 11
20.6586570638
 21
-28.7612061615
  0
LINE
  5
309
100
AcDbEntity
  8
0
100
AcDbLine
 62
7
  6
CONTINUOUS
 10
20.9061444372
 20
-28.7407805954
 11
21.0122104544
 21
-28.5570688649
  0
LINE
  5
30A
100
AcDbEntity
  8
ASSI
100
AcDbLine
 62
7
  6
CONTINUOUS
 10
20.9061444372
 20
-28.7407805954
 11
21.0122104544
 21
-28.5570688649
  0
LINE
  5
30B
100
AcDbEntity
  8
0
100
AcDbLine
 62
7
  6
CONTINUOUS
 10
21.2596978278
 20
-28.5366432987
 11
21.365763845
 21
-28.3529315682
  0
LINE
  5
30C
100
AcDbEntity
  8
ASSI
100
AcDbLine
 62
7
  6
CONTINUOUS
 10
21.2596978278
 20
-28.5366432987
 11
21.365763845
 21
-28.3529315682
  0
LINE
  5
30D
100
AcDbEntity
  8
0
100
AcDbLine
 62
250
  6
CONTINUOUS
 10
20.2343929951
 20
-33.456517859
 11
20.5879463857
 21
-32.844145424
  0
LINE
  5
30E
100
AcDbEntity
  8
0
100
AcDbLine
 62
250
  6
CONTINUOUS
 10
21.2000713799
 20
-29.4018403912
 11
21.4364745231
 21
-29.1719051824
  0
LINE
  5
30F
100
AcDbEntity
  8
ASSI
100
AcDbLine
 62
250
  6
CONTINUOUS
 10
21.2000713799
 20
-29.4018403912
 11
21.4364745231
 21
-29.1719051824
  0
LINE
  5
310
100
AcDbEntity
  8
0
100
AcDbLine
 62
7
  6
CONTINUOUS
 10
21.2039962745
 20
-29.4353755557
 11
21.4364745231
 21
-29.2092578574
  0
LINE
  5
311
100
AcDbEntity
  8
ASSI
100
AcDbLine
 62
7
  6
CONTINUOUS
 10
21.2039962745
 20
-29.4353755557
 11
21.4364745231
 21
-29.2092578574
  0
LINE
  5
312
100
AcDbEntity
  8
0
100
AcDbLine
 62
7
  6
CONTINUOUS
 10
21.4364745231
 20
-28.6703241427
 11
19.9546367029
 21
-29.6205581971
  0
LINE
  5
313
100
AcDbEntity
  8
ASSI
100
AcDbLine
 62
7
  6
CONTINUOUS
 10
21.4364745231
 20
-28.6703241427
 11
19.9546367029
 21
-29.6205581971
  0
LINE
  5
314
100
AcDbEntity
  8
0
100
AcDbLine
 62
7
  6
CONTINUOUS
 10
20.2838427544
 20
-29.8106376453
 11
21.4364745231
 21
-29.1335595815
  0
LINE
  5
315
100
AcDbEntity
  8
ASSI
100
AcDbLine
 62
7
  6
CONTINUOUS
 10
20.2838427544
 20
-29.8106376453
 11
21.4364745231
 21
-29.1335595815
  0
LINE
  5
316
100
AcDbEntity
  8
0
100
AcDbLine
 62
7
  6
CONTINUOUS
 10
21.1453819248
 20
-29.4798395809
 11
20.4299193221
 21
-29.8949804248
  0
LINE
  5
317
100
AcDbEntity
  8
ASSI
100
AcDbLine
 62
7
  6
CONTINUOUS
 10
21.1453819248
 20
-29.4798395809
 11
20.4299193221
 21
-29.8949804248
  0
LINE
  5
318
100
AcDbEntity
  8
0
100
AcDbLine
 62
250
  6
CONTINUOUS
 10
21.2000713799
 20
-29.4018403912
 11
20.3896862254
 21
-29.8717503389
  0
LINE
  5
319
100
AcDbEntity
  8
ASSI
100
AcDbLine
 62
250
  6
CONTINUOUS
 10
21.2000713799
 20
-29.4018403912
 11
20.3896862254
 21
-29.8717503389
  0
LINE
  5
31A
100
AcDbEntity
  8
0
100
AcDbLine
 62
7
  6
CONTINUOUS
 10
19.597996892
 20
-29.3736180515
 11
19.7394182482
 21
-29.2919631329
  0
LINE
  5
31B
100
AcDbEntity
  8
ASSI
100
AcDbLine
 62
7
  6
CONTINUOUS
 10
19.597996892
 20
-29.3736180515
 11
19.7394182482
 21
-29.2919631329
  0
LINE
  5
31C
100
AcDbEntity
  8
0
100
AcDbLine
 62
7
  6
CONTINUOUS
 10
19.9515502826
 20
-29.1694807549
 11
20.0929716388
 21
-29.0878258362
  0
LINE
  5
31D
100
AcDbEntity
  8
ASSI
100
AcDbLine
 62
7
  6
CONTINUOUS
 10
19.9515502826
 20
-29.1694807549
 11
20.0929716388
 21
-29.0878258362
  0
LINE
  5
31E
100
AcDbEntity
  8
0
100
AcDbLine
 62
7
  6
CONTINUOUS
 10
20.3051036732
 20
-28.9653434582
 11
20.4465250294
 21
-28.8836885395
  0
LINE
  5
31F
100
AcDbEntity
  8
ASSI
100
AcDbLine
 62
7
  6
CONTINUOUS
 10
20.3051036732
 20
-28.9653434582
 11
20.4465250294
 21
-28.8836885395
  0
LINE
  5
320
100
AcDbEntity
  8
0
100
AcDbLine
 62
7
  6
CONTINUOUS
 10
20.6586570638
 20
-28.7612061615
 11
20.80007842
 21
-28.6795512429
  0
LINE
  5
321
100
AcDbEntity
  8
ASSI
100
AcDbLine
 62
7
  6
CONTINUOUS
 10
20.6586570638
 20
-28.7612061615
 11
20.80007842
 21
-28.6795512429
  0
LINE
  5
322
100
AcDbEntity
  8
0
100
AcDbLine
 62
7
  6
CONTINUOUS
 10
21.0122104544
 20
-28.5570688649
 11
21.1536318106
 21
-28.4754139462
  0
LINE
  5
323
100
AcDbEntity
  8
ASSI
100
AcDbLine
 62
7
  6
CONTINUOUS
 10
21.0122104544
 20
-28.5570688649
 11
21.1536318106
 21
-28.4754139462
  0
LINE
  5
324
100
AcDbEntity
  8
0
100
AcDbLine
 62
7
  6
CONTINUOUS
 10
21.365763845
 20
-28.3529315682
 11
21.4364745231
 21
-28.3121041089
  0
LINE
  5
325
100
AcDbEntity
  8
ASSI
100
AcDbLine
 62
7
  6
CONTINUOUS
 10
21.365763845
 20
-28.3529315682
 11
21.4364745231
 21
-28.3121041089
  0
LINE
  5
326
100
AcDbEntity
  8
0
100
AcDbLine
 62
7
  6
CONTINUOUS
 10
21.4364745231
 20
-28.4345746504
 11
19.6685299029
 21
-29.4553637165
  0
LINE
  5
327
100
AcDbEntity
  8
ASSI
100
AcDbLine
 62
7
  6
CONTINUOUS
 10
21.4364745231
 20
-28.4345746504
 11
19.6685299029
 21
-29.4553637165
  0
LINE
  5
328
100
AcDbEntity
  8
SMUSSO
100
AcDbLine
 62
7
  6
CONTINUOUS
 10
-42.8041765477
 20
61.400710139
 11
42.7557439759
 21
11.9995238013
  0
LINE
  5
329
100
AcDbEntity
  8
0
100
AcDbLine
 62
7
  6
CONTINUOUS
 10
-39.7990804235
 20
61.9928257184
 11
44.0639992168
 21
13.5713345854
  0
LINE
  5
32A
100
AcDbEntity
  8
ASSI
100
AcDbLine
 62
7
  6
CONTINUOUS
 10
-39.7990804235
 20
61.9928257184
 11
44.0639992168
 21
13.5713345854
  0
LINE
  5
32B
100
AcDbEntity
  8
0
100
AcDbLine
 62
7
  6
CONTINUOUS
 10
-38.5533357042
 20
61.5186077782
 11
44.9395748411
 21
13.3108476413
  0
LINE
  5
32C
100
AcDbEntity
  8
ASSI
100
AcDbLine
 62
7
  6
CONTINUOUS
 10
-38.5533357042
 20
61.5186077782
 11
44.9395748411
 21
13.3108476413
  0
LINE
  5
32D
100
AcDbEntity
  8
SMUSSO
100
AcDbLine
 62
7
  6
CONTINUOUS
 10
39.5737634605
 20
-61.6870567715
 11
39.5737634605
 21
10.1623275862
  0
LINE
  5
32E
100
AcDbEntity
  8
SMUSSO
100
AcDbLine
 62
7
  6
CONTINUOUS
 10
40.2808702417
 20
11.3870724564
 11
40.2808702417
 21
10.5705627246
  0
LINE
  5
32F
100
AcDbEntity
  8
SMUSSO
100
AcDbLine
 62
7
  6
CONTINUOUS
 10
40.9879770229
 20
-61.6870567715
 11
40.9879770229
 21
10.1623275862
  0
LINE
  5
330
100
AcDbEntity
  8
0
100
AcDbLine
 62
250
  6
CONTINUOUS
 10
44.7711110941
 20
12.376194929
 11
44.9831303366
 21
13.2354073102
  0
LINE
  5
331
100
AcDbEntity
  8
ASSI
100
AcDbLine
 62
250
  6
CONTINUOUS
 10
44.7711110941
 20
12.376194929
 11
44.9831303366
 21
13.2354073102
  0
LINE
  5
332
100
AcDbEntity
  8
0
100
AcDbLine
 62
250
  6
CONTINUOUS
 10
20.5879463857
 20
-32.844145424
 11
21.4364745231
 21
-32.354215912
  0
LINE
  5
333
100
AcDbEntity
  8
SMUSSO
100
AcDbLine
 62
7
  6
CONTINUOUS
 10
42.7557439759
 20
-60.6663702882
 11
42.7557439759
 21
11.9995238013
  0
LINE
  5
334
100
AcDbEntity
  8
0
100
AcDbLine
 62
250
  6
CONTINUOUS
 10
43.1164410143
 20
-53.5202713729
 11
43.1164410143
 21
-53.1964821222
  0
LINE
  5
335
100
AcDbEntity
  8
0
100
AcDbLine
 62
250
  6
CONTINUOUS
 10
43.1165202174
 20
-50.5983602117
 11
43.1165202174
 21
-50.9115876028
  0
LINE
  5
336
100
AcDbEntity
  8
0
100
AcDbLine
 62
250
  6
CONTINUOUS
 10
43.1165202174
 20
-51.5940277519
 11
43.1165202174
 21
-51.9143861944
  0
LINE
  5
337
100
AcDbEntity
  8
0
100
AcDbLine
 62
250
  6
CONTINUOUS
 10
43.1165202174
 20
-52.5585453181
 11
43.1165202174
 21
-52.8820667664
  0
LINE
  5
338
100
AcDbEntity
  8
0
100
AcDbLine
 62
250
  6
CONTINUOUS
 10
43.1165202174
 20
-53.6403831313
 11
43.1165202174
 21
-53.9639511185
  0
LINE
  5
339
100
AcDbEntity
  8
0
100
AcDbLine
 62
250
  6
CONTINUOUS
 10
43.1165202174
 20
-54.5643449859
 11
43.1165202174
 21
-54.9160803812
  0
LINE
  5
33A
100
AcDbEntity
  8
0
100
AcDbLine
 62
250
  6
CONTINUOUS
 10
43.7037364809
 20
-49.3644950436
 11
43.7037364809
 21
-49.1794525448
  0
LINE
  5
33B
100
AcDbEntity
  8
0
100
AcDbLine
 62
250
  6
CONTINUOUS
 10
43.9199115371
 20
-49.0508989201
 11
43.9199115371
 21
-49.2245071232
  0
LINE
  5
33C
100
AcDbEntity
  8
0
100
AcDbLine
 62
250
  6
CONTINUOUS
 10
43.9690556238
 20
-50.1025392324
 11
43.9690556238
 21
-50.4125448318
  0
LINE
  5
33D
100
AcDbEntity
  8
0
100
AcDbLine
 62
250
  6
CONTINUOUS
 10
44.1729571016
 20
-50.3568645699
 11
44.1729571016
 21
-49.9159167334
  0
LINE
  5
33E
100
AcDbEntity
  8
0
100
AcDbLine
 62
250
  6
CONTINUOUS
 10
44.4364651779
 20
-53.6351321024
 11
44.4364651779
 21
-53.3497920701
  0
LINE
  5
33F
100
AcDbEntity
  8
0
100
AcDbLine
 62
250
  6
CONTINUOUS
 10
44.4364651779
 20
-52.2329301314
 11
44.4364651779
 21
-51.9231694731
  0
LINE
  5
340
100
AcDbEntity
  8
0
100
AcDbLine
 62
250
  6
CONTINUOUS
 10
44.4364651779
 20
-51.4734511129
 11
44.4364651779
 21
-51.4280398525
  0
LINE
  5
341
100
AcDbEntity
  8
0
100
AcDbLine
 62
250
  6
CONTINUOUS
 10
44.4364651779
 20
-50.9765301565
 11
44.4364651779
 21
-50.6597780632
  0
LINE
  5
342
100
AcDbEntity
  8
0
100
AcDbLine
 62
250
  6
CONTINUOUS
 10
44.4364651779
 20
-50.6089348262
 11
44.4364651779
 21
-50.2886580307
  0
LINE
  5
343
100
AcDbEntity
  8
0
100
AcDbLine
 62
250
  6
CONTINUOUS
 10
44.4364651779
 20
-49.6744862273
 11
44.4364651779
 21
-49.3332253293
  0
LINE
  5
344
100
AcDbEntity
  8
0
100
AcDbLine
 62
250
  6
CONTINUOUS
 10
44.4364650014
 20
-48.108371789
 11
44.4364650014
 21
-48.419819671
  0
LINE
  5
345
100
AcDbEntity
  8
0
100
AcDbLine
 62
250
  6
CONTINUOUS
 10
44.4364650014
 20
-48.9156586576
 11
44.4364650014
 21
-49.238145346
  0
LINE
  5
346
100
AcDbEntity
  8
0
100
AcDbLine
 62
250
  6
CONTINUOUS
 10
44.4364651779
 20
-52.4072367379
 11
44.4364651779
 21
-52.7310259885
  0
LINE
  5
347
100
AcDbEntity
  8
0
100
AcDbLine
 62
7
  6
CONTINUOUS
 10
44.7709983022
 20
12.3467762498
 11
44.7709983022
 21
-58.3597984252
  0
LINE
  5
348
100
AcDbEntity
  8
ASSI
100
AcDbLine
 62
7
  6
CONTINUOUS
 10
44.7709983022
 20
12.3467762498
 11
44.7709983022
 21
-58.3597984252
  0
LINE
  5
349
100
AcDbEntity
  8
0
100
AcDbLine
 62
7
  6
CONTINUOUS
 10
44.9831303366
 20
13.2354073102
 11
44.9831303366
 21
-57.0437466816
  0
LINE
  5
34A
100
AcDbEntity
  8
ASSI
100
AcDbLine
 62
7
  6
CONTINUOUS
 10
44.9831303366
 20
13.2354073102
 11
44.9831303366
 21
-57.0437466816
  0
LINE
  5
34B
100
AcDbEntity
  8
0
100
AcDbLine
 62
250
  6
CONTINUOUS
 10
-39.8234869961
 20
62.0070480672
 11
-38.5533357042
 21
61.5186077782
  0
LINE
  5
34C
100
AcDbEntity
  8
ASSI
100
AcDbLine
 62
250
  6
CONTINUOUS
 10
-39.8234869961
 20
62.0070480672
 11
-38.5533357042
 21
61.5186077782
  0
LINE
  5
34D
100
AcDbEntity
  8
0
100
AcDbLine
 62
7
  6
CONTINUOUS
 10
-38.5603614775
 20
61.5220188991
 11
-39.9274871215
 21
62.0580967319
  0
LINE
  5
34E
100
AcDbEntity
  8
ASSI
100
AcDbLine
 62
7
  6
CONTINUOUS
 10
-38.5603614775
 20
61.5220188991
 11
-39.9274871215
 21
62.0580967319
  0
LINE
  5
34F
100
AcDbEntity
  8
0
100
AcDbLine
 62
7
  6
CONTINUOUS
 10
44.9825719126
 20
-57.0515324131
 11
44.7633251566
 21
-58.503571142
  0
LINE
  5
350
100
AcDbEntity
  8
ASSI
100
AcDbLine
 62
7
  6
CONTINUOUS
 10
44.9825719126
 20
-57.0515324131
 11
44.7633251566
 21
-58.503571142
  0
LINE
  5
351
100
AcDbEntity
  8
0
100
AcDbLine
 62
250
  6
CONTINUOUS
 10
44.7711110941
 20
-58.3880448615
 11
44.9831303366
 21
-57.0437466816
  0
LINE
  5
352
100
AcDbEntity
  8
ASSI
100
AcDbLine
 62
250
  6
CONTINUOUS
 10
44.7711110941
 20
-58.3880448615
 11
44.9831303366
 21
-57.0437466816
  0
LINE
  5
353
100
AcDbEntity
  8
0
100
AcDbLine
 62
250
  6
CONTINUOUS
 10
44.4364651779
 20
-49.3332253293
 11
43.1165202174
 21
-50.5983602117
  0
LINE
  5
354
100
AcDbEntity
  8
0
100
AcDbLine
 62
250
  6
CONTINUOUS
 10
44.1729571016
 20
-49.9159167334
 11
44.4364651779
 21
-49.6744862273
  0
LINE
  5
355
100
AcDbEntity
  8
0
100
AcDbLine
 62
250
  6
CONTINUOUS
 10
43.4792072709
 20
-50.544206031
 11
43.9690556238
 21
-50.1025392324
  0
LINE
  5
356
100
AcDbEntity
  8
0
100
AcDbLine
 62
250
  6
CONTINUOUS
 10
44.4364651779
 20
-50.6597780632
 11
43.1165202174
 21
-51.5940277519
  0
LINE
  5
357
100
AcDbEntity
  8
0
100
AcDbLine
 62
250
  6
CONTINUOUS
 10
43.5781590601
 20
-51.5562368428
 11
44.4364651779
 21
-50.9765301565
  0
LINE
  5
358
100
AcDbEntity
  8
0
100
AcDbLine
 62
250
  6
CONTINUOUS
 10
43.8125267759
 20
-48.7787524273
 11
43.8203264986
 21
-48.7740889557
  0
LINE
  5
359
100
AcDbEntity
  8
0
100
AcDbLine
 62
250
  6
CONTINUOUS
 10
43.9199115371
 20
-49.2245071232
 11
44.4364650014
 21
-48.9156586576
  0
LINE
  5
35A
100
AcDbEntity
  8
0
100
AcDbLine
 62
250
  6
CONTINUOUS
 10
43.3413859104
 20
-49.5811452559
 11
43.7037364809
 21
-49.3644950436
  0
LINE
  5
35B
100
AcDbEntity
  8
0
100
AcDbLine
 62
250
  6
CONTINUOUS
 10
44.4364650014
 20
-49.238145346
 11
43.1319415793
 21
-50.0181228025
  0
LINE
  5
35C
100
AcDbEntity
  8
0
100
AcDbLine
 62
250
  6
CONTINUOUS
 10
44.4364651779
 20
-51.9231694731
 11
43.5745657397
 21
-52.3686267221
  0
LINE
  5
35D
100
AcDbEntity
  8
0
100
AcDbLine
 62
250
  6
CONTINUOUS
 10
43.1165202174
 20
-52.8820667664
 11
44.4364651779
 21
-52.2329301314
  0
LINE
  5
35E
100
AcDbEntity
  8
0
100
AcDbLine
 62
250
  6
CONTINUOUS
 10
43.5745657397
 20
-52.3686267221
 11
44.4364651779
 21
-51.4734511129
  0
LINE
  5
35F
100
AcDbEntity
  8
0
100
AcDbLine
 62
250
  6
CONTINUOUS
 10
43.8493574812
 20
-51.8000104144
 11
43.1165202174
 21
-52.5585453181
  0
LINE
  5
360
100
AcDbEntity
  8
0
100
AcDbLine
 62
250
  6
CONTINUOUS
 10
43.1165202174
 20
-54.9160803812
 11
44.4364651779
 21
-53.6351321024
  0
LINE
  5
361
100
AcDbEntity
  8
0
100
AcDbLine
 62
250
  6
CONTINUOUS
 10
44.0250793235
 20
-53.7254348465
 11
43.1165202174
 21
-54.5643449859
  0
LINE
  5
362
100
AcDbEntity
  8
0
100
AcDbLine
 62
250
  6
CONTINUOUS
 10
42.7561821616
 20
-59.6057909494
 11
44.7709983022
 21
-58.3597984252
  0
LINE
  5
363
100
AcDbEntity
  8
ASSI
100
AcDbLine
 62
250
  6
CONTINUOUS
 10
42.7561821616
 20
-59.6057909494
 11
44.7709983022
 21
-58.3597984252
  0
LINE
  5
364
100
AcDbEntity
  8
0
100
AcDbLine
 62
7
  6
CONTINUOUS
 10
42.7557439759
 20
-59.9358952291
 11
44.5860524376
 21
-58.8040050212
  0
LINE
  5
365
100
AcDbEntity
  8
ASSI
100
AcDbLine
 62
7
  6
CONTINUOUS
 10
42.7557439759
 20
-59.9358952291
 11
44.5860524376
 21
-58.8040050212
  0
LINE
  5
366
100
AcDbEntity
  8
0
100
AcDbLine
 62
250
  6
CONTINUOUS
 10
43.1164410143
 20
-53.1964821222
 11
44.4364651779
 21
-52.4072367379
  0
LINE
  5
367
100
AcDbEntity
  8
0
100
AcDbLine
 62
250
  6
CONTINUOUS
 10
44.4364651779
 20
-52.7310259885
 11
43.1164410143
 21
-53.5202713729
  0
LINE
  5
368
100
AcDbEntity
  8
SMUSSO
100
AcDbLine
 62
7
  6
CONTINUOUS
 10
40.2808702417
 20
-62.0952919099
 11
42.7557439759
 21
-60.6663702882
  0
ARC
  5
369
100
AcDbEntity
  8
0
100
AcDbCircle
 62
7
  6
CONTINUOUS
 10
-10.8251426309
 20
-10.8478349353
 40
0.3
100
AcDbArc
 50
300.1089928496
 51
314.2001404346
  0
ARC
  5
36A
100
AcDbEntity
  8
ASSI
100
AcDbCircle
 62
7
  6
CONTINUOUS
 10
-10.8251426309
 20
-10.8478349353
 40
0.3
100
AcDbArc
 50
300.1089929463
 51
314.2001404338
  0
ARC
  5
36B
100
AcDbEntity
  8
0
100
AcDbCircle
 62
250
  6
CONTINUOUS
 10
-10.7843483586
 20
-10.9856550024
 40
0.1703493928
100
AcDbArc
 50
339.0197933377
 51
345.090855298
  0
ARC
  5
36C
100
AcDbEntity
  8
ASSI
100
AcDbCircle
 62
250
  6
CONTINUOUS
 10
-10.7843483586
 20
-10.9856550024
 40
0.1703493928
100
AcDbArc
 50
339.0197933408
 51
345.090855298
  0
ARC
  5
36D
100
AcDbEntity
  8
0
100
AcDbCircle
 62
250
  6
CONTINUOUS
 10
-10.7245017295
 20
-11.0211480982
 40
0.099807608
100
AcDbArc
 50
300.1159498033
 51
302.5096246036
  0
ARC
  5
36E
100
AcDbEntity
  8
ASSI
100
AcDbCircle
 62
250
  6
CONTINUOUS
 10
-10.7245017295
 20
-11.0211480981
 40
0.099807608
100
AcDbArc
 50
300.1159498035
 51
302.5096245978
  0
ARC
  5
36F
100
AcDbEntity
  8
0
100
AcDbCircle
 62
7
  6
CONTINUOUS
 10
20.9946625225
 20
-29.220191635
 40
0.3
100
AcDbArc
 50
300.1089928496
 51
314.2001404346
  0
ARC
  5
370
100
AcDbEntity
  8
ASSI
100
AcDbCircle
 62
7
  6
CONTINUOUS
 10
20.9946625225
 20
-29.220191635
 40
0.3
100
AcDbArc
 50
300.1089929463
 51
314.2001404338
  0
ARC
  5
371
100
AcDbEntity
  8
0
100
AcDbCircle
 62
250
  6
CONTINUOUS
 10
21.0354567948
 20
-29.3580117021
 40
0.1703493928
100
AcDbArc
 50
339.0197933377
 51
345.090855298
  0
ARC
  5
372
100
AcDbEntity
  8
ASSI
100
AcDbCircle
 62
250
  6
CONTINUOUS
 10
21.0354567948
 20
-29.3580117021
 40
0.1703493928
100
AcDbArc
 50
339.0197933407
 51
345.090855298
  0
ARC
  5
373
100
AcDbEntity
  8
0
100
AcDbCircle
 62
250
  6
CONTINUOUS
 10
21.0953034239
 20
-29.3935047979
 40
0.099807608
100
AcDbArc
 50
300.1159498034
 51
302.5096246036
  0
ARC
  5
374
100
AcDbEntity
  8
ASSI
100
AcDbCircle
 62
250
  6
CONTINUOUS
 10
21.0953034239
 20
-29.3935047979
 40
0.099807608
100
AcDbArc
 50
300.1159498035
 51
302.5096245979
  0
ARC
  5
375
100
AcDbEntity
  8
0
100
AcDbCircle
 62
7
  6
CONTINUOUS
 10
7.0723717915
 20
-18.8329177302
 40
0.1779620607
100
AcDbArc
 50
303.7143364849
 51
315.9708985531
  0
ARC
  5
376
100
AcDbEntity
  8
ASSI
100
AcDbCircle
 62
7
  6
CONTINUOUS
 10
7.0723717915
 20
-18.8329177302
 40
0.1779620607
100
AcDbArc
 50
303.7143364849
 51
315.9708985531
  0
SPLINE
  5
377
100
AcDbEntity
  8
0
100
AcDbSpline
 62
7
  6
CONTINUOUS
 70
0
 71
3
 72
10
 73
6
 74
0
 42
0.0000001
 43
0.0000001
 44
0.0000000001
 40
0.0
 40
0.0
 40
0.0
 40
0.0
 40
0.5286692283
 40
0.7680002507
 40
1.0
 40
1.0
 40
1.0
 40
1.0
 10
-39.9274862961
 20
62.0580880829
 30
0.0
 10
-39.9863391911
 20
62.0811763528
 30
0.0
 10
-40.0788794516
 20
62.1025515428
 30
0.0
 10
-40.1985872492
 20
62.0883603066
 30
0.0
 10
-40.2518843733
 20
62.0679117206
 30
0.0
 10
-40.2763178713
 20
62.0547706689
 30
0.0
  0
SPLINE
  5
378
100
AcDbEntity
  8
0
100
AcDbSpline
 62
7
  6
CONTINUOUS
 70
0
 71
3
 72
10
 73
6
 74
0
 42
0.0000001
 43
0.0000001
 44
0.0000000001
 40
0.0
 40
0.0
 40
0.0
 40
0.0
 40
0.2319999843
 40
0.471331071
 40
1.0
 40
1.0
 40
1.0
 40
1.0
 10
44.586050182
 20
-58.8040021329
 30
0.0
 10
44.6096457617
 20
-58.7894118412
 30
0.0
 10
44.6539997451
 20
-58.7534783769
 30
0.0
 10
44.726136195
 20
-58.6569040357
 30
0.0
 10
44.753889692
 20
-58.5660764043
 30
0.0
 10
44.7633180702
 20
-58.503566097
 30
0.0
  0
SPLINE
  5
379
100
AcDbEntity
  8
0
100
AcDbSpline
 62
7
  6
CONTINUOUS
 70
0
 71
3
 72
9
 73
5
 74
0
 42
0.0000001
 43
0.0000001
 44
0.0000000001
 40
0.0
 40
0.0
 40
0.0
 40
0.0
 40
0.5018288403
 40
1.0
 40
1.0
 40
1.0
 40
1.0
 10
5.4054011291
 20
-20.1950788164
 30
0.0
 10
5.4482205245
 20
-20.1702446539
 30
0.0
 10
5.529307907
 20
-20.1133915103
 30
0.0
 10
5.6032943933
 20
-20.0479287562
 30
0.0
 10
5.6385194977
 20
-20.0136674024
 30
0.0
  0
SPLINE
  5
37A
100
AcDbEntity
  8
0
100
AcDbSpline
 62
7
  6
CONTINUOUS
 70
0
 71
3
 72
9
 73
5
 74
0
 42
0.0000001
 43
0.0000001
 44
0.0000000001
 40
0.0
 40
0.0
 40
0.0
 40
0.0
 40
0.4988041848
 40
1.0
 40
1.0
 40
1.0
 40
1.0
 10
7.2003241782
 20
-18.9566055703
 30
0.0
 10
7.21565738
 20
-18.9407147733
 30
0.0
 10
7.2406265603
 20
-18.9025124483
 30
0.0
 10
7.2482724982
 20
-18.8576656284
 30
0.0
 10
7.2482600503
 20
-18.8354775321
 30
0.0
  0
SPLINE
  5
37B
100
AcDbEntity
  8
0
100
AcDbSpline
 62
250
  6
CONTINUOUS
 70
0
 71
3
 72
9
 73
5
 74
0
 42
0.0000001
 43
0.0000001
 44
0.0000000001
 40
0.0
 40
0.0
 40
0.0
 40
0.0
 40
0.4797909424
 40
1.0
 40
1.0
 40
1.0
 40
1.0
 10
-10.6708610015
 20
-11.1053159715
 30
0.0
 10
-10.6607110594
 20
-11.0988475241
 30
0.0
 10
-10.6419430106
 20
-11.0813313979
 30
0.0
 10
-10.6299804276
 20
-11.058826468
 30
0.0
 10
-10.6252924199
 20
-11.0466478213
 30
0.0
  0
SPLINE
  5
37C
100
AcDbEntity
  8
0
100
AcDbSpline
 62
250
  6
CONTINUOUS
 70
0
 71
3
 72
9
 73
5
 74
0
 42
0.0000001
 43
0.0000001
 44
0.0000000001
 40
0.0
 40
0.0
 40
0.0
 40
0.0
 40
0.4797909424
 40
1.0
 40
1.0
 40
1.0
 40
1.0
 10
21.1489441519
 20
-29.4776726713
 30
0.0
 10
21.159094094
 20
-29.4712042238
 30
0.0
 10
21.1778621428
 20
-29.4536880976
 30
0.0
 10
21.1898247258
 20
-29.4311831678
 30
0.0
 10
21.1945127335
 20
-29.4190045211
 30
0.0
  0
SPLINE
  5
37D
100
AcDbEntity
  8
0
100
AcDbSpline
 62
7
  6
CONTINUOUS
 70
0
 71
3
 72
9
 73
5
 74
0
 42
0.0000001
 43
0.0000001
 44
0.0000000001
 40
0.0
 40
0.0
 40
0.0
 40
0.0
 40
0.2420558041
 40
1.0
 40
1.0
 40
1.0
 40
1.0
 10
44.7633180702
 20
-58.503566097
 30
0.0
 10
44.7647121929
 20
-58.4943230399
 30
0.0
 10
44.7696379926
 20
-58.4560135009
 30
0.0
 10
44.7713499745
 20
-58.4173138376
 30
0.0
 10
44.7711110941
 20
-58.3880448615
 30
0.0
  0
SPLINE
  5
37E
100
AcDbEntity
  8
0
100
AcDbSpline
 62
250
  6
CONTINUOUS
 70
0
 71
3
 72
10
 73
6
 74
0
 42
0.0000001
 43
0.0000001
 44
0.0000000001
 40
0.0
 40
0.0
 40
0.0
 40
0.0
 40
0.3605959684
 40
0.641534438
 40
1.0
 40
1.0
 40
1.0
 40
1.0
 10
21.2000713799
 20
-29.4018403912
 30
0.0
 10
21.2017863134
 20
-29.4056776944
 30
0.0
 10
21.2045830154
 20
-29.4127235797
 30
0.0
 10
21.2075334048
 20
-29.4236699253
 30
0.0
 10
21.2069895962
 20
-29.4324621353
 30
0.0
 10
21.2039952289
 20
-29.4353761589
 30
0.0
  0
SPLINE
  5
37F
100
AcDbEntity
  8
0
100
AcDbSpline
 62
250
  6
CONTINUOUS
 70
0
 71
3
 72
10
 73
6
 74
0
 42
0.0000001
 43
0.0000001
 44
0.0000000001
 40
0.0
 40
0.0
 40
0.0
 40
0.0
 40
0.3605959684
 40
0.641534438
 40
1.0
 40
1.0
 40
1.0
 40
1.0
 10
-10.6197337735
 20
-11.0294836915
 30
0.0
 10
-10.61801884
 20
-11.0333209947
 30
0.0
 10
-10.615222138
 20
-11.04036688
 30
0.0
 10
-10.6122717486
 20
-11.0513132256
 30
0.0
 10
-10.6128155572
 20
-11.0601054355
 30
0.0
 10
-10.6158099245
 20
-11.0630194592
 30
0.0
  0
SPLINE
  5
380
100
AcDbEntity
  8
0
100
AcDbSpline
 62
7
  6
CONTINUOUS
 70
0
 71
3
 72
11
 73
7
 74
0
 42
0.0000001
 43
0.0000001
 44
0.0000000001
 40
0.0
 40
0.0
 40
0.0
 40
0.0
 40
0.2395972798
 40
0.4999945239
 40
0.7603947422
 40
1.0
 40
1.0
 40
1.0
 40
1.0
 10
44.7711110941
 20
12.376194929
 30
0.0
 10
44.7719623208
 20
12.489338808
 30
0.0
 10
44.7336906074
 20
12.7261811533
 30
0.0
 10
44.5896655423
 20
13.058447237
 30
0.0
 10
44.3739245411
 20
13.3493123325
 30
0.0
 10
44.1879466788
 20
13.50088252
 30
0.0
 10
44.0895337081
 20
13.5567215897
 30
0.0
  0
SPLINE
  5
381
100
AcDbEntity
  8
0
100
AcDbSpline
 62
7
  6
CONTINUOUS
 70
0
 71
3
 72
9
 73
5
 74
0
 42
0.0000001
 43
0.0000001
 44
0.0000000001
 40
0.0
 40
0.0
 40
0.0
 40
0.0
 40
0.2580992694
 40
1.0
 40
1.0
 40
1.0
 40
1.0
 10
-39.8234869961
 20
62.0070480672
 30
0.0
 10
-39.8320823022
 20
62.0121049057
 30
0.0
 10
-39.8657312959
 20
62.0310960522
 30
0.0
 10
-39.9008005879
 20
62.0476191529
 30
0.0
 10
-39.9274862961
 20
62.0580880829
 30
0.0
  0
SPLINE
  5
382
100
AcDbEntity
  8
ASSI
100
AcDbSpline
 62
7
  6
CONTINUOUS
 70
0
 71
3
 72
10
 73
6
 74
0
 42
0.0000001
 43
0.0000001
 44
0.0000000001
 40
0.0
 40
0.0
 40
0.0
 40
0.0
 40
0.5286692283
 40
0.7680002507
 40
1.0
 40
1.0
 40
1.0
 40
1.0
 10
-39.9274862961
 20
62.0580880829
 30
0.0
 10
-39.9863391911
 20
62.0811763528
 30
0.0
 10
-40.0788794516
 20
62.1025515428
 30
0.0
 10
-40.1985872492
 20
62.0883603066
 30
0.0
 10
-40.2518843733
 20
62.0679117206
 30
0.0
 10
-40.2763178713
 20
62.0547706689
 30
0.0
  0
SPLINE
  5
383
100
AcDbEntity
  8
ASSI
100
AcDbSpline
 62
7
  6
CONTINUOUS
 70
0
 71
3
 72
10
 73
6
 74
0
 42
0.0000001
 43
0.0000001
 44
0.0000000001
 40
0.0
 40
0.0
 40
0.0
 40
0.0
 40
0.2319999843
 40
0.471331071
 40
1.0
 40
1.0
 40
1.0
 40
1.0
 10
44.586050182
 20
-58.8040021329
 30
0.0
 10
44.6096457617
 20
-58.7894118412
 30
0.0
 10
44.6539997451
 20
-58.7534783769
 30
0.0
 10
44.726136195
 20
-58.6569040357
 30
0.0
 10
44.753889692
 20
-58.5660764043
 30
0.0
 10
44.7633180702
 20
-58.503566097
 30
0.0
  0
SPLINE
  5
384
100
AcDbEntity
  8
ASSI
100
AcDbSpline
 62
7
  6
CONTINUOUS
 70
0
 71
3
 72
9
 73
5
 74
0
 42
0.0000001
 43
0.0000001
 44
0.0000000001
 40
0.0
 40
0.0
 40
0.0
 40
0.0
 40
0.5018288403
 40
1.0
 40
1.0
 40
1.0
 40
1.0
 10
5.4054011291
 20
-20.1950788164
 30
0.0
 10
5.4482205245
 20
-20.1702446539
 30
0.0
 10
5.529307907
 20
-20.1133915103
 30
0.0
 10
5.6032943933
 20
-20.0479287562
 30
0.0
 10
5.6385194977
 20
-20.0136674024
 30
0.0
  0
SPLINE
  5
385
100
AcDbEntity
  8
ASSI
100
AcDbSpline
 62
7
  6
CONTINUOUS
 70
0
 71
3
 72
9
 73
5
 74
0
 42
0.0000001
 43
0.0000001
 44
0.0000000001
 40
0.0
 40
0.0
 40
0.0
 40
0.0
 40
0.4988041848
 40
1.0
 40
1.0
 40
1.0
 40
1.0
 10
7.2003241782
 20
-18.9566055703
 30
0.0
 10
7.21565738
 20
-18.9407147733
 30
0.0
 10
7.2406265603
 20
-18.9025124483
 30
0.0
 10
7.2482724982
 20
-18.8576656284
 30
0.0
 10
7.2482600503
 20
-18.8354775321
 30
0.0
  0
SPLINE
  5
386
100
AcDbEntity
  8
ASSI
100
AcDbSpline
 62
250
  6
CONTINUOUS
 70
0
 71
3
 72
9
 73
5
 74
0
 42
0.0000001
 43
0.0000001
 44
0.0000000001
 40
0.0
 40
0.0
 40
0.0
 40
0.0
 40
0.4797909424
 40
1.0
 40
1.0
 40
1.0
 40
1.0
 10
-10.6708610015
 20
-11.1053159715
 30
0.0
 10
-10.6607110594
 20
-11.0988475241
 30
0.0
 10
-10.6419430106
 20
-11.0813313979
 30
0.0
 10
-10.6299804276
 20
-11.058826468
 30
0.0
 10
-10.6252924199
 20
-11.0466478213
 30
0.0
  0
SPLINE
  5
387
100
AcDbEntity
  8
ASSI
100
AcDbSpline
 62
250
  6
CONTINUOUS
 70
0
 71
3
 72
9
 73
5
 74
0
 42
0.0000001
 43
0.0000001
 44
0.0000000001
 40
0.0
 40
0.0
 40
0.0
 40
0.0
 40
0.4797909424
 40
1.0
 40
1.0
 40
1.0
 40
1.0
 10
21.1489441519
 20
-29.4776726713
 30
0.0
 10
21.159094094
 20
-29.4712042238
 30
0.0
 10
21.1778621428
 20
-29.4536880976
 30
0.0
 10
21.1898247258
 20
-29.4311831678
 30
0.0
 10
21.1945127335
 20
-29.4190045211
 30
0.0
  0
SPLINE
  5
388
100
AcDbEntity
  8
ASSI
100
AcDbSpline
 62
7
  6
CONTINUOUS
 70
0
 71
3
 72
9
 73
5
 74
0
 42
0.0000001
 43
0.0000001
 44
0.0000000001
 40
0.0
 40
0.0
 40
0.0
 40
0.0
 40
0.2420558041
 40
1.0
 40
1.0
 40
1.0
 40
1.0
 10
44.7633180702
 20
-58.503566097
 30
0.0
 10
44.7647121929
 20
-58.4943230399
 30
0.0
 10
44.7696379926
 20
-58.4560135009
 30
0.0
 10
44.7713499745
 20
-58.4173138376
 30
0.0
 10
44.7711110941
 20
-58.3880448615
 30
0.0
  0
SPLINE
  5
389
100
AcDbEntity
  8
ASSI
100
AcDbSpline
 62
250
  6
CONTINUOUS
 70
0
 71
3
 72
10
 73
6
 74
0
 42
0.0000001
 43
0.0000001
 44
0.0000000001
 40
0.0
 40
0.0
 40
0.0
 40
0.0
 40
0.3605959681
 40
0.641534438
 40
1.0
 40
1.0
 40
1.0
 40
1.0
 10
21.2000713799
 20
-29.4018403912
 30
0.0
 10
21.2017863134
 20
-29.4056776944
 30
0.0
 10
21.2045830154
 20
-29.4127235797
 30
0.0
 10
21.2075334048
 20
-29.4236699253
 30
0.0
 10
21.2069895962
 20
-29.4324621353
 30
0.0
 10
21.2039952289
 20
-29.4353761589
 30
0.0
  0
SPLINE
  5
38A
100
AcDbEntity
  8
ASSI
100
AcDbSpline
 62
250
  6
CONTINUOUS
 70
0
 71
3
 72
10
 73
6
 74
0
 42
0.0000001
 43
0.0000001
 44
0.0000000001
 40
0.0
 40
0.0
 40
0.0
 40
0.0
 40
0.3605959681
 40
0.641534438
 40
1.0
 40
1.0
 40
1.0
 40
1.0
 10
-10.6197337735
 20
-11.0294836915
 30
0.0
 10
-10.61801884
 20
-11.0333209947
 30
0.0
 10
-10.615222138
 20
-11.04036688
 30
0.0
 10
-10.6122717486
 20
-11.0513132256
 30
0.0
 10
-10.6128155572
 20
-11.0601054355
 30
0.0
 10
-10.6158099244
 20
-11.0630194592
 30
0.0
  0
SPLINE
  5
38B
100
AcDbEntity
  8
ASSI
100
AcDbSpline
 62
7
  6
CONTINUOUS
 70
0
 71
3
 72
11
 73
7
 74
0
 42
0.0000001
 43
0.0000001
 44
0.0000000001
 40
0.0
 40
0.0
 40
0.0
 40
0.0
 40
0.2395972798
 40
0.4999945239
 40
0.7603947422
 40
1.0
 40
1.0
 40
1.0
 40
1.0
 10
44.7711110941
 20
12.376194929
 30
0.0
 10
44.7719623208
 20
12.489338808
 30
0.0
 10
44.7336906074
 20
12.7261811533
 30
0.0
 10
44.5896655423
 20
13.058447237
 30
0.0
 10
44.3739245411
 20
13.3493123325
 30
0.0
 10
44.1879466788
 20
13.50088252
 30
0.0
 10
44.0895337081
 20
13.5567215897
 30
0.0
  0
SPLINE
  5
38C
100
AcDbEntity
  8
ASSI
100
AcDbSpline
 62
7
  6
CONTINUOUS
 70
0
 71
3
 72
9
 73
5
 74
0
 42
0.0000001
 43
0.0000001
 44
0.0000000001
 40
0.0
 40
0.0
 40
0.0
 40
0.0
 40
0.2580992694
 40
1.0
 40
1.0
 40
1.0
 40
1.0
 10
-39.8234869961
 20
62.0070480672
 30
0.0
 10
-39.8320823022
 20
62.0121049057
 30
0.0
 10
-39.8657312959
 20
62.0310960522
 30
0.0
 10
-39.9008005879
 20
62.0476191529
 30
0.0
 10
-39.9274862961
 20
62.0580880829
 30
0.0
  0
SPLINE
  5
38D
100
AcDbEntity
  8
0
100
AcDbSpline
 62
250
  6
CONTINUOUS
 70
0
 71
3
 72
16
 73
12
 74
0
 42
0.0000001
 43
0.0000001
 44
0.0000000001
 40
0.0
 40
0.0
 40
0.0
 40
0.0
 40
0.125
 40
0.25
 40
0.3125
 40
0.375
 40
0.5
 40
0.625
 40
0.75
 40
0.875
 40
1.0
 40
1.0
 40
1.0
 40
1.0
 10
44.0360760602
 20
-48.8008594314
 30
0.0
 10
44.0272239297
 20
-48.8100645797
 30
0.0
 10
44.0107493079
 20
-48.8287329807
 30
0.0
 10
43.9915600684
 20
-48.8540944416
 30
0.0
 10
43.9775099645
 20
-48.8750829993
 30
0.0
 10
43.9643083999
 20
-48.8966019997
 30
0.0
 10
43.9498315607
 20
-48.9238691593
 30
0.0
 10
43.9358834771
 20
-48.9574422772
 30
0.0
 10
43.9263958302
 20
-48.9905891097
 30
0.0
 10
43.9210864943
 20
-49.0218017632
 30
0.0
 10
43.9199115371
 20
-49.0411725358
 30
0.0
 10
43.9199115371
 20
-49.0508989201
 30
0.0
  0
SPLINE
  5
38E
100
AcDbEntity
  8
0
100
AcDbSpline
 62
250
  6
CONTINUOUS
 70
0
 71
3
 72
12
 73
8
 74
0
 42
0.0000001
 43
0.0000001
 44
0.0000000001
 40
0.0
 40
0.0
 40
0.0
 40
0.0
 40
0.1666666667
 40
0.3333333333
 40
0.5
 40
0.6666666667
 40
1.0
 40
1.0
 40
1.0
 40
1.0
 10
44.4364650014
 20
-48.419819671
 30
0.0
 10
44.4122538251
 20
-48.4424757653
 30
0.0
 10
44.3645173373
 20
-48.4874424958
 30
0.0
 10
44.2948536195
 20
-48.5532256381
 30
0.0
 10
44.2268726628
 20
-48.616643639
 30
0.0
 10
44.1386831853
 20
-48.6986022587
 30
0.0
 10
44.0759352019
 20
-48.7594245176
 30
0.0
 10
44.036103754
 20
-48.8008306531
 30
0.0
  0
SPLINE
  5
38F
100
AcDbEntity
  8
0
100
AcDbSpline
 62
250
  6
CONTINUOUS
 70
0
 71
3
 72
10
 73
6
 74
0
 42
0.0000001
 43
0.0000001
 44
0.0000000001
 40
0.0
 40
0.0
 40
0.0
 40
0.0
 40
0.3333333333
 40
0.6666666667
 40
1.0
 40
1.0
 40
1.0
 40
1.0
 10
44.0792402075
 20
-48.4326387425
 30
0.0
 10
44.1202507634
 20
-48.3949882255
 30
0.0
 10
44.2014816287
 20
-48.3211047116
 30
0.0
 10
44.3206020986
 20
-48.2135009367
 30
0.0
 10
44.3982297372
 20
-48.1434364601
 30
0.0
 10
44.4364650014
 20
-48.108371789
 30
0.0
  0
SPLINE
  5
390
100
AcDbEntity
  8
0
100
AcDbSpline
 62
250
  6
CONTINUOUS
 70
0
 71
3
 72
16
 73
12
 74
0
 42
0.0000001
 43
0.0000001
 44
0.0000000001
 40
0.0
 40
0.0
 40
0.0
 40
0.0
 40
0.1111111111
 40
0.2222222222
 40
0.3333333333
 40
0.4444444444
 40
0.5555555556
 40
0.6666666667
 40
0.7777777778
 40
0.8888888889
 40
1.0
 40
1.0
 40
1.0
 40
1.0
 10
43.8203264986
 20
-48.7740889557
 30
0.0
 10
43.8244953618
 20
-48.7593101175
 30
0.0
 10
43.8350305413
 20
-48.7300218855
 30
0.0
 10
43.8570071265
 20
-48.6860619552
 30
0.0
 10
43.8825582946
 20
-48.6450530683
 30
0.0
 10
43.9106081257
 20
-48.6065199216
 30
0.0
 10
43.9395976259
 20
-48.5711454309
 30
0.0
 10
43.9702068896
 20
-48.5371426864
 30
0.0
 10
44.0029853906
 20
-48.5035599876
 30
0.0
 10
44.0387775259
 20
-48.4695451684
 30
0.0
 10
44.0653938432
 20
-48.4453506595
 30
0.0
 10
44.0792402075
 20
-48.4326387427
 30
0.0
  0
SPLINE
  5
391
100
AcDbEntity
  8
0
100
AcDbSpline
 62
250
  6
CONTINUOUS
 70
0
 71
3
 72
32
 73
28
 74
0
 42
0.0000001
 43
0.0000001
 44
0.0000000001
 40
0.0
 40
0.0
 40
0.0
 40
0.0
 40
0.0555555556
 40
0.1111111111
 40
0.1388888889
 40
0.1666666667
 40
0.1944444444
 40
0.2222222222
 40
0.25
 40
0.2777777778
 40
0.3333333333
 40
0.3888888889
 40
0.4444444444
 40
0.5
 40
0.5555555556
 40
0.6111111111
 40
0.6666666667
 40
0.7222222222
 40
0.7777777778
 40
0.8055555556
 40
0.8333333333
 40
0.8611111111
 40
0.8888888889
 40
0.9166666667
 40
0.9444444444
 40
0.9722222222
 40
1.0
 40
1.0
 40
1.0
 40
1.0
 10
43.1458385472
 20
-49.2107507585
 30
0.0
 10
43.152633551
 20
-49.1845528812
 30
0.0
 10
43.172002778
 20
-49.1294739042
 30
0.0
 10
43.2113241243
 20
-49.048852993
 30
0.0
 10
43.2494731391
 20
-48.9866112414
 30
0.0
 10
43.2810372249
 20
-48.9416899579
 30
0.0
 10
43.3148868772
 20
-48.8995495982
 30
0.0
 10
43.3499392117
 20
-48.8615340911
 30
0.0
 10
43.383993681
 20
-48.829218038
 30
0.0
 10
43.4286153873
 20
-48.792022658
 30
0.0
 10
43.4802458164
 20
-48.7565091496
 30
0.0
 10
43.5354573117
 20
-48.7267136905
 30
0.0
 10
43.5844747059
 20
-48.707727118
 30
0.0
 10
43.6271309485
 20
-48.6976698221
 30
0.0
 10
43.6641107839
 20
-48.6945043574
 30
0.0
 10
43.6958398122
 20
-48.6966896579
 30
0.0
 10
43.7226932125
 20
-48.7030606403
 30
0.0
 10
43.7451586455
 20
-48.7128188836
 30
0.0
 10
43.7609067381
 20
-48.7224008849
 30
0.0
 10
43.7722001911
 20
-48.7303290229
 30
0.0
 10
43.7801257515
 20
-48.7363237109
 30
0.0
 10
43.7875066883
 20
-48.7422525062
 30
0.0
 10
43.794539044
 20
-48.748043729
 30
0.0
 10
43.80119871
 20
-48.7542631403
 30
0.0
 10
43.8067066634
 20
-48.7612343635
 30
0.0
 10
43.8106765408
 20
-48.7692038895
 30
0.0
 10
43.8121352877
 20
-48.7754209755
 30
0.0
 10
43.8125267759
 20
-48.7787524273
 30
0.0
  0
SPLINE
  5
392
100
AcDbEntity
  8
0
100
AcDbSpline
 62
250
  6
CONTINUOUS
 70
0
 71
3
 72
12
 73
8
 74
0
 42
0.0000001
 43
0.0000001
 44
0.0000000001
 40
0.0
 40
0.0
 40
0.0
 40
0.0
 40
0.3333333333
 40
0.5
 40
0.6666666667
 40
0.8333333333
 40
1.0
 40
1.0
 40
1.0
 40
1.0
 10
43.33361507
 20
-49.332139775
 30
0.0
 10
43.3308678515
 20
-49.3615989849
 30
0.0
 10
43.328569811
 20
-49.4048720379
 30
0.0
 10
43.3290930553
 20
-49.4605432809
 30
0.0
 10
43.3312802251
 20
-49.5014320474
 30
0.0
 10
43.3354322476
 20
-49.5416644273
 30
0.0
 10
43.3392916974
 20
-49.5679743402
 30
0.0
 10
43.3413859104
 20
-49.5811452559
 30
0.0
  0
SPLINE
  5
393
100
AcDbEntity
  8
0
100
AcDbSpline
 62
250
  6
CONTINUOUS
 70
0
 71
3
 72
19
 73
15
 74
0
 42
0.0000001
 43
0.0000001
 44
0.0000000001
 40
0.0
 40
0.0
 40
0.0
 40
0.0
 40
0.1
 40
0.2
 40
0.25
 40
0.3
 40
0.4
 40
0.5
 40
0.6
 40
0.7
 40
0.75
 40
0.8
 40
0.9
 40
1.0
 40
1.0
 40
1.0
 40
1.0
 10
43.4986900937
 20
-49.0505293141
 30
0.0
 10
43.4907098493
 20
-49.055443027
 30
0.0
 10
43.4752449645
 20
-49.0663581138
 30
0.0
 10
43.455973024
 20
-49.0831638937
 30
0.0
 10
43.4409200907
 20
-49.0982678394
 30
0.0
 10
43.4260929517
 20
-49.1145232887
 30
0.0
 10
43.4084134888
 20
-49.1365804272
 30
0.0
 10
43.388577408
 20
-49.1662636909
 30
0.0
 10
43.3713876685
 20
-49.198209104
 30
0.0
 10
43.3596236727
 20
-49.2256519906
 30
0.0
 10
43.3516204733
 20
-49.2481378123
 30
0.0
 10
43.3446686861
 20
-49.2706360614
 30
0.0
 10
43.3378967109
 20
-49.2988796463
 30
0.0
 10
43.3346588935
 20
-49.3209465565
 30
0.0
 10
43.3336150699
 20
-49.332139775
 30
0.0
  0
SPLINE
  5
394
100
AcDbEntity
  8
0
100
AcDbSpline
 62
250
  6
CONTINUOUS
 70
0
 71
3
 72
15
 73
11
 74
0
 42
0.0000001
 43
0.0000001
 44
0.0000000001
 40
0.0
 40
0.0
 40
0.0
 40
0.0
 40
0.125
 40
0.25
 40
0.375
 40
0.5
 40
0.625
 40
0.75
 40
0.875
 40
1.0
 40
1.0
 40
1.0
 40
1.0
 10
43.1319415793
 20
-50.0181228025
 30
0.0
 10
43.1269132833
 20
-49.9809630219
 30
0.0
 10
43.1176109766
 20
-49.9090156918
 30
0.0
 10
43.1071404785
 20
-49.8084577422
 30
0.0
 10
43.1003907882
 20
-49.7115114904
 30
0.0
 10
43.0977602685
 20
-49.6160069149
 30
0.0
 10
43.0998491786
 20
-49.5189661744
 30
0.0
 10
43.1075799042
 20
-49.4193227305
 30
0.0
 10
43.1219980536
 20
-49.3167694284
 30
0.0
 10
43.1365527534
 20
-49.2465079417
 30
0.0
 10
43.1458385472
 20
-49.2107507585
 30
0.0
  0
SPLINE
  5
395
100
AcDbEntity
  8
0
100
AcDbSpline
 62
250
  6
CONTINUOUS
 70
0
 71
3
 72
15
 73
11
 74
0
 42
0.0000001
 43
0.0000001
 44
0.0000000001
 40
0.0
 40
0.0
 40
0.0
 40
0.0
 40
0.1666666667
 40
0.3333333333
 40
0.5
 40
0.5833333333
 40
0.6666666667
 40
0.75
 40
0.8333333333
 40
1.0
 40
1.0
 40
1.0
 40
1.0
 10
43.7037364809
 20
-49.1794525448
 30
0.0
 10
43.7032488432
 20
-49.1540874492
 30
0.0
 10
43.6990763764
 20
-49.10904029
 30
0.0
 10
43.6842263898
 20
-49.0594002679
 30
0.0
 10
43.662652665
 20
-49.0304836239
 30
0.0
 10
43.6372777919
 20
-49.0180066131
 30
0.0
 10
43.6147987507
 20
-49.0139570898
 30
0.0
 10
43.5899495044
 20
-49.0149288389
 30
0.0
 10
43.5529912035
 20
-49.0228668618
 30
0.0
 10
43.5214644878
 20
-49.0365038514
 30
0.0
 10
43.4986538626
 20
-49.0505516352
 30
0.0
  0
SPLINE
  5
396
100
AcDbEntity
  8
0
100
AcDbSpline
 62
7
  6
CONTINUOUS
 70
0
 71
3
 72
11
 73
7
 74
0
 42
0.0000001
 43
0.0000001
 44
0.0000000001
 40
0.0
 40
0.0
 40
0.0
 40
0.0
 40
0.2177670691
 40
0.4509439475
 40
0.710195215
 40
1.0
 40
1.0
 40
1.0
 40
1.0
 10
-26.186155418
 20
30.7800914446
 30
0.0
 10
-26.1465730994
 20
30.8029457927
 30
0.0
 10
-26.0556171396
 20
30.8359802422
 30
0.0
 10
-25.9045609522
 20
30.8397600429
 30
0.0
 10
-25.7435393542
 20
30.8009234553
 30
0.0
 10
-25.6388026504
 20
30.7510566232
 30
0.0
 10
-25.5861264258
 20
30.7206420313
 30
0.0
  0
SPLINE
  5
397
100
AcDbEntity
  8
0
100
AcDbSpline
 62
7
  6
CONTINUOUS
 70
0
 71
3
 72
13
 73
9
 74
0
 42
0.0000001
 43
0.0000001
 44
0.0000000001
 40
0.0
 40
0.0
 40
0.0
 40
0.0
 40
0.1142615865
 40
0.2375404667
 40
0.5000060664
 40
0.7624683449
 40
0.8857433485
 40
1.0
 40
1.0
 40
1.0
 40
1.0
 10
20.2343929951
 20
4.2644089288
 30
0.0
 10
20.3166869816
 20
4.2168934121
 30
0.0
 10
20.4792487334
 20
4.102952537
 30
0.0
 10
20.7835535241
 20
3.8180908916
 30
0.0
 10
21.1050326716
 20
3.3790135815
 30
0.0
 10
21.3245448239
 20
2.8810687803
 30
0.0
 10
21.4190841078
 20
2.4751111916
 30
0.0
 10
21.436474523
 20
2.2773649866
 30
0.0
 10
21.4364745231
 20
2.1823426496
 30
0.0
  0
SPLINE
  5
398
100
AcDbEntity
  8
0
100
AcDbSpline
 62
7
  6
CONTINUOUS
 70
0
 71
3
 72
9
 73
5
 74
0
 42
0.0000001
 43
0.0000001
 44
0.0000000001
 40
0.0
 40
0.0
 40
0.0
 40
0.0
 40
0.2715340105
 40
1.0
 40
1.0
 40
1.0
 40
1.0
 10
21.4364745231
 20
-32.3543106038
 30
0.0
 10
21.436474523
 20
-32.3855479797
 30
0.0
 10
21.4317369165
 20
-32.5003672576
 30
0.0
 10
21.4064341817
 20
-32.6156045
 30
0.0
 10
21.3718851256
 20
-32.6919543939
 30
0.0
  0
SPLINE
  5
399
100
AcDbEntity
  8
0
100
AcDbSpline
 62
7
  6
CONTINUOUS
 70
0
 71
3
 72
9
 73
5
 74
0
 42
0.0000001
 43
0.0000001
 44
0.0000000001
 40
0.0
 40
0.0
 40
0.0
 40
0.0
 40
0.5170807976
 40
1.0
 40
1.0
 40
1.0
 40
1.0
 10
21.3718851256
 20
-32.6919543939
 30
0.0
 10
21.3517126081
 20
-32.7365336021
 30
0.0
 10
21.3015915551
 20
-32.8185592192
 30
0.0
 10
21.2275505798
 20
-32.8807445981
 30
0.0
 10
21.1879753778
 20
-32.9035948372
 30
0.0
  0
SPLINE
  5
39A
100
AcDbEntity
  8
RACCORDO
100
AcDbSpline
 62
7
  6
CONTINUOUS
 70
0
 71
3
 72
11
 73
7
 74
0
 42
0.0000001
 43
0.0000001
 44
0.0000000001
 40
0.0
 40
0.0
 40
0.0
 40
0.0
 40
0.2372134916
 40
0.4999938932
 40
0.7627776188
 40
1.0
 40
1.0
 40
1.0
 40
1.0
 10
-23.9597808291
 20
-3.2851595589
 30
0.0
 10
-23.9597808291
 20
-3.424247125
 30
0.0
 10
-23.9076105653
 20
-3.7176022432
 30
0.0
 10
-23.7257600853
 20
-4.1298327132
 30
0.0
 10
-23.4596796018
 20
-4.4934388928
 30
0.0
 10
-23.2317086311
 20
-4.6853036533
 30
0.0
 10
-23.1112526917
 20
-4.754853403
 30
0.0
  0
SPLINE
  5
39B
100
AcDbEntity
  8
0
100
AcDbSpline
 62
7
  6
CONTINUOUS
 70
0
 71
3
 72
15
 73
11
 74
0
 42
0.0000001
 43
0.0000001
 44
0.0000000001
 40
0.0
 40
0.0
 40
0.0
 40
0.0
 40
0.1449018481
 40
0.2745170406
 40
0.3911053286
 40
0.4999889043
 40
0.6088744936
 40
0.7254681391
 40
0.8550905429
 40
1.0
 40
1.0
 40
1.0
 40
1.0
 10
21.4364745231
 20
-32.7625851972
 30
0.0
 10
21.4364745229
 20
-32.8487487177
 30
0.0
 10
21.4234540658
 20
-33.0125572513
 30
0.0
 10
21.3570792708
 20
-33.237563302
 30
0.0
 10
21.2453082923
 20
-33.4202727752
 30
0.0
 10
21.0901588236
 20
-33.5507521155
 30
0.0
 10
20.8995750061
 20
-33.6198550001
 30
0.0
 10
20.6854498381
 20
-33.6252779761
 30
0.0
 10
20.4573934119
 20
-33.5702411146
 30
0.0
 10
20.3090155092
 20
-33.4996039634
 30
0.0
 10
20.2343929951
 20
-33.456517859
 30
0.0
  0
SPLINE
  5
39C
100
AcDbEntity
  8
0
100
AcDbSpline
 62
7
  6
CONTINUOUS
 70
0
 71
3
 72
11
 73
7
 74
0
 42
0.0000001
 43
0.0000001
 44
0.0000000001
 40
0.0
 40
0.0
 40
0.0
 40
0.0
 40
0.2177670691
 40
0.4509439475
 40
0.710195215
 40
1.0
 40
1.0
 40
1.0
 40
1.0
 10
21.1879753778
 20
-32.9035948372
 30
0.0
 10
21.1483930592
 20
-32.9264491854
 30
0.0
 10
21.0574370994
 20
-32.9594836349
 30
0.0
 10
20.906380912
 20
-32.9632634355
 30
0.0
 10
20.745359314
 20
-32.924426848
 30
0.0
 10
20.6406226102
 20
-32.8745600159
 30
0.0
 10
20.5879463857
 20
-32.844145424
 30
0.0
  0
SPLINE
  5
39D
100
AcDbEntity
  8
0
100
AcDbSpline
 62
7
  6
CONTINUOUS
 70
0
 71
3
 72
11
 73
7
 74
0
 42
0.0000001
 43
0.0000001
 44
0.0000000001
 40
0.0
 40
0.0
 40
0.0
 40
0.0
 40
0.2897992298
 40
0.5490484708
 40
0.7822275827
 40
1.0
 40
1.0
 40
1.0
 40
1.0
 10
-26.4346545633
 20
30.2308072112
 30
0.0
 10
-26.4346545634
 20
30.2916231966
 30
0.0
 10
-26.4254706136
 20
30.4072420919
 30
0.0
 10
-26.3785976301
 20
30.5660833229
 30
0.0
 10
-26.299807192
 20
30.6949931784
 30
0.0
 10
-26.2257327911
 20
30.7572399518
 30
0.0
 10
-26.186155418
 20
30.7800914446
 30
0.0
  0
SPLINE
  5
39E
100
AcDbEntity
  8
0
100
AcDbSpline
 62
7
  6
CONTINUOUS
 70
0
 71
3
 72
15
 73
11
 74
0
 42
0.0000001
 43
0.0000001
 44
0.0000000001
 40
0.0
 40
0.0
 40
0.0
 40
0.0
 40
0.1449018481
 40
0.2745170406
 40
0.3911053286
 40
0.4999889043
 40
0.6088744936
 40
0.7254681391
 40
0.8550905429
 40
1.0
 40
1.0
 40
1.0
 40
1.0
 10
-27.1417613444
 20
30.2308072112
 30
0.0
 10
-27.1417613443
 20
30.3169707318
 30
0.0
 10
-27.1287408872
 20
30.4807792653
 30
0.0
 10
-27.0623660922
 20
30.705785316
 30
0.0
 10
-26.9505951137
 20
30.8884947892
 30
0.0
 10
-26.7954456449
 20
31.0189741295
 30
0.0
 10
-26.6048618274
 20
31.0880770142
 30
0.0
 10
-26.3907366595
 20
31.0934999901
 30
0.0
 10
-26.1626802333
 20
31.0384631286
 30
0.0
 10
-26.0143023305
 20
30.9678259775
 30
0.0
 10
-25.9396798164
 20
30.9247398731
 30
0.0
  0
SPLINE
  5
39F
100
AcDbEntity
  8
0
100
AcDbSpline
 62
7
  6
CONTINUOUS
 70
0
 71
3
 72
11
 73
7
 74
0
 42
0.0000001
 43
0.0000001
 44
0.0000000001
 40
0.0
 40
0.0
 40
0.0
 40
0.0
 40
0.2372223749
 40
0.5000061065
 40
0.762786514
 40
1.0
 40
1.0
 40
1.0
 40
1.0
 10
-25.5861264258
 20
-6.1838144797
 30
0.0
 10
-25.7065823621
 20
-6.1142647321
 30
0.0
 10
-25.934553333
 20
-5.9223999723
 30
0.0
 10
-26.2006338199
 20
-5.5587937908
 30
0.0
 10
-26.3824843004
 20
-5.1465633167
 30
0.0
 10
-26.4346545633
 20
-4.8532081984
 30
0.0
 10
-26.4346545633
 20
-4.7141206355
 30
0.0
  0
SPLINE
  5
3A0
100
AcDbEntity
  8
0
100
AcDbSpline
 62
7
  6
CONTINUOUS
 70
0
 71
3
 72
13
 73
9
 74
0
 42
0.0000001
 43
0.0000001
 44
0.0000000001
 40
0.0
 40
0.0
 40
0.0
 40
0.0
 40
0.1142615865
 40
0.2375404667
 40
0.5000060664
 40
0.7624683449
 40
0.8857433485
 40
1.0
 40
1.0
 40
1.0
 40
1.0
 10
-25.9396798164
 20
-6.7961869147
 30
0.0
 10
-26.0219738029
 20
-6.7486713981
 30
0.0
 10
-26.1845355548
 20
-6.6347305229
 30
0.0
 10
-26.4888403455
 20
-6.3498688776
 30
0.0
 10
-26.8103194929
 20
-5.9107915674
 30
0.0
 10
-27.0298316453
 20
-5.4128467662
 30
0.0
 10
-27.1243709292
 20
-5.0068891776
 30
0.0
 10
-27.1417613444
 20
-4.8091429725
 30
0.0
 10
-27.1417613444
 20
-4.7141206355
 30
0.0
  0
ELLIPSE
  5
3A1
100
AcDbEntity
  8
0
100
AcDbEllipse
 62
7
  6
CONTINUOUS
 10
44.9385065279
 20
-57.0167479116
 30
0.0
 11
-0.0319307066
 21
0.0553022874
 31
0.0
 40
0.5636716562
 41
-2.5265818713
 42
-2.3682119497
  0
ELLIPSE
  5
3A2
100
AcDbEntity
  8
0
100
AcDbEllipse
 62
7
  6
CONTINUOUS
 10
44.9385065279
 20
13.259938996
 30
0.0
 11
-0.0311754239
 21
0.0539936769
 31
0.0
 40
0.5913227191
 41
-2.3442738678
 42
-0.7974202594
  0
ELLIPSE
  5
3A3
100
AcDbEntity
  8
0
100
AcDbEllipse
 62
7
  6
CONTINUOUS
 10
-38.5522673909
 20
61.4664654716
 30
0.0
 11
-0.0319307066
 21
0.0553022874
 31
0.0
 40
0.5636716562
 41
-0.7734729046
 42
-0.6150192183
  0
ELLIPSE
  5
3A4
100
AcDbEntity
  8
0
100
AcDbEllipse
 62
7
  6
CONTINUOUS
 10
-8.8238833256
 20
-9.843717094
 30
0.0
 11
0.1999995634
 21
0.1164181051
 31
0.0
 40
0.0035896273
 41
-0.7351277754
 42
-0.6748017824
  0
ELLIPSE
  5
3A5
100
AcDbEntity
  8
0
100
AcDbEllipse
 62
7
  6
CONTINUOUS
 10
19.1699204372
 20
-25.4356237077
 30
0.0
 11
0.1998333781
 21
-0.0157785196
 31
0.0
 40
0.5172961965
 41
0.8262203412
 42
2.3446567905
  0
ELLIPSE
  5
3A6
100
AcDbEntity
  8
0
100
AcDbEllipse
 62
7
  6
CONTINUOUS
 10
-12.6498847162
 20
-7.0632670079
 30
0.0
 11
0.1998333781
 21
-0.0157785196
 31
0.0
 40
0.5172961965
 41
0.8262203412
 42
2.3446567905
  0
ELLIPSE
  5
3A7
100
AcDbEntity
  8
0
100
AcDbEllipse
 62
7
  6
CONTINUOUS
 10
3.2564091104
 20
-16.3043128078
 30
0.0
 11
0.2999972416
 21
-0.0022477848
 31
0.0
 40
0.5723275643
 41
0.7896864073
 42
2.3081228565
  0
ELLIPSE
  5
3A8
100
AcDbEntity
  8
0
100
AcDbEllipse
 62
7
  6
CONTINUOUS
 10
17.6516929073
 20
-26.7390382206
 30
0.0
 11
0.5413005334
 21
0.8416911418
 31
0.0
 40
0.6067084637
 41
0.7148472392
 42
0.8145158917
  0
ELLIPSE
  5
3A9
100
AcDbEntity
  8
0
100
AcDbEllipse
 62
7
  6
CONTINUOUS
 10
-14.1681122461
 20
-8.3666815208
 30
0.0
 11
0.5413005334
 21
0.8416911418
 31
0.0
 40
0.6067084637
 41
0.7148472392
 42
0.8145158917
  0
ELLIPSE
  5
3AA
100
AcDbEntity
  8
0
100
AcDbEllipse
 62
7
  6
CONTINUOUS
 10
7.1606297978
 20
-18.641099366
 30
0.0
 11
0.0858610644
 21
0.3627848639
 31
0.0
 40
0.5009985936
 41
-2.6944494219
 42
-2.6479073085
  0
ELLIPSE
  5
3AB
100
AcDbEntity
  8
0
100
AcDbEllipse
 62
7
  6
CONTINUOUS
 10
-8.8238833256
 20
-9.2723522598
 30
0.0
 11
0.1998333781
 21
-0.0157785196
 31
0.0
 40
0.5172961965
 41
-0.692216108
 42
0.8262203412
  0
ELLIPSE
  5
3AC
100
AcDbEntity
  8
0
100
AcDbEllipse
 62
7
  6
CONTINUOUS
 10
6.9482066449
 20
-18.4359104351
 30
0.0
 11
0.2999972416
 21
-0.0022477848
 31
0.0
 40
0.5723275643
 41
-0.728750042
 42
0.7896864073
  0
ELLIPSE
  5
3AD
100
AcDbEntity
  8
0
100
AcDbEllipse
 62
7
  6
CONTINUOUS
 10
-9.9217749878
 20
-10.8184634346
 30
0.0
 11
0.4625183445
 21
0.8873459255
 31
0.0
 40
0.5463614449
 41
0.662201126
 42
0.7618697785
  0
ELLIPSE
  5
3AE
100
AcDbEntity
  8
0
100
AcDbEllipse
 62
7
  6
CONTINUOUS
 10
44.9517456208
 20
13.267564093
 30
0.0
 11
0.1365023326
 21
1.2306519884
 31
0.0
 40
0.0962714138
 41
-3.8917430252
 42
-3.8564132784
  0
ELLIPSE
  5
3AF
100
AcDbEntity
  8
0
100
AcDbEllipse
 62
7
  6
CONTINUOUS
 10
44.9517456208
 20
-57.4020840123
 30
0.0
 11
0.1387214801
 21
1.2585231556
 31
0.0
 40
0.0920685296
 41
-3.8374748546
 42
-3.8021451078
  0
ELLIPSE
  5
3B0
100
AcDbEntity
  8
0
100
AcDbEllipse
 62
7
  6
CONTINUOUS
 10
-38.8793536417
 20
61.6705901567
 30
0.0
 11
1.1592455945
 21
-0.5090882972
 31
0.0
 40
0.0921189357
 41
-2.4809772198
 42
-2.4456474731
  0
ELLIPSE
  5
3B1
100
AcDbEntity
  8
0
100
AcDbEllipse
 62
7
  6
CONTINUOUS
 10
44.9517456208
 20
13.267564093
 30
0.0
 11
1.1339988709
 21
-0.4970753424
 31
0.0
 40
0.0963242103
 41
-2.4267061945
 42
-2.3913764477
  0
ELLIPSE
  5
3B2
100
AcDbEntity
  8
ASSI
100
AcDbEllipse
 62
7
  6
CONTINUOUS
 10
44.9385065279
 20
-57.0167479116
 30
0.0
 11
-0.0319307066
 21
0.0553022874
 31
0.0
 40
0.5636716562
 41
-2.5265818713
 42
-2.3682119497
  0
ELLIPSE
  5
3B3
100
AcDbEntity
  8
ASSI
100
AcDbEllipse
 62
7
  6
CONTINUOUS
 10
44.9385065279
 20
13.259938996
 30
0.0
 11
-0.0311754239
 21
0.0539936769
 31
0.0
 40
0.5913227191
 41
-2.3442738678
 42
-0.7974202594
  0
ELLIPSE
  5
3B4
100
AcDbEntity
  8
ASSI
100
AcDbEllipse
 62
7
  6
CONTINUOUS
 10
-38.5522673909
 20
61.4664654716
 30
0.0
 11
-0.0319307066
 21
0.0553022874
 31
0.0
 40
0.5636716562
 41
-0.7734729046
 42
-0.6150192183
  0
ELLIPSE
  5
3B5
100
AcDbEntity
  8
ASSI
100
AcDbEllipse
 62
7
  6
CONTINUOUS
 10
-8.8238833256
 20
-9.843717094
 30
0.0
 11
0.1999995634
 21
0.1164181051
 31
0.0
 40
0.0035896273
 41
-0.7351277754
 42
-0.6748017824
  0
ELLIPSE
  5
3B6
100
AcDbEntity
  8
ASSI
100
AcDbEllipse
 62
7
  6
CONTINUOUS
 10
19.1699204372
 20
-25.4356237077
 30
0.0
 11
0.1998333781
 21
-0.0157785196
 31
0.0
 40
0.5172961965
 41
0.8262203412
 42
2.3446567905
  0
ELLIPSE
  5
3B7
100
AcDbEntity
  8
ASSI
100
AcDbEllipse
 62
7
  6
CONTINUOUS
 10
-12.6498847162
 20
-7.0632670079
 30
0.0
 11
0.1998333781
 21
-0.0157785196
 31
0.0
 40
0.5172961965
 41
0.8262203412
 42
2.3446567905
  0
ELLIPSE
  5
3B8
100
AcDbEntity
  8
ASSI
100
AcDbEllipse
 62
7
  6
CONTINUOUS
 10
3.2564091104
 20
-16.3043128078
 30
0.0
 11
0.2999972416
 21
-0.0022477848
 31
0.0
 40
0.5723275643
 41
0.7896864073
 42
2.3081228565
  0
ELLIPSE
  5
3B9
100
AcDbEntity
  8
ASSI
100
AcDbEllipse
 62
7
  6
CONTINUOUS
 10
17.6516929073
 20
-26.7390382206
 30
0.0
 11
0.5413005334
 21
0.8416911418
 31
0.0
 40
0.6067084637
 41
0.7148472392
 42
0.8145158917
  0
ELLIPSE
  5
3BA
100
AcDbEntity
  8
ASSI
100
AcDbEllipse
 62
7
  6
CONTINUOUS
 10
-14.1681122461
 20
-8.3666815208
 30
0.0
 11
0.5413005334
 21
0.8416911418
 31
0.0
 40
0.6067084637
 41
0.7148472392
 42
0.8145158917
  0
ELLIPSE
  5
3BB
100
AcDbEntity
  8
ASSI
100
AcDbEllipse
 62
7
  6
CONTINUOUS
 10
7.1606297978
 20
-18.641099366
 30
0.0
 11
0.0858610644
 21
0.3627848639
 31
0.0
 40
0.5009985936
 41
-2.6944494219
 42
-2.6479073085
  0
ELLIPSE
  5
3BC
100
AcDbEntity
  8
ASSI
100
AcDbEllipse
 62
7
  6
CONTINUOUS
 10
-8.8238833256
 20
-9.2723522598
 30
0.0
 11
0.1998333781
 21
-0.0157785196
 31
0.0
 40
0.5172961965
 41
-0.692216108
 42
0.8262203412
  0
ELLIPSE
  5
3BD
100
AcDbEntity
  8
ASSI
100
AcDbEllipse
 62
7
  6
CONTINUOUS
 10
6.9482066449
 20
-18.4359104351
 30
0.0
 11
0.2999972416
 21
-0.0022477848
 31
0.0
 40
0.5723275643
 41
-0.728750042
 42
0.7896864073
  0
ELLIPSE
  5
3BE
100
AcDbEntity
  8
ASSI
100
AcDbEllipse
 62
7
  6
CONTINUOUS
 10
-9.9217749878
 20
-10.8184634346
 30
0.0
 11
0.4625183445
 21
0.8873459255
 31
0.0
 40
0.5463614449
 41
0.662201126
 42
0.7618697785
  0
ELLIPSE
  5
3BF
100
AcDbEntity
  8
ASSI
100
AcDbEllipse
 62
7
  6
CONTINUOUS
 10
-38.8793536417
 20
61.6705901567
 30
0.0
 11
1.1592455945
 21
-0.5090882972
 31
0.0
 40
0.0921189357
 41
-2.4809772198
 42
-2.4456474731
  0
ELLIPSE
  5
3C0
100
AcDbEntity
  8
ASSI
100
AcDbEllipse
 62
7
  6
CONTINUOUS
 10
44.9517456208
 20
13.267564093
 30
0.0
 11
1.1339988709
 21
-0.4970753424
 31
0.0
 40
0.0963242103
 41
-2.4267061945
 42
-2.3913764477
  0
ELLIPSE
  5
3C1
100
AcDbEntity
  8
ASSI
100
AcDbEllipse
 62
7
  6
CONTINUOUS
 10
44.9517456208
 20
13.267564093
 30
0.0
 11
0.1365023326
 21
1.2306519884
 31
0.0
 40
0.0962714138
 41
-3.8917430252
 42
-3.8564132784
  0
ELLIPSE
  5
3C2
100
AcDbEntity
  8
ASSI
100
AcDbEllipse
 62
7
  6
CONTINUOUS
 10
44.9517456208
 20
-57.4020840123
 30
0.0
 11
0.1387214801
 21
1.2585231556
 31
0.0
 40
0.0920685296
 41
-3.8374748546
 42
-3.8021451078
  0
ENDSEC
  0
SECTION
  2
OBJECTS
  0
DICTIONARY
  5
C
100
AcDbDictionary
280
0
281
1
  3
ACAD_GROUP
350
D
  3
ACAD_MLINESTYLE
350
17
  3
ACAD_LAYOUT
350
1A
  3
ACAD_PLOTSETTINGS
350
19
  3
ACAD_PLOTSTYLENAME
350
E
  0
DICTIONARY
  5
D
102
{ACAD_REACTORS
330
C
102
}
100
AcDbDictionary
280
0
281
1
  0
ACDBDICTIONARYWDFLT
  5
E
102
{ACAD_REACTORS
330
C
102
}
100
AcDbDictionary
281
1
  3
Normal
350
F
100
AcDbDictionaryWithDefault
340
F
  0
DICTIONARY
  5
17
102
{ACAD_REACTORS
330
C
102
}
100
AcDbDictionary
280
0
281
1
  3
Standard
350
18
  0
DICTIONARY
  5
19
102
{ACAD_REACTORS
330
C
102
}
100
AcDbDictionary
281
1
  0
DICTIONARY
  5
1A
102
{ACAD_REACTORS
330
C
102
}
100
AcDbDictionary
281
1
  3
Model
350
3C3
  3
Layout1
350
3C4
  0
ACDBPLACEHOLDER
  5
F
102
{ACAD_REACTORS
330
E
102
}
  0
MLINESTYLE
  5
18
102
{ACAD_REACTORS
330
17
102
}
100
AcDbMlineStyle
  2
STANDARD
 70
0
  3

 62
256
 51
90.0
 52
90.0
 71
2
 49
0.5
 62
256
  6
BYLAYER
 49
-0.5
 62
256
  6
BYLAYER
  0
LAYOUT
  5
3C3
102
{ACAD_REACTORS
330
1A
102
}
100
AcDbPlotSettings
  1

  2
none_device
  4
ISO_A4_(297.00_x_210.00_MM)
  6

 40
0.0
 41
0.0
 42
0.0
 43
0.0
 44
297.0
 45
210.0
 46
0.0
 47
0.0
 48
0.0
 49
0.0
140
0.0
141
0.0
142
1.0
143
1.0
 70
1024
 72
1
 73
0
 74
0
  7

 75
0
147
1.0
148
0.0
149
0.0
100
AcDbLayout
  1
Model
 70
0
 71
0
 10
0.0
 20
0.0
 11
297.0
 21
210.0
 12
0.0
 22
0.0
 32
0.0
 14
0.0
 24
0.0
 34
0.0
 15
0.0
 25
0.0
 35
0.0
146
0.0
 13
0.0
 23
0.0
 33
0.0
 16
1.0
 26
0.0
 36
0.0
 17
0.0
 27
1.0
 37
0.0
 76
0
330
21C
345
0
346
0
  0
LAYOUT
  5
3C4
102
{ACAD_REACTORS
330
1A
102
}
100
AcDbPlotSettings
  1

  2
none_device
  4
ISO_A4_(297.00_x_210.00_MM)
  6

 40
0.0
 41
0.0
 42
0.0
 43
0.0
 44
297.0
 45
210.0
 46
0.0
 47
0.0
 48
0.0
 49
0.0
140
0.0
141
0.0
142
1.0
143
1.0
 70
0
 72
1
 73
0
 74
0
  7

 75
0
147
1.0
148
0.0
149
0.0
100
AcDbLayout
  1
Layout1
 70
0
 71
1
 10
0.0
 20
0.0
 11
297.0
 21
210.0
 12
0.0
 22
0.0
 32
0.0
 14
0.0
 24
0.0
 34
0.0
 15
0.0
 25
0.0
 35
0.0
146
0.0
 13
0.0
 23
0.0
 33
0.0
 16
1.0
 26
0.0
 36
0.0
 17
0.0
 27
1.0
 37
0.0
 76
0
330
21D
345
0
346
0
  0
ENDSEC
  0
EOF
