  0
SECTION
  2
HEADER
  9
$ACADVER
  1
AC1024
  9
$DWGCODEPAGE
  3
ANSI_1252
  9
$EXTMAX
 10
297.0
 20
210.0
 30
0.0
  9
$EXTMIN
 10
0.0
 20
0.0
 30
0.0
  9
$LIMMIN
 10
0.0
 20
0.0
  9
$LIMMAX
 10
297.0
 20
210.0
  9
$VIEWCTR
 10
148.5
 20
105.0
  9
$VIEWSIZE
 40
210.0
  9
$CLAYER
  8
0
  9
$LTSCALE
 40
16.335
  9
$CELTYPE
  6
BYLAYER
  9
$DIMSCALE
 40
1.0
  9
$DIMASZ
 40
3.0
  9
$DIMEXO
 40
0.5
  9
$DIMDLI
 40
11.286
  9
$DIMEXE
 40
1.5
  9
$DIMCEN
 40
2.673
  9
$DIMLFAC
 40
1.0
  9
$DIMBLK
  1
_FILLED
  9
$DIMALT
 70
0
  9
$DIMALTF
 40
0.0393700787
  9
$DIMTXT
 40
3.0
  9
$DIMTOL
 70
1
  9
$DIMLIM
 70
0
  9
$DIMTFAC
 40
1.0
  9
$DIMTP
 40
0.01
  9
$DIMTM
 40
0.01
  9
$DIMGAP
 40
0.625
  9
$DIMDSEP
 70
44
  9
$AUNITS
 70
0
  9
$PDMODE
 70
3
  9
$PDSIZE
 40
3.0
  9
$HANDSEED
  5
3C8
  9
$TILEMODE
 70
1
  9
$MEASUREMENT
 70
1
  9
$INSUNITS
 70
4
  0
ENDSEC
  0
SECTION
  2
CLASSES
  0
CLASS
  1
ACDBDICTIONARYWDFLT
  2
AcDbDictionaryWithDefault
  3
AutoCAD 2000
 90
0
 91
1
280
0
281
0
  0
CLASS
  1
ACDBPLACEHOLDER
  2
AcDbPlaceHolder
  3
AutoCAD 2000
 90
0
 91
1
280
0
281
0
  0
CLASS
  1
LAYOUT
  2
AcDbLayout
  3
AutoCAD 2000
 90
0
 91
0
280
0
281
0
  0
ENDSEC
  0
SECTION
  2
TABLES
  0
TABLE
  2
VPORT
  5
8
100
AcDbSymbolTable
 70
2
  0
VPORT
  5
1F4
100
AcDbSymbolTableRecord
100
AcDbViewportTableRecord
  2
*ACTIVE
 70
0
 10
0.0
 20
0.0
 11
1.0
 21
1.0
 12
148.5
 22
105.0
 13
0.0
 23
0.0
 14
1.0
 24
1.0
 15
0.0
 25
0.0
 16
0.0
 26
0.0
 36
1.0
 17
0.0
 27
0.0
 37
0.0
 40
210.0
 41
1.4142857143
 42
50.0
 43
0.0
 44
0.0
 50
0.0
 51
0.0
 71
0
 72
100
 73
1
 74
1
 75
0
 76
0
 77
0
 78
0
  0
ENDTAB
  0
TABLE
  2
LTYPE
  5
5
100
AcDbSymbolTable
 70
6
  0
LTYPE
  5
14
100
AcDbSymbolTableRecord
100
AcDbLinetypeTableRecord
  2
BYBLOCK
 70
0
  3

 72
65
 73
0
 40
0.0
  0
LTYPE
  5
15
100
AcDbSymbolTableRecord
100
AcDbLinetypeTableRecord
  2
BYLAYER
 70
0
  3

 72
65
 73
0
 40
0.0
  0
LTYPE
  5
16
100
AcDbSymbolTableRecord
100
AcDbLinetypeTableRecord
  2
CONTINUOUS
 70
64
  3
Solid line
 72
65
 73
0
 40
0.0
  0
LTYPE
  5
1F5
100
AcDbSymbolTableRecord
100
AcDbLinetypeTableRecord
  2
CENTER
 70
64
  3
____ _ ____ _ ____ _ ____ _ ____ _ ____ _ ____
 72
65
 73
4
 40
0.6
 49
0.375
 74
0
 49
-0.075
 74
0
 49
0.075
 74
0
 49
-0.075
 74
0
  0
LTYPE
  5
1F6
100
AcDbSymbolTableRecord
100
AcDbLinetypeTableRecord
  2
HIDDEN
 70
64
  3
- - - - - - - - - - - - - - - - - - - -
 72
65
 73
2
 40
0.2
 49
0.1
 74
0
 49
-0.1
 74
0
  0
LTYPE
  5
1F7
100
AcDbSymbolTableRecord
100
AcDbLinetypeTableRecord
  2
PHANTOM
 70
64
  3
_____ _ _ _____ _ _ _____ _ _ _____
 72
65
 73
6
 40
0.8
 49
0.45
 74
0
 49
-0.05
 74
0
 49
0.1
 74
0
 49
-0.05
 74
0
 49
0.1
 74
0
 49
-0.05
 74
0
  0
LTYPE
  5
1F8
100
AcDbSymbolTableRecord
100
AcDbLinetypeTableRecord
  2
DOT
 70
64
  3
. . . . . . . . . . . . . . . . . . . .
 72
65
 73
2
 40
0.2
 49
0.1
 74
0
 49
-0.1
 74
0
  0
LTYPE
  5
1F9
100
AcDbSymbolTableRecord
100
AcDbLinetypeTableRecord
  2
DASHED
 70
64
  3
- - - - - - - - - - - - - - - - - - - -
 72
65
 73
2
 40
0.2
 49
0.1
 74
0
 49
-0.1
 74
0
  0
ENDTAB
  0
TABLE
  2
LAYER
  5
2
100
AcDbSymbolTable
 70
36
  0
LAYER
  5
10
100
AcDbSymbolTableRecord
100
AcDbLayerTableRecord
  2
0
 70
0
 62
7
  6
CONTINUOUS
370
-3
390
F
  0
LAYER
  5
1FA
100
AcDbSymbolTableRecord
100
AcDbLayerTableRecord
  2
DEFAULT_1
 70
0
 62
7
  6
CENTER
370
-3
390
F
  0
LAYER
  5
1FB
100
AcDbSymbolTableRecord
100
AcDbLayerTableRecord
  2
DEFAULT_2
 70
0
 62
7
  6
HIDDEN
370
-3
390
F
  0
LAYER
  5
1FC
100
AcDbSymbolTableRecord
100
AcDbLayerTableRecord
  2
DEFAULT_3
 70
0
 62
7
  6
PHANTOM
370
-3
390
F
  0
LAYER
  5
1FD
100
AcDbSymbolTableRecord
100
AcDbLayerTableRecord
  2
ASSI
 70
0
 62
7
  6
CONTINUOUS
370
-3
390
F
  0
LAYER
  5
1FE
100
AcDbSymbolTableRecord
100
AcDbLayerTableRecord
  2
COORDINATE
 70
0
 62
7
  6
CONTINUOUS
370
-3
390
F
  0
LAYER
  5
1FF
100
AcDbSymbolTableRecord
100
AcDbLayerTableRecord
  2
COORD_ORIGINE
 70
0
 62
7
  6
CONTINUOUS
370
-3
390
F
  0
LAYER
  5
200
100
AcDbSymbolTableRecord
100
AcDbLayerTableRecord
  2
COPY_PUBLISH
 70
0
 62
7
  6
CONTINUOUS
370
-3
390
F
  0
LAYER
  5
201
100
AcDbSymbolTableRecord
100
AcDbLayerTableRecord
  2
COSMETIC
 70
0
 62
7
  6
CONTINUOUS
370
-3
390
F
  0
LAYER
  5
202
100
AcDbSymbolTableRecord
100
AcDbLayerTableRecord
  2
COSMETICI
 70
0
 62
7
  6
CONTINUOUS
370
-3
390
F
  0
LAYER
  5
203
100
AcDbSymbolTableRecord
100
AcDbLayerTableRecord
  2
CURVA_TASSELLO
 70
0
 62
7
  6
CONTINUOUS
370
-3
390
F
  0
LAYER
  5
204
100
AcDbSymbolTableRecord
100
AcDbLayerTableRecord
  2
CURVE
 70
0
 62
7
  6
CONTINUOUS
370
-3
390
F
  0
LAYER
  5
205
100
AcDbSymbolTableRecord
100
AcDbLayerTableRecord
  2
DRAFT
 70
0
 62
7
  6
CONTINUOUS
370
-3
390
F
  0
LAYER
  5
206
100
AcDbSymbolTableRecord
100
AcDbLayerTableRecord
  2
IMPORT_IGES
 70
0
 62
7
  6
CONTINUOUS
370
-3
390
F
  0
LAYER
  5
207
100
AcDbSymbolTableRecord
100
AcDbLayerTableRecord
  2
INTFCLR_2
 70
0
 62
7
  6
CONTINUOUS
370
-3
390
F
  0
LAYER
  5
208
100
AcDbSymbolTableRecord
100
AcDbLayerTableRecord
  2
INTF_1
 70
0
 62
7
  6
CONTINUOUS
370
-3
390
F
  0
LAYER
  5
209
100
AcDbSymbolTableRecord
100
AcDbLayerTableRecord
  2
INTF_21
 70
0
 62
7
  6
CONTINUOUS
370
-3
390
F
  0
LAYER
  5
20A
100
AcDbSymbolTableRecord
100
AcDbLayerTableRecord
  2
INTF_7
 70
0
 62
7
  6
CONTINUOUS
370
-3
390
F
  0
LAYER
  5
20B
100
AcDbSymbolTableRecord
100
AcDbLayerTableRecord
  2
NOTE
 70
0
 62
7
  6
CONTINUOUS
370
-3
390
F
  0
LAYER
  5
20C
100
AcDbSymbolTableRecord
100
AcDbLayerTableRecord
  2
PIANI
 70
0
 62
7
  6
CONTINUOUS
370
-3
390
F
  0
LAYER
  5
20D
100
AcDbSymbolTableRecord
100
AcDbLayerTableRecord
  2
PIANI_ORIGINE
 70
0
 62
7
  6
CONTINUOUS
370
-3
390
F
  0
LAYER
  5
20E
100
AcDbSymbolTableRecord
100
AcDbLayerTableRecord
  2
PIANI_RIFERIMENTO
 70
0
 62
7
  6
CONTINUOUS
370
-3
390
F
  0
LAYER
  5
20F
100
AcDbSymbolTableRecord
100
AcDbLayerTableRecord
  2
PUNTI
 70
0
 62
7
  6
CONTINUOUS
370
-3
390
F
  0
LAYER
  5
210
100
AcDbSymbolTableRecord
100
AcDbLayerTableRecord
  2
RACCORDO
 70
0
 62
7
  6
CONTINUOUS
370
-3
390
F
  0
LAYER
  5
211
100
AcDbSymbolTableRecord
100
AcDbLayerTableRecord
  2
RGB__255__255__255__
 70
0
 62
7
  6
CONTINUOUS
370
-3
390
F
  0
LAYER
  5
212
100
AcDbSymbolTableRecord
100
AcDbLayerTableRecord
  2
RGB____0____0____0__
 70
0
 62
7
  6
CONTINUOUS
370
-3
390
F
  0
LAYER
  5
213
100
AcDbSymbolTableRecord
100
AcDbLayerTableRecord
  2
SIMBOLI
 70
0
 62
7
  6
CONTINUOUS
370
-3
390
F
  0
LAYER
  5
214
100
AcDbSymbolTableRecord
100
AcDbLayerTableRecord
  2
SMUSSO
 70
0
 62
7
  6
CONTINUOUS
370
-3
390
F
  0
LAYER
  5
215
100
AcDbSymbolTableRecord
100
AcDbLayerTableRecord
  2
SNAPLINE
 70
0
 62
7
  6
CONTINUOUS
370
-3
390
F
  0
LAYER
  5
216
100
AcDbSymbolTableRecord
100
AcDbLayerTableRecord
  2
SUPERFICI
 70
0
 62
7
  6
CONTINUOUS
370
-3
390
F
  0
LAYER
  5
217
100
AcDbSymbolTableRecord
100
AcDbLayerTableRecord
  2
TRASH
 70
0
 62
7
  6
CONTINUOUS
370
-3
390
F
  0
LAYER
  5
218
100
AcDbSymbolTableRecord
100
AcDbLayerTableRecord
  2
WHITE
 70
0
 62
7
  6
CONTINUOUS
370
-3
390
F
  0
LAYER
  5
219
100
AcDbSymbolTableRecord
100
AcDbLayerTableRecord
  2
XSEC_DATUMS
 70
0
 62
7
  6
CONTINUOUS
370
-3
390
F
  0
ENDTAB
  0
TABLE
  2
STYLE
  5
3
100
AcDbSymbolTable
 70
1
  0
STYLE
  5
11
100
AcDbSymbolTableRecord
100
AcDbTextStyleTableRecord
  2
STANDARD
 70
0
 40
0.0
 41
0.8
 50
0.0
 71
0
 42
0.2
  3
txt
  4

  0
STYLE
  5
21A
100
AcDbSymbolTableRecord
100
AcDbTextStyleTableRecord
  2
TEXTSTYLE_1
 70
0
 40
0.0
 41
0.8
 50
0.0
 71
0
 42
0.2
  3
gdt
  4

  0
ENDTAB
  0
TABLE
  2
VIEW
  5
6
100
AcDbSymbolTable
 70
0
  0
ENDTAB
  0
TABLE
  2
UCS
  5
7
100
AcDbSymbolTable
 70
0
  0
ENDTAB
  0
TABLE
  2
APPID
  5
9
100
AcDbSymbolTable
 70
1
  0
APPID
  5
21B
100
AcDbSymbolTableRecord
100
AcDbRegAppTableRecord
  2
ACAD
 70
0
  0
ENDTAB
  0
TABLE
  2
BLOCK_RECORD
  5
1
100
AcDbSymbolTable
 70
0
  0
BLOCK_RECORD
  5
21C
100
AcDbSymbolTableRecord
100
AcDbBlockTableRecord
  2
*Model_Space
  0
BLOCK_RECORD
  5
21D
100
AcDbSymbolTableRecord
100
AcDbBlockTableRecord
  2
*Paper_Space
  0
BLOCK_RECORD
  5
21E
100
AcDbSymbolTableRecord
100
AcDbBlockTableRecord
  2
_FILLED
  0
ENDTAB
  0
TABLE
  2
DIMSTYLE
  5
A
100
AcDbSymbolTable
 70
1
100
AcDbDimStyleTable
 71
0
  0
DIMSTYLE
105
21F
100
AcDbSymbolTableRecord
100
AcDbDimStyleTableRecord
  2
STANDARD
 70
0
  3

  4

 40
1.0
 41
3.0
 42
0.5
 43
0.38
 44
1.5
 45
0.0
 46
0.0
 47
0.01
 48
0.01
140
3.0
141
0.09
142
0.0
143
25.4
144
1.0
145
0.0
146
1.0
147
0.625
 71
1
 72
0
 73
0
 74
0
 75
0
 76
0
 77
1
 78
8
 79
2
170
0
171
1
172
0
173
0
174
0
175
0
176
0
177
0
178
0
270
2
179
2
271
2
272
2
273
2
274
2
275
0
280
0
281
0
282
0
283
1
284
8
285
0
286
0
287
3
288
0
340
11
278
44
341
21E
342
21E
343
21E
344
21E
  0
ENDTAB
  0
ENDSEC
  0
SECTION
  2
BLOCKS
  0
BLOCK
  5
20
100
AcDbEntity
  8
0
100
AcDbBlockBegin
  2
*Model_Space
 70
0
 10
0.0
 20
0.0
 30
0.0
  3
*Model_Space
  1

  0
ENDBLK
  5
21
100
AcDbEntity
  8
0
100
AcDbBlockEnd
  0
BLOCK
  5
1C
100
AcDbEntity
  8
0
100
AcDbBlockBegin
  2
*Paper_Space
 70
0
 10
0.0
 20
0.0
 30
0.0
  3
*Paper_Space
  1

  0
ENDBLK
  5
1D
100
AcDbEntity
  8
0
100
AcDbBlockEnd
  0
BLOCK
  5
220
100
AcDbEntity
  8
0
100
AcDbBlockBegin
  2
_FILLED
 70
64
 10
0.0
 20
0.0
  3
_FILLED
  1

  0
SOLID
  5
221
100
AcDbEntity
  8
0
  6
BYBLOCK
 62
0
100
AcDbTrace
 10
0.0
 20
0.0
 11
-1.0
 21
0.3166666667
 12
-1.0
 22
-0.3166666667
 13
-1.0
 23
-0.3166666667
  0
ENDBLK
  5
222
100
AcDbEntity
  8
0
  6
BYBLOCK
 62
0
100
AcDbBlockEnd
  0
ENDSEC
  0
SECTION
  2
ENTITIES
  0
LINE
  5
223
100
AcDbEntity
  8
RACCORDO
100
AcDbLine
 62
7
  6
CONTINUOUS
 10
-44.7184142702
 20
60.6810582593
 11
-43.6577540985
 21
61.2934701493
  0
LINE
  5
224
100
AcDbEntity
  8
SMUSSO
100
AcDbLine
 62
250
  6
CONTINUOUS
 10
-44.2183901101
 20
60.6315170816
 11
-43.1577299383
 21
61.2439289716
  0
LINE
  5
225
100
AcDbEntity
  8
0
100
AcDbLine
 62
7
  6
CONTINUOUS
 10
-40.6298726367
 20
61.8979929015
 11
-42.5252296533
 21
60.8787312341
  0
LINE
  5
226
100
AcDbEntity
  8
ASSI
100
AcDbLine
 62
7
  6
CONTINUOUS
 10
-40.6298726367
 20
61.8979929015
 11
-42.5252296533
 21
60.8787312341
  0
LINE
  5
227
100
AcDbEntity
  8
0
100
AcDbLine
 62
250
  6
CONTINUOUS
 10
-40.1526338141
 20
61.836044551
 11
-42.2390370044
 21
60.7140444339
  0
LINE
  5
228
100
AcDbEntity
  8
ASSI
100
AcDbLine
 62
250
  6
CONTINUOUS
 10
-40.1526338141
 20
61.836044551
 11
-42.2390370044
 21
60.7140444339
  0
LINE
  5
229
100
AcDbEntity
  8
SMUSSO
100
AcDbLine
 62
250
  6
CONTINUOUS
 10
-44.9254968913
 20
59.4067722115
 11
-44.2183901101
 21
60.6315170816
  0
LINE
  5
22A
100
AcDbEntity
  8
0
100
AcDbLine
 62
250
  6
CONTINUOUS
 10
42.7629668268
 20
-54.1207322859
 11
43.6715259329
 21
-53.8822160139
  0
LINE
  5
22B
100
AcDbEntity
  8
0
100
AcDbLine
 62
250
  6
CONTINUOUS
 10
44.0829117873
 20
-53.5065732375
 11
42.7629668268
 21
-53.7971642987
  0
LINE
  5
22C
100
AcDbEntity
  8
SMUSSO
100
AcDbLine
 62
250
  6
CONTINUOUS
 10
39.9273168511
 20
-61.4355633456
 11
41.3415304135
 21
-61.4355633456
  0
LINE
  5
22D
100
AcDbEntity
  8
0
100
AcDbLine
 62
250
  6
CONTINUOUS
 10
43.6155022332
 20
-50.5693259992
 11
43.1256538803
 21
-50.7009871985
  0
LINE
  5
22E
100
AcDbEntity
  8
0
100
AcDbLine
 62
250
  6
CONTINUOUS
 10
44.0829117873
 20
-50.4454391981
 11
43.819403711
 21
-50.5136457373
  0
LINE
  5
22F
100
AcDbEntity
  8
0
100
AcDbLine
 62
250
  6
CONTINUOUS
 10
42.7629668268
 20
-51.0683687702
 11
44.0829117873
 21
-50.7657159936
  0
LINE
  5
230
100
AcDbEntity
  8
0
100
AcDbLine
 62
250
  6
CONTINUOUS
 10
42.7629668268
 20
-52.0711673618
 11
43.4958040906
 21
-51.9567915819
  0
LINE
  5
231
100
AcDbEntity
  8
0
100
AcDbLine
 62
250
  6
CONTINUOUS
 10
44.0829117873
 20
-51.58482102
 11
43.2246056695
 21
-51.7130180102
  0
LINE
  5
232
100
AcDbEntity
  8
SMUSSO
100
AcDbLine
 62
7
  6
CONTINUOUS
 10
-44.9254968913
 20
-12.4426121463
 11
-44.9254968913
 21
60.2233213981
  0
LINE
  5
233
100
AcDbEntity
  8
RACCORDO
100
AcDbLine
 62
250
  6
CONTINUOUS
 10
-26.5407205804
 20
30.461875071
 11
-25.6922334471
 21
30.9517809077
  0
LINE
  5
234
100
AcDbEntity
  8
SMUSSO
100
AcDbLine
 62
7
  6
CONTINUOUS
 10
39.9273168511
 20
-61.4355633456
 11
40.6344236323
 21
-61.8437590291
  0
LINE
  5
235
100
AcDbEntity
  8
SMUSSO
100
AcDbLine
 62
7
  6
CONTINUOUS
 10
-44.9254968913
 20
-12.4426121463
 11
39.9273168511
 21
-61.4355633456
  0
LINE
  5
236
100
AcDbEntity
  8
RACCORDO
100
AcDbLine
 62
7
  6
CONTINUOUS
 10
-26.5407205804
 20
30.461875071
 11
-26.5407205804
 21
-4.7279938588
  0
LINE
  5
237
100
AcDbEntity
  8
RACCORDO
100
AcDbLine
 62
7
  6
CONTINUOUS
 10
-24.4194002369
 20
30.2168156231
 11
-24.4194002369
 21
-3.5031700788
  0
LINE
  5
238
100
AcDbEntity
  8
0
100
AcDbLine
 62
250
  6
CONTINUOUS
 10
-23.7209984584
 20
-4.870293553
 11
-23.7209984584
 21
29.8135671892
  0
LINE
  5
239
100
AcDbEntity
  8
ASSI
100
AcDbLine
 62
250
  6
CONTINUOUS
 10
-23.7209984584
 20
-4.870293553
 11
-23.7209984584
 21
29.8135671892
  0
LINE
  5
23A
100
AcDbEntity
  8
0
100
AcDbLine
 62
7
  6
CONTINUOUS
 10
-23.6368003985
 20
-4.931483625
 11
-23.6368003985
 21
29.7649522847
  0
LINE
  5
23B
100
AcDbEntity
  8
ASSI
100
AcDbLine
 62
7
  6
CONTINUOUS
 10
-23.6368003985
 20
-4.931483625
 11
-23.6368003985
 21
29.7649522847
  0
LINE
  5
23C
100
AcDbEntity
  8
RACCORDO
100
AcDbLine
 62
7
  6
CONTINUOUS
 10
-25.692192443
 20
-6.197687703
 11
20.6940124028
 21
-32.9805010253
  0
LINE
  5
23D
100
AcDbEntity
  8
RACCORDO
100
AcDbLine
 62
7
  6
CONTINUOUS
 10
-23.5708720994
 20
-4.972863923
 11
21.5425405403
 21
-31.0207829773
  0
LINE
  5
23E
100
AcDbEntity
  8
0
100
AcDbLine
 62
7
  6
CONTINUOUS
 10
19.2444435014
 20
-29.530399219
 11
15.3553562049
 21
-27.2848889557
  0
LINE
  5
23F
100
AcDbEntity
  8
ASSI
100
AcDbLine
 62
7
  6
CONTINUOUS
 10
19.2444435014
 20
-29.530399219
 11
15.3553562049
 21
-27.2848889557
  0
LINE
  5
240
100
AcDbEntity
  8
0
100
AcDbLine
 62
7
  6
CONTINUOUS
 10
-12.575361652
 20
-11.1580425192
 11
-16.4644489485
 21
-8.9125322559
  0
LINE
  5
241
100
AcDbEntity
  8
ASSI
100
AcDbLine
 62
7
  6
CONTINUOUS
 10
-12.575361652
 20
-11.1580425192
 11
-16.4644489485
 21
-8.9125322559
  0
LINE
  5
242
100
AcDbEntity
  8
0
100
AcDbLine
 62
7
  6
CONTINUOUS
 10
19.4919308748
 20
-29.5099736528
 11
15.4967775611
 21
-27.203234037
  0
LINE
  5
243
100
AcDbEntity
  8
ASSI
100
AcDbLine
 62
7
  6
CONTINUOUS
 10
19.4919308748
 20
-29.5099736528
 11
15.4967775611
 21
-27.203234037
  0
LINE
  5
244
100
AcDbEntity
  8
0
100
AcDbLine
 62
7
  6
CONTINUOUS
 10
-16.3230275923
 20
-8.8308773372
 11
-12.3278742786
 21
-11.1376169531
  0
LINE
  5
245
100
AcDbEntity
  8
ASSI
100
AcDbLine
 62
7
  6
CONTINUOUS
 10
-16.3230275923
 20
-8.8308773372
 11
-12.3278742786
 21
-11.1376169531
  0
LINE
  5
246
100
AcDbEntity
  8
0
100
AcDbLine
 62
7
  6
CONTINUOUS
 10
19.597996892
 20
-29.3262619223
 11
15.7089095955
 21
-27.080751659
  0
LINE
  5
247
100
AcDbEntity
  8
ASSI
100
AcDbLine
 62
7
  6
CONTINUOUS
 10
19.597996892
 20
-29.3262619223
 11
15.7089095955
 21
-27.080751659
  0
LINE
  5
248
100
AcDbEntity
  8
0
100
AcDbLine
 62
7
  6
CONTINUOUS
 10
-12.2218082614
 20
-10.9539052225
 11
-16.1108955579
 21
-8.7083949592
  0
LINE
  5
249
100
AcDbEntity
  8
ASSI
100
AcDbLine
 62
7
  6
CONTINUOUS
 10
-12.2218082614
 20
-10.9539052225
 11
-16.1108955579
 21
-8.7083949592
  0
LINE
  5
24A
100
AcDbEntity
  8
0
100
AcDbLine
 62
7
  6
CONTINUOUS
 10
19.8454842654
 20
-29.3058363561
 11
15.8503309517
 21
-26.9990967403
  0
LINE
  5
24B
100
AcDbEntity
  8
ASSI
100
AcDbLine
 62
7
  6
CONTINUOUS
 10
19.8454842654
 20
-29.3058363561
 11
15.8503309517
 21
-26.9990967403
  0
LINE
  5
24C
100
AcDbEntity
  8
0
100
AcDbLine
 62
7
  6
CONTINUOUS
 10
-15.9694742017
 20
-8.6267400406
 11
-11.974320888
 21
-10.9334796564
  0
LINE
  5
24D
100
AcDbEntity
  8
ASSI
100
AcDbLine
 62
7
  6
CONTINUOUS
 10
-15.9694742017
 20
-8.6267400406
 11
-11.974320888
 21
-10.9334796564
  0
LINE
  5
24E
100
AcDbEntity
  8
0
100
AcDbLine
 62
7
  6
CONTINUOUS
 10
19.9515502826
 20
-29.1221246256
 11
16.0624629861
 21
-26.8766143623
  0
LINE
  5
24F
100
AcDbEntity
  8
ASSI
100
AcDbLine
 62
7
  6
CONTINUOUS
 10
19.9515502826
 20
-29.1221246256
 11
16.0624629861
 21
-26.8766143623
  0
LINE
  5
250
100
AcDbEntity
  8
0
100
AcDbLine
 62
7
  6
CONTINUOUS
 10
-11.8682548708
 20
-10.7497679259
 11
-15.7573421673
 21
-8.5042576626
  0
LINE
  5
251
100
AcDbEntity
  8
ASSI
100
AcDbLine
 62
7
  6
CONTINUOUS
 10
-11.8682548708
 20
-10.7497679259
 11
-15.7573421673
 21
-8.5042576626
  0
LINE
  5
252
100
AcDbEntity
  8
0
100
AcDbLine
 62
7
  6
CONTINUOUS
 10
20.199037656
 20
-29.1016990595
 11
16.2038843423
 21
-26.7949594437
  0
LINE
  5
253
100
AcDbEntity
  8
ASSI
100
AcDbLine
 62
7
  6
CONTINUOUS
 10
20.199037656
 20
-29.1016990595
 11
16.2038843423
 21
-26.7949594437
  0
LINE
  5
254
100
AcDbEntity
  8
0
100
AcDbLine
 62
7
  6
CONTINUOUS
 10
-15.6159208111
 20
-8.4226027439
 11
-11.6207674974
 21
-10.7293423597
  0
LINE
  5
255
100
AcDbEntity
  8
ASSI
100
AcDbLine
 62
7
  6
CONTINUOUS
 10
-15.6159208111
 20
-8.4226027439
 11
-11.6207674974
 21
-10.7293423597
  0
LINE
  5
256
100
AcDbEntity
  8
0
100
AcDbLine
 62
7
  6
CONTINUOUS
 10
20.3051036732
 20
-28.917987329
 11
16.4160163767
 21
-26.6724770657
  0
LINE
  5
257
100
AcDbEntity
  8
ASSI
100
AcDbLine
 62
7
  6
CONTINUOUS
 10
20.3051036732
 20
-28.917987329
 11
16.4160163767
 21
-26.6724770657
  0
LINE
  5
258
100
AcDbEntity
  8
0
100
AcDbLine
 62
7
  6
CONTINUOUS
 10
-11.5147014802
 20
-10.5456306292
 11
-15.4037887767
 21
-8.3001203659
  0
LINE
  5
259
100
AcDbEntity
  8
ASSI
100
AcDbLine
 62
7
  6
CONTINUOUS
 10
-11.5147014802
 20
-10.5456306292
 11
-15.4037887767
 21
-8.3001203659
  0
LINE
  5
25A
100
AcDbEntity
  8
0
100
AcDbLine
 62
7
  6
CONTINUOUS
 10
20.5525910466
 20
-28.8975617628
 11
16.5574377329
 21
-26.590822147
  0
LINE
  5
25B
100
AcDbEntity
  8
ASSI
100
AcDbLine
 62
7
  6
CONTINUOUS
 10
20.5525910466
 20
-28.8975617628
 11
16.5574377329
 21
-26.590822147
  0
LINE
  5
25C
100
AcDbEntity
  8
0
100
AcDbLine
 62
7
  6
CONTINUOUS
 10
-15.2623674205
 20
-8.2184654473
 11
-11.2672141068
 21
-10.5252050631
  0
LINE
  5
25D
100
AcDbEntity
  8
ASSI
100
AcDbLine
 62
7
  6
CONTINUOUS
 10
-15.2623674205
 20
-8.2184654473
 11
-11.2672141068
 21
-10.5252050631
  0
LINE
  5
25E
100
AcDbEntity
  8
0
100
AcDbLine
 62
7
  6
CONTINUOUS
 10
-16.5352416309
 20
-9.0351487784
 11
-16.4644489485
 21
-8.9125322559
  0
LINE
  5
25F
100
AcDbEntity
  8
ASSI
100
AcDbLine
 62
7
  6
CONTINUOUS
 10
-16.5352416309
 20
-9.0351487784
 11
-16.4644489485
 21
-8.9125322559
  0
LINE
  5
260
100
AcDbEntity
  8
0
100
AcDbLine
 62
7
  6
CONTINUOUS
 10
-16.2169615751
 20
-8.8921066898
 11
-16.1108955579
 21
-8.7083949592
  0
LINE
  5
261
100
AcDbEntity
  8
ASSI
100
AcDbLine
 62
7
  6
CONTINUOUS
 10
-16.2169615751
 20
-8.8921066898
 11
-16.1108955579
 21
-8.7083949592
  0
LINE
  5
262
100
AcDbEntity
  8
0
100
AcDbLine
 62
7
  6
CONTINUOUS
 10
20.6586570638
 20
-28.7138500323
 11
16.7695697672
 21
-26.468339769
  0
LINE
  5
263
100
AcDbEntity
  8
ASSI
100
AcDbLine
 62
7
  6
CONTINUOUS
 10
20.6586570638
 20
-28.7138500323
 11
16.7695697672
 21
-26.468339769
  0
LINE
  5
264
100
AcDbEntity
  8
0
100
AcDbLine
 62
7
  6
CONTINUOUS
 10
-11.1611480896
 20
-10.3414933326
 11
-15.0502353861
 21
-8.0959830693
  0
LINE
  5
265
100
AcDbEntity
  8
ASSI
100
AcDbLine
 62
7
  6
CONTINUOUS
 10
-11.1611480896
 20
-10.3414933326
 11
-15.0502353861
 21
-8.0959830693
  0
LINE
  5
266
100
AcDbEntity
  8
0
100
AcDbLine
 62
7
  6
CONTINUOUS
 10
20.9061444372
 20
-28.6934244662
 11
16.9109911235
 21
-26.3866848503
  0
LINE
  5
267
100
AcDbEntity
  8
ASSI
100
AcDbLine
 62
7
  6
CONTINUOUS
 10
20.9061444372
 20
-28.6934244662
 11
16.9109911235
 21
-26.3866848503
  0
LINE
  5
268
100
AcDbEntity
  8
0
100
AcDbLine
 62
7
  6
CONTINUOUS
 10
-14.9088140299
 20
-8.0143281506
 11
-10.9136607162
 21
-10.3210677664
  0
LINE
  5
269
100
AcDbEntity
  8
ASSI
100
AcDbLine
 62
7
  6
CONTINUOUS
 10
-14.9088140299
 20
-8.0143281506
 11
-10.9136607162
 21
-10.3210677664
  0
LINE
  5
26A
100
AcDbEntity
  8
0
100
AcDbLine
 62
7
  6
CONTINUOUS
 10
21.0122104544
 20
-28.5097127356
 11
17.1231231578
 21
-26.2642024723
  0
LINE
  5
26B
100
AcDbEntity
  8
ASSI
100
AcDbLine
 62
7
  6
CONTINUOUS
 10
21.0122104544
 20
-28.5097127356
 11
17.1231231578
 21
-26.2642024723
  0
LINE
  5
26C
100
AcDbEntity
  8
0
100
AcDbLine
 62
7
  6
CONTINUOUS
 10
-10.807594699
 20
-10.1373560359
 11
-14.6966819956
 21
-7.8918457726
  0
LINE
  5
26D
100
AcDbEntity
  8
ASSI
100
AcDbLine
 62
7
  6
CONTINUOUS
 10
-10.807594699
 20
-10.1373560359
 11
-14.6966819956
 21
-7.8918457726
  0
LINE
  5
26E
100
AcDbEntity
  8
0
100
AcDbLine
 62
7
  6
CONTINUOUS
 10
21.2596978278
 20
-28.4892871695
 11
17.2645445141
 21
-26.1825475537
  0
LINE
  5
26F
100
AcDbEntity
  8
ASSI
100
AcDbLine
 62
7
  6
CONTINUOUS
 10
21.2596978278
 20
-28.4892871695
 11
17.2645445141
 21
-26.1825475537
  0
LINE
  5
270
100
AcDbEntity
  8
0
100
AcDbLine
 62
7
  6
CONTINUOUS
 10
-14.5552606393
 20
-7.8101908539
 11
-10.5601073256
 21
-10.1169304697
  0
LINE
  5
271
100
AcDbEntity
  8
ASSI
100
AcDbLine
 62
7
  6
CONTINUOUS
 10
-14.5552606393
 20
-7.8101908539
 11
-10.5601073256
 21
-10.1169304697
  0
LINE
  5
272
100
AcDbEntity
  8
0
100
AcDbLine
 62
250
  6
CONTINUOUS
 10
21.544476775
 20
-28.531131025
 11
17.2981395167
 21
-26.0793491112
  0
LINE
  5
273
100
AcDbEntity
  8
ASSI
100
AcDbLine
 62
250
  6
CONTINUOUS
 10
21.544476775
 20
-28.531131025
 11
17.2981395167
 21
-26.0793491112
  0
LINE
  5
274
100
AcDbEntity
  8
0
100
AcDbLine
 62
250
  6
CONTINUOUS
 10
-10.2753283784
 20
-10.1587743253
 11
-14.5216656367
 21
-7.7069924114
  0
LINE
  5
275
100
AcDbEntity
  8
ASSI
100
AcDbLine
 62
250
  6
CONTINUOUS
 10
-10.2753283784
 20
-10.1587743253
 11
-14.5216656367
 21
-7.7069924114
  0
LINE
  5
276
100
AcDbEntity
  8
0
100
AcDbLine
 62
250
  6
CONTINUOUS
 10
21.5425405403
 20
-28.4528153732
 11
17.3721866697
 21
-26.0449053151
  0
LINE
  5
277
100
AcDbEntity
  8
ASSI
100
AcDbLine
 62
250
  6
CONTINUOUS
 10
21.5425405403
 20
-28.4528153732
 11
17.3721866697
 21
-26.0449053151
  0
LINE
  5
278
100
AcDbEntity
  8
0
100
AcDbLine
 62
250
  6
CONTINUOUS
 10
-10.2086560224
 20
-10.1200724139
 11
-14.4476184837
 21
-7.6725486154
  0
LINE
  5
279
100
AcDbEntity
  8
ASSI
100
AcDbLine
 62
250
  6
CONTINUOUS
 10
-10.2086560224
 20
-10.1200724139
 11
-14.4476184837
 21
-7.6725486154
  0
LINE
  5
27A
100
AcDbEntity
  8
0
100
AcDbLine
 62
7
  6
CONTINUOUS
 10
-12.8620167505
 20
-7.1547226622
 11
-9.03601536
 21
-9.3638079141
  0
LINE
  5
27B
100
AcDbEntity
  8
ASSI
100
AcDbLine
 62
7
  6
CONTINUOUS
 10
-12.8620167505
 20
-7.1547226622
 11
-9.03601536
 21
-9.3638079141
  0
LINE
  5
27C
100
AcDbEntity
  8
0
100
AcDbLine
 62
7
  6
CONTINUOUS
 10
18.9577884028
 20
-25.527079362
 11
21.5425405403
 21
-27.0194828515
  0
LINE
  5
27D
100
AcDbEntity
  8
ASSI
100
AcDbLine
 62
7
  6
CONTINUOUS
 10
18.9577884028
 20
-25.527079362
 11
21.5425405403
 21
-27.0194828515
  0
LINE
  5
27E
100
AcDbEntity
  8
0
100
AcDbLine
 62
7
  6
CONTINUOUS
 10
3.1149877542
 20
-16.3407491656
 11
6.8067852887
 21
-18.472346793
  0
LINE
  5
27F
100
AcDbEntity
  8
ASSI
100
AcDbLine
 62
7
  6
CONTINUOUS
 10
3.1149877542
 20
-16.3407491656
 11
6.8067852887
 21
-18.472346793
  0
LINE
  5
280
100
AcDbEntity
  8
0
100
AcDbLine
 62
250
  6
CONTINUOUS
 10
-9.0288077511
 20
-9.5072575674
 11
-9.0288077511
 21
-9.9146272053
  0
LINE
  5
281
100
AcDbEntity
  8
ASSI
100
AcDbLine
 62
250
  6
CONTINUOUS
 10
-9.0288077511
 20
-9.5072575674
 11
-9.0288077511
 21
-9.9146272053
  0
LINE
  5
282
100
AcDbEntity
  8
0
100
AcDbLine
 62
7
  6
CONTINUOUS
 10
-8.9774367162
 20
-9.4406800606
 11
-8.9774367162
 21
-9.8840819105
  0
LINE
  5
283
100
AcDbEntity
  8
ASSI
100
AcDbLine
 62
7
  6
CONTINUOUS
 10
-8.9774367162
 20
-9.4406800606
 11
-8.9774367162
 21
-9.8840819105
  0
LINE
  5
284
100
AcDbEntity
  8
0
100
AcDbLine
 62
7
  6
CONTINUOUS
 10
-15.8634081845
 20
-8.6879693931
 11
-15.7573421673
 21
-8.5042576626
  0
LINE
  5
285
100
AcDbEntity
  8
ASSI
100
AcDbLine
 62
7
  6
CONTINUOUS
 10
-15.8634081845
 20
-8.6879693931
 11
-15.7573421673
 21
-8.5042576626
  0
LINE
  5
286
100
AcDbEntity
  8
0
100
AcDbLine
 62
7
  6
CONTINUOUS
 10
-15.5098547939
 20
-8.4838320964
 11
-15.4037887767
 21
-8.3001203659
  0
LINE
  5
287
100
AcDbEntity
  8
ASSI
100
AcDbLine
 62
7
  6
CONTINUOUS
 10
-15.5098547939
 20
-8.4838320964
 11
-15.4037887767
 21
-8.3001203659
  0
LINE
  5
288
100
AcDbEntity
  8
0
100
AcDbLine
 62
7
  6
CONTINUOUS
 10
-15.1563014033
 20
-8.2796947998
 11
-15.0502353861
 21
-8.0959830693
  0
LINE
  5
289
100
AcDbEntity
  8
ASSI
100
AcDbLine
 62
7
  6
CONTINUOUS
 10
-15.1563014033
 20
-8.2796947998
 11
-15.0502353861
 21
-8.0959830693
  0
LINE
  5
28A
100
AcDbEntity
  8
0
100
AcDbLine
 62
7
  6
CONTINUOUS
 10
-14.8027480127
 20
-8.0755575031
 11
-14.6966819956
 21
-7.8918457726
  0
LINE
  5
28B
100
AcDbEntity
  8
ASSI
100
AcDbLine
 62
7
  6
CONTINUOUS
 10
-14.8027480127
 20
-8.0755575031
 11
-14.6966819956
 21
-7.8918457726
  0
LINE
  5
28C
100
AcDbEntity
  8
0
100
AcDbLine
 62
7
  6
CONTINUOUS
 10
-12.6461543343
 20
-11.2806590417
 11
-12.575361652
 21
-11.1580425192
  0
LINE
  5
28D
100
AcDbEntity
  8
ASSI
100
AcDbLine
 62
7
  6
CONTINUOUS
 10
-12.6461543343
 20
-11.2806590417
 11
-12.575361652
 21
-11.1580425192
  0
LINE
  5
28E
100
AcDbEntity
  8
0
100
AcDbLine
 62
7
  6
CONTINUOUS
 10
-12.3278742786
 20
-11.1376169531
 11
-12.2218082614
 21
-10.9539052225
  0
LINE
  5
28F
100
AcDbEntity
  8
ASSI
100
AcDbLine
 62
7
  6
CONTINUOUS
 10
-12.3278742786
 20
-11.1376169531
 11
-12.2218082614
 21
-10.9539052225
  0
LINE
  5
290
100
AcDbEntity
  8
0
100
AcDbLine
 62
7
  6
CONTINUOUS
 10
-11.974320888
 20
-10.9334796564
 11
-11.8682548708
 21
-10.7497679259
  0
LINE
  5
291
100
AcDbEntity
  8
ASSI
100
AcDbLine
 62
7
  6
CONTINUOUS
 10
-11.974320888
 20
-10.9334796564
 11
-11.8682548708
 21
-10.7497679259
  0
LINE
  5
292
100
AcDbEntity
  8
0
100
AcDbLine
 62
7
  6
CONTINUOUS
 10
-11.6207674974
 20
-10.7293423597
 11
-11.5147014802
 21
-10.5456306292
  0
LINE
  5
293
100
AcDbEntity
  8
ASSI
100
AcDbLine
 62
7
  6
CONTINUOUS
 10
-11.6207674974
 20
-10.7293423597
 11
-11.5147014802
 21
-10.5456306292
  0
LINE
  5
294
100
AcDbEntity
  8
0
100
AcDbLine
 62
7
  6
CONTINUOUS
 10
-11.2672141068
 20
-10.5252050631
 11
-11.1611480896
 21
-10.3414933326
  0
LINE
  5
295
100
AcDbEntity
  8
ASSI
100
AcDbLine
 62
7
  6
CONTINUOUS
 10
-11.2672141068
 20
-10.5252050631
 11
-11.1611480896
 21
-10.3414933326
  0
LINE
  5
296
100
AcDbEntity
  8
RACCORDO
100
AcDbLine
 62
250
  6
CONTINUOUS
 10
-26.5407205804
 20
-4.7279938588
 11
-24.4194002369
 21
-3.5031700788
  0
LINE
  5
297
100
AcDbEntity
  8
RACCORDO
100
AcDbLine
 62
250
  6
CONTINUOUS
 10
-25.692192443
 20
-6.197687703
 11
-23.5708720994
 21
-4.972863923
  0
LINE
  5
298
100
AcDbEntity
  8
0
100
AcDbLine
 62
7
  6
CONTINUOUS
 10
-10.9136607162
 20
-10.3210677664
 11
-10.807594699
 21
-10.1373560359
  0
LINE
  5
299
100
AcDbEntity
  8
ASSI
100
AcDbLine
 62
7
  6
CONTINUOUS
 10
-10.9136607162
 20
-10.3210677664
 11
-10.807594699
 21
-10.1373560359
  0
LINE
  5
29A
100
AcDbEntity
  8
0
100
AcDbLine
 62
250
  6
CONTINUOUS
 10
-10.9732871641
 20
-11.1862648589
 11
-10.6373421991
 21
-10.8595112691
  0
LINE
  5
29B
100
AcDbEntity
  8
ASSI
100
AcDbLine
 62
250
  6
CONTINUOUS
 10
-10.9732871641
 20
-11.1862648589
 11
-10.6373421991
 21
-10.8595112691
  0
LINE
  5
29C
100
AcDbEntity
  8
0
100
AcDbLine
 62
7
  6
CONTINUOUS
 10
-10.9693622694
 20
-11.2198000234
 11
-10.5403779259
 21
-10.8025525905
  0
LINE
  5
29D
100
AcDbEntity
  8
ASSI
100
AcDbLine
 62
7
  6
CONTINUOUS
 10
-10.9693622694
 20
-11.2198000234
 11
-10.5403779259
 21
-10.8025525905
  0
LINE
  5
29E
100
AcDbEntity
  8
0
100
AcDbLine
 62
7
  6
CONTINUOUS
 10
-16.4644489485
 20
-8.9125322559
 11
-16.3230275923
 21
-8.8308773372
  0
LINE
  5
29F
100
AcDbEntity
  8
ASSI
100
AcDbLine
 62
7
  6
CONTINUOUS
 10
-16.4644489485
 20
-8.9125322559
 11
-16.3230275923
 21
-8.8308773372
  0
LINE
  5
2A0
100
AcDbEntity
  8
0
100
AcDbLine
 62
7
  6
CONTINUOUS
 10
-16.1108955579
 20
-8.7083949592
 11
-15.9694742017
 21
-8.6267400406
  0
LINE
  5
2A1
100
AcDbEntity
  8
ASSI
100
AcDbLine
 62
7
  6
CONTINUOUS
 10
-16.1108955579
 20
-8.7083949592
 11
-15.9694742017
 21
-8.6267400406
  0
LINE
  5
2A2
100
AcDbEntity
  8
0
100
AcDbLine
 62
7
  6
CONTINUOUS
 10
-15.7573421673
 20
-8.5042576626
 11
-15.6159208111
 21
-8.4226027439
  0
LINE
  5
2A3
100
AcDbEntity
  8
ASSI
100
AcDbLine
 62
7
  6
CONTINUOUS
 10
-15.7573421673
 20
-8.5042576626
 11
-15.6159208111
 21
-8.4226027439
  0
LINE
  5
2A4
100
AcDbEntity
  8
0
100
AcDbLine
 62
7
  6
CONTINUOUS
 10
-15.4037887767
 20
-8.3001203659
 11
-15.2623674205
 21
-8.2184654473
  0
LINE
  5
2A5
100
AcDbEntity
  8
ASSI
100
AcDbLine
 62
7
  6
CONTINUOUS
 10
-15.4037887767
 20
-8.3001203659
 11
-15.2623674205
 21
-8.2184654473
  0
LINE
  5
2A6
100
AcDbEntity
  8
0
100
AcDbLine
 62
7
  6
CONTINUOUS
 10
-15.0502353861
 20
-8.0959830693
 11
-14.9088140299
 21
-8.0143281506
  0
LINE
  5
2A7
100
AcDbEntity
  8
ASSI
100
AcDbLine
 62
7
  6
CONTINUOUS
 10
-15.0502353861
 20
-8.0959830693
 11
-14.9088140299
 21
-8.0143281506
  0
LINE
  5
2A8
100
AcDbEntity
  8
0
100
AcDbLine
 62
7
  6
CONTINUOUS
 10
-14.6966819956
 20
-7.8918457726
 11
-14.5552606393
 21
-7.8101908539
  0
LINE
  5
2A9
100
AcDbEntity
  8
ASSI
100
AcDbLine
 62
7
  6
CONTINUOUS
 10
-14.6966819956
 20
-7.8918457726
 11
-14.5552606393
 21
-7.8101908539
  0
LINE
  5
2AA
100
AcDbEntity
  8
0
100
AcDbLine
 62
7
  6
CONTINUOUS
 10
-16.791636652
 20
-8.8871095066
 11
-14.5216656367
 21
-7.7069924114
  0
LINE
  5
2AB
100
AcDbEntity
  8
ASSI
100
AcDbLine
 62
7
  6
CONTINUOUS
 10
-16.791636652
 20
-8.8871095066
 11
-14.5216656367
 21
-7.7069924114
  0
LINE
  5
2AC
100
AcDbEntity
  8
0
100
AcDbLine
 62
7
  6
CONTINUOUS
 10
-10.2753283784
 20
-10.1587743253
 11
-12.319219461
 21
-11.4694271401
  0
LINE
  5
2AD
100
AcDbEntity
  8
ASSI
100
AcDbLine
 62
7
  6
CONTINUOUS
 10
-10.2753283784
 20
-10.1587743253
 11
-12.319219461
 21
-11.4694271401
  0
LINE
  5
2AE
100
AcDbEntity
  8
0
100
AcDbLine
 62
7
  6
CONTINUOUS
 10
-11.9946581639
 20
-11.6568247653
 11
-9.0288077511
 21
-9.9146272053
  0
LINE
  5
2AF
100
AcDbEntity
  8
ASSI
100
AcDbLine
 62
7
  6
CONTINUOUS
 10
-11.9946581639
 20
-11.6568247653
 11
-9.0288077511
 21
-9.9146272053
  0
LINE
  5
2B0
100
AcDbEntity
  8
0
100
AcDbLine
 62
7
  6
CONTINUOUS
 10
-11.0279766192
 20
-11.2642640485
 11
-11.8492335497
 21
-11.740791115
  0
LINE
  5
2B1
100
AcDbEntity
  8
ASSI
100
AcDbLine
 62
7
  6
CONTINUOUS
 10
-11.0279766192
 20
-11.2642640485
 11
-11.8492335497
 21
-11.740791115
  0
LINE
  5
2B2
100
AcDbEntity
  8
0
100
AcDbLine
 62
250
  6
CONTINUOUS
 10
-10.9732871641
 20
-11.1862648589
 11
-11.8895014895
 21
-11.7175409112
  0
LINE
  5
2B3
100
AcDbEntity
  8
ASSI
100
AcDbLine
 62
250
  6
CONTINUOUS
 10
-10.9732871641
 20
-11.1862648589
 11
-11.8895014895
 21
-11.7175409112
  0
LINE
  5
2B4
100
AcDbEntity
  8
0
100
AcDbLine
 62
7
  6
CONTINUOUS
 10
-12.575361652
 20
-11.1580425192
 11
-12.4339402958
 21
-11.0763876005
  0
LINE
  5
2B5
100
AcDbEntity
  8
ASSI
100
AcDbLine
 62
7
  6
CONTINUOUS
 10
-12.575361652
 20
-11.1580425192
 11
-12.4339402958
 21
-11.0763876005
  0
LINE
  5
2B6
100
AcDbEntity
  8
0
100
AcDbLine
 62
7
  6
CONTINUOUS
 10
-12.2218082614
 20
-10.9539052225
 11
-12.0803869052
 21
-10.8722503039
  0
LINE
  5
2B7
100
AcDbEntity
  8
ASSI
100
AcDbLine
 62
7
  6
CONTINUOUS
 10
-12.2218082614
 20
-10.9539052225
 11
-12.0803869052
 21
-10.8722503039
  0
LINE
  5
2B8
100
AcDbEntity
  8
0
100
AcDbLine
 62
7
  6
CONTINUOUS
 10
-11.8682548708
 20
-10.7497679259
 11
-11.7268335146
 21
-10.6681130072
  0
LINE
  5
2B9
100
AcDbEntity
  8
ASSI
100
AcDbLine
 62
7
  6
CONTINUOUS
 10
-11.8682548708
 20
-10.7497679259
 11
-11.7268335146
 21
-10.6681130072
  0
LINE
  5
2BA
100
AcDbEntity
  8
0
100
AcDbLine
 62
7
  6
CONTINUOUS
 10
-11.5147014802
 20
-10.5456306292
 11
-11.373280124
 21
-10.4639757106
  0
LINE
  5
2BB
100
AcDbEntity
  8
ASSI
100
AcDbLine
 62
7
  6
CONTINUOUS
 10
-11.5147014802
 20
-10.5456306292
 11
-11.373280124
 21
-10.4639757106
  0
LINE
  5
2BC
100
AcDbEntity
  8
0
100
AcDbLine
 62
7
  6
CONTINUOUS
 10
-11.1611480896
 20
-10.3414933326
 11
-11.0197267334
 21
-10.2598384139
  0
LINE
  5
2BD
100
AcDbEntity
  8
ASSI
100
AcDbLine
 62
7
  6
CONTINUOUS
 10
-11.1611480896
 20
-10.3414933326
 11
-11.0197267334
 21
-10.2598384139
  0
LINE
  5
2BE
100
AcDbEntity
  8
0
100
AcDbLine
 62
7
  6
CONTINUOUS
 10
-10.807594699
 20
-10.1373560359
 11
-10.6661733428
 21
-10.0557011172
  0
LINE
  5
2BF
100
AcDbEntity
  8
ASSI
100
AcDbLine
 62
7
  6
CONTINUOUS
 10
-10.807594699
 20
-10.1373560359
 11
-10.6661733428
 21
-10.0557011172
  0
LINE
  5
2C0
100
AcDbEntity
  8
0
100
AcDbLine
 62
7
  6
CONTINUOUS
 10
-10.5601073256
 20
-10.1169304697
 11
-12.6108844082
 21
-11.301023455
  0
LINE
  5
2C1
100
AcDbEntity
  8
ASSI
100
AcDbLine
 62
7
  6
CONTINUOUS
 10
-10.5601073256
 20
-10.1169304697
 11
-12.6108844082
 21
-11.301023455
  0
LINE
  5
2C2
100
AcDbEntity
  8
0
100
AcDbLine
 62
7
  6
CONTINUOUS
 10
-9.0288077511
 20
-9.5072575674
 11
-10.2086560224
 21
-10.1200724139
  0
LINE
  5
2C3
100
AcDbEntity
  8
ASSI
100
AcDbLine
 62
7
  6
CONTINUOUS
 10
-9.0288077511
 20
-9.5072575674
 11
-10.2086560224
 21
-10.1200724139
  0
LINE
  5
2C4
100
AcDbEntity
  8
0
100
AcDbLine
 62
7
  6
CONTINUOUS
 10
-14.4476184837
 20
-7.6725486154
 11
-13.1372642281
 21
-7.1350862887
  0
LINE
  5
2C5
100
AcDbEntity
  8
ASSI
100
AcDbLine
 62
7
  6
CONTINUOUS
 10
-14.4476184837
 20
-7.6725486154
 11
-13.1372642281
 21
-7.1350862887
  0
LINE
  5
2C6
100
AcDbEntity
  8
0
100
AcDbLine
 62
250
  6
CONTINUOUS
 10
6.817596702
 20
-18.708707762
 11
6.817596702
 21
-19.137730456
  0
LINE
  5
2C7
100
AcDbEntity
  8
ASSI
100
AcDbLine
 62
250
  6
CONTINUOUS
 10
6.817596702
 20
-18.708707762
 11
6.817596702
 21
-19.137730456
  0
LINE
  5
2C8
100
AcDbEntity
  8
0
100
AcDbLine
 62
7
  6
CONTINUOUS
 10
6.8946532543
 20
-18.5942030917
 11
6.8946532543
 21
-18.9922488764
  0
LINE
  5
2C9
100
AcDbEntity
  8
ASSI
100
AcDbLine
 62
7
  6
CONTINUOUS
 10
6.8946532543
 20
-18.5942030917
 11
6.8946532543
 21
-18.9922488764
  0
LINE
  5
2CA
100
AcDbEntity
  8
SMUSSO
100
AcDbLine
 62
250
  6
CONTINUOUS
 10
40.6344236323
 20
11.6385658823
 11
41.6950838041
 21
12.2509777723
  0
LINE
  5
2CB
100
AcDbEntity
  8
0
100
AcDbLine
 62
250
  6
CONTINUOUS
 10
41.6956296857
 20
12.2512198356
 11
43.7104458262
 21
13.4145534179
  0
LINE
  5
2CC
100
AcDbEntity
  8
ASSI
100
AcDbLine
 62
250
  6
CONTINUOUS
 10
41.6956296857
 20
12.2512198356
 11
43.7104458262
 21
13.4145534179
  0
LINE
  5
2CD
100
AcDbEntity
  8
SMUSSO
100
AcDbLine
 62
250
  6
CONTINUOUS
 10
39.9273168511
 20
10.4138210121
 11
41.3415304135
 21
10.4138210121
  0
LINE
  5
2CE
100
AcDbEntity
  8
0
100
AcDbLine
 62
250
  6
CONTINUOUS
 10
42.4026287711
 20
11.0266615
 11
44.4174449116
 21
12.1899950824
  0
LINE
  5
2CF
100
AcDbEntity
  8
ASSI
100
AcDbLine
 62
250
  6
CONTINUOUS
 10
42.4026287711
 20
11.0266615
 11
44.4174449116
 21
12.1899950824
  0
LINE
  5
2D0
100
AcDbEntity
  8
SMUSSO
100
AcDbLine
 62
250
  6
CONTINUOUS
 10
41.3415304135
 20
10.4138210121
 11
42.4021905853
 21
11.0262329021
  0
LINE
  5
2D1
100
AcDbEntity
  8
0
100
AcDbLine
 62
7
  6
CONTINUOUS
 10
-0.8007756521
 20
-18.1200322354
 11
2.7021165379
 21
-16.3324810943
  0
LINE
  5
2D2
100
AcDbEntity
  8
ASSI
100
AcDbLine
 62
7
  6
CONTINUOUS
 10
-0.8007756521
 20
-18.1200322354
 11
2.7021165379
 21
-16.3324810943
  0
LINE
  5
2D3
100
AcDbEntity
  8
RACCORDO
100
AcDbLine
 62
7
  6
CONTINUOUS
 10
20.6940124028
 20
4.1688965688
 11
-25.692192443
 21
30.9517098911
  0
LINE
  5
2D4
100
AcDbEntity
  8
0
100
AcDbLine
 62
7
  6
CONTINUOUS
 10
5.6277467771
 20
-19.8370462983
 11
5.2849661071
 21
-20.1704485698
  0
LINE
  5
2D5
100
AcDbEntity
  8
ASSI
100
AcDbLine
 62
7
  6
CONTINUOUS
 10
5.6277467771
 20
-19.8370462983
 11
5.2849661071
 21
-20.1704485698
  0
LINE
  5
2D6
100
AcDbEntity
  8
0
100
AcDbLine
 62
7
  6
CONTINUOUS
 10
6.817596702
 20
-18.708707762
 11
3.6635784074
 21
-20.6976943178
  0
LINE
  5
2D7
100
AcDbEntity
  8
ASSI
100
AcDbLine
 62
7
  6
CONTINUOUS
 10
6.817596702
 20
-18.708707762
 11
3.6635784074
 21
-20.6976943178
  0
LINE
  5
2D8
100
AcDbEntity
  8
0
100
AcDbLine
 62
7
  6
CONTINUOUS
 10
3.9152444128
 20
-20.8430031152
 11
6.8082458566
 21
-19.1435984403
  0
LINE
  5
2D9
100
AcDbEntity
  8
ASSI
100
AcDbLine
 62
7
  6
CONTINUOUS
 10
3.9152444128
 20
-20.8430031152
 11
6.8082458566
 21
-19.1435984403
  0
LINE
  5
2DA
100
AcDbEntity
  8
0
100
AcDbLine
 62
7
  6
CONTINUOUS
 10
5.0518421534
 20
-20.3518500293
 11
4.060669027
 21
-20.9269694648
  0
LINE
  5
2DB
100
AcDbEntity
  8
ASSI
100
AcDbLine
 62
7
  6
CONTINUOUS
 10
5.0518421534
 20
-20.3518500293
 11
4.060669027
 21
-20.9269694648
  0
LINE
  5
2DC
100
AcDbEntity
  8
0
100
AcDbLine
 62
250
  6
CONTINUOUS
 10
5.2849661071
 20
-20.1704485698
 11
4.0204010872
 21
-20.9037192611
  0
LINE
  5
2DD
100
AcDbEntity
  8
ASSI
100
AcDbLine
 62
250
  6
CONTINUOUS
 10
5.2849661071
 20
-20.1704485698
 11
4.0204010872
 21
-20.9037192611
  0
LINE
  5
2DE
100
AcDbEntity
  8
RACCORDO
100
AcDbLine
 62
7
  6
CONTINUOUS
 10
21.5425405403
 20
-32.4906662051
 11
21.5425405403
 21
2.6992027247
  0
LINE
  5
2DF
100
AcDbEntity
  8
0
100
AcDbLine
 62
250
  6
CONTINUOUS
 10
43.7359803175
 20
13.3999404223
 11
44.5860214505
 21
13.1540664739
  0
LINE
  5
2E0
100
AcDbEntity
  8
ASSI
100
AcDbLine
 62
250
  6
CONTINUOUS
 10
43.7359803175
 20
13.3999404223
 11
44.5860214505
 21
13.1540664739
  0
LINE
  5
2E1
100
AcDbEntity
  8
0
100
AcDbLine
 62
7
  6
CONTINUOUS
 10
15.2845635225
 20
-27.4075054781
 11
15.3553562049
 21
-27.2848889557
  0
LINE
  5
2E2
100
AcDbEntity
  8
ASSI
100
AcDbLine
 62
7
  6
CONTINUOUS
 10
15.2845635225
 20
-27.4075054781
 11
15.3553562049
 21
-27.2848889557
  0
LINE
  5
2E3
100
AcDbEntity
  8
0
100
AcDbLine
 62
7
  6
CONTINUOUS
 10
15.6028435783
 20
-27.2644633895
 11
15.7089095955
 21
-27.080751659
  0
LINE
  5
2E4
100
AcDbEntity
  8
ASSI
100
AcDbLine
 62
7
  6
CONTINUOUS
 10
15.6028435783
 20
-27.2644633895
 11
15.7089095955
 21
-27.080751659
  0
LINE
  5
2E5
100
AcDbEntity
  8
0
100
AcDbLine
 62
7
  6
CONTINUOUS
 10
15.9563969689
 20
-27.0603260928
 11
16.0624629861
 21
-26.8766143623
  0
LINE
  5
2E6
100
AcDbEntity
  8
ASSI
100
AcDbLine
 62
7
  6
CONTINUOUS
 10
15.9563969689
 20
-27.0603260928
 11
16.0624629861
 21
-26.8766143623
  0
LINE
  5
2E7
100
AcDbEntity
  8
0
100
AcDbLine
 62
7
  6
CONTINUOUS
 10
16.3099503595
 20
-26.8561887962
 11
16.4160163767
 21
-26.6724770657
  0
LINE
  5
2E8
100
AcDbEntity
  8
ASSI
100
AcDbLine
 62
7
  6
CONTINUOUS
 10
16.3099503595
 20
-26.8561887962
 11
16.4160163767
 21
-26.6724770657
  0
LINE
  5
2E9
100
AcDbEntity
  8
0
100
AcDbLine
 62
7
  6
CONTINUOUS
 10
16.6635037501
 20
-26.6520514995
 11
16.7695697672
 21
-26.468339769
  0
LINE
  5
2EA
100
AcDbEntity
  8
ASSI
100
AcDbLine
 62
7
  6
CONTINUOUS
 10
16.6635037501
 20
-26.6520514995
 11
16.7695697672
 21
-26.468339769
  0
LINE
  5
2EB
100
AcDbEntity
  8
0
100
AcDbLine
 62
7
  6
CONTINUOUS
 10
17.0170571407
 20
-26.4479142029
 11
17.1231231578
 21
-26.2642024723
  0
LINE
  5
2EC
100
AcDbEntity
  8
ASSI
100
AcDbLine
 62
7
  6
CONTINUOUS
 10
17.0170571407
 20
-26.4479142029
 11
17.1231231578
 21
-26.2642024723
  0
LINE
  5
2ED
100
AcDbEntity
  8
SMUSSO
100
AcDbLine
 62
250
  6
CONTINUOUS
 10
39.9273168511
 20
10.4138210121
 11
40.6344236323
 21
11.6385658823
  0
LINE
  5
2EE
100
AcDbEntity
  8
0
100
AcDbLine
 62
7
  6
CONTINUOUS
 10
15.0281685014
 20
-27.2594662063
 11
17.2981395167
 21
-26.0793491112
  0
LINE
  5
2EF
100
AcDbEntity
  8
ASSI
100
AcDbLine
 62
7
  6
CONTINUOUS
 10
15.0281685014
 20
-27.2594662063
 11
17.2981395167
 21
-26.0793491112
  0
LINE
  5
2F0
100
AcDbEntity
  8
0
100
AcDbLine
 62
7
  6
CONTINUOUS
 10
17.3721866697
 20
-26.0449053151
 11
18.6825409253
 21
-25.5074429885
  0
LINE
  5
2F1
100
AcDbEntity
  8
ASSI
100
AcDbLine
 62
7
  6
CONTINUOUS
 10
17.3721866697
 20
-26.0449053151
 11
18.6825409253
 21
-25.5074429885
  0
LINE
  5
2F2
100
AcDbEntity
  8
SMUSSO
100
AcDbLine
 62
7
  6
CONTINUOUS
 10
39.9273168511
 20
10.4138210121
 11
-44.9254968913
 21
59.4067722115
  0
LINE
  5
2F3
100
AcDbEntity
  8
SMUSSO
100
AcDbLine
 62
7
  6
CONTINUOUS
 10
40.6344236323
 20
11.6385658823
 11
-44.2183901101
 21
60.6315170816
  0
LINE
  5
2F4
100
AcDbEntity
  8
0
100
AcDbLine
 62
7
  6
CONTINUOUS
 10
19.1736508191
 20
-29.6530157414
 11
19.2444435014
 21
-29.530399219
  0
LINE
  5
2F5
100
AcDbEntity
  8
ASSI
100
AcDbLine
 62
7
  6
CONTINUOUS
 10
19.1736508191
 20
-29.6530157414
 11
19.2444435014
 21
-29.530399219
  0
LINE
  5
2F6
100
AcDbEntity
  8
0
100
AcDbLine
 62
7
  6
CONTINUOUS
 10
19.4919308748
 20
-29.5099736528
 11
19.597996892
 21
-29.3262619223
  0
LINE
  5
2F7
100
AcDbEntity
  8
ASSI
100
AcDbLine
 62
7
  6
CONTINUOUS
 10
19.4919308748
 20
-29.5099736528
 11
19.597996892
 21
-29.3262619223
  0
LINE
  5
2F8
100
AcDbEntity
  8
0
100
AcDbLine
 62
7
  6
CONTINUOUS
 10
19.8454842654
 20
-29.3058363561
 11
19.9515502826
 21
-29.1221246256
  0
LINE
  5
2F9
100
AcDbEntity
  8
ASSI
100
AcDbLine
 62
7
  6
CONTINUOUS
 10
19.8454842654
 20
-29.3058363561
 11
19.9515502826
 21
-29.1221246256
  0
LINE
  5
2FA
100
AcDbEntity
  8
0
100
AcDbLine
 62
7
  6
CONTINUOUS
 10
20.199037656
 20
-29.1016990595
 11
20.3051036732
 21
-28.917987329
  0
LINE
  5
2FB
100
AcDbEntity
  8
ASSI
100
AcDbLine
 62
7
  6
CONTINUOUS
 10
20.199037656
 20
-29.1016990595
 11
20.3051036732
 21
-28.917987329
  0
LINE
  5
2FC
100
AcDbEntity
  8
0
100
AcDbLine
 62
7
  6
CONTINUOUS
 10
20.5525910466
 20
-28.8975617628
 11
20.6586570638
 21
-28.7138500323
  0
LINE
  5
2FD
100
AcDbEntity
  8
ASSI
100
AcDbLine
 62
7
  6
CONTINUOUS
 10
20.5525910466
 20
-28.8975617628
 11
20.6586570638
 21
-28.7138500323
  0
LINE
  5
2FE
100
AcDbEntity
  8
0
100
AcDbLine
 62
7
  6
CONTINUOUS
 10
20.9061444372
 20
-28.6934244662
 11
21.0122104544
 21
-28.5097127356
  0
LINE
  5
2FF
100
AcDbEntity
  8
ASSI
100
AcDbLine
 62
7
  6
CONTINUOUS
 10
20.9061444372
 20
-28.6934244662
 11
21.0122104544
 21
-28.5097127356
  0
LINE
  5
300
100
AcDbEntity
  8
0
100
AcDbLine
 62
250
  6
CONTINUOUS
 10
20.8465179893
 20
-29.5586215586
 11
21.1824629542
 21
-29.2318679688
  0
LINE
  5
301
100
AcDbEntity
  8
ASSI
100
AcDbLine
 62
250
  6
CONTINUOUS
 10
20.8465179893
 20
-29.5586215586
 11
21.1824629542
 21
-29.2318679688
  0
LINE
  5
302
100
AcDbEntity
  8
0
100
AcDbLine
 62
7
  6
CONTINUOUS
 10
20.850442884
 20
-29.5921567232
 11
21.2794272275
 21
-29.1749092903
  0
LINE
  5
303
100
AcDbEntity
  8
ASSI
100
AcDbLine
 62
7
  6
CONTINUOUS
 10
20.850442884
 20
-29.5921567232
 11
21.2794272275
 21
-29.1749092903
  0
LINE
  5
304
100
AcDbEntity
  8
0
100
AcDbLine
 62
7
  6
CONTINUOUS
 10
21.544476775
 20
-28.531131025
 11
19.5005856924
 21
-29.8417838398
  0
LINE
  5
305
100
AcDbEntity
  8
ASSI
100
AcDbLine
 62
7
  6
CONTINUOUS
 10
21.544476775
 20
-28.531131025
 11
19.5005856924
 21
-29.8417838398
  0
LINE
  5
306
100
AcDbEntity
  8
0
100
AcDbLine
 62
7
  6
CONTINUOUS
 10
19.8251469895
 20
-30.0291814651
 11
21.5425405403
 21
-29.0203514712
  0
LINE
  5
307
100
AcDbEntity
  8
ASSI
100
AcDbLine
 62
7
  6
CONTINUOUS
 10
19.8251469895
 20
-30.0291814651
 11
21.5425405403
 21
-29.0203514712
  0
LINE
  5
308
100
AcDbEntity
  8
0
100
AcDbLine
 62
7
  6
CONTINUOUS
 10
20.7918285342
 20
-29.6366207483
 11
19.9705716037
 21
-30.1131478147
  0
LINE
  5
309
100
AcDbEntity
  8
ASSI
100
AcDbLine
 62
7
  6
CONTINUOUS
 10
20.7918285342
 20
-29.6366207483
 11
19.9705716037
 21
-30.1131478147
  0
LINE
  5
30A
100
AcDbEntity
  8
0
100
AcDbLine
 62
250
  6
CONTINUOUS
 10
20.8465179893
 20
-29.5586215586
 11
19.9303036639
 21
-30.0898976109
  0
LINE
  5
30B
100
AcDbEntity
  8
ASSI
100
AcDbLine
 62
250
  6
CONTINUOUS
 10
20.8465179893
 20
-29.5586215586
 11
19.9303036639
 21
-30.0898976109
  0
LINE
  5
30C
100
AcDbEntity
  8
0
100
AcDbLine
 62
7
  6
CONTINUOUS
 10
15.3553562049
 20
-27.2848889557
 11
15.4967775611
 21
-27.203234037
  0
LINE
  5
30D
100
AcDbEntity
  8
ASSI
100
AcDbLine
 62
7
  6
CONTINUOUS
 10
15.3553562049
 20
-27.2848889557
 11
15.4967775611
 21
-27.203234037
  0
LINE
  5
30E
100
AcDbEntity
  8
0
100
AcDbLine
 62
7
  6
CONTINUOUS
 10
15.7089095955
 20
-27.080751659
 11
15.8503309517
 21
-26.9990967403
  0
LINE
  5
30F
100
AcDbEntity
  8
ASSI
100
AcDbLine
 62
7
  6
CONTINUOUS
 10
15.7089095955
 20
-27.080751659
 11
15.8503309517
 21
-26.9990967403
  0
LINE
  5
310
100
AcDbEntity
  8
0
100
AcDbLine
 62
7
  6
CONTINUOUS
 10
16.0624629861
 20
-26.8766143623
 11
16.2038843423
 21
-26.7949594437
  0
LINE
  5
311
100
AcDbEntity
  8
ASSI
100
AcDbLine
 62
7
  6
CONTINUOUS
 10
16.0624629861
 20
-26.8766143623
 11
16.2038843423
 21
-26.7949594437
  0
LINE
  5
312
100
AcDbEntity
  8
0
100
AcDbLine
 62
7
  6
CONTINUOUS
 10
16.4160163767
 20
-26.6724770657
 11
16.5574377329
 21
-26.590822147
  0
LINE
  5
313
100
AcDbEntity
  8
ASSI
100
AcDbLine
 62
7
  6
CONTINUOUS
 10
16.4160163767
 20
-26.6724770657
 11
16.5574377329
 21
-26.590822147
  0
LINE
  5
314
100
AcDbEntity
  8
0
100
AcDbLine
 62
7
  6
CONTINUOUS
 10
16.7695697672
 20
-26.468339769
 11
16.9109911235
 21
-26.3866848503
  0
LINE
  5
315
100
AcDbEntity
  8
ASSI
100
AcDbLine
 62
7
  6
CONTINUOUS
 10
16.7695697672
 20
-26.468339769
 11
16.9109911235
 21
-26.3866848503
  0
LINE
  5
316
100
AcDbEntity
  8
0
100
AcDbLine
 62
7
  6
CONTINUOUS
 10
17.1231231578
 20
-26.2642024723
 11
17.2645445141
 21
-26.1825475537
  0
LINE
  5
317
100
AcDbEntity
  8
ASSI
100
AcDbLine
 62
7
  6
CONTINUOUS
 10
17.1231231578
 20
-26.2642024723
 11
17.2645445141
 21
-26.1825475537
  0
LINE
  5
318
100
AcDbEntity
  8
0
100
AcDbLine
 62
7
  6
CONTINUOUS
 10
19.2444435014
 20
-29.530399219
 11
19.3858648576
 21
-29.4487443003
  0
LINE
  5
319
100
AcDbEntity
  8
ASSI
100
AcDbLine
 62
7
  6
CONTINUOUS
 10
19.2444435014
 20
-29.530399219
 11
19.3858648576
 21
-29.4487443003
  0
LINE
  5
31A
100
AcDbEntity
  8
0
100
AcDbLine
 62
7
  6
CONTINUOUS
 10
19.597996892
 20
-29.3262619223
 11
19.7394182482
 21
-29.2446070036
  0
LINE
  5
31B
100
AcDbEntity
  8
ASSI
100
AcDbLine
 62
7
  6
CONTINUOUS
 10
19.597996892
 20
-29.3262619223
 11
19.7394182482
 21
-29.2446070036
  0
LINE
  5
31C
100
AcDbEntity
  8
0
100
AcDbLine
 62
7
  6
CONTINUOUS
 10
19.9515502826
 20
-29.1221246256
 11
20.0929716388
 21
-29.040469707
  0
LINE
  5
31D
100
AcDbEntity
  8
ASSI
100
AcDbLine
 62
7
  6
CONTINUOUS
 10
19.9515502826
 20
-29.1221246256
 11
20.0929716388
 21
-29.040469707
  0
LINE
  5
31E
100
AcDbEntity
  8
0
100
AcDbLine
 62
7
  6
CONTINUOUS
 10
20.3051036732
 20
-28.917987329
 11
20.4465250294
 21
-28.8363324103
  0
LINE
  5
31F
100
AcDbEntity
  8
ASSI
100
AcDbLine
 62
7
  6
CONTINUOUS
 10
20.3051036732
 20
-28.917987329
 11
20.4465250294
 21
-28.8363324103
  0
LINE
  5
320
100
AcDbEntity
  8
0
100
AcDbLine
 62
7
  6
CONTINUOUS
 10
20.6586570638
 20
-28.7138500323
 11
20.80007842
 21
-28.6321951136
  0
LINE
  5
321
100
AcDbEntity
  8
ASSI
100
AcDbLine
 62
7
  6
CONTINUOUS
 10
20.6586570638
 20
-28.7138500323
 11
20.80007842
 21
-28.6321951136
  0
LINE
  5
322
100
AcDbEntity
  8
0
100
AcDbLine
 62
7
  6
CONTINUOUS
 10
21.0122104544
 20
-28.5097127356
 11
21.1536318106
 21
-28.428057817
  0
LINE
  5
323
100
AcDbEntity
  8
ASSI
100
AcDbLine
 62
7
  6
CONTINUOUS
 10
21.0122104544
 20
-28.5097127356
 11
21.1536318106
 21
-28.428057817
  0
LINE
  5
324
100
AcDbEntity
  8
0
100
AcDbLine
 62
7
  6
CONTINUOUS
 10
21.2596978278
 20
-28.4892871695
 11
19.2089207452
 21
-29.6733801547
  0
LINE
  5
325
100
AcDbEntity
  8
ASSI
100
AcDbLine
 62
7
  6
CONTINUOUS
 10
21.2596978278
 20
-28.4892871695
 11
19.2089207452
 21
-29.6733801547
  0
LINE
  5
326
100
AcDbEntity
  8
SMUSSO
100
AcDbLine
 62
7
  6
CONTINUOUS
 10
-43.1577299383
 20
61.2439289716
 11
42.0486371947
 21
12.0468799305
  0
LINE
  5
327
100
AcDbEntity
  8
0
100
AcDbLine
 62
7
  6
CONTINUOUS
 10
-40.1526338141
 20
61.836044551
 11
43.7104458262
 21
13.4145534179
  0
LINE
  5
328
100
AcDbEntity
  8
ASSI
100
AcDbLine
 62
7
  6
CONTINUOUS
 10
-40.1526338141
 20
61.836044551
 11
43.7104458262
 21
13.4145534179
  0
LINE
  5
329
100
AcDbEntity
  8
0
100
AcDbLine
 62
7
  6
CONTINUOUS
 10
-38.9068890947
 20
61.3618266108
 11
44.5860214505
 21
13.1540664739
  0
LINE
  5
32A
100
AcDbEntity
  8
ASSI
100
AcDbLine
 62
7
  6
CONTINUOUS
 10
-38.9068890947
 20
61.3618266108
 11
44.5860214505
 21
13.1540664739
  0
LINE
  5
32B
100
AcDbEntity
  8
SMUSSO
100
AcDbLine
 62
7
  6
CONTINUOUS
 10
39.9273168511
 20
-61.4355633456
 11
39.9273168511
 21
10.4138210121
  0
LINE
  5
32C
100
AcDbEntity
  8
SMUSSO
100
AcDbLine
 62
7
  6
CONTINUOUS
 10
41.3415304135
 20
-61.4355633456
 11
41.3415304135
 21
10.4138210121
  0
LINE
  5
32D
100
AcDbEntity
  8
0
100
AcDbLine
 62
250
  6
CONTINUOUS
 10
44.4175577035
 20
12.2194137616
 11
44.629576946
 21
13.0786261428
  0
LINE
  5
32E
100
AcDbEntity
  8
ASSI
100
AcDbLine
 62
250
  6
CONTINUOUS
 10
44.4175577035
 20
12.2194137616
 11
44.629576946
 21
13.0786261428
  0
LINE
  5
32F
100
AcDbEntity
  8
RACCORDO
100
AcDbLine
 62
250
  6
CONTINUOUS
 10
20.6940124028
 20
-32.9805010253
 11
21.5424995362
 21
-32.4905951885
  0
LINE
  5
330
100
AcDbEntity
  8
SMUSSO
100
AcDbLine
 62
7
  6
CONTINUOUS
 10
42.4021905853
 20
11.4345074955
 11
42.4021905853
 21
-60.8231514556
  0
LINE
  5
331
100
AcDbEntity
  8
0
100
AcDbLine
 62
250
  6
CONTINUOUS
 10
42.7628876237
 20
-53.6770525403
 11
42.7628876237
 21
-53.3532632897
  0
LINE
  5
332
100
AcDbEntity
  8
0
100
AcDbLine
 62
250
  6
CONTINUOUS
 10
42.7629668268
 20
-50.7551413791
 11
42.7629668268
 21
-51.0683687702
  0
LINE
  5
333
100
AcDbEntity
  8
0
100
AcDbLine
 62
250
  6
CONTINUOUS
 10
42.7629668268
 20
-51.7508089193
 11
42.7629668268
 21
-52.0711673618
  0
LINE
  5
334
100
AcDbEntity
  8
0
100
AcDbLine
 62
250
  6
CONTINUOUS
 10
42.7629668268
 20
-52.7153264855
 11
42.7629668268
 21
-53.0388479339
  0
LINE
  5
335
100
AcDbEntity
  8
0
100
AcDbLine
 62
250
  6
CONTINUOUS
 10
42.7629668268
 20
-53.7971642987
 11
42.7629668268
 21
-54.1207322859
  0
LINE
  5
336
100
AcDbEntity
  8
0
100
AcDbLine
 62
250
  6
CONTINUOUS
 10
42.7629668268
 20
-54.7211261533
 11
42.7629668268
 21
-55.0728615486
  0
LINE
  5
337
100
AcDbEntity
  8
0
100
AcDbLine
 62
250
  6
CONTINUOUS
 10
43.3501830903
 20
-49.5212762111
 11
43.3501830903
 21
-49.3362337122
  0
LINE
  5
338
100
AcDbEntity
  8
0
100
AcDbLine
 62
250
  6
CONTINUOUS
 10
43.5663581465
 20
-49.2076800875
 11
43.5663581465
 21
-49.3812882907
  0
LINE
  5
339
100
AcDbEntity
  8
0
100
AcDbLine
 62
250
  6
CONTINUOUS
 10
43.6155022332
 20
-50.2593203998
 11
43.6155022332
 21
-50.5693259992
  0
LINE
  5
33A
100
AcDbEntity
  8
0
100
AcDbLine
 62
250
  6
CONTINUOUS
 10
43.819403711
 20
-50.5136457373
 11
43.819403711
 21
-50.0726979008
  0
LINE
  5
33B
100
AcDbEntity
  8
0
100
AcDbLine
 62
250
  6
CONTINUOUS
 10
44.0829117873
 20
-53.7919132698
 11
44.0829117873
 21
-53.5065732375
  0
LINE
  5
33C
100
AcDbEntity
  8
0
100
AcDbLine
 62
250
  6
CONTINUOUS
 10
44.0829117873
 20
-52.3897112988
 11
44.0829117873
 21
-52.0799506405
  0
LINE
  5
33D
100
AcDbEntity
  8
0
100
AcDbLine
 62
250
  6
CONTINUOUS
 10
44.0829117873
 20
-51.6302322803
 11
44.0829117873
 21
-51.58482102
  0
LINE
  5
33E
100
AcDbEntity
  8
0
100
AcDbLine
 62
250
  6
CONTINUOUS
 10
44.0829117873
 20
-51.133311324
 11
44.0829117873
 21
-50.8165592307
  0
LINE
  5
33F
100
AcDbEntity
  8
0
100
AcDbLine
 62
250
  6
CONTINUOUS
 10
44.0829117873
 20
-50.7657159936
 11
44.0829117873
 21
-50.4454391981
  0
LINE
  5
340
100
AcDbEntity
  8
0
100
AcDbLine
 62
250
  6
CONTINUOUS
 10
44.0829117873
 20
-49.8312673947
 11
44.0829117873
 21
-49.4900064967
  0
LINE
  5
341
100
AcDbEntity
  8
0
100
AcDbLine
 62
250
  6
CONTINUOUS
 10
44.0829116108
 20
-48.2651529565
 11
44.0829116108
 21
-48.5766008385
  0
LINE
  5
342
100
AcDbEntity
  8
0
100
AcDbLine
 62
250
  6
CONTINUOUS
 10
44.0829116108
 20
-49.072439825
 11
44.0829116108
 21
-49.3949265134
  0
LINE
  5
343
100
AcDbEntity
  8
0
100
AcDbLine
 62
250
  6
CONTINUOUS
 10
44.0829117873
 20
-52.5640179053
 11
44.0829117873
 21
-52.8878071559
  0
LINE
  5
344
100
AcDbEntity
  8
0
100
AcDbLine
 62
7
  6
CONTINUOUS
 10
44.4174449116
 20
12.1899950824
 11
44.4174449116
 21
-58.5165795926
  0
LINE
  5
345
100
AcDbEntity
  8
ASSI
100
AcDbLine
 62
7
  6
CONTINUOUS
 10
44.4174449116
 20
12.1899950824
 11
44.4174449116
 21
-58.5165795926
  0
LINE
  5
346
100
AcDbEntity
  8
0
100
AcDbLine
 62
7
  6
CONTINUOUS
 10
44.629576946
 20
13.0786261428
 11
44.629576946
 21
-57.200527849
  0
LINE
  5
347
100
AcDbEntity
  8
ASSI
100
AcDbLine
 62
7
  6
CONTINUOUS
 10
44.629576946
 20
13.0786261428
 11
44.629576946
 21
-57.200527849
  0
LINE
  5
348
100
AcDbEntity
  8
0
100
AcDbLine
 62
250
  6
CONTINUOUS
 10
-40.1770403867
 20
61.8502668997
 11
-38.9068890947
 21
61.3618266108
  0
LINE
  5
349
100
AcDbEntity
  8
ASSI
100
AcDbLine
 62
250
  6
CONTINUOUS
 10
-40.1770403867
 20
61.8502668997
 11
-38.9068890947
 21
61.3618266108
  0
LINE
  5
34A
100
AcDbEntity
  8
0
100
AcDbLine
 62
7
  6
CONTINUOUS
 10
-38.913914868
 20
61.3652377317
 11
-40.2810405121
 21
61.9013155645
  0
LINE
  5
34B
100
AcDbEntity
  8
ASSI
100
AcDbLine
 62
7
  6
CONTINUOUS
 10
-38.913914868
 20
61.3652377317
 11
-40.2810405121
 21
61.9013155645
  0
LINE
  5
34C
100
AcDbEntity
  8
0
100
AcDbLine
 62
7
  6
CONTINUOUS
 10
44.629018522
 20
-57.2083135805
 11
44.409771766
 21
-58.6603523094
  0
LINE
  5
34D
100
AcDbEntity
  8
ASSI
100
AcDbLine
 62
7
  6
CONTINUOUS
 10
44.629018522
 20
-57.2083135805
 11
44.409771766
 21
-58.6603523094
  0
LINE
  5
34E
100
AcDbEntity
  8
0
100
AcDbLine
 62
250
  6
CONTINUOUS
 10
44.4175577035
 20
-58.544826029
 11
44.629576946
 21
-57.200527849
  0
LINE
  5
34F
100
AcDbEntity
  8
ASSI
100
AcDbLine
 62
250
  6
CONTINUOUS
 10
44.4175577035
 20
-58.544826029
 11
44.629576946
 21
-57.200527849
  0
LINE
  5
350
100
AcDbEntity
  8
0
100
AcDbLine
 62
250
  6
CONTINUOUS
 10
44.0829117873
 20
-49.4900064967
 11
42.7629668268
 21
-50.7551413791
  0
LINE
  5
351
100
AcDbEntity
  8
0
100
AcDbLine
 62
250
  6
CONTINUOUS
 10
43.819403711
 20
-50.0726979008
 11
44.0829117873
 21
-49.8312673947
  0
LINE
  5
352
100
AcDbEntity
  8
0
100
AcDbLine
 62
250
  6
CONTINUOUS
 10
43.1256538803
 20
-50.7009871985
 11
43.6155022332
 21
-50.2593203998
  0
LINE
  5
353
100
AcDbEntity
  8
0
100
AcDbLine
 62
250
  6
CONTINUOUS
 10
44.0829117873
 20
-50.8165592307
 11
42.7629668268
 21
-51.7508089193
  0
LINE
  5
354
100
AcDbEntity
  8
0
100
AcDbLine
 62
250
  6
CONTINUOUS
 10
43.4589733853
 20
-48.9355335947
 11
43.466773108
 21
-48.9308701231
  0
LINE
  5
355
100
AcDbEntity
  8
0
100
AcDbLine
 62
250
  6
CONTINUOUS
 10
43.5663581465
 20
-49.3812882907
 11
44.0829116108
 21
-49.072439825
  0
LINE
  5
356
100
AcDbEntity
  8
0
100
AcDbLine
 62
250
  6
CONTINUOUS
 10
42.9878325198
 20
-49.7379264234
 11
43.3501830903
 21
-49.5212762111
  0
LINE
  5
357
100
AcDbEntity
  8
0
100
AcDbLine
 62
250
  6
CONTINUOUS
 10
44.0829116108
 20
-49.3949265134
 11
42.7783881887
 21
-50.1749039699
  0
LINE
  5
358
100
AcDbEntity
  8
0
100
AcDbLine
 62
250
  6
CONTINUOUS
 10
44.0829117873
 20
-52.0799506405
 11
43.2210123491
 21
-52.5254078895
  0
LINE
  5
359
100
AcDbEntity
  8
0
100
AcDbLine
 62
250
  6
CONTINUOUS
 10
42.7629668268
 20
-53.0388479339
 11
44.0829117873
 21
-52.3897112988
  0
LINE
  5
35A
100
AcDbEntity
  8
0
100
AcDbLine
 62
250
  6
CONTINUOUS
 10
43.2210123491
 20
-52.5254078895
 11
44.0829117873
 21
-51.6302322803
  0
LINE
  5
35B
100
AcDbEntity
  8
0
100
AcDbLine
 62
250
  6
CONTINUOUS
 10
43.4958040906
 20
-51.9567915819
 11
42.7629668268
 21
-52.7153264855
  0
LINE
  5
35C
100
AcDbEntity
  8
0
100
AcDbLine
 62
250
  6
CONTINUOUS
 10
42.7629668268
 20
-55.0728615486
 11
44.0829117873
 21
-53.7919132698
  0
LINE
  5
35D
100
AcDbEntity
  8
0
100
AcDbLine
 62
250
  6
CONTINUOUS
 10
43.6715259329
 20
-53.8822160139
 11
42.7629668268
 21
-54.7211261533
  0
LINE
  5
35E
100
AcDbEntity
  8
0
100
AcDbLine
 62
250
  6
CONTINUOUS
 10
43.2246056695
 20
-51.7130180102
 11
44.0829117873
 21
-51.133311324
  0
LINE
  5
35F
100
AcDbEntity
  8
0
100
AcDbLine
 62
250
  6
CONTINUOUS
 10
42.4026287711
 20
-59.7625721168
 11
44.4174449116
 21
-58.5165795926
  0
LINE
  5
360
100
AcDbEntity
  8
ASSI
100
AcDbLine
 62
250
  6
CONTINUOUS
 10
42.4026287711
 20
-59.7625721168
 11
44.4174449116
 21
-58.5165795926
  0
LINE
  5
361
100
AcDbEntity
  8
0
100
AcDbLine
 62
7
  6
CONTINUOUS
 10
42.4021905853
 20
-60.0926763965
 11
44.232499047
 21
-58.9607861886
  0
LINE
  5
362
100
AcDbEntity
  8
ASSI
100
AcDbLine
 62
7
  6
CONTINUOUS
 10
42.4021905853
 20
-60.0926763965
 11
44.232499047
 21
-58.9607861886
  0
LINE
  5
363
100
AcDbEntity
  8
0
100
AcDbLine
 62
250
  6
CONTINUOUS
 10
42.7628876237
 20
-53.3532632897
 11
44.0829117873
 21
-52.5640179053
  0
LINE
  5
364
100
AcDbEntity
  8
0
100
AcDbLine
 62
250
  6
CONTINUOUS
 10
44.0829117873
 20
-52.8878071559
 11
42.7628876237
 21
-53.6770525403
  0
LINE
  5
365
100
AcDbEntity
  8
SMUSSO
100
AcDbLine
 62
250
  6
CONTINUOUS
 10
41.3415304135
 20
-61.4355633456
 11
42.4021905853
 21
-60.8231514556
  0
LINE
  5
366
100
AcDbEntity
  8
RACCORDO
100
AcDbLine
 62
7
  6
CONTINUOUS
 10
41.1344477924
 20
-61.8933002068
 11
42.1951079642
 21
-61.2808883168
  0
ARC
  5
367
100
AcDbEntity
  8
0
100
AcDbCircle
 62
7
  6
CONTINUOUS
 10
-11.1786960215
 20
-11.0046161027
 40
0.3
100
AcDbArc
 50
300.1089928496
 51
314.2001404346
  0
ARC
  5
368
100
AcDbEntity
  8
ASSI
100
AcDbCircle
 62
7
  6
CONTINUOUS
 10
-11.1786960215
 20
-11.0046161027
 40
0.3
100
AcDbArc
 50
300.1089929463
 51
314.2001404338
  0
ARC
  5
369
100
AcDbEntity
  8
0
100
AcDbCircle
 62
250
  6
CONTINUOUS
 10
-11.1379017492
 20
-11.1424361698
 40
0.1703493928
100
AcDbArc
 50
339.0197933377
 51
345.090855298
  0
ARC
  5
36A
100
AcDbEntity
  8
ASSI
100
AcDbCircle
 62
250
  6
CONTINUOUS
 10
-11.1379017492
 20
-11.1424361698
 40
0.1703493928
100
AcDbArc
 50
339.0197933408
 51
345.090855298
  0
ARC
  5
36B
100
AcDbEntity
  8
0
100
AcDbCircle
 62
250
  6
CONTINUOUS
 10
-11.0780551201
 20
-11.1779292656
 40
0.099807608
100
AcDbArc
 50
300.1159498033
 51
302.5096246036
  0
ARC
  5
36C
100
AcDbEntity
  8
ASSI
100
AcDbCircle
 62
250
  6
CONTINUOUS
 10
-11.0780551201
 20
-11.1779292656
 40
0.099807608
100
AcDbArc
 50
300.1159498036
 51
302.5096245977
  0
ARC
  5
36D
100
AcDbEntity
  8
0
100
AcDbCircle
 62
7
  6
CONTINUOUS
 10
20.6411091319
 20
-29.3769728024
 40
0.3
100
AcDbArc
 50
300.1089928496
 51
314.2001404346
  0
ARC
  5
36E
100
AcDbEntity
  8
ASSI
100
AcDbCircle
 62
7
  6
CONTINUOUS
 10
20.6411091319
 20
-29.3769728024
 40
0.3
100
AcDbArc
 50
300.1089929463
 51
314.2001404338
  0
ARC
  5
36F
100
AcDbEntity
  8
0
100
AcDbCircle
 62
250
  6
CONTINUOUS
 10
20.6819034042
 20
-29.5147928696
 40
0.1703493928
100
AcDbArc
 50
339.0197933377
 51
345.090855298
  0
ARC
  5
370
100
AcDbEntity
  8
ASSI
100
AcDbCircle
 62
250
  6
CONTINUOUS
 10
20.6819034042
 20
-29.5147928696
 40
0.1703493928
100
AcDbArc
 50
339.0197933407
 51
345.090855298
  0
ARC
  5
371
100
AcDbEntity
  8
0
100
AcDbCircle
 62
250
  6
CONTINUOUS
 10
20.7417500333
 20
-29.5502859653
 40
0.099807608
100
AcDbArc
 50
300.1159498034
 51
302.5096246036
  0
ARC
  5
372
100
AcDbEntity
  8
ASSI
100
AcDbCircle
 62
250
  6
CONTINUOUS
 10
20.7417500333
 20
-29.5502859653
 40
0.099807608
100
AcDbArc
 50
300.1159498037
 51
302.5096245979
  0
ARC
  5
373
100
AcDbEntity
  8
0
100
AcDbCircle
 62
7
  6
CONTINUOUS
 10
6.7188184009
 20
-18.9896988976
 40
0.1779620607
100
AcDbArc
 50
303.7143364849
 51
315.9708985531
  0
ARC
  5
374
100
AcDbEntity
  8
ASSI
100
AcDbCircle
 62
7
  6
CONTINUOUS
 10
6.7188184009
 20
-18.9896988976
 40
0.1779620607
100
AcDbArc
 50
303.7143364849
 51
315.9708985531
  0
SPLINE
  5
375
100
AcDbEntity
  8
0
100
AcDbSpline
 62
7
  6
CONTINUOUS
 70
0
 71
3
 72
10
 73
6
 74
0
 42
0.0000001
 43
0.0000001
 44
0.0000000001
 40
0.0
 40
0.0
 40
0.0
 40
0.0
 40
0.5286692283
 40
0.7680002507
 40
1.0
 40
1.0
 40
1.0
 40
1.0
 10
-40.2810396867
 20
61.9013069154
 30
0.0
 10
-40.3398925817
 20
61.9243951854
 30
0.0
 10
-40.4324328422
 20
61.9457703754
 30
0.0
 10
-40.5521406398
 20
61.9315791392
 30
0.0
 10
-40.6054377638
 20
61.9111305532
 30
0.0
 10
-40.6298712619
 20
61.8979895015
 30
0.0
  0
SPLINE
  5
376
100
AcDbEntity
  8
0
100
AcDbSpline
 62
7
  6
CONTINUOUS
 70
0
 71
3
 72
10
 73
6
 74
0
 42
0.0000001
 43
0.0000001
 44
0.0000000001
 40
0.0
 40
0.0
 40
0.0
 40
0.0
 40
0.2319999843
 40
0.471331071
 40
1.0
 40
1.0
 40
1.0
 40
1.0
 10
44.2324967914
 20
-58.9607833003
 30
0.0
 10
44.2560923711
 20
-58.9461930087
 30
0.0
 10
44.3004463545
 20
-58.9102595443
 30
0.0
 10
44.3725828044
 20
-58.8136852031
 30
0.0
 10
44.4003363014
 20
-58.7228575717
 30
0.0
 10
44.4097646796
 20
-58.6603472644
 30
0.0
  0
SPLINE
  5
377
100
AcDbEntity
  8
0
100
AcDbSpline
 62
7
  6
CONTINUOUS
 70
0
 71
3
 72
9
 73
5
 74
0
 42
0.0000001
 43
0.0000001
 44
0.0000000001
 40
0.0
 40
0.0
 40
0.0
 40
0.0
 40
0.5018288403
 40
1.0
 40
1.0
 40
1.0
 40
1.0
 10
5.0518477385
 20
-20.3518599839
 30
0.0
 10
5.0946671339
 20
-20.3270258213
 30
0.0
 10
5.1757545164
 20
-20.2701726777
 30
0.0
 10
5.2497410027
 20
-20.2047099236
 30
0.0
 10
5.2849661071
 20
-20.1704485698
 30
0.0
  0
SPLINE
  5
378
100
AcDbEntity
  8
0
100
AcDbSpline
 62
7
  6
CONTINUOUS
 70
0
 71
3
 72
9
 73
5
 74
0
 42
0.0000001
 43
0.0000001
 44
0.0000000001
 40
0.0
 40
0.0
 40
0.0
 40
0.0
 40
0.4988041848
 40
1.0
 40
1.0
 40
1.0
 40
1.0
 10
6.8467707876
 20
-19.1133867377
 30
0.0
 10
6.8621039894
 20
-19.0974959407
 30
0.0
 10
6.8870731697
 20
-19.0592936157
 30
0.0
 10
6.8947191076
 20
-19.0144467958
 30
0.0
 10
6.8947066597
 20
-18.9922586995
 30
0.0
  0
SPLINE
  5
379
100
AcDbEntity
  8
0
100
AcDbSpline
 62
250
  6
CONTINUOUS
 70
0
 71
3
 72
9
 73
5
 74
0
 42
0.0000001
 43
0.0000001
 44
0.0000000001
 40
0.0
 40
0.0
 40
0.0
 40
0.0
 40
0.4797909424
 40
1.0
 40
1.0
 40
1.0
 40
1.0
 10
-11.0244143921
 20
-11.2620971389
 30
0.0
 10
-11.01426445
 20
-11.2556286915
 30
0.0
 10
-10.9954964012
 20
-11.2381125653
 30
0.0
 10
-10.9835338182
 20
-11.2156076355
 30
0.0
 10
-10.9788458105
 20
-11.2034289887
 30
0.0
  0
SPLINE
  5
37A
100
AcDbEntity
  8
0
100
AcDbSpline
 62
250
  6
CONTINUOUS
 70
0
 71
3
 72
9
 73
5
 74
0
 42
0.0000001
 43
0.0000001
 44
0.0000000001
 40
0.0
 40
0.0
 40
0.0
 40
0.0
 40
0.4797909424
 40
1.0
 40
1.0
 40
1.0
 40
1.0
 10
20.7953907613
 20
-29.6344538387
 30
0.0
 10
20.8055407034
 20
-29.6279853912
 30
0.0
 10
20.8243087522
 20
-29.6104692651
 30
0.0
 10
20.8362713352
 20
-29.5879643352
 30
0.0
 10
20.8409593429
 20
-29.5757856885
 30
0.0
  0
SPLINE
  5
37B
100
AcDbEntity
  8
0
100
AcDbSpline
 62
7
  6
CONTINUOUS
 70
0
 71
3
 72
9
 73
5
 74
0
 42
0.0000001
 43
0.0000001
 44
0.0000000001
 40
0.0
 40
0.0
 40
0.0
 40
0.0
 40
0.2420558041
 40
1.0
 40
1.0
 40
1.0
 40
1.0
 10
44.4097646796
 20
-58.6603472644
 30
0.0
 10
44.4111588023
 20
-58.6511042073
 30
0.0
 10
44.416084602
 20
-58.6127946683
 30
0.0
 10
44.4177965839
 20
-58.5740950051
 30
0.0
 10
44.4175577035
 20
-58.544826029
 30
0.0
  0
SPLINE
  5
37C
100
AcDbEntity
  8
0
100
AcDbSpline
 62
250
  6
CONTINUOUS
 70
0
 71
3
 72
10
 73
6
 74
0
 42
0.0000001
 43
0.0000001
 44
0.0000000001
 40
0.0
 40
0.0
 40
0.0
 40
0.0
 40
0.3605959684
 40
0.641534438
 40
1.0
 40
1.0
 40
1.0
 40
1.0
 10
20.8465179893
 20
-29.5586215586
 30
0.0
 10
20.8482329228
 20
-29.5624588618
 30
0.0
 10
20.8510296248
 20
-29.5695047472
 30
0.0
 10
20.8539800142
 20
-29.5804510927
 30
0.0
 10
20.8534362056
 20
-29.5892433027
 30
0.0
 10
20.8504418383
 20
-29.5921573263
 30
0.0
  0
SPLINE
  5
37D
100
AcDbEntity
  8
0
100
AcDbSpline
 62
250
  6
CONTINUOUS
 70
0
 71
3
 72
10
 73
6
 74
0
 42
0.0000001
 43
0.0000001
 44
0.0000000001
 40
0.0
 40
0.0
 40
0.0
 40
0.0
 40
0.3605959684
 40
0.641534438
 40
1.0
 40
1.0
 40
1.0
 40
1.0
 10
-10.9732871641
 20
-11.1862648589
 30
0.0
 10
-10.9715722306
 20
-11.1901021621
 30
0.0
 10
-10.9687755286
 20
-11.1971480474
 30
0.0
 10
-10.9658251392
 20
-11.208094393
 30
0.0
 10
-10.9663689478
 20
-11.216886603
 30
0.0
 10
-10.9693633151
 20
-11.2198006266
 30
0.0
  0
SPLINE
  5
37E
100
AcDbEntity
  8
0
100
AcDbSpline
 62
7
  6
CONTINUOUS
 70
0
 71
3
 72
11
 73
7
 74
0
 42
0.0000001
 43
0.0000001
 44
0.0000000001
 40
0.0
 40
0.0
 40
0.0
 40
0.0
 40
0.2395972798
 40
0.4999945239
 40
0.7603947422
 40
1.0
 40
1.0
 40
1.0
 40
1.0
 10
44.4175577035
 20
12.2194137616
 30
0.0
 10
44.4184089302
 20
12.3325576406
 30
0.0
 10
44.3801372168
 20
12.5693999859
 30
0.0
 10
44.2361121517
 20
12.9016660696
 30
0.0
 10
44.0203711505
 20
13.1925311651
 30
0.0
 10
43.8343932882
 20
13.3441013526
 30
0.0
 10
43.7359803175
 20
13.3999404223
 30
0.0
  0
SPLINE
  5
37F
100
AcDbEntity
  8
0
100
AcDbSpline
 62
7
  6
CONTINUOUS
 70
0
 71
3
 72
9
 73
5
 74
0
 42
0.0000001
 43
0.0000001
 44
0.0000000001
 40
0.0
 40
0.0
 40
0.0
 40
0.0
 40
0.2580992694
 40
1.0
 40
1.0
 40
1.0
 40
1.0
 10
-40.1770403867
 20
61.8502668997
 30
0.0
 10
-40.1856356928
 20
61.8553237383
 30
0.0
 10
-40.2192846864
 20
61.8743148847
 30
0.0
 10
-40.2543539785
 20
61.8908379854
 30
0.0
 10
-40.2810396867
 20
61.9013069154
 30
0.0
  0
SPLINE
  5
380
100
AcDbEntity
  8
ASSI
100
AcDbSpline
 62
7
  6
CONTINUOUS
 70
0
 71
3
 72
10
 73
6
 74
0
 42
0.0000001
 43
0.0000001
 44
0.0000000001
 40
0.0
 40
0.0
 40
0.0
 40
0.0
 40
0.5286692283
 40
0.7680002507
 40
1.0
 40
1.0
 40
1.0
 40
1.0
 10
-40.2810396867
 20
61.9013069154
 30
0.0
 10
-40.3398925817
 20
61.9243951854
 30
0.0
 10
-40.4324328422
 20
61.9457703754
 30
0.0
 10
-40.5521406398
 20
61.9315791392
 30
0.0
 10
-40.6054377638
 20
61.9111305532
 30
0.0
 10
-40.6298712619
 20
61.8979895015
 30
0.0
  0
SPLINE
  5
381
100
AcDbEntity
  8
ASSI
100
AcDbSpline
 62
7
  6
CONTINUOUS
 70
0
 71
3
 72
10
 73
6
 74
0
 42
0.0000001
 43
0.0000001
 44
0.0000000001
 40
0.0
 40
0.0
 40
0.0
 40
0.0
 40
0.2319999843
 40
0.471331071
 40
1.0
 40
1.0
 40
1.0
 40
1.0
 10
44.2324967914
 20
-58.9607833003
 30
0.0
 10
44.2560923711
 20
-58.9461930087
 30
0.0
 10
44.3004463545
 20
-58.9102595443
 30
0.0
 10
44.3725828044
 20
-58.8136852031
 30
0.0
 10
44.4003363014
 20
-58.7228575717
 30
0.0
 10
44.4097646796
 20
-58.6603472644
 30
0.0
  0
SPLINE
  5
382
100
AcDbEntity
  8
ASSI
100
AcDbSpline
 62
7
  6
CONTINUOUS
 70
0
 71
3
 72
9
 73
5
 74
0
 42
0.0000001
 43
0.0000001
 44
0.0000000001
 40
0.0
 40
0.0
 40
0.0
 40
0.0
 40
0.5018288403
 40
1.0
 40
1.0
 40
1.0
 40
1.0
 10
5.0518477385
 20
-20.3518599839
 30
0.0
 10
5.0946671339
 20
-20.3270258213
 30
0.0
 10
5.1757545164
 20
-20.2701726777
 30
0.0
 10
5.2497410027
 20
-20.2047099236
 30
0.0
 10
5.2849661071
 20
-20.1704485698
 30
0.0
  0
SPLINE
  5
383
100
AcDbEntity
  8
ASSI
100
AcDbSpline
 62
7
  6
CONTINUOUS
 70
0
 71
3
 72
9
 73
5
 74
0
 42
0.0000001
 43
0.0000001
 44
0.0000000001
 40
0.0
 40
0.0
 40
0.0
 40
0.0
 40
0.4988041848
 40
1.0
 40
1.0
 40
1.0
 40
1.0
 10
6.8467707876
 20
-19.1133867377
 30
0.0
 10
6.8621039894
 20
-19.0974959407
 30
0.0
 10
6.8870731697
 20
-19.0592936157
 30
0.0
 10
6.8947191076
 20
-19.0144467958
 30
0.0
 10
6.8947066597
 20
-18.9922586995
 30
0.0
  0
SPLINE
  5
384
100
AcDbEntity
  8
ASSI
100
AcDbSpline
 62
250
  6
CONTINUOUS
 70
0
 71
3
 72
9
 73
5
 74
0
 42
0.0000001
 43
0.0000001
 44
0.0000000001
 40
0.0
 40
0.0
 40
0.0
 40
0.0
 40
0.4797909424
 40
1.0
 40
1.0
 40
1.0
 40
1.0
 10
-11.0244143921
 20
-11.2620971389
 30
0.0
 10
-11.01426445
 20
-11.2556286915
 30
0.0
 10
-10.9954964012
 20
-11.2381125653
 30
0.0
 10
-10.9835338182
 20
-11.2156076355
 30
0.0
 10
-10.9788458105
 20
-11.2034289887
 30
0.0
  0
SPLINE
  5
385
100
AcDbEntity
  8
ASSI
100
AcDbSpline
 62
250
  6
CONTINUOUS
 70
0
 71
3
 72
9
 73
5
 74
0
 42
0.0000001
 43
0.0000001
 44
0.0000000001
 40
0.0
 40
0.0
 40
0.0
 40
0.0
 40
0.4797909424
 40
1.0
 40
1.0
 40
1.0
 40
1.0
 10
20.7953907613
 20
-29.6344538387
 30
0.0
 10
20.8055407034
 20
-29.6279853912
 30
0.0
 10
20.8243087522
 20
-29.6104692651
 30
0.0
 10
20.8362713352
 20
-29.5879643352
 30
0.0
 10
20.8409593429
 20
-29.5757856885
 30
0.0
  0
SPLINE
  5
386
100
AcDbEntity
  8
ASSI
100
AcDbSpline
 62
7
  6
CONTINUOUS
 70
0
 71
3
 72
9
 73
5
 74
0
 42
0.0000001
 43
0.0000001
 44
0.0000000001
 40
0.0
 40
0.0
 40
0.0
 40
0.0
 40
0.2420558041
 40
1.0
 40
1.0
 40
1.0
 40
1.0
 10
44.4097646796
 20
-58.6603472644
 30
0.0
 10
44.4111588023
 20
-58.6511042073
 30
0.0
 10
44.416084602
 20
-58.6127946683
 30
0.0
 10
44.4177965839
 20
-58.5740950051
 30
0.0
 10
44.4175577035
 20
-58.544826029
 30
0.0
  0
SPLINE
  5
387
100
AcDbEntity
  8
ASSI
100
AcDbSpline
 62
250
  6
CONTINUOUS
 70
0
 71
3
 72
10
 73
6
 74
0
 42
0.0000001
 43
0.0000001
 44
0.0000000001
 40
0.0
 40
0.0
 40
0.0
 40
0.0
 40
0.3605959681
 40
0.641534438
 40
1.0
 40
1.0
 40
1.0
 40
1.0
 10
20.8465179893
 20
-29.5586215586
 30
0.0
 10
20.8482329228
 20
-29.5624588618
 30
0.0
 10
20.8510296248
 20
-29.5695047471
 30
0.0
 10
20.8539800142
 20
-29.5804510927
 30
0.0
 10
20.8534362056
 20
-29.5892433027
 30
0.0
 10
20.8504418384
 20
-29.5921573263
 30
0.0
  0
SPLINE
  5
388
100
AcDbEntity
  8
ASSI
100
AcDbSpline
 62
250
  6
CONTINUOUS
 70
0
 71
3
 72
10
 73
6
 74
0
 42
0.0000001
 43
0.0000001
 44
0.0000000001
 40
0.0
 40
0.0
 40
0.0
 40
0.0
 40
0.3605959681
 40
0.641534438
 40
1.0
 40
1.0
 40
1.0
 40
1.0
 10
-10.9732871641
 20
-11.1862648589
 30
0.0
 10
-10.9715722306
 20
-11.1901021621
 30
0.0
 10
-10.9687755286
 20
-11.1971480474
 30
0.0
 10
-10.9658251392
 20
-11.208094393
 30
0.0
 10
-10.9663689478
 20
-11.216886603
 30
0.0
 10
-10.969363315
 20
-11.2198006266
 30
0.0
  0
SPLINE
  5
389
100
AcDbEntity
  8
ASSI
100
AcDbSpline
 62
7
  6
CONTINUOUS
 70
0
 71
3
 72
11
 73
7
 74
0
 42
0.0000001
 43
0.0000001
 44
0.0000000001
 40
0.0
 40
0.0
 40
0.0
 40
0.0
 40
0.2395972798
 40
0.4999945239
 40
0.7603947422
 40
1.0
 40
1.0
 40
1.0
 40
1.0
 10
44.4175577035
 20
12.2194137616
 30
0.0
 10
44.4184089302
 20
12.3325576406
 30
0.0
 10
44.3801372168
 20
12.5693999858
 30
0.0
 10
44.2361121517
 20
12.9016660696
 30
0.0
 10
44.0203711505
 20
13.1925311651
 30
0.0
 10
43.8343932882
 20
13.3441013526
 30
0.0
 10
43.7359803175
 20
13.3999404223
 30
0.0
  0
SPLINE
  5
38A
100
AcDbEntity
  8
ASSI
100
AcDbSpline
 62
7
  6
CONTINUOUS
 70
0
 71
3
 72
9
 73
5
 74
0
 42
0.0000001
 43
0.0000001
 44
0.0000000001
 40
0.0
 40
0.0
 40
0.0
 40
0.0
 40
0.2580992694
 40
1.0
 40
1.0
 40
1.0
 40
1.0
 10
-40.1770403867
 20
61.8502668997
 30
0.0
 10
-40.1856356928
 20
61.8553237383
 30
0.0
 10
-40.2192846864
 20
61.8743148847
 30
0.0
 10
-40.2543539785
 20
61.8908379854
 30
0.0
 10
-40.2810396867
 20
61.9013069154
 30
0.0
  0
SPLINE
  5
38B
100
AcDbEntity
  8
0
100
AcDbSpline
 62
250
  6
CONTINUOUS
 70
0
 71
3
 72
16
 73
12
 74
0
 42
0.0000001
 43
0.0000001
 44
0.0000000001
 40
0.0
 40
0.0
 40
0.0
 40
0.0
 40
0.125
 40
0.25
 40
0.3125
 40
0.375
 40
0.5
 40
0.625
 40
0.75
 40
0.875
 40
1.0
 40
1.0
 40
1.0
 40
1.0
 10
43.6825226696
 20
-48.9576405988
 30
0.0
 10
43.6736705391
 20
-48.9668457471
 30
0.0
 10
43.6571959173
 20
-48.9855141481
 30
0.0
 10
43.6380066778
 20
-49.010875609
 30
0.0
 10
43.6239565739
 20
-49.0318641667
 30
0.0
 10
43.6107550093
 20
-49.0533831671
 30
0.0
 10
43.5962781701
 20
-49.0806503267
 30
0.0
 10
43.5823300865
 20
-49.1142234447
 30
0.0
 10
43.5728424396
 20
-49.1473702771
 30
0.0
 10
43.5675331037
 20
-49.1785829306
 30
0.0
 10
43.5663581465
 20
-49.1979537033
 30
0.0
 10
43.5663581465
 20
-49.2076800875
 30
0.0
  0
SPLINE
  5
38C
100
AcDbEntity
  8
0
100
AcDbSpline
 62
250
  6
CONTINUOUS
 70
0
 71
3
 72
12
 73
8
 74
0
 42
0.0000001
 43
0.0000001
 44
0.0000000001
 40
0.0
 40
0.0
 40
0.0
 40
0.0
 40
0.1666666667
 40
0.3333333333
 40
0.5
 40
0.6666666667
 40
1.0
 40
1.0
 40
1.0
 40
1.0
 10
44.0829116108
 20
-48.5766008385
 30
0.0
 10
44.0587004345
 20
-48.5992569328
 30
0.0
 10
44.0109639467
 20
-48.6442236632
 30
0.0
 10
43.9413002289
 20
-48.7100068055
 30
0.0
 10
43.8733192722
 20
-48.7734248064
 30
0.0
 10
43.7851297947
 20
-48.8553834261
 30
0.0
 10
43.7223818114
 20
-48.916205685
 30
0.0
 10
43.6825503634
 20
-48.9576118205
 30
0.0
  0
SPLINE
  5
38D
100
AcDbEntity
  8
0
100
AcDbSpline
 62
250
  6
CONTINUOUS
 70
0
 71
3
 72
10
 73
6
 74
0
 42
0.0000001
 43
0.0000001
 44
0.0000000001
 40
0.0
 40
0.0
 40
0.0
 40
0.0
 40
0.3333333333
 40
0.6666666667
 40
1.0
 40
1.0
 40
1.0
 40
1.0
 10
43.7256868169
 20
-48.5894199099
 30
0.0
 10
43.7666973728
 20
-48.5517693929
 30
0.0
 10
43.8479282381
 20
-48.477885879
 30
0.0
 10
43.9670487081
 20
-48.3702821042
 30
0.0
 10
44.0446763466
 20
-48.3002176275
 30
0.0
 10
44.0829116108
 20
-48.2651529565
 30
0.0
  0
SPLINE
  5
38E
100
AcDbEntity
  8
0
100
AcDbSpline
 62
250
  6
CONTINUOUS
 70
0
 71
3
 72
16
 73
12
 74
0
 42
0.0000001
 43
0.0000001
 44
0.0000000001
 40
0.0
 40
0.0
 40
0.0
 40
0.0
 40
0.1111111111
 40
0.2222222222
 40
0.3333333333
 40
0.4444444444
 40
0.5555555556
 40
0.6666666667
 40
0.7777777778
 40
0.8888888889
 40
1.0
 40
1.0
 40
1.0
 40
1.0
 10
43.466773108
 20
-48.9308701231
 30
0.0
 10
43.4709419712
 20
-48.9160912849
 30
0.0
 10
43.4814771507
 20
-48.8868030529
 30
0.0
 10
43.5034537359
 20
-48.8428431226
 30
0.0
 10
43.529004904
 20
-48.8018342358
 30
0.0
 10
43.5570547351
 20
-48.763301089
 30
0.0
 10
43.5860442353
 20
-48.7279265984
 30
0.0
 10
43.616653499
 20
-48.6939238538
 30
0.0
 10
43.649432
 20
-48.660341155
 30
0.0
 10
43.6852241353
 20
-48.6263263358
 30
0.0
 10
43.7118404526
 20
-48.6021318269
 30
0.0
 10
43.7256868169
 20
-48.5894199101
 30
0.0
  0
SPLINE
  5
38F
100
AcDbEntity
  8
0
100
AcDbSpline
 62
250
  6
CONTINUOUS
 70
0
 71
3
 72
32
 73
28
 74
0
 42
0.0000001
 43
0.0000001
 44
0.0000000001
 40
0.0
 40
0.0
 40
0.0
 40
0.0
 40
0.0555555556
 40
0.1111111111
 40
0.1388888889
 40
0.1666666667
 40
0.1944444444
 40
0.2222222222
 40
0.25
 40
0.2777777778
 40
0.3333333333
 40
0.3888888889
 40
0.4444444444
 40
0.5
 40
0.5555555556
 40
0.6111111111
 40
0.6666666667
 40
0.7222222222
 40
0.7777777778
 40
0.8055555556
 40
0.8333333333
 40
0.8611111111
 40
0.8888888889
 40
0.9166666667
 40
0.9444444444
 40
0.9722222222
 40
1.0
 40
1.0
 40
1.0
 40
1.0
 10
42.7922851566
 20
-49.3675319259
 30
0.0
 10
42.7990801604
 20
-49.3413340486
 30
0.0
 10
42.8184493874
 20
-49.2862550716
 30
0.0
 10
42.8577707337
 20
-49.2056341604
 30
0.0
 10
42.8959197485
 20
-49.1433924088
 30
0.0
 10
42.9274838343
 20
-49.0984711253
 30
0.0
 10
42.9613334866
 20
-49.0563307656
 30
0.0
 10
42.9963858211
 20
-49.0183152585
 30
0.0
 10
43.0304402904
 20
-48.9859992054
 30
0.0
 10
43.0750619967
 20
-48.9488038255
 30
0.0
 10
43.1266924258
 20
-48.913290317
 30
0.0
 10
43.1819039211
 20
-48.8834948579
 30
0.0
 10
43.2309213154
 20
-48.8645082854
 30
0.0
 10
43.2735775579
 20
-48.8544509895
 30
0.0
 10
43.3105573934
 20
-48.8512855248
 30
0.0
 10
43.3422864216
 20
-48.8534708253
 30
0.0
 10
43.369139822
 20
-48.8598418077
 30
0.0
 10
43.3916052549
 20
-48.869600051
 30
0.0
 10
43.4073533476
 20
-48.8791820523
 30
0.0
 10
43.4186468005
 20
-48.8871101903
 30
0.0
 10
43.4265723609
 20
-48.8931048783
 30
0.0
 10
43.4339532977
 20
-48.8990336736
 30
0.0
 10
43.4409856534
 20
-48.9048248964
 30
0.0
 10
43.4476453194
 20
-48.9110443077
 30
0.0
 10
43.4531532728
 20
-48.9180155309
 30
0.0
 10
43.4571231502
 20
-48.9259850569
 30
0.0
 10
43.4585818971
 20
-48.9322021429
 30
0.0
 10
43.4589733853
 20
-48.9355335947
 30
0.0
  0
SPLINE
  5
390
100
AcDbEntity
  8
0
100
AcDbSpline
 62
250
  6
CONTINUOUS
 70
0
 71
3
 72
12
 73
8
 74
0
 42
0.0000001
 43
0.0000001
 44
0.0000000001
 40
0.0
 40
0.0
 40
0.0
 40
0.0
 40
0.3333333333
 40
0.5
 40
0.6666666667
 40
0.8333333333
 40
1.0
 40
1.0
 40
1.0
 40
1.0
 10
42.9800616794
 20
-49.4889209424
 30
0.0
 10
42.9773144609
 20
-49.5183801523
 30
0.0
 10
42.9750164204
 20
-49.5616532053
 30
0.0
 10
42.9755396647
 20
-49.6173244483
 30
0.0
 10
42.9777268346
 20
-49.6582132148
 30
0.0
 10
42.981878857
 20
-49.6984455947
 30
0.0
 10
42.9857383068
 20
-49.7247555076
 30
0.0
 10
42.9878325198
 20
-49.7379264234
 30
0.0
  0
SPLINE
  5
391
100
AcDbEntity
  8
0
100
AcDbSpline
 62
250
  6
CONTINUOUS
 70
0
 71
3
 72
19
 73
15
 74
0
 42
0.0000001
 43
0.0000001
 44
0.0000000001
 40
0.0
 40
0.0
 40
0.0
 40
0.0
 40
0.1
 40
0.2
 40
0.25
 40
0.3
 40
0.4
 40
0.5
 40
0.6
 40
0.7
 40
0.75
 40
0.8
 40
0.9
 40
1.0
 40
1.0
 40
1.0
 40
1.0
 10
43.1451367031
 20
-49.2073104815
 30
0.0
 10
43.1371564587
 20
-49.2122241944
 30
0.0
 10
43.1216915739
 20
-49.2231392812
 30
0.0
 10
43.1024196335
 20
-49.2399450611
 30
0.0
 10
43.0873667001
 20
-49.2550490068
 30
0.0
 10
43.0725395611
 20
-49.2713044562
 30
0.0
 10
43.0548600982
 20
-49.2933615946
 30
0.0
 10
43.0350240174
 20
-49.3230448583
 30
0.0
 10
43.0178342779
 20
-49.3549902714
 30
0.0
 10
43.0060702821
 20
-49.382433158
 30
0.0
 10
42.9980670827
 20
-49.4049189797
 30
0.0
 10
42.9911152955
 20
-49.4274172288
 30
0.0
 10
42.9843433203
 20
-49.4556608137
 30
0.0
 10
42.9811055029
 20
-49.4777277239
 30
0.0
 10
42.9800616793
 20
-49.4889209424
 30
0.0
  0
SPLINE
  5
392
100
AcDbEntity
  8
0
100
AcDbSpline
 62
250
  6
CONTINUOUS
 70
0
 71
3
 72
15
 73
11
 74
0
 42
0.0000001
 43
0.0000001
 44
0.0000000001
 40
0.0
 40
0.0
 40
0.0
 40
0.0
 40
0.125
 40
0.25
 40
0.375
 40
0.5
 40
0.625
 40
0.75
 40
0.875
 40
1.0
 40
1.0
 40
1.0
 40
1.0
 10
42.7783881887
 20
-50.1749039699
 30
0.0
 10
42.7733598927
 20
-50.1377441893
 30
0.0
 10
42.764057586
 20
-50.0657968592
 30
0.0
 10
42.7535870879
 20
-49.9652389096
 30
0.0
 10
42.7468373976
 20
-49.8682926578
 30
0.0
 10
42.7442068779
 20
-49.7727880823
 30
0.0
 10
42.746295788
 20
-49.6757473418
 30
0.0
 10
42.7540265136
 20
-49.5761038979
 30
0.0
 10
42.768444663
 20
-49.4735505958
 30
0.0
 10
42.7829993628
 20
-49.4032891092
 30
0.0
 10
42.7922851566
 20
-49.3675319259
 30
0.0
  0
SPLINE
  5
393
100
AcDbEntity
  8
0
100
AcDbSpline
 62
250
  6
CONTINUOUS
 70
0
 71
3
 72
15
 73
11
 74
0
 42
0.0000001
 43
0.0000001
 44
0.0000000001
 40
0.0
 40
0.0
 40
0.0
 40
0.0
 40
0.1666666667
 40
0.3333333333
 40
0.5
 40
0.5833333333
 40
0.6666666667
 40
0.75
 40
0.8333333333
 40
1.0
 40
1.0
 40
1.0
 40
1.0
 10
43.3501830903
 20
-49.3362337122
 30
0.0
 10
43.3496954527
 20
-49.3108686166
 30
0.0
 10
43.3455229858
 20
-49.2658214574
 30
0.0
 10
43.3306729992
 20
-49.2161814353
 30
0.0
 10
43.3090992744
 20
-49.1872647913
 30
0.0
 10
43.2837244013
 20
-49.1747877805
 30
0.0
 10
43.2612453602
 20
-49.1707382572
 30
0.0
 10
43.2363961138
 20
-49.1717100063
 30
0.0
 10
43.1994378129
 20
-49.1796480292
 30
0.0
 10
43.1679110972
 20
-49.1932850188
 30
0.0
 10
43.145100472
 20
-49.2073328027
 30
0.0
  0
SPLINE
  5
394
100
AcDbEntity
  8
SMUSSO
100
AcDbSpline
 62
7
  6
CONTINUOUS
 70
0
 71
3
 72
11
 73
7
 74
0
 42
0.0000001
 43
0.0000001
 44
0.0000000001
 40
0.0
 40
0.0
 40
0.0
 40
0.0
 40
0.2177671711
 40
0.4509440243
 40
0.7101952095
 40
1.0
 40
1.0
 40
1.0
 40
1.0
 10
-43.6577540985
 20
61.2934701493
 30
0.0
 10
-43.6247688175
 20
61.3125154484
 30
0.0
 10
-43.5489721677
 20
61.3400441559
 30
0.0
 10
-43.4230920133
 20
61.3431939732
 30
0.0
 10
-43.2889073674
 20
61.3108301532
 30
0.0
 10
-43.2016267929
 20
61.2692744653
 30
0.0
 10
-43.1577299383
 20
61.2439289716
 30
0.0
  0
SPLINE
  5
395
100
AcDbEntity
  8
SMUSSO
100
AcDbSpline
 62
7
  6
CONTINUOUS
 70
0
 71
3
 72
11
 73
7
 74
0
 42
0.0000001
 43
0.0000001
 44
0.0000000001
 40
0.0
 40
0.0
 40
0.0
 40
0.0
 40
0.2177702367
 40
0.4509592576
 40
0.7101782618
 40
1.0
 40
1.0
 40
1.0
 40
1.0
 10
-44.718413124
 20
60.6810558152
 30
0.0
 10
-44.751393747
 20
60.6620132218
 30
0.0
 10
-44.813122662
 20
60.6101407707
 30
0.0
 10
-44.8787836365
 20
60.5027211907
 30
0.0
 10
-44.917829047
 20
60.3703503408
 30
0.0
 10
-44.9254968912
 20
60.2740050179
 30
0.0
 10
-44.9254968913
 20
60.2233213981
 30
0.0
  0
SPLINE
  5
396
100
AcDbEntity
  8
SMUSSO
100
AcDbSpline
 62
7
  6
CONTINUOUS
 70
0
 71
3
 72
11
 73
7
 74
0
 42
0.0000001
 43
0.0000001
 44
0.0000000001
 40
0.0
 40
0.0
 40
0.0
 40
0.0
 40
0.2372289802
 40
0.5000061088
 40
0.7627799118
 40
1.0
 40
1.0
 40
1.0
 40
1.0
 10
42.0486371947
 20
12.0468799305
 30
0.0
 10
42.0988285475
 20
12.0179000724
 30
0.0
 10
42.1938168024
 20
11.9379564674
 30
0.0
 10
42.3046795036
 20
11.786453234
 30
0.0
 10
42.3804531898
 20
11.6146938179
 30
0.0
 10
42.4021905852
 20
11.4924622388
 30
0.0
 10
42.4021905853
 20
11.4345074955
 30
0.0
  0
SPLINE
  5
397
100
AcDbEntity
  8
RACCORDO
100
AcDbSpline
 62
7
  6
CONTINUOUS
 70
0
 71
3
 72
11
 73
7
 74
0
 42
0.0000001
 43
0.0000001
 44
0.0000000001
 40
0.0
 40
0.0
 40
0.0
 40
0.0
 40
0.217767124
 40
0.4509439365
 40
0.7101951399
 40
1.0
 40
1.0
 40
1.0
 40
1.0
 10
-26.2922214352
 20
31.0111593043
 30
0.0
 10
-26.2526391066
 20
31.0340136582
 30
0.0
 10
-26.1616831466
 20
31.0670481033
 30
0.0
 10
-26.0106269766
 20
31.0708279005
 30
0.0
 10
-25.8496053897
 20
31.0319913195
 30
0.0
 10
-25.7448686812
 20
30.9821244908
 30
0.0
 10
-25.692192443
 20
30.9517098911
 30
0.0
  0
SPLINE
  5
398
100
AcDbEntity
  8
SMUSSO
100
AcDbSpline
 62
7
  6
CONTINUOUS
 70
0
 71
3
 72
11
 73
7
 74
0
 42
0.0000001
 43
0.0000001
 44
0.0000000001
 40
0.0
 40
0.0
 40
0.0
 40
0.0
 40
0.2898288658
 40
0.5490499742
 40
0.7822376363
 40
1.0
 40
1.0
 40
1.0
 40
1.0
 10
40.6344236323
 20
-61.8437590291
 30
0.0
 10
40.6783238284
 20
-61.8691064518
 30
0.0
 10
40.7656092021
 20
-61.9106464314
 30
0.0
 10
40.899788967
 20
-61.9430259986
 30
0.0
 10
41.0256652826
 20
-61.9398709885
 30
0.0
 10
41.1014619184
 20
-61.9123427262
 30
0.0
 10
41.1344462488
 20
-61.8932979922
 30
0.0
  0
SPLINE
  5
399
100
AcDbEntity
  8
RACCORDO
100
AcDbSpline
 62
7
  6
CONTINUOUS
 70
0
 71
3
 72
11
 73
7
 74
0
 42
0.0000001
 43
0.0000001
 44
0.0000000001
 40
0.0
 40
0.0
 40
0.0
 40
0.0
 40
0.2897993086
 40
0.5490484826
 40
0.7822275283
 40
1.0
 40
1.0
 40
1.0
 40
1.0
 10
21.5425405403
 20
-32.4906662051
 30
0.0
 10
21.5425405403
 20
-32.5514822071
 30
0.0
 10
21.5333565851
 20
-32.6671011049
 30
0.0
 10
21.4864836012
 20
-32.825942323
 30
0.0
 10
21.407693175
 20
-32.9548521645
 30
0.0
 10
21.333618778
 20
-33.0170989401
 30
0.0
 10
21.294041395
 20
-33.0399504385
 30
0.0
  0
SPLINE
  5
39A
100
AcDbEntity
  8
RACCORDO
100
AcDbSpline
 62
7
  6
CONTINUOUS
 70
0
 71
3
 72
11
 73
7
 74
0
 42
0.0000001
 43
0.0000001
 44
0.0000000001
 40
0.0
 40
0.0
 40
0.0
 40
0.0
 40
0.2372134916
 40
0.4999938932
 40
0.7627776188
 40
1.0
 40
1.0
 40
1.0
 40
1.0
 10
-24.4194002369
 20
-3.5031700788
 30
0.0
 10
-24.4194002369
 20
-3.6422576449
 30
0.0
 10
-24.3672299731
 20
-3.9356127632
 30
0.0
 10
-24.1853794931
 20
-4.3478432331
 30
0.0
 10
-23.9192990096
 20
-4.7114494128
 30
0.0
 10
-23.6913280388
 20
-4.9033141733
 30
0.0
 10
-23.5708720994
 20
-4.972863923
 30
0.0
  0
SPLINE
  5
39B
100
AcDbEntity
  8
SMUSSO
100
AcDbSpline
 62
7
  6
CONTINUOUS
 70
0
 71
3
 72
11
 73
7
 74
0
 42
0.0000001
 43
0.0000001
 44
0.0000000001
 40
0.0
 40
0.0
 40
0.0
 40
0.0
 40
0.289799239
 40
0.5490483965
 40
0.7822274816
 40
1.0
 40
1.0
 40
1.0
 40
1.0
 10
42.4021905853
 20
-60.8231514556
 30
0.0
 10
42.4021905852
 20
-60.8738314451
 30
0.0
 10
42.3945372949
 20
-60.9701805117
 30
0.0
 10
42.3554764821
 20
-61.1025481864
 30
0.0
 10
42.2898177989
 20
-61.209973072
 30
0.0
 10
42.2280891238
 20
-61.2618453973
 30
0.0
 10
42.1951079642
 20
-61.2808883168
 30
0.0
  0
SPLINE
  5
39C
100
AcDbEntity
  8
RACCORDO
100
AcDbSpline
 62
7
  6
CONTINUOUS
 70
0
 71
3
 72
11
 73
7
 74
0
 42
0.0000001
 43
0.0000001
 44
0.0000000001
 40
0.0
 40
0.0
 40
0.0
 40
0.0
 40
0.2372223812
 40
0.5000061068
 40
0.7627865084
 40
1.0
 40
1.0
 40
1.0
 40
1.0
 10
20.6940124028
 20
4.1688965688
 30
0.0
 10
20.8144683422
 20
4.0993468191
 30
0.0
 10
21.042439313
 20
3.9074820586
 30
0.0
 10
21.3085197965
 20
3.5438758789
 30
0.0
 10
21.4903702764
 20
3.131645409
 30
0.0
 10
21.5425405403
 20
2.8382902908
 30
0.0
 10
21.5425405403
 20
2.6992027247
 30
0.0
  0
SPLINE
  5
39D
100
AcDbEntity
  8
RACCORDO
100
AcDbSpline
 62
7
  6
CONTINUOUS
 70
0
 71
3
 72
11
 73
7
 74
0
 42
0.0000001
 43
0.0000001
 44
0.0000000001
 40
0.0
 40
0.0
 40
0.0
 40
0.0
 40
0.217767124
 40
0.4509439365
 40
0.7101951399
 40
1.0
 40
1.0
 40
1.0
 40
1.0
 10
21.294041395
 20
-33.0399504385
 30
0.0
 10
21.2544590664
 20
-33.0628047924
 30
0.0
 10
21.1635031065
 20
-33.0958392375
 30
0.0
 10
21.0124469364
 20
-33.0996190347
 30
0.0
 10
20.8514253495
 20
-33.0607824537
 30
0.0
 10
20.746688641
 20
-33.010915625
 30
0.0
 10
20.6940124028
 20
-32.9805010253
 30
0.0
  0
SPLINE
  5
39E
100
AcDbEntity
  8
SMUSSO
100
AcDbSpline
 62
7
  6
CONTINUOUS
 70
0
 71
3
 72
11
 73
7
 74
0
 42
0.0000001
 43
0.0000001
 44
0.0000000001
 40
0.0
 40
0.0
 40
0.0
 40
0.0
 40
0.2177733798
 40
0.4509504049
 40
0.7102045303
 40
1.0
 40
1.0
 40
1.0
 40
1.0
 10
41.1344462488
 20
-61.8932979922
 30
0.0
 10
41.1674275698
 20
-61.8742549957
 30
0.0
 10
41.2291591549
 20
-61.8223849259
 30
0.0
 10
41.2948087043
 20
-61.714955199
 30
0.0
 10
41.3338951914
 20
-61.5825949493
 30
0.0
 10
41.3415304135
 20
-61.4862427127
 30
0.0
 10
41.3415304135
 20
-61.4355633456
 30
0.0
  0
SPLINE
  5
39F
100
AcDbEntity
  8
RACCORDO
100
AcDbSpline
 62
7
  6
CONTINUOUS
 70
0
 71
3
 72
11
 73
7
 74
0
 42
0.0000001
 43
0.0000001
 44
0.0000000001
 40
0.0
 40
0.0
 40
0.0
 40
0.0
 40
0.2372223812
 40
0.5000061068
 40
0.7627865084
 40
1.0
 40
1.0
 40
1.0
 40
1.0
 10
-25.692192443
 20
-6.197687703
 30
0.0
 10
-25.8126483824
 20
-6.1281379532
 30
0.0
 10
-26.0406193531
 20
-5.9362731927
 30
0.0
 10
-26.3066998367
 20
-5.5726670131
 30
0.0
 10
-26.4885503166
 20
-5.1604365432
 30
0.0
 10
-26.5407205804
 20
-4.8670814249
 30
0.0
 10
-26.5407205804
 20
-4.7279938588
 30
0.0
  0
SPLINE
  5
3A0
100
AcDbEntity
  8
RACCORDO
100
AcDbSpline
 62
7
  6
CONTINUOUS
 70
0
 71
3
 72
11
 73
7
 74
0
 42
0.0000001
 43
0.0000001
 44
0.0000000001
 40
0.0
 40
0.0
 40
0.0
 40
0.0
 40
0.2897993086
 40
0.5490484826
 40
0.7822275283
 40
1.0
 40
1.0
 40
1.0
 40
1.0
 10
-26.5407205804
 20
30.461875071
 30
0.0
 10
-26.5407205804
 20
30.5226910729
 30
0.0
 10
-26.5315366253
 20
30.6383099707
 30
0.0
 10
-26.4846636414
 20
30.7971511889
 30
0.0
 10
-26.4058732151
 20
30.9260610303
 30
0.0
 10
-26.3317988182
 20
30.9883078059
 30
0.0
 10
-26.2922214352
 20
31.0111593043
 30
0.0
  0
SPLINE
  5
3A1
100
AcDbEntity
  8
SMUSSO
100
AcDbSpline
 62
7
  6
CONTINUOUS
 70
0
 71
3
 72
11
 73
7
 74
0
 42
0.0000001
 43
0.0000001
 44
0.0000000001
 40
0.0
 40
0.0
 40
0.0
 40
0.0
 40
0.2372122791
 40
0.4999939823
 40
0.7627790924
 40
1.0
 40
1.0
 40
1.0
 40
1.0
 10
41.3415304135
 20
10.4138210121
 30
0.0
 10
41.341530414
 20
10.5297265764
 30
0.0
 10
41.2980514934
 20
10.7741880654
 30
0.0
 10
41.1465130419
 20
11.1177154175
 30
0.0
 10
40.9247746358
 20
11.4207169438
 30
0.0
 10
40.7348028298
 20
11.5806081918
 30
0.0
 10
40.6344236323
 20
11.6385658823
 30
0.0
  0
SPLINE
  5
3A2
100
AcDbEntity
  8
SMUSSO
100
AcDbSpline
 62
7
  6
CONTINUOUS
 70
0
 71
3
 72
11
 73
7
 74
0
 42
0.0000001
 43
0.0000001
 44
0.0000000001
 40
0.0
 40
0.0
 40
0.0
 40
0.0
 40
0.2372223372
 40
0.5000061073
 40
0.7627865538
 40
1.0
 40
1.0
 40
1.0
 40
1.0
 10
41.6950838041
 20
12.2509777723
 30
0.0
 10
41.7954637349
 20
12.1930196582
 30
0.0
 10
41.985439547
 20
12.0331323635
 30
0.0
 10
42.2071733037
 20
11.7301271992
 30
0.0
 10
42.3587153722
 20
11.386601783
 30
0.0
 10
42.4021905852
 20
11.1421391851
 30
0.0
 10
42.4021905853
 20
11.0262329021
 30
0.0
  0
SPLINE
  5
3A3
100
AcDbEntity
  8
SMUSSO
100
AcDbSpline
 62
7
  6
CONTINUOUS
 70
0
 71
3
 72
11
 73
7
 74
0
 42
0.0000001
 43
0.0000001
 44
0.0000000001
 40
0.0
 40
0.0
 40
0.0
 40
0.0
 40
0.2897994248
 40
0.5490555345
 40
0.782229434
 40
1.0
 40
1.0
 40
1.0
 40
1.0
 10
-44.2183901101
 20
60.6315170816
 30
0.0
 10
-44.2622862252
 20
60.6568621486
 30
0.0
 10
-44.3495597505
 20
60.6984362995
 30
0.0
 10
-44.4837507247
 20
60.7307733508
 30
0.0
 10
-44.6096309136
 20
60.7276344382
 30
0.0
 10
-44.6854272667
 20
60.7001014309
 30
0.0
 10
-44.718413124
 20
60.6810558152
 30
0.0
  0
ELLIPSE
  5
3A4
100
AcDbEntity
  8
0
100
AcDbEllipse
 62
7
  6
CONTINUOUS
 10
44.5849531373
 20
-57.1735290791
 30
0.0
 11
-0.0319307066
 21
0.0553022874
 31
0.0
 40
0.5636716562
 41
-2.5265818713
 42
-2.3682119497
  0
ELLIPSE
  5
3A5
100
AcDbEntity
  8
0
100
AcDbEllipse
 62
7
  6
CONTINUOUS
 10
44.5849531373
 20
13.1031578286
 30
0.0
 11
-0.0311754239
 21
0.0539936769
 31
0.0
 40
0.5913227191
 41
-2.3442738678
 42
-0.7974202594
  0
ELLIPSE
  5
3A6
100
AcDbEntity
  8
0
100
AcDbEllipse
 62
7
  6
CONTINUOUS
 10
-38.9058207815
 20
61.3096843041
 30
0.0
 11
-0.0319307066
 21
0.0553022874
 31
0.0
 40
0.5636716562
 41
-0.7734729046
 42
-0.6150192183
  0
ELLIPSE
  5
3A7
100
AcDbEntity
  8
0
100
AcDbEllipse
 62
7
  6
CONTINUOUS
 10
-9.1774367162
 20
-10.0004982614
 30
0.0
 11
0.1999995634
 21
0.1164181051
 31
0.0
 40
0.0035896273
 41
-0.7351277754
 42
-0.6748017824
  0
ELLIPSE
  5
3A8
100
AcDbEntity
  8
0
100
AcDbEllipse
 62
7
  6
CONTINUOUS
 10
18.8163670466
 20
-25.5924048751
 30
0.0
 11
0.1998333781
 21
-0.0157785196
 31
0.0
 40
0.5172961965
 41
0.8262203412
 42
2.3446567905
  0
ELLIPSE
  5
3A9
100
AcDbEntity
  8
0
100
AcDbEllipse
 62
7
  6
CONTINUOUS
 10
-13.0034381068
 20
-7.2200481753
 30
0.0
 11
0.1998333781
 21
-0.0157785196
 31
0.0
 40
0.5172961965
 41
0.8262203412
 42
2.3446567905
  0
ELLIPSE
  5
3AA
100
AcDbEntity
  8
0
100
AcDbEllipse
 62
7
  6
CONTINUOUS
 10
2.9028557198
 20
-16.4610939752
 30
0.0
 11
0.2999972416
 21
-0.0022477848
 31
0.0
 40
0.5723275643
 41
0.7896864073
 42
2.3081228565
  0
ELLIPSE
  5
3AB
100
AcDbEntity
  8
0
100
AcDbEllipse
 62
7
  6
CONTINUOUS
 10
17.2981395167
 20
-26.895819388
 30
0.0
 11
0.5413005334
 21
0.8416911418
 31
0.0
 40
0.6067084637
 41
0.7148472392
 42
0.8145158917
  0
ELLIPSE
  5
3AC
100
AcDbEntity
  8
0
100
AcDbEllipse
 62
7
  6
CONTINUOUS
 10
-14.5216656367
 20
-8.5234626882
 30
0.0
 11
0.5413005334
 21
0.8416911418
 31
0.0
 40
0.6067084637
 41
0.7148472392
 42
0.8145158917
  0
ELLIPSE
  5
3AD
100
AcDbEntity
  8
0
100
AcDbEllipse
 62
7
  6
CONTINUOUS
 10
6.8070764072
 20
-18.7978805335
 30
0.0
 11
0.0858610644
 21
0.3627848639
 31
0.0
 40
0.5009985936
 41
-2.6944494219
 42
-2.6479073085
  0
ELLIPSE
  5
3AE
100
AcDbEntity
  8
0
100
AcDbEllipse
 62
7
  6
CONTINUOUS
 10
-9.1774367162
 20
-9.4291334272
 30
0.0
 11
0.1998333781
 21
-0.0157785196
 31
0.0
 40
0.5172961965
 41
-0.692216108
 42
0.8262203412
  0
ELLIPSE
  5
3AF
100
AcDbEntity
  8
0
100
AcDbEllipse
 62
7
  6
CONTINUOUS
 10
6.5946532543
 20
-18.5926916025
 30
0.0
 11
0.2999972416
 21
-0.0022477848
 31
0.0
 40
0.5723275643
 41
-0.728750042
 42
0.7896864073
  0
ELLIPSE
  5
3B0
100
AcDbEntity
  8
0
100
AcDbEllipse
 62
7
  6
CONTINUOUS
 10
-10.2753283784
 20
-10.9752446021
 30
0.0
 11
0.4625183445
 21
0.8873459255
 31
0.0
 40
0.5463614449
 41
0.662201126
 42
0.7618697785
  0
ELLIPSE
  5
3B1
100
AcDbEntity
  8
0
100
AcDbEllipse
 62
7
  6
CONTINUOUS
 10
44.5981922302
 20
13.1107829255
 30
0.0
 11
0.1365023326
 21
1.2306519884
 31
0.0
 40
0.0962714138
 41
-3.8917430252
 42
-3.8564132784
  0
ELLIPSE
  5
3B2
100
AcDbEntity
  8
0
100
AcDbEllipse
 62
7
  6
CONTINUOUS
 10
44.5981922302
 20
-57.5588651797
 30
0.0
 11
0.1387214801
 21
1.2585231556
 31
0.0
 40
0.0920685296
 41
-3.8374748546
 42
-3.8021451078
  0
ELLIPSE
  5
3B3
100
AcDbEntity
  8
0
100
AcDbEllipse
 62
7
  6
CONTINUOUS
 10
-39.2329070323
 20
61.5138089893
 30
0.0
 11
1.1592455945
 21
-0.5090882972
 31
0.0
 40
0.0921189357
 41
-2.4809772198
 42
-2.4456474731
  0
ELLIPSE
  5
3B4
100
AcDbEntity
  8
0
100
AcDbEllipse
 62
7
  6
CONTINUOUS
 10
44.5981922302
 20
13.1107829255
 30
0.0
 11
1.1339988709
 21
-0.4970753424
 31
0.0
 40
0.0963242103
 41
-2.4267061945
 42
-2.3913764477
  0
ELLIPSE
  5
3B5
100
AcDbEntity
  8
ASSI
100
AcDbEllipse
 62
7
  6
CONTINUOUS
 10
44.5849531373
 20
-57.1735290791
 30
0.0
 11
-0.0319307066
 21
0.0553022874
 31
0.0
 40
0.5636716562
 41
-2.5265818713
 42
-2.3682119497
  0
ELLIPSE
  5
3B6
100
AcDbEntity
  8
ASSI
100
AcDbEllipse
 62
7
  6
CONTINUOUS
 10
44.5849531373
 20
13.1031578286
 30
0.0
 11
-0.0311754239
 21
0.0539936769
 31
0.0
 40
0.5913227191
 41
-2.3442738678
 42
-0.7974202594
  0
ELLIPSE
  5
3B7
100
AcDbEntity
  8
ASSI
100
AcDbEllipse
 62
7
  6
CONTINUOUS
 10
-38.9058207815
 20
61.3096843041
 30
0.0
 11
-0.0319307066
 21
0.0553022874
 31
0.0
 40
0.5636716562
 41
-0.7734729046
 42
-0.6150192183
  0
ELLIPSE
  5
3B8
100
AcDbEntity
  8
ASSI
100
AcDbEllipse
 62
7
  6
CONTINUOUS
 10
-9.1774367162
 20
-10.0004982614
 30
0.0
 11
0.1999995634
 21
0.1164181051
 31
0.0
 40
0.0035896273
 41
-0.7351277754
 42
-0.6748017824
  0
ELLIPSE
  5
3B9
100
AcDbEntity
  8
ASSI
100
AcDbEllipse
 62
7
  6
CONTINUOUS
 10
18.8163670466
 20
-25.5924048751
 30
0.0
 11
0.1998333781
 21
-0.0157785196
 31
0.0
 40
0.5172961965
 41
0.8262203412
 42
2.3446567905
  0
ELLIPSE
  5
3BA
100
AcDbEntity
  8
ASSI
100
AcDbEllipse
 62
7
  6
CONTINUOUS
 10
-13.0034381068
 20
-7.2200481753
 30
0.0
 11
0.1998333781
 21
-0.0157785196
 31
0.0
 40
0.5172961965
 41
0.8262203412
 42
2.3446567905
  0
ELLIPSE
  5
3BB
100
AcDbEntity
  8
ASSI
100
AcDbEllipse
 62
7
  6
CONTINUOUS
 10
2.9028557198
 20
-16.4610939752
 30
0.0
 11
0.2999972416
 21
-0.0022477848
 31
0.0
 40
0.5723275643
 41
0.7896864073
 42
2.3081228565
  0
ELLIPSE
  5
3BC
100
AcDbEntity
  8
ASSI
100
AcDbEllipse
 62
7
  6
CONTINUOUS
 10
17.2981395167
 20
-26.895819388
 30
0.0
 11
0.5413005334
 21
0.8416911418
 31
0.0
 40
0.6067084637
 41
0.7148472392
 42
0.8145158917
  0
ELLIPSE
  5
3BD
100
AcDbEntity
  8
ASSI
100
AcDbEllipse
 62
7
  6
CONTINUOUS
 10
-14.5216656367
 20
-8.5234626882
 30
0.0
 11
0.5413005334
 21
0.8416911418
 31
0.0
 40
0.6067084637
 41
0.7148472392
 42
0.8145158917
  0
ELLIPSE
  5
3BE
100
AcDbEntity
  8
ASSI
100
AcDbEllipse
 62
7
  6
CONTINUOUS
 10
6.8070764072
 20
-18.7978805335
 30
0.0
 11
0.0858610644
 21
0.3627848639
 31
0.0
 40
0.5009985936
 41
-2.6944494219
 42
-2.6479073085
  0
ELLIPSE
  5
3BF
100
AcDbEntity
  8
ASSI
100
AcDbEllipse
 62
7
  6
CONTINUOUS
 10
-9.1774367162
 20
-9.4291334272
 30
0.0
 11
0.1998333781
 21
-0.0157785196
 31
0.0
 40
0.5172961965
 41
-0.692216108
 42
0.8262203412
  0
ELLIPSE
  5
3C0
100
AcDbEntity
  8
ASSI
100
AcDbEllipse
 62
7
  6
CONTINUOUS
 10
6.5946532543
 20
-18.5926916025
 30
0.0
 11
0.2999972416
 21
-0.0022477848
 31
0.0
 40
0.5723275643
 41
-0.728750042
 42
0.7896864073
  0
ELLIPSE
  5
3C1
100
AcDbEntity
  8
ASSI
100
AcDbEllipse
 62
7
  6
CONTINUOUS
 10
-10.2753283784
 20
-10.9752446021
 30
0.0
 11
0.4625183445
 21
0.8873459255
 31
0.0
 40
0.5463614449
 41
0.662201126
 42
0.7618697785
  0
ELLIPSE
  5
3C2
100
AcDbEntity
  8
ASSI
100
AcDbEllipse
 62
7
  6
CONTINUOUS
 10
-39.2329070323
 20
61.5138089893
 30
0.0
 11
1.1592455945
 21
-0.5090882972
 31
0.0
 40
0.0921189357
 41
-2.4809772198
 42
-2.4456474731
  0
ELLIPSE
  5
3C3
100
AcDbEntity
  8
ASSI
100
AcDbEllipse
 62
7
  6
CONTINUOUS
 10
44.5981922302
 20
13.1107829255
 30
0.0
 11
1.1339988709
 21
-0.4970753424
 31
0.0
 40
0.0963242103
 41
-2.4267061945
 42
-2.3913764477
  0
ELLIPSE
  5
3C4
100
AcDbEntity
  8
ASSI
100
AcDbEllipse
 62
7
  6
CONTINUOUS
 10
44.5981922302
 20
13.1107829255
 30
0.0
 11
0.1365023326
 21
1.2306519884
 31
0.0
 40
0.0962714138
 41
-3.8917430252
 42
-3.8564132784
  0
ELLIPSE
  5
3C5
100
AcDbEntity
  8
ASSI
100
AcDbEllipse
 62
7
  6
CONTINUOUS
 10
44.5981922302
 20
-57.5588651797
 30
0.0
 11
0.1387214801
 21
1.2585231556
 31
0.0
 40
0.0920685296
 41
-3.8374748546
 42
-3.8021451078
  0
ENDSEC
  0
SECTION
  2
OBJECTS
  0
DICTIONARY
  5
C
100
AcDbDictionary
280
0
281
1
  3
ACAD_GROUP
350
D
  3
ACAD_MLINESTYLE
350
17
  3
ACAD_LAYOUT
350
1A
  3
ACAD_PLOTSETTINGS
350
19
  3
ACAD_PLOTSTYLENAME
350
E
  0
DICTIONARY
  5
D
102
{ACAD_REACTORS
330
C
102
}
100
AcDbDictionary
280
0
281
1
  0
ACDBDICTIONARYWDFLT
  5
E
102
{ACAD_REACTORS
330
C
102
}
100
AcDbDictionary
281
1
  3
Normal
350
F
100
AcDbDictionaryWithDefault
340
F
  0
DICTIONARY
  5
17
102
{ACAD_REACTORS
330
C
102
}
100
AcDbDictionary
280
0
281
1
  3
Standard
350
18
  0
DICTIONARY
  5
19
102
{ACAD_REACTORS
330
C
102
}
100
AcDbDictionary
281
1
  0
DICTIONARY
  5
1A
102
{ACAD_REACTORS
330
C
102
}
100
AcDbDictionary
281
1
  3
Model
350
3C6
  3
Layout1
350
3C7
  0
ACDBPLACEHOLDER
  5
F
102
{ACAD_REACTORS
330
E
102
}
  0
MLINESTYLE
  5
18
102
{ACAD_REACTORS
330
17
102
}
100
AcDbMlineStyle
  2
STANDARD
 70
0
  3

 62
256
 51
90.0
 52
90.0
 71
2
 49
0.5
 62
256
  6
BYLAYER
 49
-0.5
 62
256
  6
BYLAYER
  0
LAYOUT
  5
3C6
102
{ACAD_REACTORS
330
1A
102
}
100
AcDbPlotSettings
  1

  2
none_device
  4
ISO_A4_(297.00_x_210.00_MM)
  6

 40
0.0
 41
0.0
 42
0.0
 43
0.0
 44
297.0
 45
210.0
 46
0.0
 47
0.0
 48
0.0
 49
0.0
140
0.0
141
0.0
142
1.0
143
1.0
 70
1024
 72
1
 73
0
 74
0
  7

 75
0
147
1.0
148
0.0
149
0.0
100
AcDbLayout
  1
Model
 70
0
 71
0
 10
0.0
 20
0.0
 11
297.0
 21
210.0
 12
0.0
 22
0.0
 32
0.0
 14
0.0
 24
0.0
 34
0.0
 15
0.0
 25
0.0
 35
0.0
146
0.0
 13
0.0
 23
0.0
 33
0.0
 16
1.0
 26
0.0
 36
0.0
 17
0.0
 27
1.0
 37
0.0
 76
0
330
21C
345
0
346
0
  0
LAYOUT
  5
3C7
102
{ACAD_REACTORS
330
1A
102
}
100
AcDbPlotSettings
  1

  2
none_device
  4
ISO_A4_(297.00_x_210.00_MM)
  6

 40
0.0
 41
0.0
 42
0.0
 43
0.0
 44
297.0
 45
210.0
 46
0.0
 47
0.0
 48
0.0
 49
0.0
140
0.0
141
0.0
142
1.0
143
1.0
 70
0
 72
1
 73
0
 74
0
  7

 75
0
147
1.0
148
0.0
149
0.0
100
AcDbLayout
  1
Layout1
 70
0
 71
1
 10
0.0
 20
0.0
 11
297.0
 21
210.0
 12
0.0
 22
0.0
 32
0.0
 14
0.0
 24
0.0
 34
0.0
 15
0.0
 25
0.0
 35
0.0
146
0.0
 13
0.0
 23
0.0
 33
0.0
 16
1.0
 26
0.0
 36
0.0
 17
0.0
 27
1.0
 37
0.0
 76
0
330
21D
345
0
346
0
  0
ENDSEC
  0
EOF
