  0
SECTION
  2
HEADER
  9
$ACADVER
  1
AC1024
  9
$DWGCODEPAGE
  3
ANSI_1252
  9
$EXTMAX
 10
297.0
 20
210.0
 30
0.0
  9
$EXTMIN
 10
0.0
 20
0.0
 30
0.0
  9
$LIMMIN
 10
0.0
 20
0.0
  9
$LIMMAX
 10
297.0
 20
210.0
  9
$VIEWCTR
 10
148.5
 20
105.0
  9
$VIEWSIZE
 40
210.0
  9
$CLAYER
  8
0
  9
$LTSCALE
 40
16.335
  9
$CELTYPE
  6
BYLAYER
  9
$DIMSCALE
 40
1.0
  9
$DIMASZ
 40
3.0
  9
$DIMEXO
 40
0.5
  9
$DIMDLI
 40
11.286
  9
$DIMEXE
 40
1.5
  9
$DIMCEN
 40
2.673
  9
$DIMLFAC
 40
1.0
  9
$DIMBLK
  1
_FILLED
  9
$DIMALT
 70
0
  9
$DIMALTF
 40
0.0393700787
  9
$DIMTXT
 40
3.0
  9
$DIMTOL
 70
1
  9
$DIMLIM
 70
0
  9
$DIMTFAC
 40
1.0
  9
$DIMTP
 40
0.01
  9
$DIMTM
 40
0.01
  9
$DIMGAP
 40
0.625
  9
$DIMDSEP
 70
44
  9
$AUNITS
 70
0
  9
$PDMODE
 70
3
  9
$PDSIZE
 40
3.0
  9
$HANDSEED
  5
3BB
  9
$TILEMODE
 70
1
  9
$MEASUREMENT
 70
1
  9
$INSUNITS
 70
4
  0
ENDSEC
  0
SECTION
  2
CLASSES
  0
CLASS
  1
ACDBDICTIONARYWDFLT
  2
AcDbDictionaryWithDefault
  3
AutoCAD 2000
 90
0
 91
1
280
0
281
0
  0
CLASS
  1
ACDBPLACEHOLDER
  2
AcDbPlaceHolder
  3
AutoCAD 2000
 90
0
 91
1
280
0
281
0
  0
CLASS
  1
LAYOUT
  2
AcDbLayout
  3
AutoCAD 2000
 90
0
 91
0
280
0
281
0
  0
ENDSEC
  0
SECTION
  2
TABLES
  0
TABLE
  2
VPORT
  5
8
100
AcDbSymbolTable
 70
2
  0
VPORT
  5
1F4
100
AcDbSymbolTableRecord
100
AcDbViewportTableRecord
  2
*ACTIVE
 70
0
 10
0.0
 20
0.0
 11
1.0
 21
1.0
 12
148.5
 22
105.0
 13
0.0
 23
0.0
 14
1.0
 24
1.0
 15
0.0
 25
0.0
 16
0.0
 26
0.0
 36
1.0
 17
0.0
 27
0.0
 37
0.0
 40
210.0
 41
1.4142857143
 42
50.0
 43
0.0
 44
0.0
 50
0.0
 51
0.0
 71
0
 72
100
 73
1
 74
1
 75
0
 76
0
 77
0
 78
0
  0
ENDTAB
  0
TABLE
  2
LTYPE
  5
5
100
AcDbSymbolTable
 70
6
  0
LTYPE
  5
14
100
AcDbSymbolTableRecord
100
AcDbLinetypeTableRecord
  2
BYBLOCK
 70
0
  3

 72
65
 73
0
 40
0.0
  0
LTYPE
  5
15
100
AcDbSymbolTableRecord
100
AcDbLinetypeTableRecord
  2
BYLAYER
 70
0
  3

 72
65
 73
0
 40
0.0
  0
LTYPE
  5
16
100
AcDbSymbolTableRecord
100
AcDbLinetypeTableRecord
  2
CONTINUOUS
 70
64
  3
Solid line
 72
65
 73
0
 40
0.0
  0
LTYPE
  5
1F5
100
AcDbSymbolTableRecord
100
AcDbLinetypeTableRecord
  2
CENTER
 70
64
  3
____ _ ____ _ ____ _ ____ _ ____ _ ____ _ ____
 72
65
 73
4
 40
0.6
 49
0.375
 74
0
 49
-0.075
 74
0
 49
0.075
 74
0
 49
-0.075
 74
0
  0
LTYPE
  5
1F6
100
AcDbSymbolTableRecord
100
AcDbLinetypeTableRecord
  2
HIDDEN
 70
64
  3
- - - - - - - - - - - - - - - - - - - -
 72
65
 73
2
 40
0.2
 49
0.1
 74
0
 49
-0.1
 74
0
  0
LTYPE
  5
1F7
100
AcDbSymbolTableRecord
100
AcDbLinetypeTableRecord
  2
PHANTOM
 70
64
  3
_____ _ _ _____ _ _ _____ _ _ _____
 72
65
 73
6
 40
0.8
 49
0.45
 74
0
 49
-0.05
 74
0
 49
0.1
 74
0
 49
-0.05
 74
0
 49
0.1
 74
0
 49
-0.05
 74
0
  0
LTYPE
  5
1F8
100
AcDbSymbolTableRecord
100
AcDbLinetypeTableRecord
  2
DOT
 70
64
  3
. . . . . . . . . . . . . . . . . . . .
 72
65
 73
2
 40
0.2
 49
0.1
 74
0
 49
-0.1
 74
0
  0
LTYPE
  5
1F9
100
AcDbSymbolTableRecord
100
AcDbLinetypeTableRecord
  2
DASHED
 70
64
  3
- - - - - - - - - - - - - - - - - - - -
 72
65
 73
2
 40
0.2
 49
0.1
 74
0
 49
-0.1
 74
0
  0
ENDTAB
  0
TABLE
  2
LAYER
  5
2
100
AcDbSymbolTable
 70
36
  0
LAYER
  5
10
100
AcDbSymbolTableRecord
100
AcDbLayerTableRecord
  2
0
 70
0
 62
7
  6
CONTINUOUS
370
-3
390
F
  0
LAYER
  5
1FA
100
AcDbSymbolTableRecord
100
AcDbLayerTableRecord
  2
DEFAULT_1
 70
0
 62
7
  6
CENTER
370
-3
390
F
  0
LAYER
  5
1FB
100
AcDbSymbolTableRecord
100
AcDbLayerTableRecord
  2
DEFAULT_2
 70
0
 62
7
  6
HIDDEN
370
-3
390
F
  0
LAYER
  5
1FC
100
AcDbSymbolTableRecord
100
AcDbLayerTableRecord
  2
DEFAULT_3
 70
0
 62
7
  6
PHANTOM
370
-3
390
F
  0
LAYER
  5
1FD
100
AcDbSymbolTableRecord
100
AcDbLayerTableRecord
  2
ASSI
 70
0
 62
7
  6
CONTINUOUS
370
-3
390
F
  0
LAYER
  5
1FE
100
AcDbSymbolTableRecord
100
AcDbLayerTableRecord
  2
COORDINATE
 70
0
 62
7
  6
CONTINUOUS
370
-3
390
F
  0
LAYER
  5
1FF
100
AcDbSymbolTableRecord
100
AcDbLayerTableRecord
  2
COORD_ORIGINE
 70
0
 62
7
  6
CONTINUOUS
370
-3
390
F
  0
LAYER
  5
200
100
AcDbSymbolTableRecord
100
AcDbLayerTableRecord
  2
COPY_PUBLISH
 70
0
 62
7
  6
CONTINUOUS
370
-3
390
F
  0
LAYER
  5
201
100
AcDbSymbolTableRecord
100
AcDbLayerTableRecord
  2
COSMETIC
 70
0
 62
7
  6
CONTINUOUS
370
-3
390
F
  0
LAYER
  5
202
100
AcDbSymbolTableRecord
100
AcDbLayerTableRecord
  2
COSMETICI
 70
0
 62
7
  6
CONTINUOUS
370
-3
390
F
  0
LAYER
  5
203
100
AcDbSymbolTableRecord
100
AcDbLayerTableRecord
  2
CURVA_TASSELLO
 70
0
 62
7
  6
CONTINUOUS
370
-3
390
F
  0
LAYER
  5
204
100
AcDbSymbolTableRecord
100
AcDbLayerTableRecord
  2
CURVE
 70
0
 62
7
  6
CONTINUOUS
370
-3
390
F
  0
LAYER
  5
205
100
AcDbSymbolTableRecord
100
AcDbLayerTableRecord
  2
DRAFT
 70
0
 62
7
  6
CONTINUOUS
370
-3
390
F
  0
LAYER
  5
206
100
AcDbSymbolTableRecord
100
AcDbLayerTableRecord
  2
IMPORT_IGES
 70
0
 62
7
  6
CONTINUOUS
370
-3
390
F
  0
LAYER
  5
207
100
AcDbSymbolTableRecord
100
AcDbLayerTableRecord
  2
INTFCLR_2
 70
0
 62
7
  6
CONTINUOUS
370
-3
390
F
  0
LAYER
  5
208
100
AcDbSymbolTableRecord
100
AcDbLayerTableRecord
  2
INTF_1
 70
0
 62
7
  6
CONTINUOUS
370
-3
390
F
  0
LAYER
  5
209
100
AcDbSymbolTableRecord
100
AcDbLayerTableRecord
  2
INTF_21
 70
0
 62
7
  6
CONTINUOUS
370
-3
390
F
  0
LAYER
  5
20A
100
AcDbSymbolTableRecord
100
AcDbLayerTableRecord
  2
INTF_7
 70
0
 62
7
  6
CONTINUOUS
370
-3
390
F
  0
LAYER
  5
20B
100
AcDbSymbolTableRecord
100
AcDbLayerTableRecord
  2
NOTE
 70
0
 62
7
  6
CONTINUOUS
370
-3
390
F
  0
LAYER
  5
20C
100
AcDbSymbolTableRecord
100
AcDbLayerTableRecord
  2
PIANI
 70
0
 62
7
  6
CONTINUOUS
370
-3
390
F
  0
LAYER
  5
20D
100
AcDbSymbolTableRecord
100
AcDbLayerTableRecord
  2
PIANI_ORIGINE
 70
0
 62
7
  6
CONTINUOUS
370
-3
390
F
  0
LAYER
  5
20E
100
AcDbSymbolTableRecord
100
AcDbLayerTableRecord
  2
PIANI_RIFERIMENTO
 70
0
 62
7
  6
CONTINUOUS
370
-3
390
F
  0
LAYER
  5
20F
100
AcDbSymbolTableRecord
100
AcDbLayerTableRecord
  2
PUNTI
 70
0
 62
7
  6
CONTINUOUS
370
-3
390
F
  0
LAYER
  5
210
100
AcDbSymbolTableRecord
100
AcDbLayerTableRecord
  2
RACCORDO
 70
0
 62
7
  6
CONTINUOUS
370
-3
390
F
  0
LAYER
  5
211
100
AcDbSymbolTableRecord
100
AcDbLayerTableRecord
  2
RGB__255__255__255__
 70
0
 62
7
  6
CONTINUOUS
370
-3
390
F
  0
LAYER
  5
212
100
AcDbSymbolTableRecord
100
AcDbLayerTableRecord
  2
RGB____0____0____0__
 70
0
 62
7
  6
CONTINUOUS
370
-3
390
F
  0
LAYER
  5
213
100
AcDbSymbolTableRecord
100
AcDbLayerTableRecord
  2
SIMBOLI
 70
0
 62
7
  6
CONTINUOUS
370
-3
390
F
  0
LAYER
  5
214
100
AcDbSymbolTableRecord
100
AcDbLayerTableRecord
  2
SMUSSO
 70
0
 62
7
  6
CONTINUOUS
370
-3
390
F
  0
LAYER
  5
215
100
AcDbSymbolTableRecord
100
AcDbLayerTableRecord
  2
SNAPLINE
 70
0
 62
7
  6
CONTINUOUS
370
-3
390
F
  0
LAYER
  5
216
100
AcDbSymbolTableRecord
100
AcDbLayerTableRecord
  2
SUPERFICI
 70
0
 62
7
  6
CONTINUOUS
370
-3
390
F
  0
LAYER
  5
217
100
AcDbSymbolTableRecord
100
AcDbLayerTableRecord
  2
TRASH
 70
0
 62
7
  6
CONTINUOUS
370
-3
390
F
  0
LAYER
  5
218
100
AcDbSymbolTableRecord
100
AcDbLayerTableRecord
  2
WHITE
 70
0
 62
7
  6
CONTINUOUS
370
-3
390
F
  0
LAYER
  5
219
100
AcDbSymbolTableRecord
100
AcDbLayerTableRecord
  2
XSEC_DATUMS
 70
0
 62
7
  6
CONTINUOUS
370
-3
390
F
  0
ENDTAB
  0
TABLE
  2
STYLE
  5
3
100
AcDbSymbolTable
 70
1
  0
STYLE
  5
11
100
AcDbSymbolTableRecord
100
AcDbTextStyleTableRecord
  2
STANDARD
 70
0
 40
0.0
 41
0.8
 50
0.0
 71
0
 42
0.2
  3
txt
  4

  0
STYLE
  5
21A
100
AcDbSymbolTableRecord
100
AcDbTextStyleTableRecord
  2
TEXTSTYLE_1
 70
0
 40
0.0
 41
0.8
 50
0.0
 71
0
 42
0.2
  3
gdt
  4

  0
ENDTAB
  0
TABLE
  2
VIEW
  5
6
100
AcDbSymbolTable
 70
0
  0
ENDTAB
  0
TABLE
  2
UCS
  5
7
100
AcDbSymbolTable
 70
0
  0
ENDTAB
  0
TABLE
  2
APPID
  5
9
100
AcDbSymbolTable
 70
1
  0
APPID
  5
21B
100
AcDbSymbolTableRecord
100
AcDbRegAppTableRecord
  2
ACAD
 70
0
  0
ENDTAB
  0
TABLE
  2
BLOCK_RECORD
  5
1
100
AcDbSymbolTable
 70
0
  0
BLOCK_RECORD
  5
21C
100
AcDbSymbolTableRecord
100
AcDbBlockTableRecord
  2
*Model_Space
  0
BLOCK_RECORD
  5
21D
100
AcDbSymbolTableRecord
100
AcDbBlockTableRecord
  2
*Paper_Space
  0
BLOCK_RECORD
  5
21E
100
AcDbSymbolTableRecord
100
AcDbBlockTableRecord
  2
_FILLED
  0
ENDTAB
  0
TABLE
  2
DIMSTYLE
  5
A
100
AcDbSymbolTable
 70
1
100
AcDbDimStyleTable
 71
0
  0
DIMSTYLE
105
21F
100
AcDbSymbolTableRecord
100
AcDbDimStyleTableRecord
  2
STANDARD
 70
0
  3

  4

 40
1.0
 41
3.0
 42
0.5
 43
0.38
 44
1.5
 45
0.0
 46
0.0
 47
0.01
 48
0.01
140
3.0
141
0.09
142
0.0
143
25.4
144
1.0
145
0.0
146
1.0
147
0.625
 71
1
 72
0
 73
0
 74
0
 75
0
 76
0
 77
1
 78
8
 79
2
170
0
171
1
172
0
173
0
174
0
175
0
176
0
177
0
178
0
270
2
179
2
271
2
272
2
273
2
274
2
275
0
280
0
281
0
282
0
283
1
284
8
285
0
286
0
287
3
288
0
340
11
278
44
341
21E
342
21E
343
21E
344
21E
  0
ENDTAB
  0
ENDSEC
  0
SECTION
  2
BLOCKS
  0
BLOCK
  5
20
100
AcDbEntity
  8
0
100
AcDbBlockBegin
  2
*Model_Space
 70
0
 10
0.0
 20
0.0
 30
0.0
  3
*Model_Space
  1

  0
ENDBLK
  5
21
100
AcDbEntity
  8
0
100
AcDbBlockEnd
  0
BLOCK
  5
1C
100
AcDbEntity
  8
0
100
AcDbBlockBegin
  2
*Paper_Space
 70
0
 10
0.0
 20
0.0
 30
0.0
  3
*Paper_Space
  1

  0
ENDBLK
  5
1D
100
AcDbEntity
  8
0
100
AcDbBlockEnd
  0
BLOCK
  5
220
100
AcDbEntity
  8
0
100
AcDbBlockBegin
  2
_FILLED
 70
64
 10
0.0
 20
0.0
  3
_FILLED
  1

  0
SOLID
  5
221
100
AcDbEntity
  8
0
  6
BYBLOCK
 62
0
100
AcDbTrace
 10
0.0
 20
0.0
 11
-1.0
 21
0.3166666667
 12
-1.0
 22
-0.3166666667
 13
-1.0
 23
-0.3166666667
  0
ENDBLK
  5
222
100
AcDbEntity
  8
0
  6
BYBLOCK
 62
0
100
AcDbBlockEnd
  0
ENDSEC
  0
SECTION
  2
ENTITIES
  0
LINE
  5
223
100
AcDbEntity
  8
SMUSSO
100
AcDbLine
 62
7
  6
CONTINUOUS
 10
-44.9254968913
 20
60.175925814
 11
-43.1577299383
 21
61.1965728423
  0
LINE
  5
224
100
AcDbEntity
  8
0
100
AcDbLine
 62
7
  6
CONTINUOUS
 10
-40.6298726367
 20
61.8506367722
 11
-42.5252296533
 21
60.8313751049
  0
LINE
  5
225
100
AcDbEntity
  8
ASSI
100
AcDbLine
 62
7
  6
CONTINUOUS
 10
-40.6298726367
 20
61.8506367722
 11
-42.5252296533
 21
60.8313751049
  0
LINE
  5
226
100
AcDbEntity
  8
0
100
AcDbLine
 62
250
  6
CONTINUOUS
 10
-40.1526338141
 20
61.7886884218
 11
-42.2390370044
 21
60.6666883047
  0
LINE
  5
227
100
AcDbEntity
  8
ASSI
100
AcDbLine
 62
250
  6
CONTINUOUS
 10
-40.1526338141
 20
61.7886884218
 11
-42.2390370044
 21
60.6666883047
  0
LINE
  5
228
100
AcDbEntity
  8
0
100
AcDbLine
 62
250
  6
CONTINUOUS
 10
42.7629668268
 20
-54.1680884151
 11
43.6715259329
 21
-53.9295721431
  0
LINE
  5
229
100
AcDbEntity
  8
0
100
AcDbLine
 62
250
  6
CONTINUOUS
 10
44.0829117873
 20
-53.5539293667
 11
42.7629668268
 21
-53.844520428
  0
LINE
  5
22A
100
AcDbEntity
  8
0
100
AcDbLine
 62
250
  6
CONTINUOUS
 10
43.6155022332
 20
-50.6166821284
 11
43.1256538803
 21
-50.7483433277
  0
LINE
  5
22B
100
AcDbEntity
  8
0
100
AcDbLine
 62
250
  6
CONTINUOUS
 10
44.0829117873
 20
-50.4927953274
 11
43.819403711
 21
-50.5610018666
  0
LINE
  5
22C
100
AcDbEntity
  8
0
100
AcDbLine
 62
250
  6
CONTINUOUS
 10
42.7629668268
 20
-51.1157248995
 11
44.0829117873
 21
-50.8130721228
  0
LINE
  5
22D
100
AcDbEntity
  8
0
100
AcDbLine
 62
250
  6
CONTINUOUS
 10
42.7629668268
 20
-52.1185234911
 11
43.4958040906
 21
-52.0041477111
  0
LINE
  5
22E
100
AcDbEntity
  8
0
100
AcDbLine
 62
250
  6
CONTINUOUS
 10
44.0829117873
 20
-51.6321771492
 11
43.2246056695
 21
-51.7603741394
  0
LINE
  5
22F
100
AcDbEntity
  8
SMUSSO
100
AcDbLine
 62
7
  6
CONTINUOUS
 10
-44.9254968913
 20
60.175925814
 11
-44.9254968913
 21
-12.4899682755
  0
LINE
  5
230
100
AcDbEntity
  8
RACCORDO
100
AcDbLine
 62
250
  6
CONTINUOUS
 10
-26.4346545633
 20
30.2308072112
 11
-25.5861674299
 21
30.7207130479
  0
LINE
  5
231
100
AcDbEntity
  8
SMUSSO
100
AcDbLine
 62
7
  6
CONTINUOUS
 10
-44.9254968913
 20
-12.4899682755
 11
40.6344236323
 21
-61.8911546133
  0
LINE
  5
232
100
AcDbEntity
  8
RACCORDO
100
AcDbLine
 62
7
  6
CONTINUOUS
 10
-26.4346545633
 20
30.2308072112
 11
-26.4346545633
 21
-4.7141206355
  0
LINE
  5
233
100
AcDbEntity
  8
RACCORDO
100
AcDbLine
 62
7
  6
CONTINUOUS
 10
-24.3133342197
 20
29.9857477634
 11
-24.3133342197
 21
-3.4892968556
  0
LINE
  5
234
100
AcDbEntity
  8
0
100
AcDbLine
 62
250
  6
CONTINUOUS
 10
-23.7209984584
 20
-4.764840934
 11
-23.7209984584
 21
29.6437405185
  0
LINE
  5
235
100
AcDbEntity
  8
ASSI
100
AcDbLine
 62
250
  6
CONTINUOUS
 10
-23.7209984584
 20
-4.764840934
 11
-23.7209984584
 21
29.6437405185
  0
LINE
  5
236
100
AcDbEntity
  8
0
100
AcDbLine
 62
7
  6
CONTINUOUS
 10
-23.6368003985
 20
-4.8391167177
 11
-23.6368003985
 21
29.5951256139
  0
LINE
  5
237
100
AcDbEntity
  8
ASSI
100
AcDbLine
 62
7
  6
CONTINUOUS
 10
-23.6368003985
 20
-4.8391167177
 11
-23.6368003985
 21
29.5951256139
  0
LINE
  5
238
100
AcDbEntity
  8
RACCORDO
100
AcDbLine
 62
7
  6
CONTINUOUS
 10
-25.5861264258
 20
-6.1838144797
 11
20.5879463857
 21
-32.844145424
  0
LINE
  5
239
100
AcDbEntity
  8
RACCORDO
100
AcDbLine
 62
7
  6
CONTINUOUS
 10
-23.4648060823
 20
-4.9589906997
 11
21.4364745231
 21
-30.884427376
  0
LINE
  5
23A
100
AcDbEntity
  8
0
100
AcDbLine
 62
7
  6
CONTINUOUS
 10
19.2444435014
 20
-29.5777553482
 11
15.3553562049
 21
-27.3322450849
  0
LINE
  5
23B
100
AcDbEntity
  8
ASSI
100
AcDbLine
 62
7
  6
CONTINUOUS
 10
19.2444435014
 20
-29.5777553482
 11
15.3553562049
 21
-27.3322450849
  0
LINE
  5
23C
100
AcDbEntity
  8
0
100
AcDbLine
 62
7
  6
CONTINUOUS
 10
-12.575361652
 20
-11.2053986485
 11
-16.4644489485
 21
-8.9598883852
  0
LINE
  5
23D
100
AcDbEntity
  8
ASSI
100
AcDbLine
 62
7
  6
CONTINUOUS
 10
-12.575361652
 20
-11.2053986485
 11
-16.4644489485
 21
-8.9598883852
  0
LINE
  5
23E
100
AcDbEntity
  8
0
100
AcDbLine
 62
7
  6
CONTINUOUS
 10
19.4919308748
 20
-29.5573297821
 11
15.4967775611
 21
-27.2505901662
  0
LINE
  5
23F
100
AcDbEntity
  8
ASSI
100
AcDbLine
 62
7
  6
CONTINUOUS
 10
19.4919308748
 20
-29.5573297821
 11
15.4967775611
 21
-27.2505901662
  0
LINE
  5
240
100
AcDbEntity
  8
0
100
AcDbLine
 62
7
  6
CONTINUOUS
 10
-16.3230275923
 20
-8.8782334665
 11
-12.3278742786
 21
-11.1849730823
  0
LINE
  5
241
100
AcDbEntity
  8
ASSI
100
AcDbLine
 62
7
  6
CONTINUOUS
 10
-16.3230275923
 20
-8.8782334665
 11
-12.3278742786
 21
-11.1849730823
  0
LINE
  5
242
100
AcDbEntity
  8
0
100
AcDbLine
 62
7
  6
CONTINUOUS
 10
19.597996892
 20
-29.3736180515
 11
15.7089095955
 21
-27.1281077882
  0
LINE
  5
243
100
AcDbEntity
  8
ASSI
100
AcDbLine
 62
7
  6
CONTINUOUS
 10
19.597996892
 20
-29.3736180515
 11
15.7089095955
 21
-27.1281077882
  0
LINE
  5
244
100
AcDbEntity
  8
0
100
AcDbLine
 62
7
  6
CONTINUOUS
 10
-12.2218082614
 20
-11.0012613518
 11
-16.1108955579
 21
-8.7557510885
  0
LINE
  5
245
100
AcDbEntity
  8
ASSI
100
AcDbLine
 62
7
  6
CONTINUOUS
 10
-12.2218082614
 20
-11.0012613518
 11
-16.1108955579
 21
-8.7557510885
  0
LINE
  5
246
100
AcDbEntity
  8
0
100
AcDbLine
 62
7
  6
CONTINUOUS
 10
19.8454842654
 20
-29.3531924854
 11
15.8503309517
 21
-27.0464528696
  0
LINE
  5
247
100
AcDbEntity
  8
ASSI
100
AcDbLine
 62
7
  6
CONTINUOUS
 10
19.8454842654
 20
-29.3531924854
 11
15.8503309517
 21
-27.0464528696
  0
LINE
  5
248
100
AcDbEntity
  8
0
100
AcDbLine
 62
7
  6
CONTINUOUS
 10
-15.9694742017
 20
-8.6740961698
 11
-11.974320888
 21
-10.9808357856
  0
LINE
  5
249
100
AcDbEntity
  8
ASSI
100
AcDbLine
 62
7
  6
CONTINUOUS
 10
-15.9694742017
 20
-8.6740961698
 11
-11.974320888
 21
-10.9808357856
  0
LINE
  5
24A
100
AcDbEntity
  8
0
100
AcDbLine
 62
7
  6
CONTINUOUS
 10
19.9515502826
 20
-29.1694807549
 11
16.0624629861
 21
-26.9239704916
  0
LINE
  5
24B
100
AcDbEntity
  8
ASSI
100
AcDbLine
 62
7
  6
CONTINUOUS
 10
19.9515502826
 20
-29.1694807549
 11
16.0624629861
 21
-26.9239704916
  0
LINE
  5
24C
100
AcDbEntity
  8
0
100
AcDbLine
 62
7
  6
CONTINUOUS
 10
-11.8682548708
 20
-10.7971240551
 11
-15.7573421673
 21
-8.5516137918
  0
LINE
  5
24D
100
AcDbEntity
  8
ASSI
100
AcDbLine
 62
7
  6
CONTINUOUS
 10
-11.8682548708
 20
-10.7971240551
 11
-15.7573421673
 21
-8.5516137918
  0
LINE
  5
24E
100
AcDbEntity
  8
0
100
AcDbLine
 62
7
  6
CONTINUOUS
 10
20.199037656
 20
-29.1490551887
 11
16.2038843423
 21
-26.8423155729
  0
LINE
  5
24F
100
AcDbEntity
  8
ASSI
100
AcDbLine
 62
7
  6
CONTINUOUS
 10
20.199037656
 20
-29.1490551887
 11
16.2038843423
 21
-26.8423155729
  0
LINE
  5
250
100
AcDbEntity
  8
0
100
AcDbLine
 62
7
  6
CONTINUOUS
 10
-15.6159208111
 20
-8.4699588732
 11
-11.6207674974
 21
-10.776698489
  0
LINE
  5
251
100
AcDbEntity
  8
ASSI
100
AcDbLine
 62
7
  6
CONTINUOUS
 10
-15.6159208111
 20
-8.4699588732
 11
-11.6207674974
 21
-10.776698489
  0
LINE
  5
252
100
AcDbEntity
  8
0
100
AcDbLine
 62
7
  6
CONTINUOUS
 10
20.3051036732
 20
-28.9653434582
 11
16.4160163767
 21
-26.7198331949
  0
LINE
  5
253
100
AcDbEntity
  8
ASSI
100
AcDbLine
 62
7
  6
CONTINUOUS
 10
20.3051036732
 20
-28.9653434582
 11
16.4160163767
 21
-26.7198331949
  0
LINE
  5
254
100
AcDbEntity
  8
0
100
AcDbLine
 62
7
  6
CONTINUOUS
 10
-11.5147014802
 20
-10.5929867585
 11
-15.4037887767
 21
-8.3474764952
  0
LINE
  5
255
100
AcDbEntity
  8
ASSI
100
AcDbLine
 62
7
  6
CONTINUOUS
 10
-11.5147014802
 20
-10.5929867585
 11
-15.4037887767
 21
-8.3474764952
  0
LINE
  5
256
100
AcDbEntity
  8
0
100
AcDbLine
 62
7
  6
CONTINUOUS
 10
20.5525910466
 20
-28.9449178921
 11
16.5574377329
 21
-26.6381782762
  0
LINE
  5
257
100
AcDbEntity
  8
ASSI
100
AcDbLine
 62
7
  6
CONTINUOUS
 10
20.5525910466
 20
-28.9449178921
 11
16.5574377329
 21
-26.6381782762
  0
LINE
  5
258
100
AcDbEntity
  8
0
100
AcDbLine
 62
7
  6
CONTINUOUS
 10
-15.2623674205
 20
-8.2658215765
 11
-11.2672141068
 21
-10.5725611923
  0
LINE
  5
259
100
AcDbEntity
  8
ASSI
100
AcDbLine
 62
7
  6
CONTINUOUS
 10
-15.2623674205
 20
-8.2658215765
 11
-11.2672141068
 21
-10.5725611923
  0
LINE
  5
25A
100
AcDbEntity
  8
0
100
AcDbLine
 62
7
  6
CONTINUOUS
 10
-16.4822111849
 20
-8.990653481
 11
-16.4644489485
 21
-8.9598883852
  0
LINE
  5
25B
100
AcDbEntity
  8
ASSI
100
AcDbLine
 62
7
  6
CONTINUOUS
 10
-16.4822111849
 20
-8.990653481
 11
-16.4644489485
 21
-8.9598883852
  0
LINE
  5
25C
100
AcDbEntity
  8
0
100
AcDbLine
 62
7
  6
CONTINUOUS
 10
-16.2169615751
 20
-8.939462819
 11
-16.1108955579
 21
-8.7557510885
  0
LINE
  5
25D
100
AcDbEntity
  8
ASSI
100
AcDbLine
 62
7
  6
CONTINUOUS
 10
-16.2169615751
 20
-8.939462819
 11
-16.1108955579
 21
-8.7557510885
  0
LINE
  5
25E
100
AcDbEntity
  8
0
100
AcDbLine
 62
7
  6
CONTINUOUS
 10
20.6586570638
 20
-28.7612061615
 11
16.7695697672
 21
-26.5156958982
  0
LINE
  5
25F
100
AcDbEntity
  8
ASSI
100
AcDbLine
 62
7
  6
CONTINUOUS
 10
20.6586570638
 20
-28.7612061615
 11
16.7695697672
 21
-26.5156958982
  0
LINE
  5
260
100
AcDbEntity
  8
0
100
AcDbLine
 62
7
  6
CONTINUOUS
 10
-11.1611480896
 20
-10.3888494618
 11
-15.0502353861
 21
-8.1433391985
  0
LINE
  5
261
100
AcDbEntity
  8
ASSI
100
AcDbLine
 62
7
  6
CONTINUOUS
 10
-11.1611480896
 20
-10.3888494618
 11
-15.0502353861
 21
-8.1433391985
  0
LINE
  5
262
100
AcDbEntity
  8
0
100
AcDbLine
 62
7
  6
CONTINUOUS
 10
20.9061444372
 20
-28.7407805954
 11
16.9109911235
 21
-26.4340409796
  0
LINE
  5
263
100
AcDbEntity
  8
ASSI
100
AcDbLine
 62
7
  6
CONTINUOUS
 10
20.9061444372
 20
-28.7407805954
 11
16.9109911235
 21
-26.4340409796
  0
LINE
  5
264
100
AcDbEntity
  8
0
100
AcDbLine
 62
7
  6
CONTINUOUS
 10
-14.9088140299
 20
-8.0616842798
 11
-10.9136607162
 21
-10.3684238957
  0
LINE
  5
265
100
AcDbEntity
  8
ASSI
100
AcDbLine
 62
7
  6
CONTINUOUS
 10
-14.9088140299
 20
-8.0616842798
 11
-10.9136607162
 21
-10.3684238957
  0
LINE
  5
266
100
AcDbEntity
  8
0
100
AcDbLine
 62
7
  6
CONTINUOUS
 10
21.0122104544
 20
-28.5570688649
 11
17.1231231578
 21
-26.3115586016
  0
LINE
  5
267
100
AcDbEntity
  8
ASSI
100
AcDbLine
 62
7
  6
CONTINUOUS
 10
21.0122104544
 20
-28.5570688649
 11
17.1231231578
 21
-26.3115586016
  0
LINE
  5
268
100
AcDbEntity
  8
0
100
AcDbLine
 62
7
  6
CONTINUOUS
 10
-10.807594699
 20
-10.1847121651
 11
-14.6966819956
 21
-7.9392019018
  0
LINE
  5
269
100
AcDbEntity
  8
ASSI
100
AcDbLine
 62
7
  6
CONTINUOUS
 10
-10.807594699
 20
-10.1847121651
 11
-14.6966819956
 21
-7.9392019018
  0
LINE
  5
26A
100
AcDbEntity
  8
0
100
AcDbLine
 62
7
  6
CONTINUOUS
 10
21.2596978278
 20
-28.5366432987
 11
17.2645445141
 21
-26.2299036829
  0
LINE
  5
26B
100
AcDbEntity
  8
ASSI
100
AcDbLine
 62
7
  6
CONTINUOUS
 10
21.2596978278
 20
-28.5366432987
 11
17.2645445141
 21
-26.2299036829
  0
LINE
  5
26C
100
AcDbEntity
  8
0
100
AcDbLine
 62
7
  6
CONTINUOUS
 10
-14.5552606393
 20
-7.8575469832
 11
-10.5601073256
 21
-10.164286599
  0
LINE
  5
26D
100
AcDbEntity
  8
ASSI
100
AcDbLine
 62
7
  6
CONTINUOUS
 10
-14.5552606393
 20
-7.8575469832
 11
-10.5601073256
 21
-10.164286599
  0
LINE
  5
26E
100
AcDbEntity
  8
0
100
AcDbLine
 62
250
  6
CONTINUOUS
 10
21.4364745231
 20
-28.5161280076
 11
17.2981395167
 21
-26.1267052404
  0
LINE
  5
26F
100
AcDbEntity
  8
ASSI
100
AcDbLine
 62
250
  6
CONTINUOUS
 10
21.4364745231
 20
-28.5161280076
 11
17.2981395167
 21
-26.1267052404
  0
LINE
  5
270
100
AcDbEntity
  8
0
100
AcDbLine
 62
250
  6
CONTINUOUS
 10
-10.2753283784
 20
-10.2061304545
 11
-14.5216656367
 21
-7.7543485407
  0
LINE
  5
271
100
AcDbEntity
  8
ASSI
100
AcDbLine
 62
250
  6
CONTINUOUS
 10
-10.2753283784
 20
-10.2061304545
 11
-14.5216656367
 21
-7.7543485407
  0
LINE
  5
272
100
AcDbEntity
  8
0
100
AcDbLine
 62
250
  6
CONTINUOUS
 10
21.4364745231
 20
-28.4389303134
 11
17.3721866697
 21
-26.0922614444
  0
LINE
  5
273
100
AcDbEntity
  8
ASSI
100
AcDbLine
 62
250
  6
CONTINUOUS
 10
21.4364745231
 20
-28.4389303134
 11
17.3721866697
 21
-26.0922614444
  0
LINE
  5
274
100
AcDbEntity
  8
0
100
AcDbLine
 62
250
  6
CONTINUOUS
 10
-10.2086560224
 20
-10.1674285431
 11
-14.4476184837
 21
-7.7199047446
  0
LINE
  5
275
100
AcDbEntity
  8
ASSI
100
AcDbLine
 62
250
  6
CONTINUOUS
 10
-10.2086560224
 20
-10.1674285431
 11
-14.4476184837
 21
-7.7199047446
  0
LINE
  5
276
100
AcDbEntity
  8
0
100
AcDbLine
 62
7
  6
CONTINUOUS
 10
-12.8620167505
 20
-7.2020787915
 11
-9.03601536
 21
-9.4111640433
  0
LINE
  5
277
100
AcDbEntity
  8
ASSI
100
AcDbLine
 62
7
  6
CONTINUOUS
 10
-12.8620167505
 20
-7.2020787915
 11
-9.03601536
 21
-9.4111640433
  0
LINE
  5
278
100
AcDbEntity
  8
0
100
AcDbLine
 62
7
  6
CONTINUOUS
 10
18.9577884028
 20
-25.5744354912
 11
21.4364745231
 21
-27.0055977918
  0
LINE
  5
279
100
AcDbEntity
  8
ASSI
100
AcDbLine
 62
7
  6
CONTINUOUS
 10
18.9577884028
 20
-25.5744354912
 11
21.4364745231
 21
-27.0055977918
  0
LINE
  5
27A
100
AcDbEntity
  8
0
100
AcDbLine
 62
7
  6
CONTINUOUS
 10
3.1149877542
 20
-16.3881052949
 11
6.8067852887
 21
-18.5197029222
  0
LINE
  5
27B
100
AcDbEntity
  8
ASSI
100
AcDbLine
 62
7
  6
CONTINUOUS
 10
3.1149877542
 20
-16.3881052949
 11
6.8067852887
 21
-18.5197029222
  0
LINE
  5
27C
100
AcDbEntity
  8
0
100
AcDbLine
 62
250
  6
CONTINUOUS
 10
-9.0288077511
 20
-9.5546136967
 11
-9.0288077511
 21
-9.9619833345
  0
LINE
  5
27D
100
AcDbEntity
  8
ASSI
100
AcDbLine
 62
250
  6
CONTINUOUS
 10
-9.0288077511
 20
-9.5546136967
 11
-9.0288077511
 21
-9.9619833345
  0
LINE
  5
27E
100
AcDbEntity
  8
0
100
AcDbLine
 62
7
  6
CONTINUOUS
 10
-8.9774367162
 20
-9.4880361898
 11
-8.9774367162
 21
-9.9314380398
  0
LINE
  5
27F
100
AcDbEntity
  8
ASSI
100
AcDbLine
 62
7
  6
CONTINUOUS
 10
-8.9774367162
 20
-9.4880361898
 11
-8.9774367162
 21
-9.9314380398
  0
LINE
  5
280
100
AcDbEntity
  8
0
100
AcDbLine
 62
7
  6
CONTINUOUS
 10
-15.8634081845
 20
-8.7353255223
 11
-15.7573421673
 21
-8.5516137918
  0
LINE
  5
281
100
AcDbEntity
  8
ASSI
100
AcDbLine
 62
7
  6
CONTINUOUS
 10
-15.8634081845
 20
-8.7353255223
 11
-15.7573421673
 21
-8.5516137918
  0
LINE
  5
282
100
AcDbEntity
  8
0
100
AcDbLine
 62
7
  6
CONTINUOUS
 10
-15.5098547939
 20
-8.5311882257
 11
-15.4037887767
 21
-8.3474764952
  0
LINE
  5
283
100
AcDbEntity
  8
ASSI
100
AcDbLine
 62
7
  6
CONTINUOUS
 10
-15.5098547939
 20
-8.5311882257
 11
-15.4037887767
 21
-8.3474764952
  0
LINE
  5
284
100
AcDbEntity
  8
0
100
AcDbLine
 62
7
  6
CONTINUOUS
 10
-15.1563014033
 20
-8.327050929
 11
-15.0502353861
 21
-8.1433391985
  0
LINE
  5
285
100
AcDbEntity
  8
ASSI
100
AcDbLine
 62
7
  6
CONTINUOUS
 10
-15.1563014033
 20
-8.327050929
 11
-15.0502353861
 21
-8.1433391985
  0
LINE
  5
286
100
AcDbEntity
  8
0
100
AcDbLine
 62
7
  6
CONTINUOUS
 10
-14.8027480127
 20
-8.1229136324
 11
-14.6966819956
 21
-7.9392019018
  0
LINE
  5
287
100
AcDbEntity
  8
ASSI
100
AcDbLine
 62
7
  6
CONTINUOUS
 10
-14.8027480127
 20
-8.1229136324
 11
-14.6966819956
 21
-7.9392019018
  0
LINE
  5
288
100
AcDbEntity
  8
0
100
AcDbLine
 62
7
  6
CONTINUOUS
 10
-12.5931238884
 20
-11.2361637443
 11
-12.575361652
 21
-11.2053986485
  0
LINE
  5
289
100
AcDbEntity
  8
ASSI
100
AcDbLine
 62
7
  6
CONTINUOUS
 10
-12.5931238884
 20
-11.2361637443
 11
-12.575361652
 21
-11.2053986485
  0
LINE
  5
28A
100
AcDbEntity
  8
0
100
AcDbLine
 62
7
  6
CONTINUOUS
 10
-12.3278742786
 20
-11.1849730823
 11
-12.2218082614
 21
-11.0012613518
  0
LINE
  5
28B
100
AcDbEntity
  8
ASSI
100
AcDbLine
 62
7
  6
CONTINUOUS
 10
-12.3278742786
 20
-11.1849730823
 11
-12.2218082614
 21
-11.0012613518
  0
LINE
  5
28C
100
AcDbEntity
  8
0
100
AcDbLine
 62
7
  6
CONTINUOUS
 10
-11.974320888
 20
-10.9808357856
 11
-11.8682548708
 21
-10.7971240551
  0
LINE
  5
28D
100
AcDbEntity
  8
ASSI
100
AcDbLine
 62
7
  6
CONTINUOUS
 10
-11.974320888
 20
-10.9808357856
 11
-11.8682548708
 21
-10.7971240551
  0
LINE
  5
28E
100
AcDbEntity
  8
0
100
AcDbLine
 62
7
  6
CONTINUOUS
 10
-11.6207674974
 20
-10.776698489
 11
-11.5147014802
 21
-10.5929867585
  0
LINE
  5
28F
100
AcDbEntity
  8
ASSI
100
AcDbLine
 62
7
  6
CONTINUOUS
 10
-11.6207674974
 20
-10.776698489
 11
-11.5147014802
 21
-10.5929867585
  0
LINE
  5
290
100
AcDbEntity
  8
0
100
AcDbLine
 62
7
  6
CONTINUOUS
 10
-11.2672141068
 20
-10.5725611923
 11
-11.1611480896
 21
-10.3888494618
  0
LINE
  5
291
100
AcDbEntity
  8
ASSI
100
AcDbLine
 62
7
  6
CONTINUOUS
 10
-11.2672141068
 20
-10.5725611923
 11
-11.1611480896
 21
-10.3888494618
  0
LINE
  5
292
100
AcDbEntity
  8
RACCORDO
100
AcDbLine
 62
250
  6
CONTINUOUS
 10
-26.4346545633
 20
-4.7141206355
 11
-24.3133342197
 21
-3.4892968556
  0
LINE
  5
293
100
AcDbEntity
  8
RACCORDO
100
AcDbLine
 62
250
  6
CONTINUOUS
 10
-25.5861264258
 20
-6.1838144797
 11
-23.4648060823
 21
-4.9589906997
  0
LINE
  5
294
100
AcDbEntity
  8
0
100
AcDbLine
 62
7
  6
CONTINUOUS
 10
-10.9136607162
 20
-10.3684238957
 11
-10.807594699
 21
-10.1847121651
  0
LINE
  5
295
100
AcDbEntity
  8
ASSI
100
AcDbLine
 62
7
  6
CONTINUOUS
 10
-10.9136607162
 20
-10.3684238957
 11
-10.807594699
 21
-10.1847121651
  0
LINE
  5
296
100
AcDbEntity
  8
0
100
AcDbLine
 62
250
  6
CONTINUOUS
 10
-10.9732871641
 20
-11.2336209881
 11
-10.6373421991
 21
-10.9068673983
  0
LINE
  5
297
100
AcDbEntity
  8
ASSI
100
AcDbLine
 62
250
  6
CONTINUOUS
 10
-10.9732871641
 20
-11.2336209881
 11
-10.6373421991
 21
-10.9068673983
  0
LINE
  5
298
100
AcDbEntity
  8
0
100
AcDbLine
 62
7
  6
CONTINUOUS
 10
-10.9693622694
 20
-11.2671561526
 11
-10.5403779259
 21
-10.8499087198
  0
LINE
  5
299
100
AcDbEntity
  8
ASSI
100
AcDbLine
 62
7
  6
CONTINUOUS
 10
-10.9693622694
 20
-11.2671561526
 11
-10.5403779259
 21
-10.8499087198
  0
LINE
  5
29A
100
AcDbEntity
  8
0
100
AcDbLine
 62
7
  6
CONTINUOUS
 10
-16.4644489485
 20
-8.9598883852
 11
-16.3230275923
 21
-8.8782334665
  0
LINE
  5
29B
100
AcDbEntity
  8
ASSI
100
AcDbLine
 62
7
  6
CONTINUOUS
 10
-16.4644489485
 20
-8.9598883852
 11
-16.3230275923
 21
-8.8782334665
  0
LINE
  5
29C
100
AcDbEntity
  8
0
100
AcDbLine
 62
7
  6
CONTINUOUS
 10
-16.1108955579
 20
-8.7557510885
 11
-15.9694742017
 21
-8.6740961698
  0
LINE
  5
29D
100
AcDbEntity
  8
ASSI
100
AcDbLine
 62
7
  6
CONTINUOUS
 10
-16.1108955579
 20
-8.7557510885
 11
-15.9694742017
 21
-8.6740961698
  0
LINE
  5
29E
100
AcDbEntity
  8
0
100
AcDbLine
 62
7
  6
CONTINUOUS
 10
-15.7573421673
 20
-8.5516137918
 11
-15.6159208111
 21
-8.4699588732
  0
LINE
  5
29F
100
AcDbEntity
  8
ASSI
100
AcDbLine
 62
7
  6
CONTINUOUS
 10
-15.7573421673
 20
-8.5516137918
 11
-15.6159208111
 21
-8.4699588732
  0
LINE
  5
2A0
100
AcDbEntity
  8
0
100
AcDbLine
 62
7
  6
CONTINUOUS
 10
-15.4037887767
 20
-8.3474764952
 11
-15.2623674205
 21
-8.2658215765
  0
LINE
  5
2A1
100
AcDbEntity
  8
ASSI
100
AcDbLine
 62
7
  6
CONTINUOUS
 10
-15.4037887767
 20
-8.3474764952
 11
-15.2623674205
 21
-8.2658215765
  0
LINE
  5
2A2
100
AcDbEntity
  8
0
100
AcDbLine
 62
7
  6
CONTINUOUS
 10
-15.0502353861
 20
-8.1433391985
 11
-14.9088140299
 21
-8.0616842798
  0
LINE
  5
2A3
100
AcDbEntity
  8
ASSI
100
AcDbLine
 62
7
  6
CONTINUOUS
 10
-15.0502353861
 20
-8.1433391985
 11
-14.9088140299
 21
-8.0616842798
  0
LINE
  5
2A4
100
AcDbEntity
  8
0
100
AcDbLine
 62
7
  6
CONTINUOUS
 10
-14.6966819956
 20
-7.9392019018
 11
-14.5552606393
 21
-7.8575469832
  0
LINE
  5
2A5
100
AcDbEntity
  8
ASSI
100
AcDbLine
 62
7
  6
CONTINUOUS
 10
-14.6966819956
 20
-7.9392019018
 11
-14.5552606393
 21
-7.8575469832
  0
LINE
  5
2A6
100
AcDbEntity
  8
0
100
AcDbLine
 62
7
  6
CONTINUOUS
 10
-16.6800227376
 20
-8.8764395696
 11
-14.5216656367
 21
-7.7543485407
  0
LINE
  5
2A7
100
AcDbEntity
  8
ASSI
100
AcDbLine
 62
7
  6
CONTINUOUS
 10
-16.6800227376
 20
-8.8764395696
 11
-14.5216656367
 21
-7.7543485407
  0
LINE
  5
2A8
100
AcDbEntity
  8
0
100
AcDbLine
 62
7
  6
CONTINUOUS
 10
-10.2753283784
 20
-10.2061304545
 11
-12.2187218411
 21
-11.452338794
  0
LINE
  5
2A9
100
AcDbEntity
  8
ASSI
100
AcDbLine
 62
7
  6
CONTINUOUS
 10
-10.2753283784
 20
-10.2061304545
 11
-12.2187218411
 21
-11.452338794
  0
LINE
  5
2AA
100
AcDbEntity
  8
0
100
AcDbLine
 62
7
  6
CONTINUOUS
 10
-11.8895157896
 20
-11.6424182422
 11
-9.0288077511
 21
-9.9619833345
  0
LINE
  5
2AB
100
AcDbEntity
  8
ASSI
100
AcDbLine
 62
7
  6
CONTINUOUS
 10
-11.8895157896
 20
-11.6424182422
 11
-9.0288077511
 21
-9.9619833345
  0
LINE
  5
2AC
100
AcDbEntity
  8
0
100
AcDbLine
 62
7
  6
CONTINUOUS
 10
-11.0279766192
 20
-11.3116201778
 11
-11.7434392219
 21
-11.7267610217
  0
LINE
  5
2AD
100
AcDbEntity
  8
ASSI
100
AcDbLine
 62
7
  6
CONTINUOUS
 10
-11.0279766192
 20
-11.3116201778
 11
-11.7434392219
 21
-11.7267610217
  0
LINE
  5
2AE
100
AcDbEntity
  8
0
100
AcDbLine
 62
250
  6
CONTINUOUS
 10
-10.9732871641
 20
-11.2336209881
 11
-11.7836723186
 21
-11.7035309358
  0
LINE
  5
2AF
100
AcDbEntity
  8
ASSI
100
AcDbLine
 62
250
  6
CONTINUOUS
 10
-10.9732871641
 20
-11.2336209881
 11
-11.7836723186
 21
-11.7035309358
  0
LINE
  5
2B0
100
AcDbEntity
  8
0
100
AcDbLine
 62
7
  6
CONTINUOUS
 10
-12.575361652
 20
-11.2053986485
 11
-12.4339402958
 21
-11.1237437298
  0
LINE
  5
2B1
100
AcDbEntity
  8
ASSI
100
AcDbLine
 62
7
  6
CONTINUOUS
 10
-12.575361652
 20
-11.2053986485
 11
-12.4339402958
 21
-11.1237437298
  0
LINE
  5
2B2
100
AcDbEntity
  8
0
100
AcDbLine
 62
7
  6
CONTINUOUS
 10
-12.2218082614
 20
-11.0012613518
 11
-12.0803869052
 21
-10.9196064331
  0
LINE
  5
2B3
100
AcDbEntity
  8
ASSI
100
AcDbLine
 62
7
  6
CONTINUOUS
 10
-12.2218082614
 20
-11.0012613518
 11
-12.0803869052
 21
-10.9196064331
  0
LINE
  5
2B4
100
AcDbEntity
  8
0
100
AcDbLine
 62
7
  6
CONTINUOUS
 10
-11.8682548708
 20
-10.7971240551
 11
-11.7268335146
 21
-10.7154691365
  0
LINE
  5
2B5
100
AcDbEntity
  8
ASSI
100
AcDbLine
 62
7
  6
CONTINUOUS
 10
-11.8682548708
 20
-10.7971240551
 11
-11.7268335146
 21
-10.7154691365
  0
LINE
  5
2B6
100
AcDbEntity
  8
0
100
AcDbLine
 62
7
  6
CONTINUOUS
 10
-11.5147014802
 20
-10.5929867585
 11
-11.373280124
 21
-10.5113318398
  0
LINE
  5
2B7
100
AcDbEntity
  8
ASSI
100
AcDbLine
 62
7
  6
CONTINUOUS
 10
-11.5147014802
 20
-10.5929867585
 11
-11.373280124
 21
-10.5113318398
  0
LINE
  5
2B8
100
AcDbEntity
  8
0
100
AcDbLine
 62
7
  6
CONTINUOUS
 10
-11.1611480896
 20
-10.3888494618
 11
-11.0197267334
 21
-10.3071945431
  0
LINE
  5
2B9
100
AcDbEntity
  8
ASSI
100
AcDbLine
 62
7
  6
CONTINUOUS
 10
-11.1611480896
 20
-10.3888494618
 11
-11.0197267334
 21
-10.3071945431
  0
LINE
  5
2BA
100
AcDbEntity
  8
0
100
AcDbLine
 62
7
  6
CONTINUOUS
 10
-10.807594699
 20
-10.1847121651
 11
-10.6661733428
 21
-10.1030572465
  0
LINE
  5
2BB
100
AcDbEntity
  8
ASSI
100
AcDbLine
 62
7
  6
CONTINUOUS
 10
-10.807594699
 20
-10.1847121651
 11
-10.6661733428
 21
-10.1030572465
  0
LINE
  5
2BC
100
AcDbEntity
  8
0
100
AcDbLine
 62
7
  6
CONTINUOUS
 10
-10.5601073256
 20
-10.164286599
 11
-12.5048286411
 21
-11.2871443135
  0
LINE
  5
2BD
100
AcDbEntity
  8
ASSI
100
AcDbLine
 62
7
  6
CONTINUOUS
 10
-10.5601073256
 20
-10.164286599
 11
-12.5048286411
 21
-11.2871443135
  0
LINE
  5
2BE
100
AcDbEntity
  8
0
100
AcDbLine
 62
7
  6
CONTINUOUS
 10
-9.0288077511
 20
-9.5546136967
 11
-10.2086560224
 21
-10.1674285431
  0
LINE
  5
2BF
100
AcDbEntity
  8
ASSI
100
AcDbLine
 62
7
  6
CONTINUOUS
 10
-9.0288077511
 20
-9.5546136967
 11
-10.2086560224
 21
-10.1674285431
  0
LINE
  5
2C0
100
AcDbEntity
  8
0
100
AcDbLine
 62
7
  6
CONTINUOUS
 10
-14.4476184837
 20
-7.7199047446
 11
-13.1372642281
 21
-7.1824424179
  0
LINE
  5
2C1
100
AcDbEntity
  8
ASSI
100
AcDbLine
 62
7
  6
CONTINUOUS
 10
-14.4476184837
 20
-7.7199047446
 11
-13.1372642281
 21
-7.1824424179
  0
LINE
  5
2C2
100
AcDbEntity
  8
0
100
AcDbLine
 62
250
  6
CONTINUOUS
 10
6.817596702
 20
-18.7560638912
 11
6.817596702
 21
-19.1850865853
  0
LINE
  5
2C3
100
AcDbEntity
  8
ASSI
100
AcDbLine
 62
250
  6
CONTINUOUS
 10
6.817596702
 20
-18.7560638912
 11
6.817596702
 21
-19.1850865853
  0
LINE
  5
2C4
100
AcDbEntity
  8
0
100
AcDbLine
 62
7
  6
CONTINUOUS
 10
6.8946532543
 20
-18.6415592209
 11
6.8946532543
 21
-19.0396050057
  0
LINE
  5
2C5
100
AcDbEntity
  8
ASSI
100
AcDbLine
 62
7
  6
CONTINUOUS
 10
6.8946532543
 20
-18.6415592209
 11
6.8946532543
 21
-19.0396050057
  0
LINE
  5
2C6
100
AcDbEntity
  8
SMUSSO
100
AcDbLine
 62
7
  6
CONTINUOUS
 10
40.6344236323
 20
11.591209753
 11
41.6950838041
 21
12.203621643
  0
LINE
  5
2C7
100
AcDbEntity
  8
0
100
AcDbLine
 62
250
  6
CONTINUOUS
 10
41.6956296857
 20
12.2038637063
 11
43.7104458262
 21
13.3671972887
  0
LINE
  5
2C8
100
AcDbEntity
  8
ASSI
100
AcDbLine
 62
250
  6
CONTINUOUS
 10
41.6956296857
 20
12.2038637063
 11
43.7104458262
 21
13.3671972887
  0
LINE
  5
2C9
100
AcDbEntity
  8
SMUSSO
100
AcDbLine
 62
7
  6
CONTINUOUS
 10
40.6344236323
 20
10.7747000213
 11
39.9273168511
 21
10.3664648829
  0
LINE
  5
2CA
100
AcDbEntity
  8
0
100
AcDbLine
 62
250
  6
CONTINUOUS
 10
42.4026287711
 20
10.9793053708
 11
44.4174449116
 21
12.1426389532
  0
LINE
  5
2CB
100
AcDbEntity
  8
ASSI
100
AcDbLine
 62
250
  6
CONTINUOUS
 10
42.4026287711
 20
10.9793053708
 11
44.4174449116
 21
12.1426389532
  0
LINE
  5
2CC
100
AcDbEntity
  8
SMUSSO
100
AcDbLine
 62
7
  6
CONTINUOUS
 10
41.3415304135
 20
10.3664648829
 11
42.4021905853
 21
10.9788767729
  0
LINE
  5
2CD
100
AcDbEntity
  8
0
100
AcDbLine
 62
7
  6
CONTINUOUS
 10
-0.6881792184
 20
-18.1099295927
 11
2.7021165379
 21
-16.3798372236
  0
LINE
  5
2CE
100
AcDbEntity
  8
ASSI
100
AcDbLine
 62
7
  6
CONTINUOUS
 10
-0.6881792184
 20
-18.1099295927
 11
2.7021165379
 21
-16.3798372236
  0
LINE
  5
2CF
100
AcDbEntity
  8
RACCORDO
100
AcDbLine
 62
7
  6
CONTINUOUS
 10
20.5879463857
 20
4.060311087
 11
-25.5861264258
 21
30.7206420313
  0
LINE
  5
2D0
100
AcDbEntity
  8
0
100
AcDbLine
 62
7
  6
CONTINUOUS
 10
5.6277467771
 20
-19.8844024276
 11
5.2849661071
 21
-20.2178046991
  0
LINE
  5
2D1
100
AcDbEntity
  8
ASSI
100
AcDbLine
 62
7
  6
CONTINUOUS
 10
5.6277467771
 20
-19.8844024276
 11
5.2849661071
 21
-20.2178046991
  0
LINE
  5
2D2
100
AcDbEntity
  8
0
100
AcDbLine
 62
7
  6
CONTINUOUS
 10
6.817596702
 20
-18.7560638912
 11
3.7649606916
 21
-20.6811167658
  0
LINE
  5
2D3
100
AcDbEntity
  8
ASSI
100
AcDbLine
 62
7
  6
CONTINUOUS
 10
6.817596702
 20
-18.7560638912
 11
3.7649606916
 21
-20.6811167658
  0
LINE
  5
2D4
100
AcDbEntity
  8
0
100
AcDbLine
 62
7
  6
CONTINUOUS
 10
4.0203867871
 20
-20.8285965921
 11
6.8082458566
 21
-19.1909545696
  0
LINE
  5
2D5
100
AcDbEntity
  8
ASSI
100
AcDbLine
 62
7
  6
CONTINUOUS
 10
4.0203867871
 20
-20.8285965921
 11
6.8082458566
 21
-19.1909545696
  0
LINE
  5
2D6
100
AcDbEntity
  8
0
100
AcDbLine
 62
7
  6
CONTINUOUS
 10
5.0518421534
 20
-20.3992061586
 11
4.1664633548
 21
-20.9129393715
  0
LINE
  5
2D7
100
AcDbEntity
  8
ASSI
100
AcDbLine
 62
7
  6
CONTINUOUS
 10
5.0518421534
 20
-20.3992061586
 11
4.1664633548
 21
-20.9129393715
  0
LINE
  5
2D8
100
AcDbEntity
  8
0
100
AcDbLine
 62
250
  6
CONTINUOUS
 10
5.2849661071
 20
-20.2178046991
 11
4.1262302581
 21
-20.8897092857
  0
LINE
  5
2D9
100
AcDbEntity
  8
ASSI
100
AcDbLine
 62
250
  6
CONTINUOUS
 10
5.2849661071
 20
-20.2178046991
 11
4.1262302581
 21
-20.8897092857
  0
LINE
  5
2DA
100
AcDbEntity
  8
RACCORDO
100
AcDbLine
 62
7
  6
CONTINUOUS
 10
21.4364745231
 20
-32.3543106038
 11
21.4364745231
 21
2.5906172429
  0
LINE
  5
2DB
100
AcDbEntity
  8
0
100
AcDbLine
 62
250
  6
CONTINUOUS
 10
43.7359803175
 20
13.352584293
 11
44.5860214505
 21
13.1067103446
  0
LINE
  5
2DC
100
AcDbEntity
  8
ASSI
100
AcDbLine
 62
250
  6
CONTINUOUS
 10
43.7359803175
 20
13.352584293
 11
44.5860214505
 21
13.1067103446
  0
LINE
  5
2DD
100
AcDbEntity
  8
0
100
AcDbLine
 62
7
  6
CONTINUOUS
 10
15.3375939685
 20
-27.3630101807
 11
15.3553562049
 21
-27.3322450849
  0
LINE
  5
2DE
100
AcDbEntity
  8
ASSI
100
AcDbLine
 62
7
  6
CONTINUOUS
 10
15.3375939685
 20
-27.3630101807
 11
15.3553562049
 21
-27.3322450849
  0
LINE
  5
2DF
100
AcDbEntity
  8
0
100
AcDbLine
 62
7
  6
CONTINUOUS
 10
15.6028435783
 20
-27.3118195188
 11
15.7089095955
 21
-27.1281077882
  0
LINE
  5
2E0
100
AcDbEntity
  8
ASSI
100
AcDbLine
 62
7
  6
CONTINUOUS
 10
15.6028435783
 20
-27.3118195188
 11
15.7089095955
 21
-27.1281077882
  0
LINE
  5
2E1
100
AcDbEntity
  8
0
100
AcDbLine
 62
7
  6
CONTINUOUS
 10
15.9563969689
 20
-27.1076822221
 11
16.0624629861
 21
-26.9239704916
  0
LINE
  5
2E2
100
AcDbEntity
  8
ASSI
100
AcDbLine
 62
7
  6
CONTINUOUS
 10
15.9563969689
 20
-27.1076822221
 11
16.0624629861
 21
-26.9239704916
  0
LINE
  5
2E3
100
AcDbEntity
  8
0
100
AcDbLine
 62
7
  6
CONTINUOUS
 10
16.3099503595
 20
-26.9035449254
 11
16.4160163767
 21
-26.7198331949
  0
LINE
  5
2E4
100
AcDbEntity
  8
ASSI
100
AcDbLine
 62
7
  6
CONTINUOUS
 10
16.3099503595
 20
-26.9035449254
 11
16.4160163767
 21
-26.7198331949
  0
LINE
  5
2E5
100
AcDbEntity
  8
0
100
AcDbLine
 62
7
  6
CONTINUOUS
 10
16.6635037501
 20
-26.6994076288
 11
16.7695697672
 21
-26.5156958982
  0
LINE
  5
2E6
100
AcDbEntity
  8
ASSI
100
AcDbLine
 62
7
  6
CONTINUOUS
 10
16.6635037501
 20
-26.6994076288
 11
16.7695697672
 21
-26.5156958982
  0
LINE
  5
2E7
100
AcDbEntity
  8
0
100
AcDbLine
 62
7
  6
CONTINUOUS
 10
17.0170571407
 20
-26.4952703321
 11
17.1231231578
 21
-26.3115586016
  0
LINE
  5
2E8
100
AcDbEntity
  8
ASSI
100
AcDbLine
 62
7
  6
CONTINUOUS
 10
17.0170571407
 20
-26.4952703321
 11
17.1231231578
 21
-26.3115586016
  0
LINE
  5
2E9
100
AcDbEntity
  8
0
100
AcDbLine
 62
7
  6
CONTINUOUS
 10
15.1397824158
 20
-27.2487962694
 11
17.2981395167
 21
-26.1267052404
  0
LINE
  5
2EA
100
AcDbEntity
  8
ASSI
100
AcDbLine
 62
7
  6
CONTINUOUS
 10
15.1397824158
 20
-27.2487962694
 11
17.2981395167
 21
-26.1267052404
  0
LINE
  5
2EB
100
AcDbEntity
  8
0
100
AcDbLine
 62
7
  6
CONTINUOUS
 10
17.3721866697
 20
-26.0922614444
 11
18.6825409253
 21
-25.5547991177
  0
LINE
  5
2EC
100
AcDbEntity
  8
ASSI
100
AcDbLine
 62
7
  6
CONTINUOUS
 10
17.3721866697
 20
-26.0922614444
 11
18.6825409253
 21
-25.5547991177
  0
LINE
  5
2ED
100
AcDbEntity
  8
SMUSSO
100
AcDbLine
 62
7
  6
CONTINUOUS
 10
39.9273168511
 20
10.3664648829
 11
-44.9254968913
 21
59.3594160822
  0
LINE
  5
2EE
100
AcDbEntity
  8
SMUSSO
100
AcDbLine
 62
7
  6
CONTINUOUS
 10
40.6344236323
 20
10.7747000213
 11
41.3415304135
 21
10.3664648829
  0
LINE
  5
2EF
100
AcDbEntity
  8
SMUSSO
100
AcDbLine
 62
7
  6
CONTINUOUS
 10
40.6344236323
 20
11.591209753
 11
-44.2183901101
 21
60.5841609523
  0
LINE
  5
2F0
100
AcDbEntity
  8
0
100
AcDbLine
 62
7
  6
CONTINUOUS
 10
19.226681265
 20
-29.608520444
 11
19.2444435014
 21
-29.5777553482
  0
LINE
  5
2F1
100
AcDbEntity
  8
ASSI
100
AcDbLine
 62
7
  6
CONTINUOUS
 10
19.226681265
 20
-29.608520444
 11
19.2444435014
 21
-29.5777553482
  0
LINE
  5
2F2
100
AcDbEntity
  8
0
100
AcDbLine
 62
7
  6
CONTINUOUS
 10
19.4919308748
 20
-29.5573297821
 11
19.597996892
 21
-29.3736180515
  0
LINE
  5
2F3
100
AcDbEntity
  8
ASSI
100
AcDbLine
 62
7
  6
CONTINUOUS
 10
19.4919308748
 20
-29.5573297821
 11
19.597996892
 21
-29.3736180515
  0
LINE
  5
2F4
100
AcDbEntity
  8
0
100
AcDbLine
 62
7
  6
CONTINUOUS
 10
19.8454842654
 20
-29.3531924854
 11
19.9515502826
 21
-29.1694807549
  0
LINE
  5
2F5
100
AcDbEntity
  8
ASSI
100
AcDbLine
 62
7
  6
CONTINUOUS
 10
19.8454842654
 20
-29.3531924854
 11
19.9515502826
 21
-29.1694807549
  0
LINE
  5
2F6
100
AcDbEntity
  8
0
100
AcDbLine
 62
7
  6
CONTINUOUS
 10
20.199037656
 20
-29.1490551887
 11
20.3051036732
 21
-28.9653434582
  0
LINE
  5
2F7
100
AcDbEntity
  8
ASSI
100
AcDbLine
 62
7
  6
CONTINUOUS
 10
20.199037656
 20
-29.1490551887
 11
20.3051036732
 21
-28.9653434582
  0
LINE
  5
2F8
100
AcDbEntity
  8
0
100
AcDbLine
 62
7
  6
CONTINUOUS
 10
20.5525910466
 20
-28.9449178921
 11
20.6586570638
 21
-28.7612061615
  0
LINE
  5
2F9
100
AcDbEntity
  8
ASSI
100
AcDbLine
 62
7
  6
CONTINUOUS
 10
20.5525910466
 20
-28.9449178921
 11
20.6586570638
 21
-28.7612061615
  0
LINE
  5
2FA
100
AcDbEntity
  8
0
100
AcDbLine
 62
7
  6
CONTINUOUS
 10
20.9061444372
 20
-28.7407805954
 11
21.0122104544
 21
-28.5570688649
  0
LINE
  5
2FB
100
AcDbEntity
  8
ASSI
100
AcDbLine
 62
7
  6
CONTINUOUS
 10
20.9061444372
 20
-28.7407805954
 11
21.0122104544
 21
-28.5570688649
  0
LINE
  5
2FC
100
AcDbEntity
  8
0
100
AcDbLine
 62
250
  6
CONTINUOUS
 10
20.8465179893
 20
-29.6059776879
 11
21.1824629542
 21
-29.2792240981
  0
LINE
  5
2FD
100
AcDbEntity
  8
ASSI
100
AcDbLine
 62
250
  6
CONTINUOUS
 10
20.8465179893
 20
-29.6059776879
 11
21.1824629542
 21
-29.2792240981
  0
LINE
  5
2FE
100
AcDbEntity
  8
0
100
AcDbLine
 62
7
  6
CONTINUOUS
 10
20.850442884
 20
-29.6395128524
 11
21.2794272275
 21
-29.2222654195
  0
LINE
  5
2FF
100
AcDbEntity
  8
ASSI
100
AcDbLine
 62
7
  6
CONTINUOUS
 10
20.850442884
 20
-29.6395128524
 11
21.2794272275
 21
-29.2222654195
  0
LINE
  5
300
100
AcDbEntity
  8
0
100
AcDbLine
 62
7
  6
CONTINUOUS
 10
21.4364745231
 20
-28.647744003
 11
19.6010833123
 21
-29.8246954938
  0
LINE
  5
301
100
AcDbEntity
  8
ASSI
100
AcDbLine
 62
7
  6
CONTINUOUS
 10
21.4364745231
 20
-28.647744003
 11
19.6010833123
 21
-29.8246954938
  0
LINE
  5
302
100
AcDbEntity
  8
0
100
AcDbLine
 62
7
  6
CONTINUOUS
 10
19.9302893638
 20
-30.014774942
 11
21.4364745231
 21
-29.1300128184
  0
LINE
  5
303
100
AcDbEntity
  8
ASSI
100
AcDbLine
 62
7
  6
CONTINUOUS
 10
19.9302893638
 20
-30.014774942
 11
21.4364745231
 21
-29.1300128184
  0
LINE
  5
304
100
AcDbEntity
  8
0
100
AcDbLine
 62
7
  6
CONTINUOUS
 10
20.7918285342
 20
-29.6839768775
 11
20.0763659315
 21
-30.0991177214
  0
LINE
  5
305
100
AcDbEntity
  8
ASSI
100
AcDbLine
 62
7
  6
CONTINUOUS
 10
20.7918285342
 20
-29.6839768775
 11
20.0763659315
 21
-30.0991177214
  0
LINE
  5
306
100
AcDbEntity
  8
0
100
AcDbLine
 62
250
  6
CONTINUOUS
 10
20.8465179893
 20
-29.6059776879
 11
20.0361328348
 21
-30.0758876356
  0
LINE
  5
307
100
AcDbEntity
  8
ASSI
100
AcDbLine
 62
250
  6
CONTINUOUS
 10
20.8465179893
 20
-29.6059776879
 11
20.0361328348
 21
-30.0758876356
  0
LINE
  5
308
100
AcDbEntity
  8
0
100
AcDbLine
 62
7
  6
CONTINUOUS
 10
15.3553562049
 20
-27.3322450849
 11
15.4967775611
 21
-27.2505901662
  0
LINE
  5
309
100
AcDbEntity
  8
ASSI
100
AcDbLine
 62
7
  6
CONTINUOUS
 10
15.3553562049
 20
-27.3322450849
 11
15.4967775611
 21
-27.2505901662
  0
LINE
  5
30A
100
AcDbEntity
  8
0
100
AcDbLine
 62
7
  6
CONTINUOUS
 10
15.7089095955
 20
-27.1281077882
 11
15.8503309517
 21
-27.0464528696
  0
LINE
  5
30B
100
AcDbEntity
  8
ASSI
100
AcDbLine
 62
7
  6
CONTINUOUS
 10
15.7089095955
 20
-27.1281077882
 11
15.8503309517
 21
-27.0464528696
  0
LINE
  5
30C
100
AcDbEntity
  8
0
100
AcDbLine
 62
7
  6
CONTINUOUS
 10
16.0624629861
 20
-26.9239704916
 11
16.2038843423
 21
-26.8423155729
  0
LINE
  5
30D
100
AcDbEntity
  8
ASSI
100
AcDbLine
 62
7
  6
CONTINUOUS
 10
16.0624629861
 20
-26.9239704916
 11
16.2038843423
 21
-26.8423155729
  0
LINE
  5
30E
100
AcDbEntity
  8
0
100
AcDbLine
 62
7
  6
CONTINUOUS
 10
16.4160163767
 20
-26.7198331949
 11
16.5574377329
 21
-26.6381782762
  0
LINE
  5
30F
100
AcDbEntity
  8
ASSI
100
AcDbLine
 62
7
  6
CONTINUOUS
 10
16.4160163767
 20
-26.7198331949
 11
16.5574377329
 21
-26.6381782762
  0
LINE
  5
310
100
AcDbEntity
  8
0
100
AcDbLine
 62
7
  6
CONTINUOUS
 10
16.7695697672
 20
-26.5156958982
 11
16.9109911235
 21
-26.4340409796
  0
LINE
  5
311
100
AcDbEntity
  8
ASSI
100
AcDbLine
 62
7
  6
CONTINUOUS
 10
16.7695697672
 20
-26.5156958982
 11
16.9109911235
 21
-26.4340409796
  0
LINE
  5
312
100
AcDbEntity
  8
0
100
AcDbLine
 62
7
  6
CONTINUOUS
 10
17.1231231578
 20
-26.3115586016
 11
17.2645445141
 21
-26.2299036829
  0
LINE
  5
313
100
AcDbEntity
  8
ASSI
100
AcDbLine
 62
7
  6
CONTINUOUS
 10
17.1231231578
 20
-26.3115586016
 11
17.2645445141
 21
-26.2299036829
  0
LINE
  5
314
100
AcDbEntity
  8
0
100
AcDbLine
 62
7
  6
CONTINUOUS
 10
19.2444435014
 20
-29.5777553482
 11
19.3858648576
 21
-29.4961004295
  0
LINE
  5
315
100
AcDbEntity
  8
ASSI
100
AcDbLine
 62
7
  6
CONTINUOUS
 10
19.2444435014
 20
-29.5777553482
 11
19.3858648576
 21
-29.4961004295
  0
LINE
  5
316
100
AcDbEntity
  8
0
100
AcDbLine
 62
7
  6
CONTINUOUS
 10
19.597996892
 20
-29.3736180515
 11
19.7394182482
 21
-29.2919631329
  0
LINE
  5
317
100
AcDbEntity
  8
ASSI
100
AcDbLine
 62
7
  6
CONTINUOUS
 10
19.597996892
 20
-29.3736180515
 11
19.7394182482
 21
-29.2919631329
  0
LINE
  5
318
100
AcDbEntity
  8
0
100
AcDbLine
 62
7
  6
CONTINUOUS
 10
19.9515502826
 20
-29.1694807549
 11
20.0929716388
 21
-29.0878258362
  0
LINE
  5
319
100
AcDbEntity
  8
ASSI
100
AcDbLine
 62
7
  6
CONTINUOUS
 10
19.9515502826
 20
-29.1694807549
 11
20.0929716388
 21
-29.0878258362
  0
LINE
  5
31A
100
AcDbEntity
  8
0
100
AcDbLine
 62
7
  6
CONTINUOUS
 10
20.3051036732
 20
-28.9653434582
 11
20.4465250294
 21
-28.8836885395
  0
LINE
  5
31B
100
AcDbEntity
  8
ASSI
100
AcDbLine
 62
7
  6
CONTINUOUS
 10
20.3051036732
 20
-28.9653434582
 11
20.4465250294
 21
-28.8836885395
  0
LINE
  5
31C
100
AcDbEntity
  8
0
100
AcDbLine
 62
7
  6
CONTINUOUS
 10
20.6586570638
 20
-28.7612061615
 11
20.80007842
 21
-28.6795512429
  0
LINE
  5
31D
100
AcDbEntity
  8
ASSI
100
AcDbLine
 62
7
  6
CONTINUOUS
 10
20.6586570638
 20
-28.7612061615
 11
20.80007842
 21
-28.6795512429
  0
LINE
  5
31E
100
AcDbEntity
  8
0
100
AcDbLine
 62
7
  6
CONTINUOUS
 10
21.0122104544
 20
-28.5570688649
 11
21.1536318106
 21
-28.4754139462
  0
LINE
  5
31F
100
AcDbEntity
  8
ASSI
100
AcDbLine
 62
7
  6
CONTINUOUS
 10
21.0122104544
 20
-28.5570688649
 11
21.1536318106
 21
-28.4754139462
  0
LINE
  5
320
100
AcDbEntity
  8
0
100
AcDbLine
 62
7
  6
CONTINUOUS
 10
21.2596978278
 20
-28.5366432987
 11
19.3149765123
 21
-29.6595010132
  0
LINE
  5
321
100
AcDbEntity
  8
ASSI
100
AcDbLine
 62
7
  6
CONTINUOUS
 10
21.2596978278
 20
-28.5366432987
 11
19.3149765123
 21
-29.6595010132
  0
LINE
  5
322
100
AcDbEntity
  8
SMUSSO
100
AcDbLine
 62
7
  6
CONTINUOUS
 10
-43.1577299383
 20
61.1965728423
 11
42.4021905853
 21
11.7953865046
  0
LINE
  5
323
100
AcDbEntity
  8
0
100
AcDbLine
 62
7
  6
CONTINUOUS
 10
-40.1526338141
 20
61.7886884218
 11
43.7104458262
 21
13.3671972887
  0
LINE
  5
324
100
AcDbEntity
  8
ASSI
100
AcDbLine
 62
7
  6
CONTINUOUS
 10
-40.1526338141
 20
61.7886884218
 11
43.7104458262
 21
13.3671972887
  0
LINE
  5
325
100
AcDbEntity
  8
0
100
AcDbLine
 62
7
  6
CONTINUOUS
 10
-38.9068890947
 20
61.3144704815
 11
44.5860214505
 21
13.1067103446
  0
LINE
  5
326
100
AcDbEntity
  8
ASSI
100
AcDbLine
 62
7
  6
CONTINUOUS
 10
-38.9068890947
 20
61.3144704815
 11
44.5860214505
 21
13.1067103446
  0
LINE
  5
327
100
AcDbEntity
  8
SMUSSO
100
AcDbLine
 62
7
  6
CONTINUOUS
 10
39.9273168511
 20
-61.4829194749
 11
39.9273168511
 21
10.3664648829
  0
LINE
  5
328
100
AcDbEntity
  8
SMUSSO
100
AcDbLine
 62
7
  6
CONTINUOUS
 10
40.6344236323
 20
11.591209753
 11
40.6344236323
 21
10.7747000213
  0
LINE
  5
329
100
AcDbEntity
  8
SMUSSO
100
AcDbLine
 62
7
  6
CONTINUOUS
 10
41.3415304135
 20
-61.4829194749
 11
41.3415304135
 21
10.3664648829
  0
LINE
  5
32A
100
AcDbEntity
  8
0
100
AcDbLine
 62
250
  6
CONTINUOUS
 10
44.4175577035
 20
12.1720576324
 11
44.629576946
 21
13.0312700135
  0
LINE
  5
32B
100
AcDbEntity
  8
ASSI
100
AcDbLine
 62
250
  6
CONTINUOUS
 10
44.4175577035
 20
12.1720576324
 11
44.629576946
 21
13.0312700135
  0
LINE
  5
32C
100
AcDbEntity
  8
RACCORDO
100
AcDbLine
 62
250
  6
CONTINUOUS
 10
20.5879463857
 20
-32.844145424
 11
21.436433519
 21
-32.3542395872
  0
LINE
  5
32D
100
AcDbEntity
  8
SMUSSO
100
AcDbLine
 62
7
  6
CONTINUOUS
 10
42.4021905853
 20
-60.8705075849
 11
42.4021905853
 21
11.7953865046
  0
LINE
  5
32E
100
AcDbEntity
  8
0
100
AcDbLine
 62
250
  6
CONTINUOUS
 10
42.7628876237
 20
-53.7244086695
 11
42.7628876237
 21
-53.4006194189
  0
LINE
  5
32F
100
AcDbEntity
  8
0
100
AcDbLine
 62
250
  6
CONTINUOUS
 10
42.7629668268
 20
-50.8024975083
 11
42.7629668268
 21
-51.1157248995
  0
LINE
  5
330
100
AcDbEntity
  8
0
100
AcDbLine
 62
250
  6
CONTINUOUS
 10
42.7629668268
 20
-51.7981650485
 11
42.7629668268
 21
-52.1185234911
  0
LINE
  5
331
100
AcDbEntity
  8
0
100
AcDbLine
 62
250
  6
CONTINUOUS
 10
42.7629668268
 20
-52.7626826148
 11
42.7629668268
 21
-53.0862040631
  0
LINE
  5
332
100
AcDbEntity
  8
0
100
AcDbLine
 62
250
  6
CONTINUOUS
 10
42.7629668268
 20
-53.844520428
 11
42.7629668268
 21
-54.1680884151
  0
LINE
  5
333
100
AcDbEntity
  8
0
100
AcDbLine
 62
250
  6
CONTINUOUS
 10
42.7629668268
 20
-54.7684822826
 11
42.7629668268
 21
-55.1202176778
  0
LINE
  5
334
100
AcDbEntity
  8
0
100
AcDbLine
 62
250
  6
CONTINUOUS
 10
43.3501830903
 20
-49.5686323403
 11
43.3501830903
 21
-49.3835898415
  0
LINE
  5
335
100
AcDbEntity
  8
0
100
AcDbLine
 62
250
  6
CONTINUOUS
 10
43.5663581465
 20
-49.2550362168
 11
43.5663581465
 21
-49.4286444199
  0
LINE
  5
336
100
AcDbEntity
  8
0
100
AcDbLine
 62
250
  6
CONTINUOUS
 10
43.6155022332
 20
-50.306676529
 11
43.6155022332
 21
-50.6166821284
  0
LINE
  5
337
100
AcDbEntity
  8
0
100
AcDbLine
 62
250
  6
CONTINUOUS
 10
43.819403711
 20
-50.5610018666
 11
43.819403711
 21
-50.1200540301
  0
LINE
  5
338
100
AcDbEntity
  8
0
100
AcDbLine
 62
250
  6
CONTINUOUS
 10
44.0829117873
 20
-53.8392693991
 11
44.0829117873
 21
-53.5539293667
  0
LINE
  5
339
100
AcDbEntity
  8
0
100
AcDbLine
 62
250
  6
CONTINUOUS
 10
44.0829117873
 20
-52.4370674281
 11
44.0829117873
 21
-52.1273067698
  0
LINE
  5
33A
100
AcDbEntity
  8
0
100
AcDbLine
 62
250
  6
CONTINUOUS
 10
44.0829117873
 20
-51.6775884095
 11
44.0829117873
 21
-51.6321771492
  0
LINE
  5
33B
100
AcDbEntity
  8
0
100
AcDbLine
 62
250
  6
CONTINUOUS
 10
44.0829117873
 20
-51.1806674532
 11
44.0829117873
 21
-50.8639153599
  0
LINE
  5
33C
100
AcDbEntity
  8
0
100
AcDbLine
 62
250
  6
CONTINUOUS
 10
44.0829117873
 20
-50.8130721228
 11
44.0829117873
 21
-50.4927953274
  0
LINE
  5
33D
100
AcDbEntity
  8
0
100
AcDbLine
 62
250
  6
CONTINUOUS
 10
44.0829117873
 20
-49.878623524
 11
44.0829117873
 21
-49.5373626259
  0
LINE
  5
33E
100
AcDbEntity
  8
0
100
AcDbLine
 62
250
  6
CONTINUOUS
 10
44.0829116108
 20
-48.3125090857
 11
44.0829116108
 21
-48.6239569677
  0
LINE
  5
33F
100
AcDbEntity
  8
0
100
AcDbLine
 62
250
  6
CONTINUOUS
 10
44.0829116108
 20
-49.1197959543
 11
44.0829116108
 21
-49.4422826426
  0
LINE
  5
340
100
AcDbEntity
  8
0
100
AcDbLine
 62
250
  6
CONTINUOUS
 10
44.0829117873
 20
-52.6113740345
 11
44.0829117873
 21
-52.9351632851
  0
LINE
  5
341
100
AcDbEntity
  8
0
100
AcDbLine
 62
7
  6
CONTINUOUS
 10
44.4174449116
 20
12.1426389532
 11
44.4174449116
 21
-58.5639357219
  0
LINE
  5
342
100
AcDbEntity
  8
ASSI
100
AcDbLine
 62
7
  6
CONTINUOUS
 10
44.4174449116
 20
12.1426389532
 11
44.4174449116
 21
-58.5639357219
  0
LINE
  5
343
100
AcDbEntity
  8
0
100
AcDbLine
 62
7
  6
CONTINUOUS
 10
44.629576946
 20
13.0312700135
 11
44.629576946
 21
-57.2478839783
  0
LINE
  5
344
100
AcDbEntity
  8
ASSI
100
AcDbLine
 62
7
  6
CONTINUOUS
 10
44.629576946
 20
13.0312700135
 11
44.629576946
 21
-57.2478839783
  0
LINE
  5
345
100
AcDbEntity
  8
0
100
AcDbLine
 62
250
  6
CONTINUOUS
 10
-40.1770403867
 20
61.8029107705
 11
-38.9068890947
 21
61.3144704815
  0
LINE
  5
346
100
AcDbEntity
  8
ASSI
100
AcDbLine
 62
250
  6
CONTINUOUS
 10
-40.1770403867
 20
61.8029107705
 11
-38.9068890947
 21
61.3144704815
  0
LINE
  5
347
100
AcDbEntity
  8
0
100
AcDbLine
 62
7
  6
CONTINUOUS
 10
-38.913914868
 20
61.3178816024
 11
-40.2810405121
 21
61.8539594352
  0
LINE
  5
348
100
AcDbEntity
  8
ASSI
100
AcDbLine
 62
7
  6
CONTINUOUS
 10
-38.913914868
 20
61.3178816024
 11
-40.2810405121
 21
61.8539594352
  0
LINE
  5
349
100
AcDbEntity
  8
0
100
AcDbLine
 62
7
  6
CONTINUOUS
 10
44.629018522
 20
-57.2556697098
 11
44.409771766
 21
-58.7077084387
  0
LINE
  5
34A
100
AcDbEntity
  8
ASSI
100
AcDbLine
 62
7
  6
CONTINUOUS
 10
44.629018522
 20
-57.2556697098
 11
44.409771766
 21
-58.7077084387
  0
LINE
  5
34B
100
AcDbEntity
  8
0
100
AcDbLine
 62
250
  6
CONTINUOUS
 10
44.4175577035
 20
-58.5921821582
 11
44.629576946
 21
-57.2478839783
  0
LINE
  5
34C
100
AcDbEntity
  8
ASSI
100
AcDbLine
 62
250
  6
CONTINUOUS
 10
44.4175577035
 20
-58.5921821582
 11
44.629576946
 21
-57.2478839783
  0
LINE
  5
34D
100
AcDbEntity
  8
0
100
AcDbLine
 62
250
  6
CONTINUOUS
 10
44.0829117873
 20
-49.5373626259
 11
42.7629668268
 21
-50.8024975083
  0
LINE
  5
34E
100
AcDbEntity
  8
0
100
AcDbLine
 62
250
  6
CONTINUOUS
 10
43.819403711
 20
-50.1200540301
 11
44.0829117873
 21
-49.878623524
  0
LINE
  5
34F
100
AcDbEntity
  8
0
100
AcDbLine
 62
250
  6
CONTINUOUS
 10
43.1256538803
 20
-50.7483433277
 11
43.6155022332
 21
-50.306676529
  0
LINE
  5
350
100
AcDbEntity
  8
0
100
AcDbLine
 62
250
  6
CONTINUOUS
 10
43.4589733853
 20
-48.9828897239
 11
43.466773108
 21
-48.9782262523
  0
LINE
  5
351
100
AcDbEntity
  8
0
100
AcDbLine
 62
250
  6
CONTINUOUS
 10
43.5663581465
 20
-49.4286444199
 11
44.0829116108
 21
-49.1197959543
  0
LINE
  5
352
100
AcDbEntity
  8
0
100
AcDbLine
 62
250
  6
CONTINUOUS
 10
42.9878325198
 20
-49.7852825526
 11
43.3501830903
 21
-49.5686323403
  0
LINE
  5
353
100
AcDbEntity
  8
0
100
AcDbLine
 62
250
  6
CONTINUOUS
 10
44.0829116108
 20
-49.4422826426
 11
42.7783881887
 21
-50.2222600992
  0
LINE
  5
354
100
AcDbEntity
  8
0
100
AcDbLine
 62
250
  6
CONTINUOUS
 10
44.0829117873
 20
-52.1273067698
 11
43.2210123491
 21
-52.5727640187
  0
LINE
  5
355
100
AcDbEntity
  8
0
100
AcDbLine
 62
250
  6
CONTINUOUS
 10
42.7629668268
 20
-53.0862040631
 11
44.0829117873
 21
-52.4370674281
  0
LINE
  5
356
100
AcDbEntity
  8
0
100
AcDbLine
 62
250
  6
CONTINUOUS
 10
43.2210123491
 20
-52.5727640187
 11
44.0829117873
 21
-51.6775884095
  0
LINE
  5
357
100
AcDbEntity
  8
0
100
AcDbLine
 62
250
  6
CONTINUOUS
 10
43.4958040906
 20
-52.0041477111
 11
42.7629668268
 21
-52.7626826148
  0
LINE
  5
358
100
AcDbEntity
  8
0
100
AcDbLine
 62
250
  6
CONTINUOUS
 10
42.7629668268
 20
-55.1202176778
 11
44.0829117873
 21
-53.8392693991
  0
LINE
  5
359
100
AcDbEntity
  8
0
100
AcDbLine
 62
250
  6
CONTINUOUS
 10
43.6715259329
 20
-53.9295721431
 11
42.7629668268
 21
-54.7684822826
  0
LINE
  5
35A
100
AcDbEntity
  8
0
100
AcDbLine
 62
250
  6
CONTINUOUS
 10
44.0829117873
 20
-50.8639153599
 11
42.7629668268
 21
-51.7981650485
  0
LINE
  5
35B
100
AcDbEntity
  8
0
100
AcDbLine
 62
250
  6
CONTINUOUS
 10
43.2246056695
 20
-51.7603741394
 11
44.0829117873
 21
-51.1806674532
  0
LINE
  5
35C
100
AcDbEntity
  8
0
100
AcDbLine
 62
250
  6
CONTINUOUS
 10
42.4026287711
 20
-59.8099282461
 11
44.4174449116
 21
-58.5639357219
  0
LINE
  5
35D
100
AcDbEntity
  8
ASSI
100
AcDbLine
 62
250
  6
CONTINUOUS
 10
42.4026287711
 20
-59.8099282461
 11
44.4174449116
 21
-58.5639357219
  0
LINE
  5
35E
100
AcDbEntity
  8
0
100
AcDbLine
 62
7
  6
CONTINUOUS
 10
42.4021905853
 20
-60.1400325258
 11
44.232499047
 21
-59.0081423178
  0
LINE
  5
35F
100
AcDbEntity
  8
ASSI
100
AcDbLine
 62
7
  6
CONTINUOUS
 10
42.4021905853
 20
-60.1400325258
 11
44.232499047
 21
-59.0081423178
  0
LINE
  5
360
100
AcDbEntity
  8
0
100
AcDbLine
 62
250
  6
CONTINUOUS
 10
42.7628876237
 20
-53.4006194189
 11
44.0829117873
 21
-52.6113740345
  0
LINE
  5
361
100
AcDbEntity
  8
0
100
AcDbLine
 62
250
  6
CONTINUOUS
 10
44.0829117873
 20
-52.9351632851
 11
42.7628876237
 21
-53.7244086695
  0
LINE
  5
362
100
AcDbEntity
  8
SMUSSO
100
AcDbLine
 62
7
  6
CONTINUOUS
 10
40.6344236323
 20
-61.8911546133
 11
42.4021905853
 21
-60.8705075849
  0
ARC
  5
363
100
AcDbEntity
  8
0
100
AcDbCircle
 62
7
  6
CONTINUOUS
 10
-11.1786960215
 20
-11.0519722319
 40
0.3
100
AcDbArc
 50
300.1089928496
 51
314.2001404346
  0
ARC
  5
364
100
AcDbEntity
  8
ASSI
100
AcDbCircle
 62
7
  6
CONTINUOUS
 10
-11.1786960215
 20
-11.0519722319
 40
0.3
100
AcDbArc
 50
300.1089929463
 51
314.2001404338
  0
ARC
  5
365
100
AcDbEntity
  8
0
100
AcDbCircle
 62
250
  6
CONTINUOUS
 10
-11.1379017492
 20
-11.1897922991
 40
0.1703493928
100
AcDbArc
 50
339.0197933377
 51
345.090855298
  0
ARC
  5
366
100
AcDbEntity
  8
ASSI
100
AcDbCircle
 62
250
  6
CONTINUOUS
 10
-11.1379017492
 20
-11.189792299
 40
0.1703493928
100
AcDbArc
 50
339.0197933408
 51
345.090855298
  0
ARC
  5
367
100
AcDbEntity
  8
0
100
AcDbCircle
 62
250
  6
CONTINUOUS
 10
-11.0780551201
 20
-11.2252853948
 40
0.099807608
100
AcDbArc
 50
300.1159498033
 51
302.5096246036
  0
ARC
  5
368
100
AcDbEntity
  8
ASSI
100
AcDbCircle
 62
250
  6
CONTINUOUS
 10
-11.0780551201
 20
-11.2252853948
 40
0.099807608
100
AcDbArc
 50
300.1159498036
 51
302.5096245977
  0
ARC
  5
369
100
AcDbEntity
  8
0
100
AcDbCircle
 62
7
  6
CONTINUOUS
 10
20.6411091319
 20
-29.4243289317
 40
0.3
100
AcDbArc
 50
300.1089928496
 51
314.2001404346
  0
ARC
  5
36A
100
AcDbEntity
  8
ASSI
100
AcDbCircle
 62
7
  6
CONTINUOUS
 10
20.6411091319
 20
-29.4243289317
 40
0.3
100
AcDbArc
 50
300.1089929463
 51
314.2001404338
  0
ARC
  5
36B
100
AcDbEntity
  8
0
100
AcDbCircle
 62
250
  6
CONTINUOUS
 10
20.6819034042
 20
-29.5621489988
 40
0.1703493928
100
AcDbArc
 50
339.0197933377
 51
345.090855298
  0
ARC
  5
36C
100
AcDbEntity
  8
ASSI
100
AcDbCircle
 62
250
  6
CONTINUOUS
 10
20.6819034042
 20
-29.5621489988
 40
0.1703493928
100
AcDbArc
 50
339.0197933407
 51
345.090855298
  0
ARC
  5
36D
100
AcDbEntity
  8
0
100
AcDbCircle
 62
250
  6
CONTINUOUS
 10
20.7417500333
 20
-29.5976420946
 40
0.099807608
100
AcDbArc
 50
300.1159498032
 51
302.5096246037
  0
ARC
  5
36E
100
AcDbEntity
  8
ASSI
100
AcDbCircle
 62
250
  6
CONTINUOUS
 10
20.7417500333
 20
-29.5976420946
 40
0.099807608
100
AcDbArc
 50
300.1159498035
 51
302.5096245979
  0
ARC
  5
36F
100
AcDbEntity
  8
0
100
AcDbCircle
 62
7
  6
CONTINUOUS
 10
6.7188184009
 20
-19.0370550268
 40
0.1779620607
100
AcDbArc
 50
303.7143364849
 51
315.9708985531
  0
ARC
  5
370
100
AcDbEntity
  8
ASSI
100
AcDbCircle
 62
7
  6
CONTINUOUS
 10
6.7188184009
 20
-19.0370550268
 40
0.1779620607
100
AcDbArc
 50
303.7143364849
 51
315.9708985531
  0
SPLINE
  5
371
100
AcDbEntity
  8
0
100
AcDbSpline
 62
7
  6
CONTINUOUS
 70
0
 71
3
 72
10
 73
6
 74
0
 42
0.0000001
 43
0.0000001
 44
0.0000000001
 40
0.0
 40
0.0
 40
0.0
 40
0.0
 40
0.5286692283
 40
0.7680002507
 40
1.0
 40
1.0
 40
1.0
 40
1.0
 10
-40.2810396867
 20
61.8539507862
 30
0.0
 10
-40.3398925817
 20
61.8770390562
 30
0.0
 10
-40.4324328422
 20
61.8984142461
 30
0.0
 10
-40.5521406398
 20
61.8842230099
 30
0.0
 10
-40.6054377638
 20
61.863774424
 30
0.0
 10
-40.6298712619
 20
61.8506333722
 30
0.0
  0
SPLINE
  5
372
100
AcDbEntity
  8
0
100
AcDbSpline
 62
7
  6
CONTINUOUS
 70
0
 71
3
 72
10
 73
6
 74
0
 42
0.0000001
 43
0.0000001
 44
0.0000000001
 40
0.0
 40
0.0
 40
0.0
 40
0.0
 40
0.2319999843
 40
0.471331071
 40
1.0
 40
1.0
 40
1.0
 40
1.0
 10
44.2324967914
 20
-59.0081394295
 30
0.0
 10
44.2560923711
 20
-58.9935491379
 30
0.0
 10
44.3004463545
 20
-58.9576156736
 30
0.0
 10
44.3725828044
 20
-58.8610413323
 30
0.0
 10
44.4003363014
 20
-58.770213701
 30
0.0
 10
44.4097646796
 20
-58.7077033937
 30
0.0
  0
SPLINE
  5
373
100
AcDbEntity
  8
0
100
AcDbSpline
 62
7
  6
CONTINUOUS
 70
0
 71
3
 72
9
 73
5
 74
0
 42
0.0000001
 43
0.0000001
 44
0.0000000001
 40
0.0
 40
0.0
 40
0.0
 40
0.0
 40
0.5018288403
 40
1.0
 40
1.0
 40
1.0
 40
1.0
 10
5.0518477385
 20
-20.3992161131
 30
0.0
 10
5.0946671339
 20
-20.3743819506
 30
0.0
 10
5.1757545164
 20
-20.317528807
 30
0.0
 10
5.2497410027
 20
-20.2520660529
 30
0.0
 10
5.2849661071
 20
-20.2178046991
 30
0.0
  0
SPLINE
  5
374
100
AcDbEntity
  8
0
100
AcDbSpline
 62
7
  6
CONTINUOUS
 70
0
 71
3
 72
9
 73
5
 74
0
 42
0.0000001
 43
0.0000001
 44
0.0000000001
 40
0.0
 40
0.0
 40
0.0
 40
0.0
 40
0.4988041848
 40
1.0
 40
1.0
 40
1.0
 40
1.0
 10
6.8467707876
 20
-19.160742867
 30
0.0
 10
6.8621039894
 20
-19.1448520699
 30
0.0
 10
6.8870731697
 20
-19.1066497449
 30
0.0
 10
6.8947191076
 20
-19.0618029251
 30
0.0
 10
6.8947066597
 20
-19.0396148288
 30
0.0
  0
SPLINE
  5
375
100
AcDbEntity
  8
0
100
AcDbSpline
 62
250
  6
CONTINUOUS
 70
0
 71
3
 72
9
 73
5
 74
0
 42
0.0000001
 43
0.0000001
 44
0.0000000001
 40
0.0
 40
0.0
 40
0.0
 40
0.0
 40
0.4797909424
 40
1.0
 40
1.0
 40
1.0
 40
1.0
 10
-11.0244143921
 20
-11.3094532682
 30
0.0
 10
-11.01426445
 20
-11.3029848207
 30
0.0
 10
-10.9954964012
 20
-11.2854686946
 30
0.0
 10
-10.9835338182
 20
-11.2629637647
 30
0.0
 10
-10.9788458105
 20
-11.250785118
 30
0.0
  0
SPLINE
  5
376
100
AcDbEntity
  8
0
100
AcDbSpline
 62
250
  6
CONTINUOUS
 70
0
 71
3
 72
9
 73
5
 74
0
 42
0.0000001
 43
0.0000001
 44
0.0000000001
 40
0.0
 40
0.0
 40
0.0
 40
0.0
 40
0.4797909424
 40
1.0
 40
1.0
 40
1.0
 40
1.0
 10
20.7953907613
 20
-29.6818099679
 30
0.0
 10
20.8055407034
 20
-29.6753415205
 30
0.0
 10
20.8243087522
 20
-29.6578253943
 30
0.0
 10
20.8362713352
 20
-29.6353204644
 30
0.0
 10
20.8409593429
 20
-29.6231418177
 30
0.0
  0
SPLINE
  5
377
100
AcDbEntity
  8
0
100
AcDbSpline
 62
7
  6
CONTINUOUS
 70
0
 71
3
 72
9
 73
5
 74
0
 42
0.0000001
 43
0.0000001
 44
0.0000000001
 40
0.0
 40
0.0
 40
0.0
 40
0.0
 40
0.2420558041
 40
1.0
 40
1.0
 40
1.0
 40
1.0
 10
44.4097646796
 20
-58.7077033937
 30
0.0
 10
44.4111588023
 20
-58.6984603365
 30
0.0
 10
44.416084602
 20
-58.6601507976
 30
0.0
 10
44.4177965839
 20
-58.6214511343
 30
0.0
 10
44.4175577035
 20
-58.5921821582
 30
0.0
  0
SPLINE
  5
378
100
AcDbEntity
  8
0
100
AcDbSpline
 62
250
  6
CONTINUOUS
 70
0
 71
3
 72
10
 73
6
 74
0
 42
0.0000001
 43
0.0000001
 44
0.0000000001
 40
0.0
 40
0.0
 40
0.0
 40
0.0
 40
0.3605959684
 40
0.641534438
 40
1.0
 40
1.0
 40
1.0
 40
1.0
 10
20.8465179893
 20
-29.6059776879
 30
0.0
 10
20.8482329228
 20
-29.6098149911
 30
0.0
 10
20.8510296248
 20
-29.6168608764
 30
0.0
 10
20.8539800142
 20
-29.627807222
 30
0.0
 10
20.8534362056
 20
-29.636599432
 30
0.0
 10
20.8504418383
 20
-29.6395134556
 30
0.0
  0
SPLINE
  5
379
100
AcDbEntity
  8
0
100
AcDbSpline
 62
250
  6
CONTINUOUS
 70
0
 71
3
 72
10
 73
6
 74
0
 42
0.0000001
 43
0.0000001
 44
0.0000000001
 40
0.0
 40
0.0
 40
0.0
 40
0.0
 40
0.3605959684
 40
0.641534438
 40
1.0
 40
1.0
 40
1.0
 40
1.0
 10
-10.9732871641
 20
-11.2336209881
 30
0.0
 10
-10.9715722306
 20
-11.2374582913
 30
0.0
 10
-10.9687755286
 20
-11.2445041767
 30
0.0
 10
-10.9658251392
 20
-11.2554505222
 30
0.0
 10
-10.9663689478
 20
-11.2642427322
 30
0.0
 10
-10.9693633151
 20
-11.2671567558
 30
0.0
  0
SPLINE
  5
37A
100
AcDbEntity
  8
0
100
AcDbSpline
 62
7
  6
CONTINUOUS
 70
0
 71
3
 72
11
 73
7
 74
0
 42
0.0000001
 43
0.0000001
 44
0.0000000001
 40
0.0
 40
0.0
 40
0.0
 40
0.0
 40
0.2395972798
 40
0.4999945239
 40
0.7603947422
 40
1.0
 40
1.0
 40
1.0
 40
1.0
 10
44.4175577035
 20
12.1720576324
 30
0.0
 10
44.4184089302
 20
12.2852015113
 30
0.0
 10
44.3801372168
 20
12.5220438566
 30
0.0
 10
44.2361121517
 20
12.8543099404
 30
0.0
 10
44.0203711505
 20
13.1451750359
 30
0.0
 10
43.8343932882
 20
13.2967452233
 30
0.0
 10
43.7359803175
 20
13.3525842931
 30
0.0
  0
SPLINE
  5
37B
100
AcDbEntity
  8
0
100
AcDbSpline
 62
7
  6
CONTINUOUS
 70
0
 71
3
 72
9
 73
5
 74
0
 42
0.0000001
 43
0.0000001
 44
0.0000000001
 40
0.0
 40
0.0
 40
0.0
 40
0.0
 40
0.2580992694
 40
1.0
 40
1.0
 40
1.0
 40
1.0
 10
-40.1770403867
 20
61.8029107705
 30
0.0
 10
-40.1856356928
 20
61.807967609
 30
0.0
 10
-40.2192846864
 20
61.8269587555
 30
0.0
 10
-40.2543539785
 20
61.8434818562
 30
0.0
 10
-40.2810396867
 20
61.8539507862
 30
0.0
  0
SPLINE
  5
37C
100
AcDbEntity
  8
ASSI
100
AcDbSpline
 62
7
  6
CONTINUOUS
 70
0
 71
3
 72
10
 73
6
 74
0
 42
0.0000001
 43
0.0000001
 44
0.0000000001
 40
0.0
 40
0.0
 40
0.0
 40
0.0
 40
0.5286692283
 40
0.7680002507
 40
1.0
 40
1.0
 40
1.0
 40
1.0
 10
-40.2810396867
 20
61.8539507862
 30
0.0
 10
-40.3398925817
 20
61.8770390562
 30
0.0
 10
-40.4324328422
 20
61.8984142461
 30
0.0
 10
-40.5521406398
 20
61.8842230099
 30
0.0
 10
-40.6054377638
 20
61.863774424
 30
0.0
 10
-40.6298712619
 20
61.8506333722
 30
0.0
  0
SPLINE
  5
37D
100
AcDbEntity
  8
ASSI
100
AcDbSpline
 62
7
  6
CONTINUOUS
 70
0
 71
3
 72
10
 73
6
 74
0
 42
0.0000001
 43
0.0000001
 44
0.0000000001
 40
0.0
 40
0.0
 40
0.0
 40
0.0
 40
0.2319999843
 40
0.471331071
 40
1.0
 40
1.0
 40
1.0
 40
1.0
 10
44.2324967914
 20
-59.0081394295
 30
0.0
 10
44.2560923711
 20
-58.9935491379
 30
0.0
 10
44.3004463545
 20
-58.9576156736
 30
0.0
 10
44.3725828044
 20
-58.8610413323
 30
0.0
 10
44.4003363014
 20
-58.770213701
 30
0.0
 10
44.4097646796
 20
-58.7077033937
 30
0.0
  0
SPLINE
  5
37E
100
AcDbEntity
  8
ASSI
100
AcDbSpline
 62
7
  6
CONTINUOUS
 70
0
 71
3
 72
9
 73
5
 74
0
 42
0.0000001
 43
0.0000001
 44
0.0000000001
 40
0.0
 40
0.0
 40
0.0
 40
0.0
 40
0.5018288403
 40
1.0
 40
1.0
 40
1.0
 40
1.0
 10
5.0518477385
 20
-20.3992161131
 30
0.0
 10
5.0946671339
 20
-20.3743819506
 30
0.0
 10
5.1757545164
 20
-20.317528807
 30
0.0
 10
5.2497410027
 20
-20.2520660529
 30
0.0
 10
5.2849661071
 20
-20.2178046991
 30
0.0
  0
SPLINE
  5
37F
100
AcDbEntity
  8
ASSI
100
AcDbSpline
 62
7
  6
CONTINUOUS
 70
0
 71
3
 72
9
 73
5
 74
0
 42
0.0000001
 43
0.0000001
 44
0.0000000001
 40
0.0
 40
0.0
 40
0.0
 40
0.0
 40
0.4988041848
 40
1.0
 40
1.0
 40
1.0
 40
1.0
 10
6.8467707876
 20
-19.160742867
 30
0.0
 10
6.8621039894
 20
-19.1448520699
 30
0.0
 10
6.8870731697
 20
-19.1066497449
 30
0.0
 10
6.8947191076
 20
-19.0618029251
 30
0.0
 10
6.8947066597
 20
-19.0396148288
 30
0.0
  0
SPLINE
  5
380
100
AcDbEntity
  8
ASSI
100
AcDbSpline
 62
250
  6
CONTINUOUS
 70
0
 71
3
 72
9
 73
5
 74
0
 42
0.0000001
 43
0.0000001
 44
0.0000000001
 40
0.0
 40
0.0
 40
0.0
 40
0.0
 40
0.4797909424
 40
1.0
 40
1.0
 40
1.0
 40
1.0
 10
-11.0244143921
 20
-11.3094532682
 30
0.0
 10
-11.01426445
 20
-11.3029848207
 30
0.0
 10
-10.9954964012
 20
-11.2854686946
 30
0.0
 10
-10.9835338182
 20
-11.2629637647
 30
0.0
 10
-10.9788458105
 20
-11.250785118
 30
0.0
  0
SPLINE
  5
381
100
AcDbEntity
  8
ASSI
100
AcDbSpline
 62
250
  6
CONTINUOUS
 70
0
 71
3
 72
9
 73
5
 74
0
 42
0.0000001
 43
0.0000001
 44
0.0000000001
 40
0.0
 40
0.0
 40
0.0
 40
0.0
 40
0.4797909424
 40
1.0
 40
1.0
 40
1.0
 40
1.0
 10
20.7953907613
 20
-29.6818099679
 30
0.0
 10
20.8055407034
 20
-29.6753415205
 30
0.0
 10
20.8243087522
 20
-29.6578253943
 30
0.0
 10
20.8362713352
 20
-29.6353204644
 30
0.0
 10
20.8409593429
 20
-29.6231418177
 30
0.0
  0
SPLINE
  5
382
100
AcDbEntity
  8
ASSI
100
AcDbSpline
 62
7
  6
CONTINUOUS
 70
0
 71
3
 72
9
 73
5
 74
0
 42
0.0000001
 43
0.0000001
 44
0.0000000001
 40
0.0
 40
0.0
 40
0.0
 40
0.0
 40
0.2420558041
 40
1.0
 40
1.0
 40
1.0
 40
1.0
 10
44.4097646796
 20
-58.7077033937
 30
0.0
 10
44.4111588023
 20
-58.6984603365
 30
0.0
 10
44.416084602
 20
-58.6601507976
 30
0.0
 10
44.4177965839
 20
-58.6214511343
 30
0.0
 10
44.4175577035
 20
-58.5921821582
 30
0.0
  0
SPLINE
  5
383
100
AcDbEntity
  8
ASSI
100
AcDbSpline
 62
250
  6
CONTINUOUS
 70
0
 71
3
 72
10
 73
6
 74
0
 42
0.0000001
 43
0.0000001
 44
0.0000000001
 40
0.0
 40
0.0
 40
0.0
 40
0.0
 40
0.3605959681
 40
0.641534438
 40
1.0
 40
1.0
 40
1.0
 40
1.0
 10
20.8465179893
 20
-29.6059776879
 30
0.0
 10
20.8482329228
 20
-29.6098149911
 30
0.0
 10
20.8510296248
 20
-29.6168608764
 30
0.0
 10
20.8539800142
 20
-29.627807222
 30
0.0
 10
20.8534362056
 20
-29.636599432
 30
0.0
 10
20.8504418384
 20
-29.6395134556
 30
0.0
  0
SPLINE
  5
384
100
AcDbEntity
  8
ASSI
100
AcDbSpline
 62
250
  6
CONTINUOUS
 70
0
 71
3
 72
10
 73
6
 74
0
 42
0.0000001
 43
0.0000001
 44
0.0000000001
 40
0.0
 40
0.0
 40
0.0
 40
0.0
 40
0.3605959681
 40
0.641534438
 40
1.0
 40
1.0
 40
1.0
 40
1.0
 10
-10.9732871641
 20
-11.2336209881
 30
0.0
 10
-10.9715722306
 20
-11.2374582913
 30
0.0
 10
-10.9687755286
 20
-11.2445041766
 30
0.0
 10
-10.9658251392
 20
-11.2554505222
 30
0.0
 10
-10.9663689478
 20
-11.2642427322
 30
0.0
 10
-10.969363315
 20
-11.2671567558
 30
0.0
  0
SPLINE
  5
385
100
AcDbEntity
  8
ASSI
100
AcDbSpline
 62
7
  6
CONTINUOUS
 70
0
 71
3
 72
11
 73
7
 74
0
 42
0.0000001
 43
0.0000001
 44
0.0000000001
 40
0.0
 40
0.0
 40
0.0
 40
0.0
 40
0.2395972798
 40
0.4999945239
 40
0.7603947422
 40
1.0
 40
1.0
 40
1.0
 40
1.0
 10
44.4175577035
 20
12.1720576324
 30
0.0
 10
44.4184089302
 20
12.2852015113
 30
0.0
 10
44.3801372168
 20
12.5220438566
 30
0.0
 10
44.2361121517
 20
12.8543099404
 30
0.0
 10
44.0203711505
 20
13.1451750359
 30
0.0
 10
43.8343932882
 20
13.2967452233
 30
0.0
 10
43.7359803175
 20
13.3525842931
 30
0.0
  0
SPLINE
  5
386
100
AcDbEntity
  8
ASSI
100
AcDbSpline
 62
7
  6
CONTINUOUS
 70
0
 71
3
 72
9
 73
5
 74
0
 42
0.0000001
 43
0.0000001
 44
0.0000000001
 40
0.0
 40
0.0
 40
0.0
 40
0.0
 40
0.2580992694
 40
1.0
 40
1.0
 40
1.0
 40
1.0
 10
-40.1770403867
 20
61.8029107705
 30
0.0
 10
-40.1856356928
 20
61.807967609
 30
0.0
 10
-40.2192846864
 20
61.8269587555
 30
0.0
 10
-40.2543539785
 20
61.8434818562
 30
0.0
 10
-40.2810396867
 20
61.8539507862
 30
0.0
  0
SPLINE
  5
387
100
AcDbEntity
  8
0
100
AcDbSpline
 62
250
  6
CONTINUOUS
 70
0
 71
3
 72
16
 73
12
 74
0
 42
0.0000001
 43
0.0000001
 44
0.0000000001
 40
0.0
 40
0.0
 40
0.0
 40
0.0
 40
0.125
 40
0.25
 40
0.3125
 40
0.375
 40
0.5
 40
0.625
 40
0.75
 40
0.875
 40
1.0
 40
1.0
 40
1.0
 40
1.0
 10
43.6825226696
 20
-49.0049967281
 30
0.0
 10
43.6736705391
 20
-49.0142018764
 30
0.0
 10
43.6571959173
 20
-49.0328702773
 30
0.0
 10
43.6380066778
 20
-49.0582317382
 30
0.0
 10
43.6239565739
 20
-49.0792202959
 30
0.0
 10
43.6107550093
 20
-49.1007392964
 30
0.0
 10
43.5962781701
 20
-49.128006456
 30
0.0
 10
43.5823300865
 20
-49.1615795739
 30
0.0
 10
43.5728424396
 20
-49.1947264063
 30
0.0
 10
43.5675331037
 20
-49.2259390598
 30
0.0
 10
43.5663581465
 20
-49.2453098325
 30
0.0
 10
43.5663581465
 20
-49.2550362168
 30
0.0
  0
SPLINE
  5
388
100
AcDbEntity
  8
0
100
AcDbSpline
 62
250
  6
CONTINUOUS
 70
0
 71
3
 72
12
 73
8
 74
0
 42
0.0000001
 43
0.0000001
 44
0.0000000001
 40
0.0
 40
0.0
 40
0.0
 40
0.0
 40
0.1666666667
 40
0.3333333333
 40
0.5
 40
0.6666666667
 40
1.0
 40
1.0
 40
1.0
 40
1.0
 10
44.0829116108
 20
-48.6239569677
 30
0.0
 10
44.0587004345
 20
-48.646613062
 30
0.0
 10
44.0109639467
 20
-48.6915797925
 30
0.0
 10
43.9413002289
 20
-48.7573629348
 30
0.0
 10
43.8733192722
 20
-48.8207809357
 30
0.0
 10
43.7851297947
 20
-48.9027395554
 30
0.0
 10
43.7223818114
 20
-48.9635618142
 30
0.0
 10
43.6825503634
 20
-49.0049679497
 30
0.0
  0
SPLINE
  5
389
100
AcDbEntity
  8
0
100
AcDbSpline
 62
250
  6
CONTINUOUS
 70
0
 71
3
 72
10
 73
6
 74
0
 42
0.0000001
 43
0.0000001
 44
0.0000000001
 40
0.0
 40
0.0
 40
0.0
 40
0.0
 40
0.3333333333
 40
0.6666666667
 40
1.0
 40
1.0
 40
1.0
 40
1.0
 10
43.7256868169
 20
-48.6367760392
 30
0.0
 10
43.7666973728
 20
-48.5991255222
 30
0.0
 10
43.8479282381
 20
-48.5252420082
 30
0.0
 10
43.9670487081
 20
-48.4176382334
 30
0.0
 10
44.0446763466
 20
-48.3475737568
 30
0.0
 10
44.0829116108
 20
-48.3125090857
 30
0.0
  0
SPLINE
  5
38A
100
AcDbEntity
  8
0
100
AcDbSpline
 62
250
  6
CONTINUOUS
 70
0
 71
3
 72
16
 73
12
 74
0
 42
0.0000001
 43
0.0000001
 44
0.0000000001
 40
0.0
 40
0.0
 40
0.0
 40
0.0
 40
0.1111111111
 40
0.2222222222
 40
0.3333333333
 40
0.4444444444
 40
0.5555555556
 40
0.6666666667
 40
0.7777777778
 40
0.8888888889
 40
1.0
 40
1.0
 40
1.0
 40
1.0
 10
43.466773108
 20
-48.9782262523
 30
0.0
 10
43.4709419712
 20
-48.9634474141
 30
0.0
 10
43.4814771507
 20
-48.9341591822
 30
0.0
 10
43.5034537359
 20
-48.8901992519
 30
0.0
 10
43.529004904
 20
-48.849190365
 30
0.0
 10
43.5570547351
 20
-48.8106572183
 30
0.0
 10
43.5860442353
 20
-48.7752827276
 30
0.0
 10
43.616653499
 20
-48.7412799831
 30
0.0
 10
43.649432
 20
-48.7076972843
 30
0.0
 10
43.6852241353
 20
-48.673682465
 30
0.0
 10
43.7118404526
 20
-48.6494879561
 30
0.0
 10
43.7256868169
 20
-48.6367760394
 30
0.0
  0
SPLINE
  5
38B
100
AcDbEntity
  8
0
100
AcDbSpline
 62
250
  6
CONTINUOUS
 70
0
 71
3
 72
32
 73
28
 74
0
 42
0.0000001
 43
0.0000001
 44
0.0000000001
 40
0.0
 40
0.0
 40
0.0
 40
0.0
 40
0.0555555556
 40
0.1111111111
 40
0.1388888889
 40
0.1666666667
 40
0.1944444444
 40
0.2222222222
 40
0.25
 40
0.2777777778
 40
0.3333333333
 40
0.3888888889
 40
0.4444444444
 40
0.5
 40
0.5555555556
 40
0.6111111111
 40
0.6666666667
 40
0.7222222222
 40
0.7777777778
 40
0.8055555556
 40
0.8333333333
 40
0.8611111111
 40
0.8888888889
 40
0.9166666667
 40
0.9444444444
 40
0.9722222222
 40
1.0
 40
1.0
 40
1.0
 40
1.0
 10
42.7922851566
 20
-49.4148880552
 30
0.0
 10
42.7990801604
 20
-49.3886901779
 30
0.0
 10
42.8184493874
 20
-49.3336112009
 30
0.0
 10
42.8577707337
 20
-49.2529902897
 30
0.0
 10
42.8959197485
 20
-49.190748538
 30
0.0
 10
42.9274838343
 20
-49.1458272545
 30
0.0
 10
42.9613334866
 20
-49.1036868948
 30
0.0
 10
42.9963858211
 20
-49.0656713877
 30
0.0
 10
43.0304402904
 20
-49.0333553347
 30
0.0
 10
43.0750619967
 20
-48.9961599547
 30
0.0
 10
43.1266924258
 20
-48.9606464463
 30
0.0
 10
43.1819039211
 20
-48.9308509872
 30
0.0
 10
43.2309213154
 20
-48.9118644147
 30
0.0
 10
43.2735775579
 20
-48.9018071188
 30
0.0
 10
43.3105573934
 20
-48.8986416541
 30
0.0
 10
43.3422864216
 20
-48.9008269545
 30
0.0
 10
43.369139822
 20
-48.9071979369
 30
0.0
 10
43.3916052549
 20
-48.9169561803
 30
0.0
 10
43.4073533476
 20
-48.9265381816
 30
0.0
 10
43.4186468005
 20
-48.9344663195
 30
0.0
 10
43.4265723609
 20
-48.9404610076
 30
0.0
 10
43.4339532977
 20
-48.9463898029
 30
0.0
 10
43.4409856534
 20
-48.9521810257
 30
0.0
 10
43.4476453194
 20
-48.9584004369
 30
0.0
 10
43.4531532728
 20
-48.9653716602
 30
0.0
 10
43.4571231502
 20
-48.9733411862
 30
0.0
 10
43.4585818971
 20
-48.9795582722
 30
0.0
 10
43.4589733853
 20
-48.9828897239
 30
0.0
  0
SPLINE
  5
38C
100
AcDbEntity
  8
0
100
AcDbSpline
 62
250
  6
CONTINUOUS
 70
0
 71
3
 72
12
 73
8
 74
0
 42
0.0000001
 43
0.0000001
 44
0.0000000001
 40
0.0
 40
0.0
 40
0.0
 40
0.0
 40
0.3333333333
 40
0.5
 40
0.6666666667
 40
0.8333333333
 40
1.0
 40
1.0
 40
1.0
 40
1.0
 10
42.9800616794
 20
-49.5362770716
 30
0.0
 10
42.9773144609
 20
-49.5657362816
 30
0.0
 10
42.9750164204
 20
-49.6090093346
 30
0.0
 10
42.9755396647
 20
-49.6646805775
 30
0.0
 10
42.9777268346
 20
-49.705569344
 30
0.0
 10
42.981878857
 20
-49.7458017239
 30
0.0
 10
42.9857383068
 20
-49.7721116369
 30
0.0
 10
42.9878325198
 20
-49.7852825526
 30
0.0
  0
SPLINE
  5
38D
100
AcDbEntity
  8
0
100
AcDbSpline
 62
250
  6
CONTINUOUS
 70
0
 71
3
 72
19
 73
15
 74
0
 42
0.0000001
 43
0.0000001
 44
0.0000000001
 40
0.0
 40
0.0
 40
0.0
 40
0.0
 40
0.1
 40
0.2
 40
0.25
 40
0.3
 40
0.4
 40
0.5
 40
0.6
 40
0.7
 40
0.75
 40
0.8
 40
0.9
 40
1.0
 40
1.0
 40
1.0
 40
1.0
 10
43.1451367031
 20
-49.2546666107
 30
0.0
 10
43.1371564587
 20
-49.2595803237
 30
0.0
 10
43.1216915739
 20
-49.2704954104
 30
0.0
 10
43.1024196335
 20
-49.2873011903
 30
0.0
 10
43.0873667001
 20
-49.3024051361
 30
0.0
 10
43.0725395611
 20
-49.3186605854
 30
0.0
 10
43.0548600982
 20
-49.3407177239
 30
0.0
 10
43.0350240174
 20
-49.3704009876
 30
0.0
 10
43.0178342779
 20
-49.4023464006
 30
0.0
 10
43.0060702821
 20
-49.4297892872
 30
0.0
 10
42.9980670827
 20
-49.4522751089
 30
0.0
 10
42.9911152955
 20
-49.474773358
 30
0.0
 10
42.9843433203
 20
-49.503016943
 30
0.0
 10
42.9811055029
 20
-49.5250838531
 30
0.0
 10
42.9800616793
 20
-49.5362770717
 30
0.0
  0
SPLINE
  5
38E
100
AcDbEntity
  8
0
100
AcDbSpline
 62
250
  6
CONTINUOUS
 70
0
 71
3
 72
15
 73
11
 74
0
 42
0.0000001
 43
0.0000001
 44
0.0000000001
 40
0.0
 40
0.0
 40
0.0
 40
0.0
 40
0.125
 40
0.25
 40
0.375
 40
0.5
 40
0.625
 40
0.75
 40
0.875
 40
1.0
 40
1.0
 40
1.0
 40
1.0
 10
42.7783881887
 20
-50.2222600992
 30
0.0
 10
42.7733598927
 20
-50.1851003186
 30
0.0
 10
42.764057586
 20
-50.1131529885
 30
0.0
 10
42.7535870879
 20
-50.0125950389
 30
0.0
 10
42.7468373976
 20
-49.9156487871
 30
0.0
 10
42.7442068779
 20
-49.8201442115
 30
0.0
 10
42.746295788
 20
-49.723103471
 30
0.0
 10
42.7540265136
 20
-49.6234600271
 30
0.0
 10
42.768444663
 20
-49.5209067251
 30
0.0
 10
42.7829993628
 20
-49.4506452384
 30
0.0
 10
42.7922851566
 20
-49.4148880552
 30
0.0
  0
SPLINE
  5
38F
100
AcDbEntity
  8
0
100
AcDbSpline
 62
250
  6
CONTINUOUS
 70
0
 71
3
 72
15
 73
11
 74
0
 42
0.0000001
 43
0.0000001
 44
0.0000000001
 40
0.0
 40
0.0
 40
0.0
 40
0.0
 40
0.1666666667
 40
0.3333333333
 40
0.5
 40
0.5833333333
 40
0.6666666667
 40
0.75
 40
0.8333333333
 40
1.0
 40
1.0
 40
1.0
 40
1.0
 10
43.3501830903
 20
-49.3835898415
 30
0.0
 10
43.3496954527
 20
-49.3582247458
 30
0.0
 10
43.3455229858
 20
-49.3131775867
 30
0.0
 10
43.3306729992
 20
-49.2635375645
 30
0.0
 10
43.3090992744
 20
-49.2346209205
 30
0.0
 10
43.2837244013
 20
-49.2221439098
 30
0.0
 10
43.2612453602
 20
-49.2180943865
 30
0.0
 10
43.2363961138
 20
-49.2190661356
 30
0.0
 10
43.1994378129
 20
-49.2270041585
 30
0.0
 10
43.1679110972
 20
-49.2406411481
 30
0.0
 10
43.145100472
 20
-49.2546889319
 30
0.0
  0
SPLINE
  5
390
100
AcDbEntity
  8
RACCORDO
100
AcDbSpline
 62
7
  6
CONTINUOUS
 70
0
 71
3
 72
11
 73
7
 74
0
 42
0.0000001
 43
0.0000001
 44
0.0000000001
 40
0.0
 40
0.0
 40
0.0
 40
0.0
 40
0.217767124
 40
0.4509439365
 40
0.7101951399
 40
1.0
 40
1.0
 40
1.0
 40
1.0
 10
-26.186155418
 20
30.7800914446
 30
0.0
 10
-26.1465730894
 20
30.8029457985
 30
0.0
 10
-26.0556171295
 20
30.8359802436
 30
0.0
 10
-25.9045609594
 20
30.8397600407
 30
0.0
 10
-25.7435393725
 20
30.8009234598
 30
0.0
 10
-25.638802664
 20
30.7510566311
 30
0.0
 10
-25.5861264258
 20
30.7206420313
 30
0.0
  0
SPLINE
  5
391
100
AcDbEntity
  8
RACCORDO
100
AcDbSpline
 62
7
  6
CONTINUOUS
 70
0
 71
3
 72
11
 73
7
 74
0
 42
0.0000001
 43
0.0000001
 44
0.0000000001
 40
0.0
 40
0.0
 40
0.0
 40
0.0
 40
0.2372134916
 40
0.4999938932
 40
0.7627776188
 40
1.0
 40
1.0
 40
1.0
 40
1.0
 10
-24.3133342197
 20
-3.4892968556
 30
0.0
 10
-24.3133342197
 20
-3.6283844217
 30
0.0
 10
-24.2611639559
 20
-3.9217395399
 30
0.0
 10
-24.0793134759
 20
-4.3339700098
 30
0.0
 10
-23.8132329924
 20
-4.6975761895
 30
0.0
 10
-23.5852620216
 20
-4.88944095
 30
0.0
 10
-23.4648060823
 20
-4.9589906997
 30
0.0
  0
SPLINE
  5
392
100
AcDbEntity
  8
RACCORDO
100
AcDbSpline
 62
7
  6
CONTINUOUS
 70
0
 71
3
 72
11
 73
7
 74
0
 42
0.0000001
 43
0.0000001
 44
0.0000000001
 40
0.0
 40
0.0
 40
0.0
 40
0.0
 40
0.2372223812
 40
0.5000061068
 40
0.7627865084
 40
1.0
 40
1.0
 40
1.0
 40
1.0
 10
20.5879463857
 20
4.060311087
 30
0.0
 10
20.708402325
 20
3.9907613373
 30
0.0
 10
20.9363732958
 20
3.7988965768
 30
0.0
 10
21.2024537793
 20
3.4352903972
 30
0.0
 10
21.3843042593
 20
3.0230599272
 30
0.0
 10
21.4364745231
 20
2.729704809
 30
0.0
 10
21.4364745231
 20
2.5906172429
 30
0.0
  0
SPLINE
  5
393
100
AcDbEntity
  8
RACCORDO
100
AcDbSpline
 62
7
  6
CONTINUOUS
 70
0
 71
3
 72
11
 73
7
 74
0
 42
0.0000001
 43
0.0000001
 44
0.0000000001
 40
0.0
 40
0.0
 40
0.0
 40
0.0
 40
0.2897993086
 40
0.5490484826
 40
0.7822275283
 40
1.0
 40
1.0
 40
1.0
 40
1.0
 10
21.4364745231
 20
-32.3543106038
 30
0.0
 10
21.4364745231
 20
-32.4151266058
 30
0.0
 10
21.4272905679
 20
-32.5307455036
 30
0.0
 10
21.380417584
 20
-32.6895867217
 30
0.0
 10
21.3016271578
 20
-32.8184965632
 30
0.0
 10
21.2275527608
 20
-32.8807433388
 30
0.0
 10
21.1879753778
 20
-32.9035948372
 30
0.0
  0
SPLINE
  5
394
100
AcDbEntity
  8
RACCORDO
100
AcDbSpline
 62
7
  6
CONTINUOUS
 70
0
 71
3
 72
11
 73
7
 74
0
 42
0.0000001
 43
0.0000001
 44
0.0000000001
 40
0.0
 40
0.0
 40
0.0
 40
0.0
 40
0.217767124
 40
0.4509439365
 40
0.7101951399
 40
1.0
 40
1.0
 40
1.0
 40
1.0
 10
21.1879753778
 20
-32.9035948372
 30
0.0
 10
21.1483930492
 20
-32.9264491911
 30
0.0
 10
21.0574370893
 20
-32.9594836362
 30
0.0
 10
20.9063809192
 20
-32.9632634334
 30
0.0
 10
20.7453593323
 20
-32.9244268524
 30
0.0
 10
20.6406226238
 20
-32.8745600237
 30
0.0
 10
20.5879463857
 20
-32.844145424
 30
0.0
  0
SPLINE
  5
395
100
AcDbEntity
  8
RACCORDO
100
AcDbSpline
 62
7
  6
CONTINUOUS
 70
0
 71
3
 72
11
 73
7
 74
0
 42
0.0000001
 43
0.0000001
 44
0.0000000001
 40
0.0
 40
0.0
 40
0.0
 40
0.0
 40
0.2897993086
 40
0.5490484826
 40
0.7822275283
 40
1.0
 40
1.0
 40
1.0
 40
1.0
 10
-26.4346545633
 20
30.2308072112
 30
0.0
 10
-26.4346545633
 20
30.2916232131
 30
0.0
 10
-26.4254706081
 20
30.4072421109
 30
0.0
 10
-26.3785976242
 20
30.5660833291
 30
0.0
 10
-26.299807198
 20
30.6949931705
 30
0.0
 10
-26.225732801
 20
30.7572399462
 30
0.0
 10
-26.186155418
 20
30.7800914446
 30
0.0
  0
SPLINE
  5
396
100
AcDbEntity
  8
RACCORDO
100
AcDbSpline
 62
7
  6
CONTINUOUS
 70
0
 71
3
 72
11
 73
7
 74
0
 42
0.0000001
 43
0.0000001
 44
0.0000000001
 40
0.0
 40
0.0
 40
0.0
 40
0.0
 40
0.2372223812
 40
0.5000061068
 40
0.7627865084
 40
1.0
 40
1.0
 40
1.0
 40
1.0
 10
-25.5861264258
 20
-6.1838144797
 30
0.0
 10
-25.7065823652
 20
-6.11426473
 30
0.0
 10
-25.934553336
 20
-5.9223999695
 30
0.0
 10
-26.2006338195
 20
-5.5587937898
 30
0.0
 10
-26.3824842994
 20
-5.1465633199
 30
0.0
 10
-26.4346545633
 20
-4.8532082017
 30
0.0
 10
-26.4346545633
 20
-4.7141206355
 30
0.0
  0
ELLIPSE
  5
397
100
AcDbEntity
  8
0
100
AcDbEllipse
 62
7
  6
CONTINUOUS
 10
44.5849531373
 20
-57.2208852083
 30
0.0
 11
-0.0319307066
 21
0.0553022874
 31
0.0
 40
0.5636716562
 41
-2.5265818713
 42
-2.3682119497
  0
ELLIPSE
  5
398
100
AcDbEntity
  8
0
100
AcDbEllipse
 62
7
  6
CONTINUOUS
 10
44.5849531373
 20
13.0558016993
 30
0.0
 11
-0.0311754239
 21
0.0539936769
 31
0.0
 40
0.5913227191
 41
-2.3442738678
 42
-0.7974202594
  0
ELLIPSE
  5
399
100
AcDbEntity
  8
0
100
AcDbEllipse
 62
7
  6
CONTINUOUS
 10
-38.9058207815
 20
61.2623281749
 30
0.0
 11
-0.0319307066
 21
0.0553022874
 31
0.0
 40
0.5636716562
 41
-0.7734729046
 42
-0.6150192183
  0
ELLIPSE
  5
39A
100
AcDbEntity
  8
0
100
AcDbEllipse
 62
7
  6
CONTINUOUS
 10
-9.1774367162
 20
-10.0478543907
 30
0.0
 11
0.1999995634
 21
0.1164181051
 31
0.0
 40
0.0035896273
 41
-0.7351277754
 42
-0.6748017824
  0
ELLIPSE
  5
39B
100
AcDbEntity
  8
0
100
AcDbEllipse
 62
7
  6
CONTINUOUS
 10
18.8163670466
 20
-25.6397610043
 30
0.0
 11
0.1998333781
 21
-0.0157785196
 31
0.0
 40
0.5172961965
 41
0.8262203412
 42
2.3446567905
  0
ELLIPSE
  5
39C
100
AcDbEntity
  8
0
100
AcDbEllipse
 62
7
  6
CONTINUOUS
 10
-13.0034381068
 20
-7.2674043046
 30
0.0
 11
0.1998333781
 21
-0.0157785196
 31
0.0
 40
0.5172961965
 41
0.8262203412
 42
2.3446567905
  0
ELLIPSE
  5
39D
100
AcDbEntity
  8
0
100
AcDbEllipse
 62
7
  6
CONTINUOUS
 10
2.9028557198
 20
-16.5084501044
 30
0.0
 11
0.2999972416
 21
-0.0022477848
 31
0.0
 40
0.5723275643
 41
0.7896864073
 42
2.3081228565
  0
ELLIPSE
  5
39E
100
AcDbEntity
  8
0
100
AcDbEllipse
 62
7
  6
CONTINUOUS
 10
17.2981395167
 20
-26.9431755172
 30
0.0
 11
0.5413005334
 21
0.8416911418
 31
0.0
 40
0.6067084637
 41
0.7148472392
 42
0.8145158917
  0
ELLIPSE
  5
39F
100
AcDbEntity
  8
0
100
AcDbEllipse
 62
7
  6
CONTINUOUS
 10
-14.5216656367
 20
-8.5708188175
 30
0.0
 11
0.5413005334
 21
0.8416911418
 31
0.0
 40
0.6067084637
 41
0.7148472392
 42
0.8145158917
  0
ELLIPSE
  5
3A0
100
AcDbEntity
  8
0
100
AcDbEllipse
 62
7
  6
CONTINUOUS
 10
6.8070764072
 20
-18.8452366627
 30
0.0
 11
0.0858610644
 21
0.3627848639
 31
0.0
 40
0.5009985936
 41
-2.6944494219
 42
-2.6479073085
  0
ELLIPSE
  5
3A1
100
AcDbEntity
  8
0
100
AcDbEllipse
 62
7
  6
CONTINUOUS
 10
-9.1774367162
 20
-9.4764895564
 30
0.0
 11
0.1998333781
 21
-0.0157785196
 31
0.0
 40
0.5172961965
 41
-0.692216108
 42
0.8262203412
  0
ELLIPSE
  5
3A2
100
AcDbEntity
  8
0
100
AcDbEllipse
 62
7
  6
CONTINUOUS
 10
6.5946532543
 20
-18.6400477318
 30
0.0
 11
0.2999972416
 21
-0.0022477848
 31
0.0
 40
0.5723275643
 41
-0.728750042
 42
0.7896864073
  0
ELLIPSE
  5
3A3
100
AcDbEntity
  8
0
100
AcDbEllipse
 62
7
  6
CONTINUOUS
 10
-10.2753283784
 20
-11.0226007313
 30
0.0
 11
0.4625183445
 21
0.8873459255
 31
0.0
 40
0.5463614449
 41
0.662201126
 42
0.7618697785
  0
ELLIPSE
  5
3A4
100
AcDbEntity
  8
0
100
AcDbEllipse
 62
7
  6
CONTINUOUS
 10
44.5981922302
 20
13.0634267963
 30
0.0
 11
0.1365023326
 21
1.2306519884
 31
0.0
 40
0.0962714138
 41
-3.8917430252
 42
-3.8564132784
  0
ELLIPSE
  5
3A5
100
AcDbEntity
  8
0
100
AcDbEllipse
 62
7
  6
CONTINUOUS
 10
44.5981922302
 20
-57.6062213089
 30
0.0
 11
0.1387214801
 21
1.2585231556
 31
0.0
 40
0.0920685296
 41
-3.8374748546
 42
-3.8021451078
  0
ELLIPSE
  5
3A6
100
AcDbEntity
  8
0
100
AcDbEllipse
 62
7
  6
CONTINUOUS
 10
-39.2329070323
 20
61.46645286
 30
0.0
 11
1.1592455945
 21
-0.5090882972
 31
0.0
 40
0.0921189357
 41
-2.4809772198
 42
-2.4456474731
  0
ELLIPSE
  5
3A7
100
AcDbEntity
  8
0
100
AcDbEllipse
 62
7
  6
CONTINUOUS
 10
44.5981922302
 20
13.0634267963
 30
0.0
 11
1.1339988709
 21
-0.4970753424
 31
0.0
 40
0.0963242103
 41
-2.4267061945
 42
-2.3913764477
  0
ELLIPSE
  5
3A8
100
AcDbEntity
  8
ASSI
100
AcDbEllipse
 62
7
  6
CONTINUOUS
 10
44.5849531373
 20
-57.2208852083
 30
0.0
 11
-0.0319307066
 21
0.0553022874
 31
0.0
 40
0.5636716562
 41
-2.5265818713
 42
-2.3682119497
  0
ELLIPSE
  5
3A9
100
AcDbEntity
  8
ASSI
100
AcDbEllipse
 62
7
  6
CONTINUOUS
 10
44.5849531373
 20
13.0558016993
 30
0.0
 11
-0.0311754239
 21
0.0539936769
 31
0.0
 40
0.5913227191
 41
-2.3442738678
 42
-0.7974202594
  0
ELLIPSE
  5
3AA
100
AcDbEntity
  8
ASSI
100
AcDbEllipse
 62
7
  6
CONTINUOUS
 10
-38.9058207815
 20
61.2623281749
 30
0.0
 11
-0.0319307066
 21
0.0553022874
 31
0.0
 40
0.5636716562
 41
-0.7734729046
 42
-0.6150192183
  0
ELLIPSE
  5
3AB
100
AcDbEntity
  8
ASSI
100
AcDbEllipse
 62
7
  6
CONTINUOUS
 10
-9.1774367162
 20
-10.0478543907
 30
0.0
 11
0.1999995634
 21
0.1164181051
 31
0.0
 40
0.0035896273
 41
-0.7351277754
 42
-0.6748017824
  0
ELLIPSE
  5
3AC
100
AcDbEntity
  8
ASSI
100
AcDbEllipse
 62
7
  6
CONTINUOUS
 10
18.8163670466
 20
-25.6397610043
 30
0.0
 11
0.1998333781
 21
-0.0157785196
 31
0.0
 40
0.5172961965
 41
0.8262203412
 42
2.3446567905
  0
ELLIPSE
  5
3AD
100
AcDbEntity
  8
ASSI
100
AcDbEllipse
 62
7
  6
CONTINUOUS
 10
-13.0034381068
 20
-7.2674043046
 30
0.0
 11
0.1998333781
 21
-0.0157785196
 31
0.0
 40
0.5172961965
 41
0.8262203412
 42
2.3446567905
  0
ELLIPSE
  5
3AE
100
AcDbEntity
  8
ASSI
100
AcDbEllipse
 62
7
  6
CONTINUOUS
 10
2.9028557198
 20
-16.5084501044
 30
0.0
 11
0.2999972416
 21
-0.0022477848
 31
0.0
 40
0.5723275643
 41
0.7896864073
 42
2.3081228565
  0
ELLIPSE
  5
3AF
100
AcDbEntity
  8
ASSI
100
AcDbEllipse
 62
7
  6
CONTINUOUS
 10
17.2981395167
 20
-26.9431755172
 30
0.0
 11
0.5413005334
 21
0.8416911418
 31
0.0
 40
0.6067084637
 41
0.7148472392
 42
0.8145158917
  0
ELLIPSE
  5
3B0
100
AcDbEntity
  8
ASSI
100
AcDbEllipse
 62
7
  6
CONTINUOUS
 10
-14.5216656367
 20
-8.5708188175
 30
0.0
 11
0.5413005334
 21
0.8416911418
 31
0.0
 40
0.6067084637
 41
0.7148472392
 42
0.8145158917
  0
ELLIPSE
  5
3B1
100
AcDbEntity
  8
ASSI
100
AcDbEllipse
 62
7
  6
CONTINUOUS
 10
6.8070764072
 20
-18.8452366627
 30
0.0
 11
0.0858610644
 21
0.3627848639
 31
0.0
 40
0.5009985936
 41
-2.6944494219
 42
-2.6479073085
  0
ELLIPSE
  5
3B2
100
AcDbEntity
  8
ASSI
100
AcDbEllipse
 62
7
  6
CONTINUOUS
 10
-9.1774367162
 20
-9.4764895564
 30
0.0
 11
0.1998333781
 21
-0.0157785196
 31
0.0
 40
0.5172961965
 41
-0.692216108
 42
0.8262203412
  0
ELLIPSE
  5
3B3
100
AcDbEntity
  8
ASSI
100
AcDbEllipse
 62
7
  6
CONTINUOUS
 10
6.5946532543
 20
-18.6400477318
 30
0.0
 11
0.2999972416
 21
-0.0022477848
 31
0.0
 40
0.5723275643
 41
-0.728750042
 42
0.7896864073
  0
ELLIPSE
  5
3B4
100
AcDbEntity
  8
ASSI
100
AcDbEllipse
 62
7
  6
CONTINUOUS
 10
-10.2753283784
 20
-11.0226007313
 30
0.0
 11
0.4625183445
 21
0.8873459255
 31
0.0
 40
0.5463614449
 41
0.662201126
 42
0.7618697785
  0
ELLIPSE
  5
3B5
100
AcDbEntity
  8
ASSI
100
AcDbEllipse
 62
7
  6
CONTINUOUS
 10
-39.2329070323
 20
61.46645286
 30
0.0
 11
1.1592455945
 21
-0.5090882972
 31
0.0
 40
0.0921189357
 41
-2.4809772198
 42
-2.4456474731
  0
ELLIPSE
  5
3B6
100
AcDbEntity
  8
ASSI
100
AcDbEllipse
 62
7
  6
CONTINUOUS
 10
44.5981922302
 20
13.0634267963
 30
0.0
 11
1.1339988709
 21
-0.4970753424
 31
0.0
 40
0.0963242103
 41
-2.4267061945
 42
-2.3913764477
  0
ELLIPSE
  5
3B7
100
AcDbEntity
  8
ASSI
100
AcDbEllipse
 62
7
  6
CONTINUOUS
 10
44.5981922302
 20
13.0634267963
 30
0.0
 11
0.1365023326
 21
1.2306519884
 31
0.0
 40
0.0962714138
 41
-3.8917430252
 42
-3.8564132784
  0
ELLIPSE
  5
3B8
100
AcDbEntity
  8
ASSI
100
AcDbEllipse
 62
7
  6
CONTINUOUS
 10
44.5981922302
 20
-57.6062213089
 30
0.0
 11
0.1387214801
 21
1.2585231556
 31
0.0
 40
0.0920685296
 41
-3.8374748546
 42
-3.8021451078
  0
ENDSEC
  0
SECTION
  2
OBJECTS
  0
DICTIONARY
  5
C
100
AcDbDictionary
280
0
281
1
  3
ACAD_GROUP
350
D
  3
ACAD_MLINESTYLE
350
17
  3
ACAD_LAYOUT
350
1A
  3
ACAD_PLOTSETTINGS
350
19
  3
ACAD_PLOTSTYLENAME
350
E
  0
DICTIONARY
  5
D
102
{ACAD_REACTORS
330
C
102
}
100
AcDbDictionary
280
0
281
1
  0
ACDBDICTIONARYWDFLT
  5
E
102
{ACAD_REACTORS
330
C
102
}
100
AcDbDictionary
281
1
  3
Normal
350
F
100
AcDbDictionaryWithDefault
340
F
  0
DICTIONARY
  5
17
102
{ACAD_REACTORS
330
C
102
}
100
AcDbDictionary
280
0
281
1
  3
Standard
350
18
  0
DICTIONARY
  5
19
102
{ACAD_REACTORS
330
C
102
}
100
AcDbDictionary
281
1
  0
DICTIONARY
  5
1A
102
{ACAD_REACTORS
330
C
102
}
100
AcDbDictionary
281
1
  3
Model
350
3B9
  3
Layout1
350
3BA
  0
ACDBPLACEHOLDER
  5
F
102
{ACAD_REACTORS
330
E
102
}
  0
MLINESTYLE
  5
18
102
{ACAD_REACTORS
330
17
102
}
100
AcDbMlineStyle
  2
STANDARD
 70
0
  3

 62
256
 51
90.0
 52
90.0
 71
2
 49
0.5
 62
256
  6
BYLAYER
 49
-0.5
 62
256
  6
BYLAYER
  0
LAYOUT
  5
3B9
102
{ACAD_REACTORS
330
1A
102
}
100
AcDbPlotSettings
  1

  2
none_device
  4
ISO_A4_(297.00_x_210.00_MM)
  6

 40
0.0
 41
0.0
 42
0.0
 43
0.0
 44
297.0
 45
210.0
 46
0.0
 47
0.0
 48
0.0
 49
0.0
140
0.0
141
0.0
142
1.0
143
1.0
 70
1024
 72
1
 73
0
 74
0
  7

 75
0
147
1.0
148
0.0
149
0.0
100
AcDbLayout
  1
Model
 70
0
 71
0
 10
0.0
 20
0.0
 11
297.0
 21
210.0
 12
0.0
 22
0.0
 32
0.0
 14
0.0
 24
0.0
 34
0.0
 15
0.0
 25
0.0
 35
0.0
146
0.0
 13
0.0
 23
0.0
 33
0.0
 16
1.0
 26
0.0
 36
0.0
 17
0.0
 27
1.0
 37
0.0
 76
0
330
21C
345
0
346
0
  0
LAYOUT
  5
3BA
102
{ACAD_REACTORS
330
1A
102
}
100
AcDbPlotSettings
  1

  2
none_device
  4
ISO_A4_(297.00_x_210.00_MM)
  6

 40
0.0
 41
0.0
 42
0.0
 43
0.0
 44
297.0
 45
210.0
 46
0.0
 47
0.0
 48
0.0
 49
0.0
140
0.0
141
0.0
142
1.0
143
1.0
 70
0
 72
1
 73
0
 74
0
  7

 75
0
147
1.0
148
0.0
149
0.0
100
AcDbLayout
  1
Layout1
 70
0
 71
1
 10
0.0
 20
0.0
 11
297.0
 21
210.0
 12
0.0
 22
0.0
 32
0.0
 14
0.0
 24
0.0
 34
0.0
 15
0.0
 25
0.0
 35
0.0
146
0.0
 13
0.0
 23
0.0
 33
0.0
 16
1.0
 26
0.0
 36
0.0
 17
0.0
 27
1.0
 37
0.0
 76
0
330
21D
345
0
346
0
  0
ENDSEC
  0
EOF
