  0
SECTION
  2
HEADER
  9
$ACADVER
  1
AC1021
  9
$DWGCODEPAGE
  3
ANSI_1252
  9
$EXTMAX
 10
297.0
 20
210.0
 30
0.0
  9
$EXTMIN
 10
0.0
 20
0.0
 30
0.0
  9
$LIMMIN
 10
0.0
 20
0.0
  9
$LIMMAX
 10
297.0
 20
210.0
  9
$VIEWCTR
 10
148.5
 20
105.0
  9
$VIEWSIZE
 40
210.0
  9
$CLAYER
  8
0
  9
$LTSCALE
 40
16.335
  9
$CELTYPE
  6
BYLAYER
  9
$DIMSCALE
 40
1.0
  9
$DIMASZ
 40
3.0
  9
$DIMEXO
 40
0.5
  9
$DIMDLI
 40
11.286
  9
$DIMEXE
 40
1.5
  9
$DIMCEN
 40
2.673
  9
$DIMLFAC
 40
1.0
  9
$DIMBLK
  1
_FILLED
  9
$DIMALT
 70
0
  9
$DIMALTF
 40
25.4
  9
$DIMTXT
 40
3.0
  9
$DIMTOL
 70
1
  9
$DIMLIM
 70
0
  9
$DIMTFAC
 40
1.0
  9
$DIMTP
 40
0.01
  9
$DIMTM
 40
0.01
  9
$DIMGAP
 40
0.625
  9
$DIMDSEP
 70
44
  9
$AUNITS
 70
0
  9
$PDMODE
 70
3
  9
$PDSIZE
 40
3.0
  9
$HANDSEED
  5
505
  9
$TILEMODE
 70
1
  9
$MEASUREMENT
 70
1
  9
$INSUNITS
 70
4
  0
ENDSEC
  0
SECTION
  2
CLASSES
  0
CLASS
  1
ACDBDICTIONARYWDFLT
  2
AcDbDictionaryWithDefault
  3
AutoCAD 2000
 90
0
 91
1
280
0
281
0
  0
CLASS
  1
ACDBPLACEHOLDER
  2
AcDbPlaceHolder
  3
AutoCAD 2000
 90
0
 91
1
280
0
281
0
  0
CLASS
  1
LAYOUT
  2
AcDbLayout
  3
AutoCAD 2000
 90
0
 91
0
280
0
281
0
  0
ENDSEC
  0
SECTION
  2
TABLES
  0
TABLE
  2
VPORT
  5
8
100
AcDbSymbolTable
 70
2
  0
VPORT
  5
1F4
100
AcDbSymbolTableRecord
100
AcDbViewportTableRecord
  2
*ACTIVE
 70
0
 10
0.0
 20
0.0
 11
1.0
 21
1.0
 12
148.5
 22
105.0
 13
0.0
 23
0.0
 14
1.0
 24
1.0
 15
0.0
 25
0.0
 16
0.0
 26
0.0
 36
1.0
 17
0.0
 27
0.0
 37
0.0
 40
210.0
 41
1.4142857143
 42
50.0
 43
0.0
 44
0.0
 50
0.0
 51
0.0
 71
0
 72
100
 73
1
 74
1
 75
0
 76
0
 77
0
 78
0
  0
ENDTAB
  0
TABLE
  2
LTYPE
  5
5
100
AcDbSymbolTable
 70
6
  0
LTYPE
  5
14
100
AcDbSymbolTableRecord
100
AcDbLinetypeTableRecord
  2
BYBLOCK
 70
0
  3

 72
65
 73
0
 40
0.0
  0
LTYPE
  5
15
100
AcDbSymbolTableRecord
100
AcDbLinetypeTableRecord
  2
BYLAYER
 70
0
  3

 72
65
 73
0
 40
0.0
  0
LTYPE
  5
16
100
AcDbSymbolTableRecord
100
AcDbLinetypeTableRecord
  2
CONTINUOUS
 70
64
  3
Solid line
 72
65
 73
0
 40
0.0
  0
LTYPE
  5
1F5
100
AcDbSymbolTableRecord
100
AcDbLinetypeTableRecord
  2
CENTER
 70
64
  3
____ _ ____ _ ____ _ ____ _ ____ _ ____ _ ____
 72
65
 73
4
 40
0.6
 49
0.375
 74
0
 49
-0.075
 74
0
 49
0.075
 74
0
 49
-0.075
 74
0
  0
LTYPE
  5
1F6
100
AcDbSymbolTableRecord
100
AcDbLinetypeTableRecord
  2
HIDDEN
 70
64
  3
- - - - - - - - - - - - - - - - - - - -
 72
65
 73
2
 40
0.2
 49
0.1
 74
0
 49
-0.1
 74
0
  0
LTYPE
  5
1F7
100
AcDbSymbolTableRecord
100
AcDbLinetypeTableRecord
  2
PHANTOM
 70
64
  3
_____ _ _ _____ _ _ _____ _ _ _____
 72
65
 73
6
 40
0.8
 49
0.45
 74
0
 49
-0.05
 74
0
 49
0.1
 74
0
 49
-0.05
 74
0
 49
0.1
 74
0
 49
-0.05
 74
0
  0
LTYPE
  5
1F8
100
AcDbSymbolTableRecord
100
AcDbLinetypeTableRecord
  2
DOT
 70
64
  3
. . . . . . . . . . . . . . . . . . . .
 72
65
 73
2
 40
0.2
 49
0.1
 74
0
 49
-0.1
 74
0
  0
LTYPE
  5
1F9
100
AcDbSymbolTableRecord
100
AcDbLinetypeTableRecord
  2
DASHED
 70
64
  3
- - - - - - - - - - - - - - - - - - - -
 72
65
 73
2
 40
0.2
 49
0.1
 74
0
 49
-0.1
 74
0
  0
ENDTAB
  0
TABLE
  2
LAYER
  5
2
100
AcDbSymbolTable
 70
36
  0
LAYER
  5
10
100
AcDbSymbolTableRecord
100
AcDbLayerTableRecord
  2
0
 70
0
 62
7
  6
CONTINUOUS
370
-3
390
F
  0
LAYER
  5
1FA
100
AcDbSymbolTableRecord
100
AcDbLayerTableRecord
  2
DEFAULT_1
 70
0
 62
7
  6
CENTER
370
-3
390
F
  0
LAYER
  5
1FB
100
AcDbSymbolTableRecord
100
AcDbLayerTableRecord
  2
DEFAULT_2
 70
0
 62
7
  6
HIDDEN
370
-3
390
F
  0
LAYER
  5
1FC
100
AcDbSymbolTableRecord
100
AcDbLayerTableRecord
  2
DEFAULT_3
 70
0
 62
7
  6
PHANTOM
370
-3
390
F
  0
LAYER
  5
1FD
100
AcDbSymbolTableRecord
100
AcDbLayerTableRecord
  2
ASSI
 70
0
 62
7
  6
CONTINUOUS
370
-3
390
F
  0
LAYER
  5
1FE
100
AcDbSymbolTableRecord
100
AcDbLayerTableRecord
  2
COORDINATE
 70
0
 62
7
  6
CONTINUOUS
370
-3
390
F
  0
LAYER
  5
1FF
100
AcDbSymbolTableRecord
100
AcDbLayerTableRecord
  2
COORD_ORIGINE
 70
0
 62
7
  6
CONTINUOUS
370
-3
390
F
  0
LAYER
  5
200
100
AcDbSymbolTableRecord
100
AcDbLayerTableRecord
  2
COPY_PUBLISH
 70
0
 62
7
  6
CONTINUOUS
370
-3
390
F
  0
LAYER
  5
201
100
AcDbSymbolTableRecord
100
AcDbLayerTableRecord
  2
COSMETIC
 70
0
 62
7
  6
CONTINUOUS
370
-3
390
F
  0
LAYER
  5
202
100
AcDbSymbolTableRecord
100
AcDbLayerTableRecord
  2
COSMETICI
 70
0
 62
7
  6
CONTINUOUS
370
-3
390
F
  0
LAYER
  5
203
100
AcDbSymbolTableRecord
100
AcDbLayerTableRecord
  2
CURVA_TASSELLO
 70
0
 62
7
  6
CONTINUOUS
370
-3
390
F
  0
LAYER
  5
204
100
AcDbSymbolTableRecord
100
AcDbLayerTableRecord
  2
CURVE
 70
0
 62
7
  6
CONTINUOUS
370
-3
390
F
  0
LAYER
  5
205
100
AcDbSymbolTableRecord
100
AcDbLayerTableRecord
  2
DRAFT
 70
0
 62
7
  6
CONTINUOUS
370
-3
390
F
  0
LAYER
  5
206
100
AcDbSymbolTableRecord
100
AcDbLayerTableRecord
  2
IMPORT_IGES
 70
0
 62
7
  6
CONTINUOUS
370
-3
390
F
  0
LAYER
  5
207
100
AcDbSymbolTableRecord
100
AcDbLayerTableRecord
  2
INTFCLR_2
 70
0
 62
7
  6
CONTINUOUS
370
-3
390
F
  0
LAYER
  5
208
100
AcDbSymbolTableRecord
100
AcDbLayerTableRecord
  2
INTF_1
 70
0
 62
7
  6
CONTINUOUS
370
-3
390
F
  0
LAYER
  5
209
100
AcDbSymbolTableRecord
100
AcDbLayerTableRecord
  2
INTF_21
 70
0
 62
7
  6
CONTINUOUS
370
-3
390
F
  0
LAYER
  5
20A
100
AcDbSymbolTableRecord
100
AcDbLayerTableRecord
  2
INTF_7
 70
0
 62
7
  6
CONTINUOUS
370
-3
390
F
  0
LAYER
  5
20B
100
AcDbSymbolTableRecord
100
AcDbLayerTableRecord
  2
INTF_9
 70
0
 62
7
  6
CONTINUOUS
370
-3
390
F
  0
LAYER
  5
20C
100
AcDbSymbolTableRecord
100
AcDbLayerTableRecord
  2
NOTE
 70
0
 62
7
  6
CONTINUOUS
370
-3
390
F
  0
LAYER
  5
20D
100
AcDbSymbolTableRecord
100
AcDbLayerTableRecord
  2
PIANI
 70
0
 62
7
  6
CONTINUOUS
370
-3
390
F
  0
LAYER
  5
20E
100
AcDbSymbolTableRecord
100
AcDbLayerTableRecord
  2
PIANI_ORIGINE
 70
0
 62
7
  6
CONTINUOUS
370
-3
390
F
  0
LAYER
  5
20F
100
AcDbSymbolTableRecord
100
AcDbLayerTableRecord
  2
PIANI_RIFERIMENTO
 70
0
 62
7
  6
CONTINUOUS
370
-3
390
F
  0
LAYER
  5
210
100
AcDbSymbolTableRecord
100
AcDbLayerTableRecord
  2
PUNTI
 70
0
 62
7
  6
CONTINUOUS
370
-3
390
F
  0
LAYER
  5
211
100
AcDbSymbolTableRecord
100
AcDbLayerTableRecord
  2
RACCORDO
 70
0
 62
7
  6
CONTINUOUS
370
-3
390
F
  0
LAYER
  5
212
100
AcDbSymbolTableRecord
100
AcDbLayerTableRecord
  2
RGB__255__255__255__
 70
0
 62
7
  6
CONTINUOUS
370
-3
390
F
  0
LAYER
  5
213
100
AcDbSymbolTableRecord
100
AcDbLayerTableRecord
  2
RGB____0____0____0__
 70
0
 62
7
  6
CONTINUOUS
370
-3
390
F
  0
LAYER
  5
214
100
AcDbSymbolTableRecord
100
AcDbLayerTableRecord
  2
SIMBOLI
 70
0
 62
7
  6
CONTINUOUS
370
-3
390
F
  0
LAYER
  5
215
100
AcDbSymbolTableRecord
100
AcDbLayerTableRecord
  2
SMUSSO
 70
0
 62
7
  6
CONTINUOUS
370
-3
390
F
  0
LAYER
  5
216
100
AcDbSymbolTableRecord
100
AcDbLayerTableRecord
  2
SNAPLINE
 70
0
 62
7
  6
CONTINUOUS
370
-3
390
F
  0
LAYER
  5
217
100
AcDbSymbolTableRecord
100
AcDbLayerTableRecord
  2
SUPERFICI
 70
0
 62
7
  6
CONTINUOUS
370
-3
390
F
  0
LAYER
  5
218
100
AcDbSymbolTableRecord
100
AcDbLayerTableRecord
  2
TRASH
 70
0
 62
7
  6
CONTINUOUS
370
-3
390
F
  0
LAYER
  5
219
100
AcDbSymbolTableRecord
100
AcDbLayerTableRecord
  2
XSEC_DATUMS
 70
0
 62
7
  6
CONTINUOUS
370
-3
390
F
  0
ENDTAB
  0
TABLE
  2
STYLE
  5
3
100
AcDbSymbolTable
 70
1
  0
STYLE
  5
11
100
AcDbSymbolTableRecord
100
AcDbTextStyleTableRecord
  2
STANDARD
 70
0
 40
0.0
 41
0.8
 50
0.0
 71
0
 42
0.2
  3
txt
  4

  0
STYLE
  5
21A
100
AcDbSymbolTableRecord
100
AcDbTextStyleTableRecord
  2
TEXTSTYLE_1
 70
0
 40
0.0
 41
0.8
 50
0.0
 71
0
 42
0.2
  3
gdt
  4

  0
ENDTAB
  0
TABLE
  2
VIEW
  5
6
100
AcDbSymbolTable
 70
0
  0
ENDTAB
  0
TABLE
  2
UCS
  5
7
100
AcDbSymbolTable
 70
0
  0
ENDTAB
  0
TABLE
  2
APPID
  5
9
100
AcDbSymbolTable
 70
1
  0
APPID
  5
21B
100
AcDbSymbolTableRecord
100
AcDbRegAppTableRecord
  2
ACAD
 70
0
  0
ENDTAB
  0
TABLE
  2
BLOCK_RECORD
  5
1
100
AcDbSymbolTable
 70
0
  0
BLOCK_RECORD
  5
21C
100
AcDbSymbolTableRecord
100
AcDbBlockTableRecord
  2
*Model_Space
  0
BLOCK_RECORD
  5
21D
100
AcDbSymbolTableRecord
100
AcDbBlockTableRecord
  2
*Paper_Space
  0
BLOCK_RECORD
  5
21E
100
AcDbSymbolTableRecord
100
AcDbBlockTableRecord
  2
_FILLED
  0
ENDTAB
  0
TABLE
  2
DIMSTYLE
  5
A
100
AcDbSymbolTable
 70
1
100
AcDbDimStyleTable
 71
0
  0
DIMSTYLE
105
21F
100
AcDbSymbolTableRecord
100
AcDbDimStyleTableRecord
  2
STANDARD
 70
0
  3

  4

 40
1.0
 41
3.0
 42
0.5
 43
0.38
 44
1.5
 45
0.0
 46
0.0
 47
0.01
 48
0.01
140
3.0
141
0.09
142
0.0
143
25.4
144
1.0
145
0.0
146
1.0
147
0.625
 71
1.0
 72
0.0
 73
0
 74
0
 75
0
 76
0
 77
1
 78
8
 79
2
170
0
171
1
172
0
173
0
174
0
175
0
176
0
177
0
178
0
270
2
179
2
271
2
272
2
273
2
274
2
275
0
280
0
281
0
282
0
283
1
284
8
285
0
286
0
287
3
288
0
340
11
278
44
341
21E
342
21E
343
21E
344
21E
  0
ENDTAB
  0
ENDSEC
  0
SECTION
  2
BLOCKS
  0
BLOCK
  5
20
100
AcDbEntity
  8
0
100
AcDbBlockBegin
  2
*Model_Space
 70
0
 10
0.0
 20
0.0
 30
0.0
  3
*Model_Space
  1

  0
ENDBLK
  5
21
100
AcDbEntity
  8
0
100
AcDbBlockEnd
  0
BLOCK
  5
1C
100
AcDbEntity
  8
0
100
AcDbBlockBegin
  2
*Paper_Space
 70
0
 10
0.0
 20
0.0
 30
0.0
  3
*Paper_Space
  1

  0
ENDBLK
  5
1D
100
AcDbEntity
  8
0
100
AcDbBlockEnd
  0
BLOCK
  5
220
100
AcDbEntity
  8
0
100
AcDbBlockBegin
  2
_FILLED
 70
64
 10
0.0
 20
0.0
  3
_FILLED
  1

  0
SOLID
  5
221
100
AcDbEntity
  8
0
  6
BYBLOCK
 62
0
100
AcDbTrace
 10
0.0
 20
0.0
 11
-1.0
 21
0.3166666667
 12
-1.0
 22
-0.3166666667
 13
-1.0
 23
-0.3166666667
  0
ENDBLK
  5
222
100
AcDbEntity
  8
0
  6
BYBLOCK
 62
0
100
AcDbBlockEnd
  0
ENDSEC
  0
SECTION
  2
ENTITIES
  0
LINE
  5
223
100
AcDbEntity
  8
SMUSSO
100
AcDbLine
 62
7
  6
CONTINUOUS
 10
103.7448757277
 20
166.9922232799
 11
107.5326895149
 21
169.4957901713
  0
LINE
  5
224
100
AcDbEntity
  8
ASSI
100
AcDbLine
 62
7
  6
CONTINUOUS
 10
103.7448757277
 20
166.9922232799
 11
107.5326895149
 21
169.4957901713
  0
LINE
  5
225
100
AcDbEntity
  8
SMUSSO
100
AcDbLine
 62
7
  6
CONTINUOUS
 10
104.452412997
 20
167.4006674738
 11
108.2402267842
 21
169.9042343651
  0
LINE
  5
226
100
AcDbEntity
  8
ASSI
100
AcDbLine
 62
7
  6
CONTINUOUS
 10
104.452412997
 20
167.4006674738
 11
108.2402267842
 21
169.9042343651
  0
LINE
  5
227
100
AcDbEntity
  8
SMUSSO
100
AcDbLine
 62
7
  6
CONTINUOUS
 10
104.4316493829
 20
167.3878281228
 11
104.452412997
 21
167.4006674738
  0
LINE
  5
228
100
AcDbEntity
  8
ASSI
100
AcDbLine
 62
7
  6
CONTINUOUS
 10
104.4316493829
 20
167.3878281228
 11
104.452412997
 21
167.4006674738
  0
LINE
  5
229
100
AcDbEntity
  8
SMUSSO
100
AcDbLine
 62
7
  6
CONTINUOUS
 10
107.5326895149
 20
169.4957901713
 11
108.2402267842
 21
169.9042343651
  0
LINE
  5
22A
100
AcDbEntity
  8
ASSI
100
AcDbLine
 62
7
  6
CONTINUOUS
 10
107.5326895149
 20
169.4957901713
 11
108.2402267842
 21
169.9042343651
  0
LINE
  5
22B
100
AcDbEntity
  8
SMUSSO
100
AcDbLine
 62
7
  6
CONTINUOUS
 10
104.4316493829
 20
167.3878281228
 11
103.7452510352
 21
166.9915869184
  0
LINE
  5
22C
100
AcDbEntity
  8
ASSI
100
AcDbLine
 62
7
  6
CONTINUOUS
 10
104.4316493829
 20
167.3878281228
 11
103.7452510352
 21
166.9915869184
  0
LINE
  5
22D
100
AcDbEntity
  8
SMUSSO
100
AcDbLine
 62
7
  6
CONTINUOUS
 10
104.048960083
 20
165.9725996844
 11
103.7699841489
 21
165.8115536089
  0
LINE
  5
22E
100
AcDbEntity
  8
ASSI
100
AcDbLine
 62
7
  6
CONTINUOUS
 10
104.048960083
 20
165.9725996844
 11
103.7699841489
 21
165.8115536089
  0
LINE
  5
22F
100
AcDbEntity
  8
SMUSSO
100
AcDbLine
 62
7
  6
CONTINUOUS
 10
104.048960083
 20
165.9725996844
 11
104.4316493829
 21
167.3878281228
  0
LINE
  5
230
100
AcDbEntity
  8
ASSI
100
AcDbLine
 62
7
  6
CONTINUOUS
 10
104.048960083
 20
165.9725996844
 11
104.4316493829
 21
167.3878281228
  0
LINE
  5
231
100
AcDbEntity
  8
SMUSSO
100
AcDbLine
 62
7
  6
CONTINUOUS
 10
103.7699841489
 20
94.9799200095
 11
103.7452510352
 21
95.436155587
  0
LINE
  5
232
100
AcDbEntity
  8
ASSI
100
AcDbLine
 62
7
  6
CONTINUOUS
 10
103.7699841489
 20
94.9799200095
 11
103.7452510352
 21
95.436155587
  0
LINE
  5
233
100
AcDbEntity
  8
SMUSSO
100
AcDbLine
 62
7
  6
CONTINUOUS
 10
188.2993233521
 20
46.173738955
 11
189.716282483
 21
45.7975594991
  0
LINE
  5
234
100
AcDbEntity
  8
ASSI
100
AcDbLine
 62
7
  6
CONTINUOUS
 10
188.2993233521
 20
46.173738955
 11
189.716282483
 21
45.7975594991
  0
LINE
  5
235
100
AcDbEntity
  8
SMUSSO
100
AcDbLine
 62
7
  6
CONTINUOUS
 10
103.7699841489
 20
165.8115536089
 11
103.7452510352
 21
166.9915869184
  0
LINE
  5
236
100
AcDbEntity
  8
ASSI
100
AcDbLine
 62
7
  6
CONTINUOUS
 10
103.7699841489
 20
165.8115536089
 11
103.7452510352
 21
166.9915869184
  0
LINE
  5
237
100
AcDbEntity
  8
SMUSSO
100
AcDbLine
 62
7
  6
CONTINUOUS
 10
103.7452510352
 20
95.436155587
 11
103.7448757277
 21
95.4603484477
  0
LINE
  5
238
100
AcDbEntity
  8
ASSI
100
AcDbLine
 62
7
  6
CONTINUOUS
 10
103.7452510352
 20
95.436155587
 11
103.7448757277
 21
95.4603484477
  0
LINE
  5
239
100
AcDbEntity
  8
SMUSSO
100
AcDbLine
 62
7
  6
CONTINUOUS
 10
103.7448757277
 20
166.9922232799
 11
103.7448757277
 21
95.4603484477
  0
LINE
  5
23A
100
AcDbEntity
  8
ASSI
100
AcDbLine
 62
7
  6
CONTINUOUS
 10
103.7448757277
 20
166.9922232799
 11
103.7448757277
 21
95.4603484477
  0
LINE
  5
23B
100
AcDbEntity
  8
SMUSSO
100
AcDbLine
 62
7
  6
CONTINUOUS
 10
103.7699841489
 20
165.8115536089
 11
103.7699841489
 21
94.9799200095
  0
LINE
  5
23C
100
AcDbEntity
  8
ASSI
100
AcDbLine
 62
7
  6
CONTINUOUS
 10
103.7699841489
 20
165.8115536089
 11
103.7699841489
 21
94.9799200095
  0
LINE
  5
23D
100
AcDbEntity
  8
SMUSSO
100
AcDbLine
 62
7
  6
CONTINUOUS
 10
103.7699841489
 20
94.9799200095
 11
104.048960083
 21
94.496719518
  0
LINE
  5
23E
100
AcDbEntity
  8
ASSI
100
AcDbLine
 62
7
  6
CONTINUOUS
 10
103.7699841489
 20
94.9799200095
 11
104.048960083
 21
94.496719518
  0
LWPOLYLINE
  5
23F
100
AcDbEntity
  8
0
100
AcDbPolyline
 62
7
  6
CONTINUOUS
 90
13
 70
0
 10
122.2771416071
 20
138.2902213406
 10
122.2777918409
 20
138.2905013025
 10
122.2828940083
 20
138.2922379604
 10
122.2898571483
 20
138.2936531231
 10
122.2989011036
 20
138.294413048
 10
122.3101231001
 20
138.2941769693
 10
122.3234969256
 20
138.2926194295
 10
122.3389924375
 20
138.2894463703
 10
122.3562747622
 20
138.2844690388
 10
122.3747672345
 20
138.2776888128
 10
122.394111892
 20
138.2691618399
 10
122.4141512516
 20
138.2589052463
 10
122.4231908046
 20
138.2538266632
  0
LWPOLYLINE
  5
240
100
AcDbEntity
  8
ASSI
100
AcDbPolyline
 62
7
  6
CONTINUOUS
 90
13
 70
0
 10
122.2771416071
 20
138.2902213406
 10
122.2777918409
 20
138.2905013025
 10
122.2828940083
 20
138.2922379604
 10
122.2898571483
 20
138.2936531231
 10
122.2989011036
 20
138.294413048
 10
122.3101231001
 20
138.2941769693
 10
122.3234969256
 20
138.2926194295
 10
122.3389924375
 20
138.2894463703
 10
122.3562747622
 20
138.2844690388
 10
122.3747672345
 20
138.2776888128
 10
122.394111892
 20
138.2691618399
 10
122.4141512516
 20
138.2589052463
 10
122.4231908046
 20
138.2538266632
  0
LINE
  5
241
100
AcDbEntity
  8
0
100
AcDbLine
 62
250
  6
CONTINUOUS
 10
122.1607316645
 20
138.0547821126
 11
122.5099763912
 21
138.2037176527
  0
LINE
  5
242
100
AcDbEntity
  8
ASSI
100
AcDbLine
 62
250
  6
CONTINUOUS
 10
122.1607316645
 20
138.0547821126
 11
122.5099763912
 21
138.2037176527
  0
LINE
  5
243
100
AcDbEntity
  8
SMUSSO
100
AcDbLine
 62
7
  6
CONTINUOUS
 10
104.048960083
 20
94.496719518
 11
104.4316493829
 21
94.2472787759
  0
LINE
  5
244
100
AcDbEntity
  8
ASSI
100
AcDbLine
 62
7
  6
CONTINUOUS
 10
104.048960083
 20
94.496719518
 11
104.4316493829
 21
94.2472787759
  0
LINE
  5
245
100
AcDbEntity
  8
SMUSSO
100
AcDbLine
 62
7
  6
CONTINUOUS
 10
104.452412997
 20
94.2348579503
 11
189.0302465656
 21
45.400676857
  0
LINE
  5
246
100
AcDbEntity
  8
ASSI
100
AcDbLine
 62
7
  6
CONTINUOUS
 10
104.452412997
 20
94.2348579503
 11
189.0302465656
 21
45.400676857
  0
LINE
  5
247
100
AcDbEntity
  8
SMUSSO
100
AcDbLine
 62
7
  6
CONTINUOUS
 10
104.048960083
 20
94.496719518
 11
188.020347418
 21
46.0126928794
  0
LINE
  5
248
100
AcDbEntity
  8
ASSI
100
AcDbLine
 62
7
  6
CONTINUOUS
 10
104.048960083
 20
94.496719518
 11
188.020347418
 21
46.0126928794
  0
LINE
  5
249
100
AcDbEntity
  8
SMUSSO
100
AcDbLine
 62
7
  6
CONTINUOUS
 10
104.452412997
 20
94.2348579503
 11
104.4316493829
 21
94.2472787759
  0
LINE
  5
24A
100
AcDbEntity
  8
ASSI
100
AcDbLine
 62
7
  6
CONTINUOUS
 10
104.452412997
 20
94.2348579503
 11
104.4316493829
 21
94.2472787759
  0
LINE
  5
24B
100
AcDbEntity
  8
SMUSSO
100
AcDbLine
 62
7
  6
CONTINUOUS
 10
188.020347418
 20
46.0126928794
 11
189.0298841354
 21
45.4013182947
  0
LINE
  5
24C
100
AcDbEntity
  8
ASSI
100
AcDbLine
 62
7
  6
CONTINUOUS
 10
188.020347418
 20
46.0126928794
 11
189.0298841354
 21
45.4013182947
  0
LWPOLYLINE
  5
24D
100
AcDbEntity
  8
0
100
AcDbPolyline
 62
250
  6
CONTINUOUS
 90
25
 70
0
 10
123.4408072883
 20
102.5424636463
 10
123.4429651572
 20
102.5166571067
 10
123.4464492908
 20
102.4901199705
 10
123.4512457823
 20
102.4629710284
 10
123.4573366255
 20
102.4353543336
 10
123.4646914936
 20
102.4073652771
 10
123.4732789113
 20
102.3790482424
 10
123.4830760849
 20
102.3505029691
 10
123.4940459932
 20
102.3218662991
 10
123.5061385253
 20
102.2932371204
 10
123.5193170796
 20
102.2647090185
 10
123.5335277634
 20
102.2364243144
 10
123.5486804564
 20
102.2085510385
 10
123.5646165875
 20
102.1813564207
 10
123.5813461597
 20
102.1547807955
 10
123.5990668171
 20
102.1285296742
 10
123.617833863
 20
102.102638419
 10
123.6375221704
 20
102.0773711842
 10
123.6580973162
 20
102.0528266597
 10
123.6795864837
 20
102.0290612269
 10
123.7018332553
 20
102.0063656927
 10
123.7244920204
 20
101.9851466073
 10
123.7473600264
 20
101.9655852481
 10
123.7704031467
 20
101.9476991528
 10
123.7934994406
 20
101.9315829197
  0
LWPOLYLINE
  5
24E
100
AcDbEntity
  8
ASSI
100
AcDbPolyline
 62
250
  6
CONTINUOUS
 90
25
 70
0
 10
123.4408072883
 20
102.5424636463
 10
123.4429651572
 20
102.5166571067
 10
123.4464492908
 20
102.4901199705
 10
123.4512457823
 20
102.4629710284
 10
123.4573366255
 20
102.4353543336
 10
123.4646914936
 20
102.4073652771
 10
123.4732789113
 20
102.3790482424
 10
123.4830760849
 20
102.3505029691
 10
123.4940459932
 20
102.3218662991
 10
123.5061385253
 20
102.2932371204
 10
123.5193170796
 20
102.2647090185
 10
123.5335277634
 20
102.2364243144
 10
123.5486804564
 20
102.2085510385
 10
123.5646165875
 20
102.1813564207
 10
123.5813461597
 20
102.1547807955
 10
123.5990668171
 20
102.1285296742
 10
123.617833863
 20
102.102638419
 10
123.6375221704
 20
102.0773711842
 10
123.6580973162
 20
102.0528266597
 10
123.6795864837
 20
102.0290612269
 10
123.7018332553
 20
102.0063656927
 10
123.7244920204
 20
101.9851466073
 10
123.7473600264
 20
101.9655852481
 10
123.7704031467
 20
101.9476991528
 10
123.7934994406
 20
101.9315829197
  0
LWPOLYLINE
  5
24F
100
AcDbEntity
  8
0
100
AcDbPolyline
 62
250
  6
CONTINUOUS
 90
9
 70
0
 10
122.3818675157
 20
138.3453201021
 10
122.3825749591
 20
138.3294157182
 10
122.3846902115
 20
138.3144873917
 10
122.3881921104
 20
138.3006844771
 10
122.39304562
 20
138.2881450691
 10
122.3992021822
 20
138.2769946216
 10
122.406600202
 20
138.267344692
 10
122.415165664
 20
138.2592918257
 10
122.4231908046
 20
138.2538266632
  0
LWPOLYLINE
  5
250
100
AcDbEntity
  8
ASSI
100
AcDbPolyline
 62
250
  6
CONTINUOUS
 90
9
 70
0
 10
122.3818675157
 20
138.3453201021
 10
122.3825749591
 20
138.3294157182
 10
122.3846902115
 20
138.3144873917
 10
122.3881921104
 20
138.3006844771
 10
122.39304562
 20
138.2881450691
 10
122.3992021822
 20
138.2769946216
 10
122.406600202
 20
138.267344692
 10
122.415165664
 20
138.2592918257
 10
122.4231908046
 20
138.2538266632
  0
LINE
  5
251
100
AcDbEntity
  8
0
100
AcDbLine
 62
250
  6
CONTINUOUS
 10
121.8880985025
 20
101.8088501448
 11
121.8880985025
 21
138.0602791646
  0
LINE
  5
252
100
AcDbEntity
  8
ASSI
100
AcDbLine
 62
250
  6
CONTINUOUS
 10
121.8880985025
 20
101.8088501448
 11
121.8880985025
 21
138.0602791646
  0
LINE
  5
253
100
AcDbEntity
  8
RACCORDO
100
AcDbLine
 62
7
  6
CONTINUOUS
 10
123.2304600572
 20
137.7877194137
 11
123.2304600572
 21
102.420993058
  0
LINE
  5
254
100
AcDbEntity
  8
ASSI
100
AcDbLine
 62
7
  6
CONTINUOUS
 10
123.2304600572
 20
137.7877194137
 11
123.2304600572
 21
102.420993058
  0
LINE
  5
255
100
AcDbEntity
  8
0
100
AcDbLine
 62
250
  6
CONTINUOUS
 10
123.4408072883
 20
137.6662675588
 11
123.4408072883
 21
102.5424636463
  0
LINE
  5
256
100
AcDbEntity
  8
ASSI
100
AcDbLine
 62
250
  6
CONTINUOUS
 10
123.4408072883
 20
137.6662675588
 11
123.4408072883
 21
102.5424636463
  0
LINE
  5
257
100
AcDbEntity
  8
0
100
AcDbLine
 62
7
  6
CONTINUOUS
 10
123.5634524982
 20
137.5954537517
 11
123.5634524982
 21
102.7318637759
  0
LINE
  5
258
100
AcDbEntity
  8
ASSI
100
AcDbLine
 62
7
  6
CONTINUOUS
 10
123.5634524982
 20
137.5954537517
 11
123.5634524982
 21
102.7318637759
  0
LINE
  5
259
100
AcDbEntity
  8
0
100
AcDbLine
 62
7
  6
CONTINUOUS
 10
123.6547241259
 20
102.3791517006
 11
123.6547241259
 21
118.5881493047
  0
LINE
  5
25A
100
AcDbEntity
  8
0
100
AcDbLine
 62
7
  6
CONTINUOUS
 10
123.6547241259
 20
123.4869807874
 11
123.6547241259
 21
137.5427546577
  0
LWPOLYLINE
  5
25B
100
AcDbEntity
  8
0
100
AcDbPolyline
 62
250
  6
CONTINUOUS
 90
15
 70
0
 10
122.1607316645
 20
101.8033530929
 10
122.1608117781
 20
138.080698122
 10
122.1624430762
 20
138.1055566514
 10
122.1655936888
 20
138.1292619551
 10
122.1702129641
 20
138.1516907256
 10
122.1762688972
 20
138.1728005679
 10
122.1837671556
 20
138.1926100757
 10
122.1926890645
 20
138.211062064
 10
122.2029826273
 20
138.2280428018
 10
122.2146115265
 20
138.2434784705
 10
122.2275313489
 20
138.2573077437
 10
122.2416810033
 20
138.2694666249
 10
122.2569881072
 20
138.2798951061
 10
122.2733731187
 20
138.2885488478
 10
122.2771477986
 20
138.2902257884
  0
LWPOLYLINE
  5
25C
100
AcDbEntity
  8
ASSI
100
AcDbPolyline
 62
250
  6
CONTINUOUS
 90
15
 70
0
 10
122.1607316645
 20
101.8033530929
 10
122.1608117781
 20
138.080698122
 10
122.1624430762
 20
138.1055566514
 10
122.1655936888
 20
138.1292619551
 10
122.1702129641
 20
138.1516907256
 10
122.1762688972
 20
138.1728005679
 10
122.1837671556
 20
138.1926100757
 10
122.1926890645
 20
138.211062064
 10
122.2029826273
 20
138.2280428018
 10
122.2146115265
 20
138.2434784705
 10
122.2275313489
 20
138.2573077437
 10
122.2416810033
 20
138.2694666249
 10
122.2569881072
 20
138.2798951061
 10
122.2733731187
 20
138.2885488478
 10
122.2771477986
 20
138.2902257884
  0
LWPOLYLINE
  5
25D
100
AcDbEntity
  8
0
100
AcDbPolyline
 62
250
  6
CONTINUOUS
 90
25
 70
0
 10
121.8880985025
 20
138.0602791646
 10
121.8892270061
 20
138.0971647324
 10
121.8923512524
 20
138.1322867422
 10
121.8974712412
 20
138.1656451937
 10
121.9046214304
 20
138.1973105119
 10
121.9137673621
 20
138.2272122719
 10
121.9248056631
 20
138.2551391996
 10
121.9377626903
 20
138.2811238804
 10
121.9526120869
 20
138.3051337289
 10
121.9691714092
 20
138.3268597149
 10
121.9874704342
 20
138.3462719867
 10
122.0074793849
 20
138.3634003959
 10
122.0289264872
 20
138.3780254677
 10
122.0518070034
 20
138.3901073592
 10
122.0761256711
 20
138.3996859133
 10
122.1016249292
 20
138.4066611829
 10
122.1281904683
 20
138.4110595561
 10
122.1559365979
 20
138.4128546449
 10
122.1849486849
 20
138.4118673385
 10
122.2153999826
 20
138.4081058914
 10
122.2471172378
 20
138.4015620491
 10
122.279666058
 20
138.3920319366
 10
122.3129016456
 20
138.3794475954
 10
122.3469687982
 20
138.3638769839
 10
122.3818675157
 20
138.3453201021
  0
LWPOLYLINE
  5
25E
100
AcDbEntity
  8
ASSI
100
AcDbPolyline
 62
250
  6
CONTINUOUS
 90
25
 70
0
 10
121.8880985025
 20
138.0602791646
 10
121.8892270061
 20
138.0971647324
 10
121.8923512524
 20
138.1322867422
 10
121.8974712412
 20
138.1656451937
 10
121.9046214304
 20
138.1973105119
 10
121.9137673621
 20
138.2272122719
 10
121.9248056631
 20
138.2551391996
 10
121.9377626903
 20
138.2811238804
 10
121.9526120869
 20
138.3051337289
 10
121.9691714092
 20
138.3268597149
 10
121.9874704342
 20
138.3462719867
 10
122.0074793849
 20
138.3634003959
 10
122.0289264872
 20
138.3780254677
 10
122.0518070034
 20
138.3901073592
 10
122.0761256711
 20
138.3996859133
 10
122.1016249292
 20
138.4066611829
 10
122.1281904683
 20
138.4110595561
 10
122.1559365979
 20
138.4128546449
 10
122.1849486849
 20
138.4118673385
 10
122.2153999826
 20
138.4081058914
 10
122.2471172378
 20
138.4015620491
 10
122.279666058
 20
138.3920319366
 10
122.3129016456
 20
138.3794475954
 10
122.3469687982
 20
138.3638769839
 10
122.3818675157
 20
138.3453201021
  0
LWPOLYLINE
  5
25F
100
AcDbEntity
  8
0
100
AcDbPolyline
 62
250
  6
CONTINUOUS
 90
10
 70
0
 10
123.5634524968
 20
102.7318419111
 10
123.5628649461
 20
102.7178723193
 10
123.5591112711
 20
102.693903543
 10
123.5519130212
 20
102.6701985851
 10
123.5413202268
 20
102.6469221828
 10
123.5274065083
 20
102.6242360937
 10
123.5102685606
 20
102.602297969
 10
123.490025486
 20
102.5812602647
 10
123.4668179676
 20
102.5612691819
 10
123.4408072883
 20
102.5424636463
  0
LWPOLYLINE
  5
260
100
AcDbEntity
  8
ASSI
100
AcDbPolyline
 62
250
  6
CONTINUOUS
 90
10
 70
0
 10
123.5634524968
 20
102.7318419111
 10
123.5628649461
 20
102.7178723193
 10
123.5591112711
 20
102.693903543
 10
123.5519130212
 20
102.6701985851
 10
123.5413202268
 20
102.6469221828
 10
123.5274065083
 20
102.6242360937
 10
123.5102685606
 20
102.602297969
 10
123.490025486
 20
102.5812602647
 10
123.4668179676
 20
102.5612691819
 10
123.4408072883
 20
102.5424636463
  0
LWPOLYLINE
  5
261
100
AcDbEntity
  8
0
100
AcDbPolyline
 62
250
  6
CONTINUOUS
 90
16
 70
0
 10
122.3818675157
 20
100.9536171276
 10
122.3825749907
 20
100.9703388318
 10
122.3846903271
 20
100.9877101416
 10
122.3881923453
 20
101.0055572486
 10
122.3930459916
 20
101.0237015847
 10
122.3992026912
 20
101.0419616161
 10
122.4066008361
 20
101.06015466
 10
122.4151663963
 20
101.0780986975
 10
122.4248136651
 20
101.0956142076
 10
122.4354461217
 20
101.1125259691
 10
122.4469573841
 20
101.1286647897
 10
122.459232281
 20
101.1438692147
 10
122.4721480143
 20
101.1579871506
 10
122.4855753697
 20
101.1708773637
 10
122.499380007
 20
101.1824108956
 10
122.5134238168
 20
101.1924723663
  0
LWPOLYLINE
  5
262
100
AcDbEntity
  8
ASSI
100
AcDbPolyline
 62
250
  6
CONTINUOUS
 90
16
 70
0
 10
122.3818675157
 20
100.9536171276
 10
122.3825749907
 20
100.9703388318
 10
122.3846903271
 20
100.9877101416
 10
122.3881923453
 20
101.0055572486
 10
122.3930459916
 20
101.0237015847
 10
122.3992026912
 20
101.0419616161
 10
122.4066008361
 20
101.06015466
 10
122.4151663963
 20
101.0780986975
 10
122.4248136651
 20
101.0956142076
 10
122.4354461217
 20
101.1125259691
 10
122.4469573841
 20
101.1286647897
 10
122.459232281
 20
101.1438692147
 10
122.4721480143
 20
101.1579871506
 10
122.4855753697
 20
101.1708773637
 10
122.499380007
 20
101.1824108956
 10
122.5134238168
 20
101.1924723663
  0
LWPOLYLINE
  5
263
100
AcDbEntity
  8
0
100
AcDbPolyline
 62
7
  6
CONTINUOUS
 90
15
 70
0
 10
124.3531587671
 20
123.8902073601
 10
124.3648356667
 20
123.8973845285
 10
124.3756928463
 20
123.9048808886
 10
124.3857303059
 20
123.9126964403
 10
124.3949758491
 20
123.920857793
 10
124.4034016723
 20
123.9293383373
 10
124.4109243652
 20
123.9380582449
 10
124.417534868
 20
123.9470213041
 10
124.4232422404
 20
123.9562237266
 10
124.4279902515
 20
123.9655743189
 10
124.4317692989
 20
123.9750742929
 10
124.434588985
 20
123.9847224368
 10
124.4364218859
 20
123.9944239212
 10
124.4372583915
 20
124.0041792643
 10
124.4373179701
 20
124.0076032752
  0
LINE
  5
264
100
AcDbEntity
  8
0
100
AcDbLine
 62
7
  6
CONTINUOUS
 10
124.3531259044
 20
123.8902256949
 11
123.6547241259
 21
123.4869758651
  0
LINE
  5
265
100
AcDbEntity
  8
0
100
AcDbLine
 62
250
  6
CONTINUOUS
 10
126.7848328656
 20
125.2942303293
 11
124.3531587671
 21
123.8902073601
  0
LINE
  5
266
100
AcDbEntity
  8
0
100
AcDbLine
 62
250
  6
CONTINUOUS
 10
126.9969325912
 20
124.9268628287
 11
123.8668561603
 21
123.1195897211
  0
LINE
  5
267
100
AcDbEntity
  8
0
100
AcDbLine
 62
7
  6
CONTINUOUS
 10
126.2198607503
 20
125.5534372578
 11
124.4373239643
 21
124.5948466594
  0
LINE
  5
268
100
AcDbEntity
  8
0
100
AcDbLine
 62
250
  6
CONTINUOUS
 10
126.36565076
 20
125.5362608235
 11
124.4373239643
 21
124.4992690759
  0
LWPOLYLINE
  5
269
100
AcDbEntity
  8
0
100
AcDbPolyline
 62
250
  6
CONTINUOUS
 90
10
 70
0
 10
126.2198607503
 20
125.5534372578
 10
126.2308504778
 20
125.558516532
 10
126.2454692013
 20
125.5630138409
 10
126.2609740459
 20
125.5654282
 10
126.2772470308
 20
125.5657412504
 10
126.2941643738
 20
125.5639506228
 10
126.311597394
 20
125.5600699414
 10
126.3294134747
 20
125.5541287261
 10
126.3474770705
 20
125.5461721766
 10
126.36565076
 20
125.5362608235
  0
LWPOLYLINE
  5
26A
100
AcDbEntity
  8
0
100
AcDbPolyline
 62
7
  6
CONTINUOUS
 90
19
 70
0
 10
123.8668561603
 20
123.1195897211
 10
123.8659981399
 20
123.141697702
 10
123.8635889624
 20
123.1642203326
 10
123.8596286278
 20
123.1871576127
 10
123.8540636115
 20
123.2106893573
 10
123.8469474381
 20
123.2346357515
 10
123.8384406816
 20
123.2584573507
 10
123.8285118663
 20
123.2821512572
 10
123.8171924678
 20
123.3057203687
 10
123.8047374873
 20
123.3286339334
 10
123.7911212094
 20
123.3508771057
 10
123.7763693495
 20
123.3724647314
 10
123.7608140539
 20
123.3929105954
 10
123.7444382713
 20
123.4121880176
 10
123.727259053
 20
123.4303236783
 10
123.7096596992
 20
123.446911403
 10
123.6917679769
 20
123.4618158004
 10
123.6734561191
 20
123.4751722618
 10
123.6547241259
 20
123.4869807874
  0
LINE
  5
26B
100
AcDbEntity
  8
0
100
AcDbLine
 62
7
  6
CONTINUOUS
 10
123.8668561603
 20
123.1195897211
 11
123.8668561603
 21
118.710575615
  0
LINE
  5
26C
100
AcDbEntity
  8
0
100
AcDbLine
 62
250
  6
CONTINUOUS
 10
124.3531259044
 20
101.7501006881
 11
124.3531259044
 21
118.9123421292
  0
LINE
  5
26D
100
AcDbEntity
  8
0
100
AcDbLine
 62
250
  6
CONTINUOUS
 10
124.3531259044
 20
123.8902256949
 11
124.3531259044
 21
137.1395062239
  0
LINE
  5
26E
100
AcDbEntity
  8
0
100
AcDbLine
 62
7
  6
CONTINUOUS
 10
124.4373239643
 20
101.7014857836
 11
124.4373239643
 21
118.9644114725
  0
LINE
  5
26F
100
AcDbEntity
  8
0
100
AcDbLine
 62
7
  6
CONTINUOUS
 10
124.4373239643
 20
124.0076032146
 11
124.4373239643
 21
137.0908913193
  0
LINE
  5
270
100
AcDbEntity
  8
0
100
AcDbLine
 62
250
  6
CONTINUOUS
 10
126.9969325912
 20
124.9268628287
 11
126.9969325912
 21
120.646261832
  0
LINE
  5
271
100
AcDbEntity
  8
0
100
AcDbLine
 62
7
  6
CONTINUOUS
 10
127.0811306511
 20
125.0471889397
 11
127.0811306511
 21
120.7665879431
  0
LWPOLYLINE
  5
272
100
AcDbEntity
  8
0
100
AcDbPolyline
 62
250
  6
CONTINUOUS
 90
10
 70
0
 10
126.9969325912
 20
120.646261832
 10
126.9964285964
 20
120.625568341
 10
126.9942866876
 20
120.6059476794
 10
126.9905231596
 20
120.5875491146
 10
126.9851666426
 20
120.5705126129
 10
126.9782578879
 20
120.5549677867
 10
126.9698494615
 20
120.5410329053
 10
126.9600053449
 20
120.5288139877
 10
126.9488004243
 20
120.5184039731
 10
126.9389203248
 20
120.5114361865
  0
LWPOLYLINE
  5
273
100
AcDbEntity
  8
0
100
AcDbPolyline
 62
250
  6
CONTINUOUS
 90
10
 70
0
 10
127.0811306511
 20
125.0471889397
 10
127.0801967663
 20
125.0335320627
 10
127.0770414786
 20
125.0186869153
 10
127.0716799261
 20
125.0040541201
 10
127.0641438653
 20
124.989729398
 10
127.0544935681
 20
124.9758337631
 10
127.0428341136
 20
124.9625050773
 10
127.0292803167
 20
124.949848633
 10
127.0139376453
 20
124.9379407257
 10
126.9969325912
 20
124.9268628287
  0
LWPOLYLINE
  5
274
100
AcDbEntity
  8
0
100
AcDbPolyline
 62
250
  6
CONTINUOUS
 90
10
 70
0
 10
127.0811306505
 20
120.7665766635
 10
127.0801967663
 20
120.7529310661
 10
127.0770414786
 20
120.7380859187
 10
127.0716799261
 20
120.7234531235
 10
127.0641438653
 20
120.7091284014
 10
127.0544935681
 20
120.6952327665
 10
127.0428341137
 20
120.6819040807
 10
127.0292803167
 20
120.6692476364
 10
127.0139376454
 20
120.6573397291
 10
126.9969325912
 20
120.646261832
  0
LWPOLYLINE
  5
275
100
AcDbEntity
  8
0
100
AcDbPolyline
 62
7
  6
CONTINUOUS
 90
10
 70
0
 10
123.8073376728
 20
118.5748209278
 10
123.8171925032
 20
118.5817953821
 10
123.8285118949
 20
118.592293139
 10
123.8384407035
 20
118.6045214989
 10
123.8469474536
 20
118.6185197056
 10
123.8540636206
 20
118.6342485152
 10
123.859628632
 20
118.6513539124
 10
123.8635889637
 20
118.6697178923
 10
123.8659981398
 20
118.6894584598
 10
123.8668561603
 20
118.710575615
  0
LINE
  5
276
100
AcDbEntity
  8
0
100
AcDbLine
 62
250
  6
CONTINUOUS
 10
126.9969325912
 20
120.646261832
 11
123.8668561603
 21
118.710575615
  0
LINE
  5
277
100
AcDbEntity
  8
0
100
AcDbLine
 62
7
  6
CONTINUOUS
 10
126.9389203248
 20
120.5114361865
 11
123.8073387243
 21
118.5748191501
  0
LWPOLYLINE
  5
278
100
AcDbEntity
  8
CURVE
100
AcDbPolyline
 62
250
  6
CONTINUOUS
 90
18
 70
0
 10
148.7729803436
 20
83.1942080659
 10
148.7760368193
 20
83.1949960359
 10
148.7790685704
 20
83.1958466183
 10
148.7820756639
 20
83.1967579352
 10
148.7850581669
 20
83.1977281087
 10
148.7880161462
 20
83.1987552608
 10
148.790949669
 20
83.1998375136
 10
148.7938588021
 20
83.2009729892
 10
148.7967436126
 20
83.2021598095
 10
148.7996041674
 20
83.2033960968
 10
148.8024405336
 20
83.2046799729
 10
148.8052527781
 20
83.2060095601
 10
148.8080409679
 20
83.2073829804
 10
148.8108051701
 20
83.2087983558
 10
148.8135301476
 20
83.2102458635
 10
148.8162313212
 20
83.2117330001
 10
148.8189085407
 20
83.2132597649
 10
148.8215616559
 20
83.2148261568
  0
LWPOLYLINE
  5
279
100
AcDbEntity
  8
IMPORT_IGES
100
AcDbPolyline
 62
7
  6
CONTINUOUS
 90
18
 70
0
 10
148.7729803436
 20
83.1942080659
 10
148.7760368193
 20
83.1949960359
 10
148.7790685704
 20
83.1958466183
 10
148.7820756639
 20
83.1967579352
 10
148.7850581669
 20
83.1977281087
 10
148.7880161462
 20
83.1987552608
 10
148.790949669
 20
83.1998375136
 10
148.7938588021
 20
83.2009729892
 10
148.7967436126
 20
83.2021598095
 10
148.7996041674
 20
83.2033960968
 10
148.8024405336
 20
83.2046799729
 10
148.8052527781
 20
83.2060095601
 10
148.8080409679
 20
83.2073829804
 10
148.8108051701
 20
83.2087983558
 10
148.8135301476
 20
83.2102458635
 10
148.8162313212
 20
83.2117330001
 10
148.8189085407
 20
83.2132597649
 10
148.8215616559
 20
83.2148261568
  0
LWPOLYLINE
  5
27A
100
AcDbEntity
  8
CURVE
100
AcDbPolyline
 62
250
  6
CONTINUOUS
 90
12
 70
0
 10
148.5561696321
 20
83.490782398
 10
148.5549512347
 20
83.4905019379
 10
148.5537261324
 20
83.4902362622
 10
148.5524944021
 20
83.4899852782
 10
148.551256121
 20
83.4897488935
 10
148.5500113658
 20
83.4895270156
 10
148.5487602137
 20
83.4893195521
 10
148.5475027417
 20
83.4891264105
 10
148.5462390266
 20
83.4889474982
 10
148.5449691456
 20
83.4887827229
 10
148.5436931757
 20
83.488631992
 10
148.5424111937
 20
83.4884952131
  0
LWPOLYLINE
  5
27B
100
AcDbEntity
  8
IMPORT_IGES
100
AcDbPolyline
 62
7
  6
CONTINUOUS
 90
12
 70
0
 10
148.5561696321
 20
83.490782398
 10
148.5549512347
 20
83.4905019379
 10
148.5537261324
 20
83.4902362622
 10
148.5524944021
 20
83.4899852782
 10
148.551256121
 20
83.4897488935
 10
148.5500113658
 20
83.4895270156
 10
148.5487602137
 20
83.4893195521
 10
148.5475027417
 20
83.4891264105
 10
148.5462390266
 20
83.4889474982
 10
148.5449691456
 20
83.4887827229
 10
148.5436931757
 20
83.488631992
 10
148.5424111937
 20
83.4884952131
  0
LWPOLYLINE
  5
27C
100
AcDbEntity
  8
0
100
AcDbPolyline
 62
7
  6
CONTINUOUS
 90
17
 70
0
 10
148.7447176036
 20
83.1896449181
 10
148.7528237202
 20
83.190563215
 10
148.7569982568
 20
83.1911181152
 10
148.7612513762
 20
83.1917951383
 10
148.7655846501
 20
83.1925882967
 10
148.7699965067
 20
83.1935035779
 10
148.7744835773
 20
83.1945868652
 10
148.7790485727
 20
83.1958469588
 10
148.7836887821
 20
83.1972750584
 10
148.7883927036
 20
83.1988906463
 10
148.7931575466
 20
83.2006957841
 10
148.7979861019
 20
83.2026884101
 10
148.802875239
 20
83.204881822
 10
148.8078286233
 20
83.207273602
 10
148.8128425896
 20
83.2098661678
 10
148.8179030113
 20
83.2126800706
 10
148.8185224618
 20
83.2130386682
  0
LWPOLYLINE
  5
27D
100
AcDbEntity
  8
CURVE
100
AcDbPolyline
 62
250
  6
CONTINUOUS
 90
10
 70
0
 10
148.5424111937
 20
83.4884952131
 10
148.5412544061
 20
83.4883841532
 10
148.540092884
 20
83.4882842123
 10
148.5389266835
 20
83.4881953235
 10
148.5377558602
 20
83.4881174197
 10
148.5365804701
 20
83.4880504337
 10
148.5354005689
 20
83.4879942987
 10
148.5342162124
 20
83.4879489474
 10
148.5330274566
 20
83.4879143129
 10
148.5318343572
 20
83.4878903281
  0
LWPOLYLINE
  5
27E
100
AcDbEntity
  8
IMPORT_IGES
100
AcDbPolyline
 62
7
  6
CONTINUOUS
 90
10
 70
0
 10
148.5424111937
 20
83.4884952131
 10
148.5412544061
 20
83.4883841532
 10
148.540092884
 20
83.4882842123
 10
148.5389266835
 20
83.4881953235
 10
148.5377558602
 20
83.4881174197
 10
148.5365804701
 20
83.4880504337
 10
148.5354005689
 20
83.4879942987
 10
148.5342162124
 20
83.4879489474
 10
148.5330274566
 20
83.4879143129
 10
148.5318343572
 20
83.4878903281
  0
LINE
  5
27F
100
AcDbEntity
  8
CURVE
100
AcDbLine
 62
250
  6
CONTINUOUS
 10
148.5318343572
 20
83.4878903281
 11
148.5266515424
 21
83.4879070356
  0
LINE
  5
280
100
AcDbEntity
  8
IMPORT_IGES
100
AcDbLine
 62
7
  6
CONTINUOUS
 10
148.5318343572
 20
83.4878903281
 11
148.5266515424
 21
83.4879070356
  0
LWPOLYLINE
  5
281
100
AcDbEntity
  8
CURVE
100
AcDbPolyline
 62
250
  6
CONTINUOUS
 90
11
 70
0
 10
148.5266515424
 20
83.4879070356
 10
148.5250311981
 20
83.4879511191
 10
148.5234037976
 20
83.4880133261
 10
148.5217694732
 20
83.4880934978
 10
148.5201283568
 20
83.4881914756
 10
148.5184805807
 20
83.4883071007
 10
148.5168262769
 20
83.4884402145
 10
148.5151655777
 20
83.4885906582
 10
148.5134986151
 20
83.4887582731
 10
148.5118255213
 20
83.4889429005
 10
148.5101464285
 20
83.4891443817
  0
LWPOLYLINE
  5
282
100
AcDbEntity
  8
IMPORT_IGES
100
AcDbPolyline
 62
7
  6
CONTINUOUS
 90
11
 70
0
 10
148.5266515424
 20
83.4879070356
 10
148.5250311981
 20
83.4879511191
 10
148.5234037976
 20
83.4880133261
 10
148.5217694732
 20
83.4880934978
 10
148.5201283568
 20
83.4881914756
 10
148.5184805807
 20
83.4883071007
 10
148.5168262769
 20
83.4884402145
 10
148.5151655777
 20
83.4885906582
 10
148.5134986151
 20
83.4887582731
 10
148.5118255213
 20
83.4889429005
 10
148.5101464285
 20
83.4891443817
  0
LWPOLYLINE
  5
283
100
AcDbEntity
  8
CURVE
100
AcDbPolyline
 62
250
  6
CONTINUOUS
 90
11
 70
0
 10
148.5101464285
 20
83.4891443817
 10
148.5083595592
 20
83.4893762607
 10
148.5065662507
 20
83.4896267223
 10
148.5047666606
 20
83.4898955772
 10
148.5029609464
 20
83.4901826362
 10
148.5011492656
 20
83.4904877101
 10
148.4993317758
 20
83.4908106096
 10
148.4975086345
 20
83.4911511456
 10
148.4956799993
 20
83.4915091288
 10
148.4938460277
 20
83.4918843701
 10
148.4920068772
 20
83.4922766801
  0
LWPOLYLINE
  5
284
100
AcDbEntity
  8
IMPORT_IGES
100
AcDbPolyline
 62
7
  6
CONTINUOUS
 90
11
 70
0
 10
148.5101464285
 20
83.4891443817
 10
148.5083595592
 20
83.4893762607
 10
148.5065662507
 20
83.4896267223
 10
148.5047666606
 20
83.4898955772
 10
148.5029609464
 20
83.4901826362
 10
148.5011492656
 20
83.4904877101
 10
148.4993317758
 20
83.4908106096
 10
148.4975086345
 20
83.4911511456
 10
148.4956799993
 20
83.4915091288
 10
148.4938460277
 20
83.4918843701
 10
148.4920068772
 20
83.4922766801
  0
LINE
  5
285
100
AcDbEntity
  8
CURVE
100
AcDbLine
 62
250
  6
CONTINUOUS
 10
148.4920068772
 20
83.4922766801
 11
148.4862608966
 21
83.4936025343
  0
LINE
  5
286
100
AcDbEntity
  8
IMPORT_IGES
100
AcDbLine
 62
7
  6
CONTINUOUS
 10
148.4920068772
 20
83.4922766801
 11
148.4862608966
 21
83.4936025343
  0
LWPOLYLINE
  5
287
100
AcDbEntity
  8
CURVE
100
AcDbPolyline
 62
250
  6
CONTINUOUS
 90
13
 70
0
 10
148.4862608966
 20
83.4936025343
 10
148.4835933782
 20
83.4942679855
 10
148.4809170011
 20
83.4949663965
 10
148.4782322301
 20
83.4956972089
 10
148.4755395301
 20
83.4964598643
 10
148.4728393661
 20
83.4972538042
 10
148.470132203
 20
83.4980784704
 10
148.4674185056
 20
83.4989333043
 10
148.4646987389
 20
83.4998177476
 10
148.4619733677
 20
83.5007312419
 10
148.4592428571
 20
83.5016732287
 10
148.4565076719
 20
83.5026431496
 10
148.453768277
 20
83.5036404464
  0
LWPOLYLINE
  5
288
100
AcDbEntity
  8
IMPORT_IGES
100
AcDbPolyline
 62
7
  6
CONTINUOUS
 90
13
 70
0
 10
148.4862608966
 20
83.4936025343
 10
148.4835933782
 20
83.4942679855
 10
148.4809170011
 20
83.4949663965
 10
148.4782322301
 20
83.4956972089
 10
148.4755395301
 20
83.4964598643
 10
148.4728393661
 20
83.4972538042
 10
148.470132203
 20
83.4980784704
 10
148.4674185056
 20
83.4989333043
 10
148.4646987389
 20
83.4998177476
 10
148.4619733677
 20
83.5007312419
 10
148.4592428571
 20
83.5016732287
 10
148.4565076719
 20
83.5026431496
 10
148.453768277
 20
83.5036404464
  0
LWPOLYLINE
  5
289
100
AcDbEntity
  8
0
100
AcDbPolyline
 62
7
  6
CONTINUOUS
 90
6
 70
0
 10
148.7254461699
 20
83.1914692187
 10
148.7292208245
 20
83.190392461
 10
148.733037634
 20
83.1896552929
 10
148.7368965984
 20
83.1892577144
 10
148.7407860235
 20
83.1892815215
 10
148.7447176036
 20
83.1896449181
  0
LWPOLYLINE
  5
28A
100
AcDbEntity
  8
CURVE
100
AcDbPolyline
 62
250
  6
CONTINUOUS
 90
10
 70
0
 10
148.453768277
 20
83.5036404464
 10
148.4515145696
 20
83.5044799923
 10
148.4492585919
 20
83.5053373341
 10
148.4470006017
 20
83.5062121619
 10
148.444740857
 20
83.507104166
 10
148.4424796156
 20
83.5080130366
 10
148.4402171355
 20
83.5089384639
 10
148.4379536747
 20
83.5098801381
 10
148.4356894909
 20
83.5108377496
 10
148.4334248421
 20
83.5118109884
  0
LWPOLYLINE
  5
28B
100
AcDbEntity
  8
IMPORT_IGES
100
AcDbPolyline
 62
7
  6
CONTINUOUS
 90
10
 70
0
 10
148.453768277
 20
83.5036404464
 10
148.4515145696
 20
83.5044799923
 10
148.4492585919
 20
83.5053373341
 10
148.4470006017
 20
83.5062121619
 10
148.444740857
 20
83.507104166
 10
148.4424796156
 20
83.5080130366
 10
148.4402171355
 20
83.5089384639
 10
148.4379536747
 20
83.5098801381
 10
148.4356894909
 20
83.5108377496
 10
148.4334248421
 20
83.5118109884
  0
LWPOLYLINE
  5
28C
100
AcDbEntity
  8
CURVE
100
AcDbPolyline
 62
250
  6
CONTINUOUS
 90
15
 70
0
 10
148.2032938261
 20
84.1340471988
 10
148.2108833086
 20
84.1311378127
 10
148.2184816176
 20
84.1281777836
 10
148.226088433
 20
84.125164208
 10
148.2337034347
 20
84.1220941823
 10
148.2413263026
 20
84.1189648029
 10
148.2489567165
 20
84.1157731662
 10
148.2565943564
 20
84.1125163686
 10
148.2642389021
 20
84.1091915067
 10
148.2718900334
 20
84.1057956767
 10
148.2795474303
 20
84.1023259751
 10
148.2872107727
 20
84.0987794983
 10
148.2948797403
 20
84.0951533428
 10
148.3025540131
 20
84.0914446049
 10
148.310233271
 20
84.0876503811
  0
LWPOLYLINE
  5
28D
100
AcDbEntity
  8
IMPORT_IGES
100
AcDbPolyline
 62
7
  6
CONTINUOUS
 90
15
 70
0
 10
148.2032938261
 20
84.1340471988
 10
148.2108833086
 20
84.1311378127
 10
148.2184816176
 20
84.1281777836
 10
148.226088433
 20
84.125164208
 10
148.2337034347
 20
84.1220941823
 10
148.2413263026
 20
84.1189648029
 10
148.2489567165
 20
84.1157731662
 10
148.2565943564
 20
84.1125163686
 10
148.2642389021
 20
84.1091915067
 10
148.2718900334
 20
84.1057956767
 10
148.2795474303
 20
84.1023259751
 10
148.2872107727
 20
84.0987794983
 10
148.2948797403
 20
84.0951533428
 10
148.3025540131
 20
84.0914446049
 10
148.310233271
 20
84.0876503811
  0
LWPOLYLINE
  5
28E
100
AcDbEntity
  8
0
100
AcDbPolyline
 62
7
  6
CONTINUOUS
 90
10
 70
0
 10
148.2032938261
 20
84.1340471988
 10
148.232960124
 20
84.1225401497
 10
148.2620861456
 20
84.1102419768
 10
148.290671891
 20
84.0971526802
 10
148.3184646819
 20
84.083429768
 10
148.3457171966
 20
84.0689157321
 10
148.3731874699
 20
84.0531380478
 10
148.40112818
 20
84.0359392067
 10
148.4292866488
 20
84.0174767171
 10
148.4576628762
 20
83.9977505791
  0
LWPOLYLINE
  5
28F
100
AcDbEntity
  8
CURVE
100
AcDbPolyline
 62
250
  6
CONTINUOUS
 90
31
 70
0
 10
148.7254461699
 20
83.1914692187
 10
148.7264243447
 20
83.1910725027
 10
148.727393876
 20
83.1907226167
 10
148.7283551141
 20
83.1904171027
 10
148.7293084094
 20
83.1901535031
 10
148.7302541122
 20
83.1899293598
 10
148.7311925728
 20
83.1897422152
 10
148.7321241417
 20
83.1895896114
 10
148.7330491691
 20
83.1894690905
 10
148.7339680054
 20
83.1893781946
 10
148.734881001
 20
83.1893144661
 10
148.7357885062
 20
83.189275447
 10
148.7366908714
 20
83.1892586794
 10
148.7375884469
 20
83.1892617056
 10
148.7384815831
 20
83.1892820677
 10
148.7393706303
 20
83.1893173079
 10
148.7402559388
 20
83.1893649684
 10
148.7411378592
 20
83.1894225912
 10
148.7420167415
 20
83.1894877186
 10
148.7428929364
 20
83.1895578928
 10
148.7457405396
 20
83.1898069643
 10
148.7485637951
 20
83.1900854647
 10
148.7513633265
 20
83.1903951624
 10
148.7541397573
 20
83.1907378259
 10
148.7568937114
 20
83.1911152238
 10
148.7596258121
 20
83.1915291244
 10
148.7623366832
 20
83.1919812962
 10
148.7650269483
 20
83.1924735078
 10
148.767697231
 20
83.1930075277
 10
148.7703481549
 20
83.1935851242
 10
148.7729803436
 20
83.1942080659
  0
LWPOLYLINE
  5
290
100
AcDbEntity
  8
IMPORT_IGES
100
AcDbPolyline
 62
7
  6
CONTINUOUS
 90
31
 70
0
 10
148.7254461699
 20
83.1914692187
 10
148.7264243447
 20
83.1910725027
 10
148.727393876
 20
83.1907226167
 10
148.7283551141
 20
83.1904171027
 10
148.7293084094
 20
83.1901535031
 10
148.7302541122
 20
83.1899293598
 10
148.7311925728
 20
83.1897422152
 10
148.7321241417
 20
83.1895896114
 10
148.7330491691
 20
83.1894690905
 10
148.7339680054
 20
83.1893781946
 10
148.734881001
 20
83.1893144661
 10
148.7357885062
 20
83.189275447
 10
148.7366908714
 20
83.1892586794
 10
148.7375884469
 20
83.1892617056
 10
148.7384815831
 20
83.1892820677
 10
148.7393706303
 20
83.1893173079
 10
148.7402559388
 20
83.1893649684
 10
148.7411378592
 20
83.1894225912
 10
148.7420167415
 20
83.1894877186
 10
148.7428929364
 20
83.1895578928
 10
148.7457405396
 20
83.1898069643
 10
148.7485637951
 20
83.1900854647
 10
148.7513633265
 20
83.1903951624
 10
148.7541397573
 20
83.1907378259
 10
148.7568937114
 20
83.1911152238
 10
148.7596258121
 20
83.1915291244
 10
148.7623366832
 20
83.1919812962
 10
148.7650269483
 20
83.1924735078
 10
148.767697231
 20
83.1930075277
 10
148.7703481549
 20
83.1935851242
 10
148.7729803436
 20
83.1942080659
  0
LINE
  5
291
100
AcDbEntity
  8
CURVE
100
AcDbLine
 62
250
  6
CONTINUOUS
 10
147.9137912621
 20
84.5900534356
 11
147.8906719656
 21
84.5995475501
  0
LINE
  5
292
100
AcDbEntity
  8
IMPORT_IGES
100
AcDbLine
 62
7
  6
CONTINUOUS
 10
147.9137912621
 20
84.5900534356
 11
147.8906719656
 21
84.5995475501
  0
LINE
  5
293
100
AcDbEntity
  8
CURVE
100
AcDbLine
 62
250
  6
CONTINUOUS
 10
147.936933628
 20
84.5804001334
 11
147.9137912621
 21
84.5900534356
  0
LINE
  5
294
100
AcDbEntity
  8
IMPORT_IGES
100
AcDbLine
 62
7
  6
CONTINUOUS
 10
147.936933628
 20
84.5804001334
 11
147.9137912621
 21
84.5900534356
  0
LINE
  5
295
100
AcDbEntity
  8
CURVE
100
AcDbLine
 62
250
  6
CONTINUOUS
 10
147.9606395238
 20
84.5703497657
 11
147.936933628
 21
84.5804001334
  0
LINE
  5
296
100
AcDbEntity
  8
IMPORT_IGES
100
AcDbLine
 62
7
  6
CONTINUOUS
 10
147.9606395238
 20
84.5703497657
 11
147.936933628
 21
84.5804001334
  0
LINE
  5
297
100
AcDbEntity
  8
CURVE
100
AcDbLine
 62
250
  6
CONTINUOUS
 10
147.9819533614
 20
84.5611679324
 11
147.9606395238
 21
84.5703497657
  0
LINE
  5
298
100
AcDbEntity
  8
IMPORT_IGES
100
AcDbLine
 62
7
  6
CONTINUOUS
 10
147.9819533614
 20
84.5611679324
 11
147.9606395238
 21
84.5703497657
  0
LWPOLYLINE
  5
299
100
AcDbEntity
  8
CURVE
100
AcDbPolyline
 62
250
  6
CONTINUOUS
 90
10
 70
0
 10
148.4334248421
 20
83.5118109884
 10
148.4310009451
 20
83.5128695296
 10
148.428577127
 20
83.5139452355
 10
148.426153704
 20
83.5150377263
 10
148.4237309923
 20
83.5161466224
 10
148.4213093079
 20
83.5172715439
 10
148.4188889671
 20
83.5184121112
 10
148.4164702859
 20
83.5195679446
 10
148.4140535806
 20
83.5207386643
 10
148.4116391672
 20
83.5219238906
  0
LWPOLYLINE
  5
29A
100
AcDbEntity
  8
IMPORT_IGES
100
AcDbPolyline
 62
7
  6
CONTINUOUS
 90
10
 70
0
 10
148.4334248421
 20
83.5118109884
 10
148.4310009451
 20
83.5128695296
 10
148.428577127
 20
83.5139452355
 10
148.426153704
 20
83.5150377263
 10
148.4237309923
 20
83.5161466224
 10
148.4213093079
 20
83.5172715439
 10
148.4188889671
 20
83.5184121112
 10
148.4164702859
 20
83.5195679446
 10
148.4140535806
 20
83.5207386643
 10
148.4116391672
 20
83.5219238906
  0
LINE
  5
29B
100
AcDbEntity
  8
CURVE
100
AcDbLine
 62
250
  6
CONTINUOUS
 10
148.0032836695
 20
84.5518357775
 11
147.9819533614
 21
84.5611679324
  0
LINE
  5
29C
100
AcDbEntity
  8
IMPORT_IGES
100
AcDbLine
 62
7
  6
CONTINUOUS
 10
148.0032836695
 20
84.5518357775
 11
147.9819533614
 21
84.5611679324
  0
LINE
  5
29D
100
AcDbEntity
  8
CURVE
100
AcDbLine
 62
250
  6
CONTINUOUS
 10
148.0267561118
 20
84.541394845
 11
148.0032836695
 21
84.5518357775
  0
LINE
  5
29E
100
AcDbEntity
  8
IMPORT_IGES
100
AcDbLine
 62
7
  6
CONTINUOUS
 10
148.0267561118
 20
84.541394845
 11
148.0032836695
 21
84.5518357775
  0
LINE
  5
29F
100
AcDbEntity
  8
CURVE
100
AcDbLine
 62
250
  6
CONTINUOUS
 10
148.0481847437
 20
84.5317005541
 11
148.0267561118
 21
84.541394845
  0
LINE
  5
2A0
100
AcDbEntity
  8
IMPORT_IGES
100
AcDbLine
 62
7
  6
CONTINUOUS
 10
148.0481847437
 20
84.5317005541
 11
148.0267561118
 21
84.541394845
  0
LINE
  5
2A1
100
AcDbEntity
  8
CURVE
100
AcDbLine
 62
250
  6
CONTINUOUS
 10
148.0696269976
 20
84.5218396025
 11
148.0481847437
 21
84.5317005541
  0
LINE
  5
2A2
100
AcDbEntity
  8
IMPORT_IGES
100
AcDbLine
 62
7
  6
CONTINUOUS
 10
148.0696269976
 20
84.5218396025
 11
148.0481847437
 21
84.5317005541
  0
LINE
  5
2A3
100
AcDbEntity
  8
CURVE
100
AcDbLine
 62
250
  6
CONTINUOUS
 10
148.0890877754
 20
84.512746628
 11
148.0696269976
 21
84.5218396025
  0
LINE
  5
2A4
100
AcDbEntity
  8
IMPORT_IGES
100
AcDbLine
 62
7
  6
CONTINUOUS
 10
148.0890877754
 20
84.512746628
 11
148.0696269976
 21
84.5218396025
  0
LINE
  5
2A5
100
AcDbEntity
  8
CURVE
100
AcDbLine
 62
250
  6
CONTINUOUS
 10
148.1072667046
 20
84.5041259306
 11
148.0890877754
 21
84.512746628
  0
LINE
  5
2A6
100
AcDbEntity
  8
IMPORT_IGES
100
AcDbLine
 62
7
  6
CONTINUOUS
 10
148.1072667046
 20
84.5041259306
 11
148.0890877754
 21
84.512746628
  0
LINE
  5
2A7
100
AcDbEntity
  8
CURVE
100
AcDbLine
 62
250
  6
CONTINUOUS
 10
148.1254535193
 20
84.4953758581
 11
148.1072667046
 21
84.5041259306
  0
LINE
  5
2A8
100
AcDbEntity
  8
IMPORT_IGES
100
AcDbLine
 62
7
  6
CONTINUOUS
 10
148.1254535193
 20
84.4953758581
 11
148.1072667046
 21
84.5041259306
  0
LINE
  5
2A9
100
AcDbEntity
  8
CURVE
100
AcDbLine
 62
250
  6
CONTINUOUS
 10
148.1478277877
 20
84.4844340725
 11
148.1254535193
 21
84.4953758581
  0
LINE
  5
2AA
100
AcDbEntity
  8
IMPORT_IGES
100
AcDbLine
 62
7
  6
CONTINUOUS
 10
148.1478277877
 20
84.4844340725
 11
148.1254535193
 21
84.4953758581
  0
LWPOLYLINE
  5
2AB
100
AcDbEntity
  8
CURVE
100
AcDbPolyline
 62
250
  6
CONTINUOUS
 90
10
 70
0
 10
148.4116391672
 20
83.5219238906
 10
148.409090821
 20
83.5231916005
 10
148.4065457599
 20
83.5244746352
 10
148.4040043566
 20
83.5257725467
 10
148.4014669842
 20
83.527084887
 10
148.3989340156
 20
83.5284112081
 10
148.3964058239
 20
83.5297510622
 10
148.393882782
 20
83.531104001
 10
148.3913652628
 20
83.5324695769
 10
148.3888536394
 20
83.5338473416
  0
LWPOLYLINE
  5
2AC
100
AcDbEntity
  8
IMPORT_IGES
100
AcDbPolyline
 62
7
  6
CONTINUOUS
 90
10
 70
0
 10
148.4116391672
 20
83.5219238906
 10
148.409090821
 20
83.5231916005
 10
148.4065457599
 20
83.5244746352
 10
148.4040043566
 20
83.5257725467
 10
148.4014669842
 20
83.527084887
 10
148.3989340156
 20
83.5284112081
 10
148.3964058239
 20
83.5297510622
 10
148.393882782
 20
83.531104001
 10
148.3913652628
 20
83.5324695769
 10
148.3888536394
 20
83.5338473416
  0
LINE
  5
2AD
100
AcDbEntity
  8
CURVE
100
AcDbLine
 62
250
  6
CONTINUOUS
 10
148.1659070362
 20
84.475446278
 11
148.1478277877
 21
84.4844340725
  0
LINE
  5
2AE
100
AcDbEntity
  8
IMPORT_IGES
100
AcDbLine
 62
7
  6
CONTINUOUS
 10
148.1659070362
 20
84.475446278
 11
148.1478277877
 21
84.4844340725
  0
LWPOLYLINE
  5
2AF
100
AcDbEntity
  8
CURVE
100
AcDbPolyline
 62
250
  6
CONTINUOUS
 90
18
 70
0
 10
148.310233271
 20
84.0876503811
 10
148.318201869
 20
84.0836222319
 10
148.3261751268
 20
84.0794957864
 10
148.3341526874
 20
84.0752678061
 10
148.3429854058
 20
84.0704679309
 10
148.3518216649
 20
84.0655427287
 10
148.3606601734
 20
84.0604951823
 10
148.3694996398
 20
84.0553282749
 10
148.3783387728
 20
84.0500449891
 10
148.3871762808
 20
84.0446483081
 10
148.3960108724
 20
84.0391412147
 10
148.4048412563
 20
84.0335266918
 10
148.413666141
 20
84.0278077223
 10
148.422484235
 20
84.0219872892
 10
148.431294247
 20
84.0160683754
 10
148.4400948855
 20
84.0100539639
 10
148.448884859
 20
84.0039470375
 10
148.4576628762
 20
83.9977505791
  0
LWPOLYLINE
  5
2B0
100
AcDbEntity
  8
IMPORT_IGES
100
AcDbPolyline
 62
7
  6
CONTINUOUS
 90
18
 70
0
 10
148.310233271
 20
84.0876503811
 10
148.318201869
 20
84.0836222319
 10
148.3261751268
 20
84.0794957864
 10
148.3341526874
 20
84.0752678061
 10
148.3429854058
 20
84.0704679309
 10
148.3518216649
 20
84.0655427287
 10
148.3606601734
 20
84.0604951823
 10
148.3694996398
 20
84.0553282749
 10
148.3783387728
 20
84.0500449891
 10
148.3871762808
 20
84.0446483081
 10
148.3960108724
 20
84.0391412147
 10
148.4048412563
 20
84.0335266918
 10
148.413666141
 20
84.0278077223
 10
148.422484235
 20
84.0219872892
 10
148.431294247
 20
84.0160683754
 10
148.4400948855
 20
84.0100539639
 10
148.448884859
 20
84.0039470375
 10
148.4576628762
 20
83.9977505791
  0
LWPOLYLINE
  5
2B1
100
AcDbEntity
  8
CURVE
100
AcDbPolyline
 62
250
  6
CONTINUOUS
 90
3
 70
0
 10
148.1930368616
 20
84.4617063219
 10
148.1839922208
 20
84.4663212364
 10
148.1659070362
 20
84.475446278
  0
LWPOLYLINE
  5
2B2
100
AcDbEntity
  8
IMPORT_IGES
100
AcDbPolyline
 62
7
  6
CONTINUOUS
 90
3
 70
0
 10
148.1930368616
 20
84.4617063219
 10
148.1839922208
 20
84.4663212364
 10
148.1659070362
 20
84.475446278
  0
LINE
  5
2B3
100
AcDbEntity
  8
CURVE
100
AcDbLine
 62
250
  6
CONTINUOUS
 10
148.2134851283
 20
84.4511440891
 11
148.1930368616
 21
84.4617063219
  0
LINE
  5
2B4
100
AcDbEntity
  8
IMPORT_IGES
100
AcDbLine
 62
7
  6
CONTINUOUS
 10
148.2134851283
 20
84.4511440891
 11
148.1930368616
 21
84.4617063219
  0
LINE
  5
2B5
100
AcDbEntity
  8
CURVE
100
AcDbLine
 62
250
  6
CONTINUOUS
 10
148.2325756673
 20
84.441118662
 11
148.2134851283
 21
84.4511440891
  0
LINE
  5
2B6
100
AcDbEntity
  8
IMPORT_IGES
100
AcDbLine
 62
7
  6
CONTINUOUS
 10
148.2325756673
 20
84.441118662
 11
148.2134851283
 21
84.4511440891
  0
LINE
  5
2B7
100
AcDbEntity
  8
CURVE
100
AcDbLine
 62
250
  6
CONTINUOUS
 10
148.2491858649
 20
84.4322611214
 11
148.2325756673
 21
84.441118662
  0
LINE
  5
2B8
100
AcDbEntity
  8
IMPORT_IGES
100
AcDbLine
 62
7
  6
CONTINUOUS
 10
148.2491858649
 20
84.4322611214
 11
148.2325756673
 21
84.441118662
  0
LINE
  5
2B9
100
AcDbEntity
  8
CURVE
100
AcDbLine
 62
250
  6
CONTINUOUS
 10
148.2629438751
 20
84.4248242897
 11
148.2491858649
 21
84.4322611214
  0
LINE
  5
2BA
100
AcDbEntity
  8
IMPORT_IGES
100
AcDbLine
 62
7
  6
CONTINUOUS
 10
148.2629438751
 20
84.4248242897
 11
148.2491858649
 21
84.4322611214
  0
LINE
  5
2BB
100
AcDbEntity
  8
CURVE
100
AcDbLine
 62
250
  6
CONTINUOUS
 10
147.795325716
 20
82.8795003064
 11
147.4531112359
 21
83.0770906583
  0
LINE
  5
2BC
100
AcDbEntity
  8
IMPORT_IGES
100
AcDbLine
 62
7
  6
CONTINUOUS
 10
147.795325716
 20
82.8795003064
 11
147.4531112359
 21
83.0770906583
  0
LINE
  5
2BD
100
AcDbEntity
  8
CURVE
100
AcDbLine
 62
250
  6
CONTINUOUS
 10
146.8372220657
 20
83.4326973463
 11
146.5160501396
 21
83.6181379911
  0
LINE
  5
2BE
100
AcDbEntity
  8
IMPORT_IGES
100
AcDbLine
 62
7
  6
CONTINUOUS
 10
146.8372220657
 20
83.4326973463
 11
146.5160501396
 21
83.6181379911
  0
LINE
  5
2BF
100
AcDbEntity
  8
CURVE
100
AcDbLine
 62
250
  6
CONTINUOUS
 10
146.4650645779
 20
83.6475764155
 11
146.1474269061
 21
83.8309764263
  0
LINE
  5
2C0
100
AcDbEntity
  8
IMPORT_IGES
100
AcDbLine
 62
7
  6
CONTINUOUS
 10
146.4650645779
 20
83.6475764155
 11
146.1474269061
 21
83.8309764263
  0
LINE
  5
2C1
100
AcDbEntity
  8
CURVE
100
AcDbLine
 62
250
  6
CONTINUOUS
 10
145.6946549389
 20
84.0924012855
 11
145.6491170622
 21
84.1186942848
  0
LINE
  5
2C2
100
AcDbEntity
  8
IMPORT_IGES
100
AcDbLine
 62
7
  6
CONTINUOUS
 10
145.6946549389
 20
84.0924012855
 11
145.6491170622
 21
84.1186942848
  0
LINE
  5
2C3
100
AcDbEntity
  8
CURVE
100
AcDbLine
 62
250
  6
CONTINUOUS
 10
145.198141483
 20
84.3790819322
 11
144.8875145389
 21
84.5584340367
  0
LINE
  5
2C4
100
AcDbEntity
  8
IMPORT_IGES
100
AcDbLine
 62
7
  6
CONTINUOUS
 10
145.198141483
 20
84.3790819322
 11
144.8875145389
 21
84.5584340367
  0
LINE
  5
2C5
100
AcDbEntity
  8
CURVE
100
AcDbLine
 62
250
  6
CONTINUOUS
 10
143.7675300447
 20
85.2050990469
 11
143.481392497
 21
85.3703112808
  0
LINE
  5
2C6
100
AcDbEntity
  8
IMPORT_IGES
100
AcDbLine
 62
7
  6
CONTINUOUS
 10
143.7675300447
 20
85.2050990469
 11
143.481392497
 21
85.3703112808
  0
LINE
  5
2C7
100
AcDbEntity
  8
0
100
AcDbLine
 62
7
  6
CONTINUOUS
 10
143.481392497
 20
85.3703112808
 11
143.7675300447
 21
85.2050990469
  0
LINE
  5
2C8
100
AcDbEntity
  8
0
100
AcDbLine
 62
7
  6
CONTINUOUS
 10
144.3880261164
 20
84.8468323917
 11
144.712721185
 21
84.6593575285
  0
LINE
  5
2C9
100
AcDbEntity
  8
CURVE
100
AcDbLine
 62
250
  6
CONTINUOUS
 10
144.3880261164
 20
84.8468323917
 11
144.712721185
 21
84.6593575285
  0
LINE
  5
2CA
100
AcDbEntity
  8
IMPORT_IGES
100
AcDbLine
 62
7
  6
CONTINUOUS
 10
144.3880261164
 20
84.8468323917
 11
144.712721185
 21
84.6593575285
  0
LINE
  5
2CB
100
AcDbEntity
  8
0
100
AcDbLine
 62
7
  6
CONTINUOUS
 10
144.8875145389
 20
84.5584340367
 11
145.198141483
 21
84.3790819322
  0
LINE
  5
2CC
100
AcDbEntity
  8
0
100
AcDbLine
 62
7
  6
CONTINUOUS
 10
145.6491170622
 20
84.1186942848
 11
145.6946549389
 21
84.0924012855
  0
LINE
  5
2CD
100
AcDbEntity
  8
0
100
AcDbLine
 62
7
  6
CONTINUOUS
 10
146.1474269061
 20
83.8309764263
 11
146.4650645779
 21
83.6475764155
  0
LINE
  5
2CE
100
AcDbEntity
  8
0
100
AcDbLine
 62
7
  6
CONTINUOUS
 10
146.5160501396
 20
83.6181379911
 11
146.8372220657
 21
83.4326973463
  0
LINE
  5
2CF
100
AcDbEntity
  8
0
100
AcDbLine
 62
7
  6
CONTINUOUS
 10
147.4531112359
 20
83.0770906583
 11
147.795325716
 21
82.8795003064
  0
LINE
  5
2D0
100
AcDbEntity
  8
0
100
AcDbLine
 62
7
  6
CONTINUOUS
 10
147.8906719656
 20
82.8244482367
 11
148.2140602146
 21
82.6377279147
  0
LINE
  5
2D1
100
AcDbEntity
  8
CURVE
100
AcDbLine
 62
250
  6
CONTINUOUS
 10
147.8906719656
 20
82.8244482367
 11
148.2140602146
 21
82.6377279147
  0
LINE
  5
2D2
100
AcDbEntity
  8
IMPORT_IGES
100
AcDbLine
 62
7
  6
CONTINUOUS
 10
147.8906719656
 20
82.8244482367
 11
148.2140602146
 21
82.6377279147
  0
LINE
  5
2D3
100
AcDbEntity
  8
0
100
AcDbLine
 62
7
  6
CONTINUOUS
 10
148.7112853946
 20
82.3506363275
 11
149.0236039765
 21
82.1703074925
  0
LINE
  5
2D4
100
AcDbEntity
  8
CURVE
100
AcDbLine
 62
250
  6
CONTINUOUS
 10
148.7112853946
 20
82.3506363275
 11
149.0236039765
 21
82.1703074925
  0
LINE
  5
2D5
100
AcDbEntity
  8
IMPORT_IGES
100
AcDbLine
 62
7
  6
CONTINUOUS
 10
148.7112853946
 20
82.3506363275
 11
149.0236039765
 21
82.1703074925
  0
LINE
  5
2D6
100
AcDbEntity
  8
CURVE
100
AcDbLine
 62
250
  6
CONTINUOUS
 10
147.3689980597
 20
83.4842183223
 11
146.9268177435
 21
83.7395276951
  0
LINE
  5
2D7
100
AcDbEntity
  8
IMPORT_IGES
100
AcDbLine
 62
7
  6
CONTINUOUS
 10
147.3689980597
 20
83.4842183223
 11
146.9268177435
 21
83.7395276951
  0
LINE
  5
2D8
100
AcDbEntity
  8
0
100
AcDbLine
 62
7
  6
CONTINUOUS
 10
146.9268177435
 20
83.7395276951
 11
147.3689980597
 21
83.4842183223
  0
LINE
  5
2D9
100
AcDbEntity
  8
0
100
AcDbLine
 62
7
  6
CONTINUOUS
 10
147.3041080855
 20
83.7991390634
 11
146.9932359438
 21
83.9786327419
  0
LINE
  5
2DA
100
AcDbEntity
  8
CURVE
100
AcDbLine
 62
250
  6
CONTINUOUS
 10
146.9932359438
 20
83.9786327419
 11
147.3041080855
 21
83.7991390634
  0
LINE
  5
2DB
100
AcDbEntity
  8
IMPORT_IGES
100
AcDbLine
 62
7
  6
CONTINUOUS
 10
146.9932359438
 20
83.9786327419
 11
147.3041080855
 21
83.7991390634
  0
LINE
  5
2DC
100
AcDbEntity
  8
0
100
AcDbLine
 62
7
  6
CONTINUOUS
 10
148.2140602146
 20
83.3406157926
 11
148.3881537659
 21
83.240096358
  0
LINE
  5
2DD
100
AcDbEntity
  8
CURVE
100
AcDbLine
 62
250
  6
CONTINUOUS
 10
148.2140602146
 20
83.3406157926
 11
148.3881537659
 21
83.240096358
  0
LINE
  5
2DE
100
AcDbEntity
  8
IMPORT_IGES
100
AcDbLine
 62
7
  6
CONTINUOUS
 10
148.2140602146
 20
83.3406157926
 11
148.3881537659
 21
83.240096358
  0
LINE
  5
2DF
100
AcDbEntity
  8
0
100
AcDbLine
 62
7
  6
CONTINUOUS
 10
148.3888536394
 20
83.5338473416
 11
148.2032938261
 21
83.6409872522
  0
LINE
  5
2E0
100
AcDbEntity
  8
CURVE
100
AcDbLine
 62
250
  6
CONTINUOUS
 10
148.3888536394
 20
83.5338473416
 11
148.2032938261
 21
83.6409872522
  0
LINE
  5
2E1
100
AcDbEntity
  8
IMPORT_IGES
100
AcDbLine
 62
7
  6
CONTINUOUS
 10
148.3888536394
 20
83.5338473416
 11
148.2032938261
 21
83.6409872522
  0
LINE
  5
2E2
100
AcDbEntity
  8
0
100
AcDbLine
 62
7
  6
CONTINUOUS
 10
147.3180584262
 20
84.9511515884
 11
147.0039557494
 21
85.1325105373
  0
LINE
  5
2E3
100
AcDbEntity
  8
0
100
AcDbLine
 62
7
  6
CONTINUOUS
 10
146.3196075341
 20
85.5276446199
 11
145.9983541225
 21
85.7131323136
  0
LINE
  5
2E4
100
AcDbEntity
  8
0
100
AcDbLine
 62
7
  6
CONTINUOUS
 10
145.3523937898
 20
86.0861017139
 11
145.0279676238
 21
86.2734213161
  0
LINE
  5
2E5
100
AcDbEntity
  8
0
100
AcDbLine
 62
7
  6
CONTINUOUS
 10
144.2675318266
 20
86.7124874149
 11
143.9430582508
 21
86.899834391
  0
LINE
  5
2E6
100
AcDbEntity
  8
0
100
AcDbLine
 62
7
  6
CONTINUOUS
 10
143.340986081
 20
87.2474633161
 11
142.9882673619
 21
87.4511186839
  0
LINE
  5
2E7
100
AcDbEntity
  8
CURVE
100
AcDbLine
 62
250
  6
CONTINUOUS
 10
142.9882673619
 20
87.4511186839
 11
143.340986081
 21
87.2474633161
  0
LINE
  5
2E8
100
AcDbEntity
  8
IMPORT_IGES
100
AcDbLine
 62
7
  6
CONTINUOUS
 10
142.9882673619
 20
87.4511186839
 11
143.340986081
 21
87.2474633161
  0
LINE
  5
2E9
100
AcDbEntity
  8
CURVE
100
AcDbLine
 62
250
  6
CONTINUOUS
 10
143.9430582508
 20
86.899834391
 11
144.2675318266
 21
86.7124874149
  0
LINE
  5
2EA
100
AcDbEntity
  8
IMPORT_IGES
100
AcDbLine
 62
7
  6
CONTINUOUS
 10
143.9430582508
 20
86.899834391
 11
144.2675318266
 21
86.7124874149
  0
LINE
  5
2EB
100
AcDbEntity
  8
CURVE
100
AcDbLine
 62
250
  6
CONTINUOUS
 10
145.0279676238
 20
86.2734213161
 11
145.3523937898
 21
86.0861017139
  0
LINE
  5
2EC
100
AcDbEntity
  8
IMPORT_IGES
100
AcDbLine
 62
7
  6
CONTINUOUS
 10
145.0279676238
 20
86.2734213161
 11
145.3523937898
 21
86.0861017139
  0
LINE
  5
2ED
100
AcDbEntity
  8
CURVE
100
AcDbLine
 62
250
  6
CONTINUOUS
 10
145.9983541225
 20
85.7131323136
 11
146.3196075341
 21
85.5276446199
  0
LINE
  5
2EE
100
AcDbEntity
  8
IMPORT_IGES
100
AcDbLine
 62
7
  6
CONTINUOUS
 10
145.9983541225
 20
85.7131323136
 11
146.3196075341
 21
85.5276446199
  0
LINE
  5
2EF
100
AcDbEntity
  8
CURVE
100
AcDbLine
 62
250
  6
CONTINUOUS
 10
147.0039557494
 20
85.1325105373
 11
147.3180584262
 21
84.9511515884
  0
LINE
  5
2F0
100
AcDbEntity
  8
IMPORT_IGES
100
AcDbLine
 62
7
  6
CONTINUOUS
 10
147.0039557494
 20
85.1325105373
 11
147.3180584262
 21
84.9511515884
  0
LINE
  5
2F1
100
AcDbEntity
  8
0
100
AcDbLine
 62
7
  6
CONTINUOUS
 10
144.712721185
 20
86.455548433
 11
144.3880261164
 21
86.6430232962
  0
LINE
  5
2F2
100
AcDbEntity
  8
CURVE
100
AcDbLine
 62
250
  6
CONTINUOUS
 10
144.712721185
 20
86.455548433
 11
144.3880261164
 21
86.6430232962
  0
LINE
  5
2F3
100
AcDbEntity
  8
IMPORT_IGES
100
AcDbLine
 62
7
  6
CONTINUOUS
 10
144.712721185
 20
86.455548433
 11
144.3880261164
 21
86.6430232962
  0
LWPOLYLINE
  5
2F4
100
AcDbEntity
  8
CURVE
100
AcDbPolyline
 62
250
  6
CONTINUOUS
 90
46
 70
0
 10
148.3881537659
 20
83.240096358
 10
148.3934652112
 20
83.2369432047
 10
148.3987850731
 20
83.2336124204
 10
148.4041074661
 20
83.2301074201
 10
148.409426505
 20
83.2264316186
 10
148.4147363045
 20
83.2225884308
 10
148.4200309795
 20
83.2185812718
 10
148.4253046446
 20
83.2144135563
 10
148.4305514146
 20
83.2100886993
 10
148.4357654042
 20
83.2056101157
 10
148.4409407281
 20
83.2009812205
 10
148.4460715012
 20
83.1962054284
 10
148.4511518381
 20
83.1912861546
 10
148.4561758536
 20
83.1862268137
 10
148.4611376624
 20
83.1810308208
 10
148.4660313792
 20
83.1757015908
 10
148.4708511189
 20
83.1702425386
 10
148.475471301
 20
83.1648019237
 10
148.4800133094
 20
83.1592469059
 10
148.4844747987
 20
83.1535831052
 10
148.488853424
 20
83.1478161411
 10
148.49314684
 20
83.1419516335
 10
148.4973527016
 20
83.1359952022
 10
148.5014686636
 20
83.1299524668
 10
148.5054923808
 20
83.1238290471
 10
148.5094215082
 20
83.1176305629
 10
148.5132537005
 20
83.1113626339
 10
148.5169866126
 20
83.1050308798
 10
148.5206178994
 20
83.0986409205
 10
148.5241452157
 20
83.0921983757
 10
148.5278324277
 20
83.0851944439
 10
148.5313973689
 20
83.0781412369
 10
148.5348415324
 20
83.0710441537
 10
148.5381664118
 20
83.0639085928
 10
148.5413735002
 20
83.0567399531
 10
148.5444642912
 20
83.0495436333
 10
148.547440278
 20
83.0423250321
 10
148.550302954
 20
83.0350895484
 10
148.5530538125
 20
83.0278425808
 10
148.555694347
 20
83.0205895281
 10
148.5582260507
 20
83.013335789
 10
148.560650417
 20
83.0060867624
 10
148.5629689393
 20
82.9988478469
 10
148.565183111
 20
82.9916244413
 10
148.5672944253
 20
82.9844219443
 10
148.5693043757
 20
82.9772457548
  0
LWPOLYLINE
  5
2F5
100
AcDbEntity
  8
IMPORT_IGES
100
AcDbPolyline
 62
7
  6
CONTINUOUS
 90
46
 70
0
 10
148.3881537659
 20
83.240096358
 10
148.3934652112
 20
83.2369432047
 10
148.3987850731
 20
83.2336124204
 10
148.4041074661
 20
83.2301074201
 10
148.409426505
 20
83.2264316186
 10
148.4147363045
 20
83.2225884308
 10
148.4200309795
 20
83.2185812718
 10
148.4253046446
 20
83.2144135563
 10
148.4305514146
 20
83.2100886993
 10
148.4357654042
 20
83.2056101157
 10
148.4409407281
 20
83.2009812205
 10
148.4460715012
 20
83.1962054284
 10
148.4511518381
 20
83.1912861546
 10
148.4561758536
 20
83.1862268137
 10
148.4611376624
 20
83.1810308208
 10
148.4660313792
 20
83.1757015908
 10
148.4708511189
 20
83.1702425386
 10
148.475471301
 20
83.1648019237
 10
148.4800133094
 20
83.1592469059
 10
148.4844747987
 20
83.1535831052
 10
148.488853424
 20
83.1478161411
 10
148.49314684
 20
83.1419516335
 10
148.4973527016
 20
83.1359952022
 10
148.5014686636
 20
83.1299524668
 10
148.5054923808
 20
83.1238290471
 10
148.5094215082
 20
83.1176305629
 10
148.5132537005
 20
83.1113626339
 10
148.5169866126
 20
83.1050308798
 10
148.5206178994
 20
83.0986409205
 10
148.5241452157
 20
83.0921983757
 10
148.5278324277
 20
83.0851944439
 10
148.5313973689
 20
83.0781412369
 10
148.5348415324
 20
83.0710441537
 10
148.5381664118
 20
83.0639085928
 10
148.5413735002
 20
83.0567399531
 10
148.5444642912
 20
83.0495436333
 10
148.547440278
 20
83.0423250321
 10
148.550302954
 20
83.0350895484
 10
148.5530538125
 20
83.0278425808
 10
148.555694347
 20
83.0205895281
 10
148.5582260507
 20
83.013335789
 10
148.560650417
 20
83.0060867624
 10
148.5629689393
 20
82.9988478469
 10
148.565183111
 20
82.9916244413
 10
148.5672944253
 20
82.9844219443
 10
148.5693043757
 20
82.9772457548
  0
LWPOLYLINE
  5
2F6
100
AcDbEntity
  8
CURVE
100
AcDbPolyline
 62
250
  6
CONTINUOUS
 90
10
 70
0
 10
148.3695539679
 20
84.3636499079
 10
148.3577043127
 20
84.3707922047
 10
148.3458554886
 20
84.3778420746
 10
148.3340075776
 20
84.3848021493
 10
148.3221606615
 20
84.391675061
 10
148.3103148224
 20
84.3984634414
 10
148.2984701423
 20
84.4051699226
 10
148.286626703
 20
84.4117971364
 10
148.2747845866
 20
84.4183477148
 10
148.2629438751
 20
84.4248242897
  0
LWPOLYLINE
  5
2F7
100
AcDbEntity
  8
IMPORT_IGES
100
AcDbPolyline
 62
7
  6
CONTINUOUS
 90
10
 70
0
 10
148.3695539679
 20
84.3636499079
 10
148.3577043127
 20
84.3707922047
 10
148.3458554886
 20
84.3778420746
 10
148.3340075776
 20
84.3848021493
 10
148.3221606615
 20
84.391675061
 10
148.3103148224
 20
84.3984634414
 10
148.2984701423
 20
84.4051699226
 10
148.286626703
 20
84.4117971364
 10
148.2747845866
 20
84.4183477148
 10
148.2629438751
 20
84.4248242897
  0
LINE
  5
2F8
100
AcDbEntity
  8
CURVE
100
AcDbLine
 62
250
  6
CONTINUOUS
 10
148.3828222181
 20
84.355540173
 11
148.3695539679
 21
84.3636499079
  0
LINE
  5
2F9
100
AcDbEntity
  8
IMPORT_IGES
100
AcDbLine
 62
7
  6
CONTINUOUS
 10
148.3828222181
 20
84.355540173
 11
148.3695539679
 21
84.3636499079
  0
LINE
  5
2FA
100
AcDbEntity
  8
CURVE
100
AcDbLine
 62
250
  6
CONTINUOUS
 10
148.3960912922
 20
84.3473075784
 11
148.3828222181
 21
84.355540173
  0
LINE
  5
2FB
100
AcDbEntity
  8
IMPORT_IGES
100
AcDbLine
 62
7
  6
CONTINUOUS
 10
148.3960912922
 20
84.3473075784
 11
148.3828222181
 21
84.355540173
  0
LWPOLYLINE
  5
2FC
100
AcDbEntity
  8
0
100
AcDbPolyline
 62
7
  6
CONTINUOUS
 90
16
 70
0
 10
148.3881537659
 20
83.240096358
 10
148.404200306
 20
83.229983419
 10
148.4197682638
 20
83.2187523075
 10
148.4348576392
 20
83.2064030234
 10
148.4495220501
 20
83.1928813498
 10
148.4637078785
 20
83.1782415036
 10
148.477254271
 20
83.1626461359
 10
148.490100773
 20
83.1461861028
 10
148.502307839
 20
83.1287705481
 10
148.5138959787
 20
83.1102895543
 10
148.52491514
 20
83.0906903259
 10
148.5353153749
 20
83.0700256584
 10
148.5449673494
 20
83.0483440206
 10
148.553827952
 20
83.0256615689
 10
148.5619402941
 20
83.001962147
 10
148.5693043757
 20
82.9772457548
  0
LINE
  5
2FD
100
AcDbEntity
  8
CURVE
100
AcDbLine
 62
250
  6
CONTINUOUS
 10
148.4093610754
 20
84.33894843
 11
148.3960912922
 21
84.3473075784
  0
LINE
  5
2FE
100
AcDbEntity
  8
IMPORT_IGES
100
AcDbLine
 62
7
  6
CONTINUOUS
 10
148.4093610754
 20
84.33894843
 11
148.3960912922
 21
84.3473075784
  0
LINE
  5
2FF
100
AcDbEntity
  8
CURVE
100
AcDbLine
 62
250
  6
CONTINUOUS
 10
148.4232434627
 20
84.3300643205
 11
148.4093610754
 21
84.33894843
  0
LINE
  5
300
100
AcDbEntity
  8
IMPORT_IGES
100
AcDbLine
 62
7
  6
CONTINUOUS
 10
148.4232434627
 20
84.3300643205
 11
148.4093610754
 21
84.33894843
  0
LWPOLYLINE
  5
301
100
AcDbEntity
  8
0
100
AcDbPolyline
 62
250
  6
CONTINUOUS
 90
16
 70
0
 10
121.8880985025
 20
101.8088501448
 10
121.902933746
 20
101.8011013991
 10
121.9190354533
 20
101.7942471156
 10
121.9362425306
 20
101.7883558698
 10
121.9543828253
 20
101.7834866022
 10
121.973274848
 20
101.7796880288
 10
121.9927295886
 20
101.7769981532
 10
122.012552407
 20
101.7754438871
 10
122.0325449807
 20
101.7750407806
 10
122.0525072888
 20
101.7757928665
 10
122.0722396132
 20
101.7776926205
 10
122.0915445366
 20
101.7807210361
 10
122.110228918
 20
101.7848478145
 10
122.1281058245
 20
101.7900316684
 10
122.1449964021
 20
101.7962207346
 10
122.1607316645
 20
101.8033530929
  0
LWPOLYLINE
  5
302
100
AcDbEntity
  8
ASSI
100
AcDbPolyline
 62
250
  6
CONTINUOUS
 90
16
 70
0
 10
121.8880985025
 20
101.8088501448
 10
121.902933746
 20
101.8011013991
 10
121.9190354533
 20
101.7942471156
 10
121.9362425306
 20
101.7883558698
 10
121.9543828253
 20
101.7834866022
 10
121.973274848
 20
101.7796880288
 10
121.9927295886
 20
101.7769981532
 10
122.012552407
 20
101.7754438871
 10
122.0325449807
 20
101.7750407806
 10
122.0525072888
 20
101.7757928665
 10
122.0722396132
 20
101.7776926205
 10
122.0915445366
 20
101.7807210361
 10
122.110228918
 20
101.7848478145
 10
122.1281058245
 20
101.7900316684
 10
122.1449964021
 20
101.7962207346
 10
122.1607316645
 20
101.8033530929
  0
LWPOLYLINE
  5
303
100
AcDbEntity
  8
0
100
AcDbPolyline
 62
250
  6
CONTINUOUS
 90
10
 70
0
 10
124.0188261379
 20
101.9431211811
 10
124.0064274604
 20
101.9496002793
 10
123.9837943955
 20
101.9583316717
 10
123.959667478
 20
101.9639480841
 10
123.9342143784
 20
101.9664104854
 10
123.9076119837
 20
101.9657017628
 10
123.8800451678
 20
101.9618268418
 10
123.8517055069
 20
101.9548126512
 10
123.822789948
 20
101.9447079362
 10
123.7934994406
 20
101.9315829197
  0
LWPOLYLINE
  5
304
100
AcDbEntity
  8
ASSI
100
AcDbPolyline
 62
250
  6
CONTINUOUS
 90
10
 70
0
 10
124.0188261379
 20
101.9431211811
 10
124.0064274604
 20
101.9496002793
 10
123.9837943955
 20
101.9583316717
 10
123.959667478
 20
101.9639480841
 10
123.9342143784
 20
101.9664104854
 10
123.9076119837
 20
101.9657017628
 10
123.8800451678
 20
101.9618268418
 10
123.8517055069
 20
101.9548126512
 10
123.822789948
 20
101.9447079362
 10
123.7934994406
 20
101.9315829197
  0
LINE
  5
305
100
AcDbEntity
  8
0
100
AcDbLine
 62
250
  6
CONTINUOUS
 10
169.6874399853
 20
73.6399724618
 11
122.3818675157
 21
100.9536171276
  0
LINE
  5
306
100
AcDbEntity
  8
ASSI
100
AcDbLine
 62
250
  6
CONTINUOUS
 10
169.6874399853
 20
73.6399724618
 11
122.3818675157
 21
100.9536171276
  0
LINE
  5
307
100
AcDbEntity
  8
RACCORDO
100
AcDbLine
 62
7
  6
CONTINUOUS
 10
123.5831522095
 20
101.8101123314
 11
170.1226303547
 21
74.938800927
  0
LINE
  5
308
100
AcDbEntity
  8
ASSI
100
AcDbLine
 62
7
  6
CONTINUOUS
 10
123.5831522095
 20
101.8101123314
 11
170.1226303547
 21
74.938800927
  0
LINE
  5
309
100
AcDbEntity
  8
0
100
AcDbLine
 62
250
  6
CONTINUOUS
 10
123.7934994406
 20
101.9315829197
 11
170.1226303547
 21
75.1817233703
  0
LINE
  5
30A
100
AcDbEntity
  8
ASSI
100
AcDbLine
 62
250
  6
CONTINUOUS
 10
123.7934994406
 20
101.9315829197
 11
170.1226303547
 21
75.1817233703
  0
LINE
  5
30B
100
AcDbEntity
  8
0
100
AcDbLine
 62
7
  6
CONTINUOUS
 10
124.0188488829
 20
101.9431080509
 11
170.1226303547
 21
75.3233624451
  0
LINE
  5
30C
100
AcDbEntity
  8
ASSI
100
AcDbLine
 62
7
  6
CONTINUOUS
 10
124.0188488829
 20
101.9431080509
 11
170.1226303547
 21
75.3233624451
  0
LINE
  5
30D
100
AcDbEntity
  8
0
100
AcDbLine
 62
7
  6
CONTINUOUS
 10
167.1417911689
 20
77.109195496
 11
163.2527038724
 21
79.3547057593
  0
LINE
  5
30E
100
AcDbEntity
  8
0
100
AcDbLine
 62
7
  6
CONTINUOUS
 10
135.3219860155
 20
95.4815521958
 11
131.432898719
 21
97.7270624591
  0
LINE
  5
30F
100
AcDbEntity
  8
0
100
AcDbLine
 62
7
  6
CONTINUOUS
 10
167.3892785423
 20
77.1296210622
 11
163.3941252286
 21
79.436360678
  0
LINE
  5
310
100
AcDbEntity
  8
0
100
AcDbLine
 62
7
  6
CONTINUOUS
 10
131.5743200752
 20
97.8087173778
 11
135.5694733889
 21
95.5019777619
  0
LINE
  5
311
100
AcDbEntity
  8
0
100
AcDbLine
 62
7
  6
CONTINUOUS
 10
167.4953445595
 20
77.3133327927
 11
163.606257263
 21
79.558843056
  0
LINE
  5
312
100
AcDbEntity
  8
0
100
AcDbLine
 62
7
  6
CONTINUOUS
 10
135.6755394061
 20
95.6856894924
 11
131.7864521096
 21
97.9311997557
  0
LINE
  5
313
100
AcDbEntity
  8
0
100
AcDbLine
 62
7
  6
CONTINUOUS
 10
167.7428319329
 20
77.3337583588
 11
163.7476786192
 21
79.6404979747
  0
LINE
  5
314
100
AcDbEntity
  8
0
100
AcDbLine
 62
7
  6
CONTINUOUS
 10
131.9278734658
 20
98.0128546744
 11
135.9230267795
 21
95.7061150586
  0
LINE
  5
315
100
AcDbEntity
  8
0
100
AcDbLine
 62
7
  6
CONTINUOUS
 10
167.8488979501
 20
77.5174700894
 11
163.9598106536
 21
79.7629803527
  0
LINE
  5
316
100
AcDbEntity
  8
0
100
AcDbLine
 62
7
  6
CONTINUOUS
 10
136.0290927967
 20
95.8898267891
 11
132.1400055002
 21
98.1353370524
  0
LINE
  5
317
100
AcDbEntity
  8
0
100
AcDbLine
 62
7
  6
CONTINUOUS
 10
168.0963853235
 20
77.5378956555
 11
164.1012320098
 21
79.8446352713
  0
LINE
  5
318
100
AcDbEntity
  8
0
100
AcDbLine
 62
7
  6
CONTINUOUS
 10
132.2814268564
 20
98.2169919711
 11
136.2765801701
 21
95.9102523553
  0
LINE
  5
319
100
AcDbEntity
  8
0
100
AcDbLine
 62
7
  6
CONTINUOUS
 10
168.2024513407
 20
77.721607386
 11
164.3133640442
 21
79.9671176493
  0
LINE
  5
31A
100
AcDbEntity
  8
0
100
AcDbLine
 62
7
  6
CONTINUOUS
 10
136.3826461873
 20
96.0939640858
 11
132.4935588908
 21
98.3394743491
  0
LINE
  5
31B
100
AcDbEntity
  8
0
100
AcDbLine
 62
7
  6
CONTINUOUS
 10
168.4499387141
 20
77.7420329522
 11
164.4547854004
 21
80.048772568
  0
LINE
  5
31C
100
AcDbEntity
  8
0
100
AcDbLine
 62
7
  6
CONTINUOUS
 10
132.634980247
 20
98.4211292677
 11
136.6301335607
 21
96.1143896519
  0
LINE
  5
31D
100
AcDbEntity
  8
0
100
AcDbLine
 62
7
  6
CONTINUOUS
 10
168.5560047313
 20
77.9257446827
 11
164.6669174348
 21
80.171254946
  0
LINE
  5
31E
100
AcDbEntity
  8
0
100
AcDbLine
 62
7
  6
CONTINUOUS
 10
136.7361995779
 20
96.2981013824
 11
132.8471122814
 21
98.5436116457
  0
LINE
  5
31F
100
AcDbEntity
  8
0
100
AcDbLine
 62
7
  6
CONTINUOUS
 10
168.8034921047
 20
77.9461702488
 11
164.808338791
 21
80.2529098647
  0
LINE
  5
320
100
AcDbEntity
  8
0
100
AcDbLine
 62
7
  6
CONTINUOUS
 10
132.9885336376
 20
98.6252665644
 11
136.9836869513
 21
96.3185269486
  0
LINE
  5
321
100
AcDbEntity
  8
0
100
AcDbLine
 62
7
  6
CONTINUOUS
 10
168.9095581219
 20
78.1298819794
 11
165.0204708254
 21
80.3753922427
  0
LINE
  5
322
100
AcDbEntity
  8
0
100
AcDbLine
 62
7
  6
CONTINUOUS
 10
137.0897529685
 20
96.5022386791
 11
133.200665672
 21
98.7477489424
  0
LINE
  5
323
100
AcDbEntity
  8
0
100
AcDbLine
 62
7
  6
CONTINUOUS
 10
169.1570454953
 20
78.1503075455
 11
165.1618921816
 21
80.4570471613
  0
LINE
  5
324
100
AcDbEntity
  8
0
100
AcDbLine
 62
7
  6
CONTINUOUS
 10
133.3420870282
 20
98.8294038611
 11
137.3372403419
 21
96.5226642452
  0
LINE
  5
325
100
AcDbEntity
  8
0
100
AcDbLine
 62
7
  6
CONTINUOUS
 10
169.2631115125
 20
78.334019276
 11
165.3740242159
 21
80.5795295393
  0
LINE
  5
326
100
AcDbEntity
  8
0
100
AcDbLine
 62
7
  6
CONTINUOUS
 10
137.4433063591
 20
96.7063759758
 11
133.5542190626
 21
98.9518862391
  0
LINE
  5
327
100
AcDbEntity
  8
0
100
AcDbLine
 62
7
  6
CONTINUOUS
 10
169.5105988859
 20
78.3544448422
 11
165.5154455722
 21
80.661184458
  0
LINE
  5
328
100
AcDbEntity
  8
0
100
AcDbLine
 62
7
  6
CONTINUOUS
 10
133.6956404188
 20
99.0335411577
 11
137.6907937325
 21
96.7268015419
  0
LINE
  5
329
100
AcDbEntity
  8
0
100
AcDbLine
 62
250
  6
CONTINUOUS
 10
169.7953778331
 20
78.3126009866
 11
165.5490405748
 21
80.7643829005
  0
LINE
  5
32A
100
AcDbEntity
  8
0
100
AcDbLine
 62
250
  6
CONTINUOUS
 10
137.9755726797
 20
96.6849576864
 11
133.7292354214
 21
99.1367396002
  0
LINE
  5
32B
100
AcDbEntity
  8
0
100
AcDbLine
 62
250
  6
CONTINUOUS
 10
169.8620501891
 20
78.351302898
 11
165.6230877278
 21
80.7988266965
  0
LINE
  5
32C
100
AcDbEntity
  8
0
100
AcDbLine
 62
250
  6
CONTINUOUS
 10
138.0422450357
 20
96.7236595978
 11
133.8032825744
 21
99.1711833963
  0
LWPOLYLINE
  5
32D
100
AcDbEntity
  8
0
100
AcDbPolyline
 62
250
  6
CONTINUOUS
 90
25
 70
0
 10
169.8189962864
 20
73.8788277005
 10
122.4896834517
 20
101.2062721898
 10
122.4661999807
 20
101.2217147882
 10
122.4430628928
 20
101.2387116921
 10
122.4203868609
 20
101.257138204
 10
122.3982277603
 20
101.2769251076
 10
122.3765866654
 20
101.2980783276
 10
122.3555146087
 20
101.3205468349
 10
122.3351281585
 20
101.3442032857
 10
122.3155277904
 20
101.3689477328
 10
122.2967902469
 20
101.3946845841
 10
122.2789922765
 20
101.4212989856
 10
122.2622273893
 20
101.4486533687
 10
122.2465784289
 20
101.4766080566
 10
122.2320891729
 20
101.505071094
 10
122.2187912268
 20
101.5339738247
 10
122.2067858499
 20
101.563082435
 10
122.1960771541
 20
101.5923956107
 10
122.1865957861
 20
101.6221933437
 10
122.1783958019
 20
101.6525076995
 10
122.1716280206
 20
101.6830371328
 10
122.166400977
 20
101.7135497667
 10
122.1627970016
 20
101.7438659043
 10
122.1608841966
 20
101.7738549949
 10
122.1607316645
 20
101.8033530929
  0
LWPOLYLINE
  5
32E
100
AcDbEntity
  8
ASSI
100
AcDbPolyline
 62
250
  6
CONTINUOUS
 90
25
 70
0
 10
169.8189962864
 20
73.8788277005
 10
122.4896834517
 20
101.2062721898
 10
122.4661999807
 20
101.2217147882
 10
122.4430628928
 20
101.2387116921
 10
122.4203868609
 20
101.257138204
 10
122.3982277603
 20
101.2769251076
 10
122.3765866654
 20
101.2980783276
 10
122.3555146087
 20
101.3205468349
 10
122.3351281585
 20
101.3442032857
 10
122.3155277904
 20
101.3689477328
 10
122.2967902469
 20
101.3946845841
 10
122.2789922765
 20
101.4212989856
 10
122.2622273893
 20
101.4486533687
 10
122.2465784289
 20
101.4766080566
 10
122.2320891729
 20
101.505071094
 10
122.2187912268
 20
101.5339738247
 10
122.2067858499
 20
101.563082435
 10
122.1960771541
 20
101.5923956107
 10
122.1865957861
 20
101.6221933437
 10
122.1783958019
 20
101.6525076995
 10
122.1716280206
 20
101.6830371328
 10
122.166400977
 20
101.7135497667
 10
122.1627970016
 20
101.7438659043
 10
122.1608841966
 20
101.7738549949
 10
122.1607316645
 20
101.8033530929
  0
LWPOLYLINE
  5
32F
100
AcDbEntity
  8
0
100
AcDbPolyline
 62
7
  6
CONTINUOUS
 90
27
 70
0
 10
124.0188261379
 20
101.9431211811
 10
124.0002885479
 20
101.9544045073
 10
123.9788690946
 20
101.9688137578
 10
123.9556816968
 20
101.9859864827
 10
123.9311984587
 20
102.005840687
 10
123.9056808375
 20
102.0283965496
 10
123.8793726284
 20
102.0536645032
 10
123.8527120631
 20
102.081420088
 10
123.8259588703
 20
102.1115557272
 10
123.7993652638
 20
102.1439441934
 10
123.7733121261
 20
102.1782469666
 10
123.7480331987
 20
102.2142432603
 10
123.7237409641
 20
102.2517084954
 10
123.7007248333
 20
102.2902416379
 10
123.6791536858
 20
102.3295628095
 10
123.6591787534
 20
102.3693838163
 10
123.6409962446
 20
102.4092535119
 10
123.6246878469
 20
102.4488730409
 10
123.6103198242
 20
102.4879301316
 10
123.5979861181
 20
102.5259321494
 10
123.587664083
 20
102.5626000154
 10
123.5793097689
 20
102.5976560385
 10
123.5728894357
 20
102.6306158349
 10
123.5682656107
 20
102.6612822573
 10
123.565283882
 20
102.6894441052
 10
123.5637711669
 20
102.7146561402
 10
123.5634524968
 20
102.7318419111
  0
LWPOLYLINE
  5
330
100
AcDbEntity
  8
ASSI
100
AcDbPolyline
 62
7
  6
CONTINUOUS
 90
27
 70
0
 10
124.0188261379
 20
101.9431211811
 10
124.0002885479
 20
101.9544045073
 10
123.9788690946
 20
101.9688137578
 10
123.9556816968
 20
101.9859864827
 10
123.9311984587
 20
102.005840687
 10
123.9056808375
 20
102.0283965496
 10
123.8793726284
 20
102.0536645032
 10
123.8527120631
 20
102.081420088
 10
123.8259588703
 20
102.1115557272
 10
123.7993652638
 20
102.1439441934
 10
123.7733121261
 20
102.1782469666
 10
123.7480331987
 20
102.2142432603
 10
123.7237409641
 20
102.2517084954
 10
123.7007248333
 20
102.2902416379
 10
123.6791536858
 20
102.3295628095
 10
123.6591787534
 20
102.3693838163
 10
123.6409962446
 20
102.4092535119
 10
123.6246878469
 20
102.4488730409
 10
123.6103198242
 20
102.4879301316
 10
123.5979861181
 20
102.5259321494
 10
123.587664083
 20
102.5626000154
 10
123.5793097689
 20
102.5976560385
 10
123.5728894357
 20
102.6306158349
 10
123.5682656107
 20
102.6612822573
 10
123.565283882
 20
102.6894441052
 10
123.5637711669
 20
102.7146561402
 10
123.5634524968
 20
102.7318419111
  0
LWPOLYLINE
  5
331
100
AcDbEntity
  8
0
100
AcDbPolyline
 62
250
  6
CONTINUOUS
 90
25
 70
0
 10
122.3818675157
 20
100.9536171276
 10
122.3493583414
 20
100.9736905593
 10
122.3173785347
 20
100.9957627514
 10
122.2859280957
 20
101.0198337042
 10
122.2549288022
 20
101.045988369
 10
122.2244588763
 20
101.0741417943
 10
122.1947529843
 20
101.1040391256
 10
122.1657697259
 20
101.1357347001
 10
122.1375505014
 20
101.1691741805
 10
122.110454178
 20
101.2039397004
 10
122.0844917192
 20
101.240059312
 10
122.0596521615
 20
101.2775049632
 10
122.0362614822
 20
101.315774631
 10
122.0143565563
 20
101.3548415538
 10
121.993900509
 20
101.3947324932
 10
121.9751086924
 20
101.4350257111
 10
121.9580154134
 20
101.4755694103
 10
121.9425863652
 20
101.5165153879
 10
121.9289339798
 20
101.5578972974
 10
121.916964473
 20
101.5999693377
 10
121.9067716289
 20
101.6424773099
 10
121.8987492315
 20
101.684692271
 10
121.8930285419
 20
101.7263712401
 10
121.8894782989
 20
101.767757198
 10
121.8880985025
 20
101.8088501448
  0
LWPOLYLINE
  5
332
100
AcDbEntity
  8
ASSI
100
AcDbPolyline
 62
250
  6
CONTINUOUS
 90
25
 70
0
 10
122.3818675157
 20
100.9536171276
 10
122.3493583414
 20
100.9736905593
 10
122.3173785347
 20
100.9957627514
 10
122.2859280957
 20
101.0198337042
 10
122.2549288022
 20
101.045988369
 10
122.2244588763
 20
101.0741417943
 10
122.1947529843
 20
101.1040391256
 10
122.1657697259
 20
101.1357347001
 10
122.1375505014
 20
101.1691741805
 10
122.110454178
 20
101.2039397004
 10
122.0844917192
 20
101.240059312
 10
122.0596521615
 20
101.2775049632
 10
122.0362614822
 20
101.315774631
 10
122.0143565563
 20
101.3548415538
 10
121.993900509
 20
101.3947324932
 10
121.9751086924
 20
101.4350257111
 10
121.9580154134
 20
101.4755694103
 10
121.9425863652
 20
101.5165153879
 10
121.9289339798
 20
101.5578972974
 10
121.916964473
 20
101.5999693377
 10
121.9067716289
 20
101.6424773099
 10
121.8987492315
 20
101.684692271
 10
121.8930285419
 20
101.7263712401
 10
121.8894782989
 20
101.767757198
 10
121.8880985025
 20
101.8088501448
  0
LWPOLYLINE
  5
333
100
AcDbEntity
  8
0
100
AcDbPolyline
 62
250
  6
CONTINUOUS
 90
9
 70
0
 10
170.1812089985
 20
73.9250133993
 10
170.1677883582
 20
73.9335792832
 10
170.1559169848
 20
73.9428764028
 10
170.1457136354
 20
73.9528117317
 10
170.1372803773
 20
73.9632858583
 10
170.1307015637
 20
73.9741939852
 10
170.1260429928
 20
73.985426978
 10
170.1233512542
 20
73.9968724484
 10
170.1226304533
 20
74.0065536866
  0
LWPOLYLINE
  5
334
100
AcDbEntity
  8
ASSI
100
AcDbPolyline
 62
250
  6
CONTINUOUS
 90
9
 70
0
 10
170.1812089985
 20
73.9250133993
 10
170.1677883582
 20
73.9335792832
 10
170.1559169848
 20
73.9428764028
 10
170.1457136354
 20
73.9528117317
 10
170.1372803773
 20
73.9632858583
 10
170.1307015637
 20
73.9741939852
 10
170.1260429928
 20
73.985426978
 10
170.1233512542
 20
73.9968724484
 10
170.1226304533
 20
74.0065536866
  0
LINE
  5
335
100
AcDbEntity
  8
CURVE
100
AcDbLine
 62
250
  6
CONTINUOUS
 10
148.4371544279
 20
84.3210150394
 11
148.4232434627
 21
84.3300643205
  0
LINE
  5
336
100
AcDbEntity
  8
IMPORT_IGES
100
AcDbLine
 62
7
  6
CONTINUOUS
 10
148.4371544279
 20
84.3210150394
 11
148.4232434627
 21
84.3300643205
  0
LINE
  5
337
100
AcDbEntity
  8
CURVE
100
AcDbLine
 62
250
  6
CONTINUOUS
 10
148.4510657809
 20
84.3118141421
 11
148.4371544279
 21
84.3210150394
  0
LINE
  5
338
100
AcDbEntity
  8
IMPORT_IGES
100
AcDbLine
 62
7
  6
CONTINUOUS
 10
148.4510657809
 20
84.3118141421
 11
148.4371544279
 21
84.3210150394
  0
LINE
  5
339
100
AcDbEntity
  8
CURVE
100
AcDbLine
 62
250
  6
CONTINUOUS
 10
148.4651645903
 20
84.3023302503
 11
148.4510657809
 21
84.3118141421
  0
LINE
  5
33A
100
AcDbEntity
  8
IMPORT_IGES
100
AcDbLine
 62
7
  6
CONTINUOUS
 10
148.4651645903
 20
84.3023302503
 11
148.4510657809
 21
84.3118141421
  0
LINE
  5
33B
100
AcDbEntity
  8
CURVE
100
AcDbLine
 62
250
  6
CONTINUOUS
 10
148.4778999619
 20
84.293619638
 11
148.4651645903
 21
84.3023302503
  0
LINE
  5
33C
100
AcDbEntity
  8
IMPORT_IGES
100
AcDbLine
 62
7
  6
CONTINUOUS
 10
148.4778999619
 20
84.293619638
 11
148.4651645903
 21
84.3023302503
  0
LINE
  5
33D
100
AcDbEntity
  8
CURVE
100
AcDbLine
 62
250
  6
CONTINUOUS
 10
148.489081866
 20
84.2858524697
 11
148.4778999619
 21
84.293619638
  0
LINE
  5
33E
100
AcDbEntity
  8
IMPORT_IGES
100
AcDbLine
 62
7
  6
CONTINUOUS
 10
148.489081866
 20
84.2858524697
 11
148.4778999619
 21
84.293619638
  0
LINE
  5
33F
100
AcDbEntity
  8
CURVE
100
AcDbLine
 62
250
  6
CONTINUOUS
 10
148.5002556748
 20
84.2779738755
 11
148.489081866
 21
84.2858524697
  0
LINE
  5
340
100
AcDbEntity
  8
IMPORT_IGES
100
AcDbLine
 62
7
  6
CONTINUOUS
 10
148.5002556748
 20
84.2779738755
 11
148.489081866
 21
84.2858524697
  0
LINE
  5
341
100
AcDbEntity
  8
CURVE
100
AcDbLine
 62
250
  6
CONTINUOUS
 10
148.5114184288
 20
84.269980538
 11
148.5002556748
 21
84.2779738755
  0
LINE
  5
342
100
AcDbEntity
  8
IMPORT_IGES
100
AcDbLine
 62
7
  6
CONTINUOUS
 10
148.5114184288
 20
84.269980538
 11
148.5002556748
 21
84.2779738755
  0
LWPOLYLINE
  5
343
100
AcDbEntity
  8
CURVE
100
AcDbPolyline
 62
250
  6
CONTINUOUS
 90
49
 70
0
 10
148.4576628762
 20
83.9977505791
 10
148.4636137305
 20
83.9934241602
 10
148.4695649905
 20
83.9889117718
 10
148.4755101017
 20
83.9842177204
 10
148.4814425096
 20
83.9793463128
 10
148.4873556597
 20
83.9743018556
 10
148.4932429975
 20
83.9690886553
 10
148.4990979684
 20
83.9637110187
 10
148.5049140181
 20
83.9581732524
 10
148.5106845919
 20
83.952479663
 10
148.5164031354
 20
83.9466345571
 10
148.5220630941
 20
83.9406422415
 10
148.5276579134
 20
83.9345070226
 10
148.5331810389
 20
83.9282332072
 10
148.538625916
 20
83.9218251019
 10
148.5439859902
 20
83.9152870133
 10
148.5492547071
 20
83.9086232481
 10
148.5544255121
 20
83.9018381128
 10
148.5594918508
 20
83.8949359142
 10
148.5644471685
 20
83.8879209589
 10
148.5692849109
 20
83.8807975535
 10
148.5739985234
 20
83.8735700046
 10
148.5785814514
 20
83.8662426189
 10
148.5830271406
 20
83.8588197029
 10
148.5873290363
 20
83.8513055635
 10
148.5914593847
 20
83.8437465268
 10
148.5954391183
 20
83.836110712
 10
148.5992663541
 20
83.8284073236
 10
148.6029392091
 20
83.8206455658
 10
148.6064558002
 20
83.8128346433
 10
148.6098142442
 20
83.8049837603
 10
148.6130126583
 20
83.7971021213
 10
148.6160491592
 20
83.7891989308
 10
148.618921864
 20
83.7812833932
 10
148.6216288895
 20
83.7733647129
 10
148.6241683527
 20
83.7654520944
 10
148.6265383705
 20
83.757554742
 10
148.6287370599
 20
83.7496818602
 10
148.6307625379
 20
83.7418426534
 10
148.6326129212
 20
83.7340463261
 10
148.6342863269
 20
83.7263020826
 10
148.635780872
 20
83.7186191275
 10
148.6370946733
 20
83.7110066651
 10
148.6382258478
 20
83.7034738999
 10
148.6391725123
 20
83.6960300363
 10
148.639932784
 20
83.6886842787
 10
148.6405047796
 20
83.6814458315
 10
148.6408866162
 20
83.6743238993
 10
148.6410764106
 20
83.6673276863
  0
LWPOLYLINE
  5
344
100
AcDbEntity
  8
IMPORT_IGES
100
AcDbPolyline
 62
7
  6
CONTINUOUS
 90
49
 70
0
 10
148.4576628762
 20
83.9977505791
 10
148.4636137305
 20
83.9934241602
 10
148.4695649905
 20
83.9889117718
 10
148.4755101017
 20
83.9842177204
 10
148.4814425096
 20
83.9793463128
 10
148.4873556597
 20
83.9743018556
 10
148.4932429975
 20
83.9690886553
 10
148.4990979684
 20
83.9637110187
 10
148.5049140181
 20
83.9581732524
 10
148.5106845919
 20
83.952479663
 10
148.5164031354
 20
83.9466345571
 10
148.5220630941
 20
83.9406422415
 10
148.5276579134
 20
83.9345070226
 10
148.5331810389
 20
83.9282332072
 10
148.538625916
 20
83.9218251019
 10
148.5439859902
 20
83.9152870133
 10
148.5492547071
 20
83.9086232481
 10
148.5544255121
 20
83.9018381128
 10
148.5594918508
 20
83.8949359142
 10
148.5644471685
 20
83.8879209589
 10
148.5692849109
 20
83.8807975535
 10
148.5739985234
 20
83.8735700046
 10
148.5785814514
 20
83.8662426189
 10
148.5830271406
 20
83.8588197029
 10
148.5873290363
 20
83.8513055635
 10
148.5914593847
 20
83.8437465268
 10
148.5954391183
 20
83.836110712
 10
148.5992663541
 20
83.8284073236
 10
148.6029392091
 20
83.8206455658
 10
148.6064558002
 20
83.8128346433
 10
148.6098142442
 20
83.8049837603
 10
148.6130126583
 20
83.7971021213
 10
148.6160491592
 20
83.7891989308
 10
148.618921864
 20
83.7812833932
 10
148.6216288895
 20
83.7733647129
 10
148.6241683527
 20
83.7654520944
 10
148.6265383705
 20
83.757554742
 10
148.6287370599
 20
83.7496818602
 10
148.6307625379
 20
83.7418426534
 10
148.6326129212
 20
83.7340463261
 10
148.6342863269
 20
83.7263020826
 10
148.635780872
 20
83.7186191275
 10
148.6370946733
 20
83.7110066651
 10
148.6382258478
 20
83.7034738999
 10
148.6391725123
 20
83.6960300363
 10
148.639932784
 20
83.6886842787
 10
148.6405047796
 20
83.6814458315
 10
148.6408866162
 20
83.6743238993
 10
148.6410764106
 20
83.6673276863
  0
LINE
  5
345
100
AcDbEntity
  8
CURVE
100
AcDbLine
 62
250
  6
CONTINUOUS
 10
148.5227041946
 20
84.2617686239
 11
148.5114184288
 21
84.269980538
  0
LINE
  5
346
100
AcDbEntity
  8
IMPORT_IGES
100
AcDbLine
 62
7
  6
CONTINUOUS
 10
148.5227041946
 20
84.2617686239
 11
148.5114184288
 21
84.269980538
  0
LINE
  5
347
100
AcDbEntity
  8
CURVE
100
AcDbLine
 62
250
  6
CONTINUOUS
 10
148.532926766
 20
84.2542118817
 11
148.5227041946
 21
84.2617686239
  0
LINE
  5
348
100
AcDbEntity
  8
IMPORT_IGES
100
AcDbLine
 62
7
  6
CONTINUOUS
 10
148.532926766
 20
84.2542118817
 11
148.5227041946
 21
84.2617686239
  0
LINE
  5
349
100
AcDbEntity
  8
CURVE
100
AcDbLine
 62
250
  6
CONTINUOUS
 10
148.5431327025
 20
84.2465501861
 11
148.532926766
 21
84.2542118817
  0
LINE
  5
34A
100
AcDbEntity
  8
IMPORT_IGES
100
AcDbLine
 62
7
  6
CONTINUOUS
 10
148.5431327025
 20
84.2465501861
 11
148.532926766
 21
84.2542118817
  0
LINE
  5
34B
100
AcDbEntity
  8
CURVE
100
AcDbLine
 62
250
  6
CONTINUOUS
 10
148.5533197125
 20
84.2387809685
 11
148.5431327025
 21
84.2465501861
  0
LINE
  5
34C
100
AcDbEntity
  8
IMPORT_IGES
100
AcDbLine
 62
7
  6
CONTINUOUS
 10
148.5533197125
 20
84.2387809685
 11
148.5431327025
 21
84.2465501861
  0
LWPOLYLINE
  5
34D
100
AcDbEntity
  8
0
100
AcDbPolyline
 62
7
  6
CONTINUOUS
 90
16
 70
0
 10
148.4576628762
 20
83.9977505791
 10
148.4791209043
 20
83.9810702176
 10
148.4994476267
 20
83.9632494429
 10
148.5186430434
 20
83.944288255
 10
148.5368134986
 20
83.9240167449
 10
148.5538526482
 20
83.9026048217
 10
148.5694414598
 20
83.8805622121
 10
148.583474024
 20
83.8580147511
 10
148.5960562501
 20
83.8348366038
 10
148.6071868337
 20
83.8111599928
 10
148.6169544816
 20
83.786716746
 10
148.6252704869
 20
83.7617750356
 10
148.631867425
 20
83.7372716005
 10
148.6366561541
 20
83.7135186871
 10
148.639725816
 20
83.690204049
 10
148.6410764106
 20
83.6673276863
  0
LINE
  5
34E
100
AcDbEntity
  8
CURVE
100
AcDbLine
 62
250
  6
CONTINUOUS
 10
148.5634855045
 20
84.2309016602
 11
148.5533197125
 21
84.2387809685
  0
LINE
  5
34F
100
AcDbEntity
  8
IMPORT_IGES
100
AcDbLine
 62
7
  6
CONTINUOUS
 10
148.5634855045
 20
84.2309016602
 11
148.5533197125
 21
84.2387809685
  0
LINE
  5
350
100
AcDbEntity
  8
CURVE
100
AcDbLine
 62
250
  6
CONTINUOUS
 10
148.5675442797
 20
84.2277193914
 11
148.5634855045
 21
84.2309016602
  0
LINE
  5
351
100
AcDbEntity
  8
IMPORT_IGES
100
AcDbLine
 62
7
  6
CONTINUOUS
 10
148.5675442797
 20
84.2277193914
 11
148.5634855045
 21
84.2309016602
  0
LWPOLYLINE
  5
352
100
AcDbEntity
  8
0
100
AcDbPolyline
 62
7
  6
CONTINUOUS
 90
16
 70
0
 10
148.6919688839
 20
84.1179787825
 10
148.6519083494
 20
84.1560457045
 10
148.6097816558
 20
84.1931378472
 10
148.5655888033
 20
84.2292552106
 10
148.5192321732
 20
84.2643567184
 10
148.4708093842
 20
84.2984834469
 10
148.4206132916
 20
84.3317586251
 10
148.3687307305
 20
84.3641567501
 10
148.3150748658
 20
84.3957033247
 10
148.2596780481
 20
84.4265980867
 10
148.202555871
 20
84.4568754122
 10
148.1436927409
 20
84.4865009251
 10
148.0830742283
 20
84.5155712344
 10
148.0206955233
 20
84.5441185432
 10
147.9565614357
 20
84.5721106484
 10
147.8906719656
 20
84.5995475501
  0
LWPOLYLINE
  5
353
100
AcDbEntity
  8
CURVE
100
AcDbPolyline
 62
250
  6
CONTINUOUS
 90
17
 70
0
 10
148.6919688839
 20
84.1179787825
 10
148.684389907
 20
84.1254558617
 10
148.6767794552
 20
84.1328447479
 10
148.6691386287
 20
84.1401466742
 10
148.6614685275
 20
84.1473628737
 10
148.6537702514
 20
84.1544945793
 10
148.6460449006
 20
84.1615430241
 10
148.638293575
 20
84.1685094411
 10
148.6305173746
 20
84.1753950633
 10
148.6227173995
 20
84.1822011237
 10
148.6148947495
 20
84.1889288554
 10
148.6070505249
 20
84.1955794914
 10
148.5991858254
 20
84.2021542647
 10
148.5913017511
 20
84.2086544083
 10
148.5833994021
 20
84.2150811553
 10
148.5754798783
 20
84.2214357386
 10
148.5675442797
 20
84.2277193914
  0
LWPOLYLINE
  5
354
100
AcDbEntity
  8
IMPORT_IGES
100
AcDbPolyline
 62
7
  6
CONTINUOUS
 90
17
 70
0
 10
148.6919688839
 20
84.1179787825
 10
148.684389907
 20
84.1254558617
 10
148.6767794552
 20
84.1328447479
 10
148.6691386287
 20
84.1401466742
 10
148.6614685275
 20
84.1473628737
 10
148.6537702514
 20
84.1544945793
 10
148.6460449006
 20
84.1615430241
 10
148.638293575
 20
84.1685094411
 10
148.6305173746
 20
84.1753950633
 10
148.6227173995
 20
84.1822011237
 10
148.6148947495
 20
84.1889288554
 10
148.6070505249
 20
84.1955794914
 10
148.5991858254
 20
84.2021542647
 10
148.5913017511
 20
84.2086544083
 10
148.5833994021
 20
84.2150811553
 10
148.5754798783
 20
84.2214357386
 10
148.5675442797
 20
84.2277193914
  0
LINE
  5
355
100
AcDbEntity
  8
CURVE
100
AcDbLine
 62
250
  6
CONTINUOUS
 10
148.72627899
 20
83.1799888581
 11
148.7254461699
 21
83.180855931
  0
LINE
  5
356
100
AcDbEntity
  8
IMPORT_IGES
100
AcDbLine
 62
7
  6
CONTINUOUS
 10
148.72627899
 20
83.1799888581
 11
148.7254461699
 21
83.180855931
  0
LINE
  5
357
100
AcDbEntity
  8
CURVE
100
AcDbLine
 62
250
  6
CONTINUOUS
 10
148.7279400504
 20
83.1782429335
 11
148.7271102872
 21
83.1791178492
  0
LINE
  5
358
100
AcDbEntity
  8
IMPORT_IGES
100
AcDbLine
 62
7
  6
CONTINUOUS
 10
148.7279400504
 20
83.1782429335
 11
148.7271102872
 21
83.1791178492
  0
LINE
  5
359
100
AcDbEntity
  8
CURVE
100
AcDbLine
 62
250
  6
CONTINUOUS
 10
148.729594931
 20
83.1764814981
 11
148.7287682687
 21
83.17736414
  0
LINE
  5
35A
100
AcDbEntity
  8
IMPORT_IGES
100
AcDbLine
 62
7
  6
CONTINUOUS
 10
148.729594931
 20
83.1764814981
 11
148.7287682687
 21
83.17736414
  0
LINE
  5
35B
100
AcDbEntity
  8
CURVE
100
AcDbLine
 62
250
  6
CONTINUOUS
 10
148.731243544
 20
83.1747047851
 11
148.7304200265
 21
83.1755950367
  0
LINE
  5
35C
100
AcDbEntity
  8
IMPORT_IGES
100
AcDbLine
 62
7
  6
CONTINUOUS
 10
148.731243544
 20
83.1747047851
 11
148.7304200265
 21
83.1755950367
  0
LINE
  5
35D
100
AcDbEntity
  8
CURVE
100
AcDbLine
 62
250
  6
CONTINUOUS
 10
148.7329048145
 20
83.1728921556
 11
148.7320654727
 21
83.1738107724
  0
LINE
  5
35E
100
AcDbEntity
  8
IMPORT_IGES
100
AcDbLine
 62
7
  6
CONTINUOUS
 10
148.7329048145
 20
83.1728921556
 11
148.7320654727
 21
83.1738107724
  0
LWPOLYLINE
  5
35F
100
AcDbEntity
  8
CURVE
100
AcDbPolyline
 62
250
  6
CONTINUOUS
 90
12
 70
0
 10
148.7127386444
 20
84.096121051
 10
148.7108800232
 20
84.0981750756
 10
148.7090155067
 20
84.1002164172
 10
148.7071450906
 20
84.1022448397
 10
148.7052687709
 20
84.1042601067
 10
148.7033865434
 20
84.1062619822
 10
148.701498404
 20
84.1082502298
 10
148.6996043486
 20
84.1102246133
 10
148.697704373
 20
84.1121848966
 10
148.6957984731
 20
84.1141308433
 10
148.6938866448
 20
84.1160622174
 10
148.6919688839
 20
84.1179787825
  0
LWPOLYLINE
  5
360
100
AcDbEntity
  8
IMPORT_IGES
100
AcDbPolyline
 62
7
  6
CONTINUOUS
 90
12
 70
0
 10
148.7127386444
 20
84.096121051
 10
148.7108800232
 20
84.0981750756
 10
148.7090155067
 20
84.1002164172
 10
148.7071450906
 20
84.1022448397
 10
148.7052687709
 20
84.1042601067
 10
148.7033865434
 20
84.1062619822
 10
148.701498404
 20
84.1082502298
 10
148.6996043486
 20
84.1102246133
 10
148.697704373
 20
84.1121848966
 10
148.6957984731
 20
84.1141308433
 10
148.6938866448
 20
84.1160622174
 10
148.6919688839
 20
84.1179787825
  0
LINE
  5
361
100
AcDbEntity
  8
CURVE
100
AcDbLine
 62
250
  6
CONTINUOUS
 10
148.7345784262
 20
83.1710433257
 11
148.7337424696
 21
83.171969663
  0
LINE
  5
362
100
AcDbEntity
  8
IMPORT_IGES
100
AcDbLine
 62
7
  6
CONTINUOUS
 10
148.7345784262
 20
83.1710433257
 11
148.7337424696
 21
83.171969663
  0
LINE
  5
363
100
AcDbEntity
  8
CURVE
100
AcDbLine
 62
250
  6
CONTINUOUS
 10
148.7362451971
 20
83.1691792422
 11
148.7354126727
 21
83.170113175
  0
LINE
  5
364
100
AcDbEntity
  8
IMPORT_IGES
100
AcDbLine
 62
7
  6
CONTINUOUS
 10
148.7362451971
 20
83.1691792422
 11
148.7354126727
 21
83.170113175
  0
LINE
  5
365
100
AcDbEntity
  8
CURVE
100
AcDbLine
 62
250
  6
CONTINUOUS
 10
148.7379050331
 20
83.1673001549
 11
148.7370759878
 21
83.1682415584
  0
LINE
  5
366
100
AcDbEntity
  8
IMPORT_IGES
100
AcDbLine
 62
7
  6
CONTINUOUS
 10
148.7379050331
 20
83.1673001549
 11
148.7370759878
 21
83.1682415584
  0
LINE
  5
367
100
AcDbEntity
  8
CURVE
100
AcDbLine
 62
250
  6
CONTINUOUS
 10
148.7409941293
 20
83.1637420448
 11
148.738732321
 21
83.1663550629
  0
LINE
  5
368
100
AcDbEntity
  8
IMPORT_IGES
100
AcDbLine
 62
7
  6
CONTINUOUS
 10
148.7409941293
 20
83.1637420448
 11
148.738732321
 21
83.1663550629
  0
LINE
  5
369
100
AcDbEntity
  8
CURVE
100
AcDbLine
 62
250
  6
CONTINUOUS
 10
148.7432423643
 20
83.1611021145
 11
148.7409941293
 21
83.1637420448
  0
LINE
  5
36A
100
AcDbEntity
  8
IMPORT_IGES
100
AcDbLine
 62
7
  6
CONTINUOUS
 10
148.7432423643
 20
83.1611021145
 11
148.7409941293
 21
83.1637420448
  0
LINE
  5
36B
100
AcDbEntity
  8
CURVE
100
AcDbLine
 62
250
  6
CONTINUOUS
 10
148.7454767829
 20
83.158435918
 11
148.7432423643
 21
83.1611021145
  0
LINE
  5
36C
100
AcDbEntity
  8
IMPORT_IGES
100
AcDbLine
 62
7
  6
CONTINUOUS
 10
148.7454767829
 20
83.158435918
 11
148.7432423643
 21
83.1611021145
  0
LWPOLYLINE
  5
36D
100
AcDbEntity
  8
CURVE
100
AcDbPolyline
 62
250
  6
CONTINUOUS
 90
3
 70
0
 10
148.7488019729
 20
83.1543887873
 10
148.7476971418
 20
83.1557441013
 10
148.7454767829
 20
83.158435918
  0
LWPOLYLINE
  5
36E
100
AcDbEntity
  8
IMPORT_IGES
100
AcDbPolyline
 62
7
  6
CONTINUOUS
 90
3
 70
0
 10
148.7488019729
 20
83.1543887873
 10
148.7476971418
 20
83.1557441013
 10
148.7454767829
 20
83.158435918
  0
LINE
  5
36F
100
AcDbEntity
  8
CURVE
100
AcDbLine
 62
250
  6
CONTINUOUS
 10
148.753013408
 20
83.1491244447
 11
148.7488019729
 21
83.1543887873
  0
LINE
  5
370
100
AcDbEntity
  8
IMPORT_IGES
100
AcDbLine
 62
7
  6
CONTINUOUS
 10
148.753013408
 20
83.1491244447
 11
148.7488019729
 21
83.1543887873
  0
LINE
  5
371
100
AcDbEntity
  8
CURVE
100
AcDbLine
 62
250
  6
CONTINUOUS
 10
148.755104895
 20
83.1464515061
 11
148.753013408
 21
83.1491244447
  0
LINE
  5
372
100
AcDbEntity
  8
IMPORT_IGES
100
AcDbLine
 62
7
  6
CONTINUOUS
 10
148.755104895
 20
83.1464515061
 11
148.753013408
 21
83.1491244447
  0
LINE
  5
373
100
AcDbEntity
  8
CURVE
100
AcDbLine
 62
250
  6
CONTINUOUS
 10
148.7571823395
 20
83.1437574126
 11
148.755104895
 21
83.1464515061
  0
LINE
  5
374
100
AcDbEntity
  8
IMPORT_IGES
100
AcDbLine
 62
7
  6
CONTINUOUS
 10
148.7571823395
 20
83.1437574126
 11
148.755104895
 21
83.1464515061
  0
LWPOLYLINE
  5
375
100
AcDbEntity
  8
CURVE
100
AcDbPolyline
 62
250
  6
CONTINUOUS
 90
3
 70
0
 10
148.7602717005
 20
83.1396778707
 10
148.7592455239
 20
83.1410427419
 10
148.7571823395
 20
83.1437574126
  0
LWPOLYLINE
  5
376
100
AcDbEntity
  8
IMPORT_IGES
100
AcDbPolyline
 62
7
  6
CONTINUOUS
 90
3
 70
0
 10
148.7602717005
 20
83.1396778707
 10
148.7592455239
 20
83.1410427419
 10
148.7571823395
 20
83.1437574126
  0
LWPOLYLINE
  5
377
100
AcDbEntity
  8
0
100
AcDbPolyline
 62
250
  6
CONTINUOUS
 90
10
 70
0
 10
137.277613894
 20
95.6574671528
 10
137.2798844714
 20
95.6521261717
 10
137.2817475124
 20
95.6470731006
 10
137.2831689777
 20
95.6423463452
 10
137.2841104801
 20
95.6380041452
 10
137.2845473807
 20
95.6340632302
 10
137.2844441048
 20
95.6305224937
 10
137.2837436832
 20
95.6274427818
 10
137.2823883943
 20
95.6248964887
 10
137.2815383896
 20
95.6239316001
  0
LINE
  5
378
100
AcDbEntity
  8
0
100
AcDbLine
 62
7
  6
CONTINUOUS
 10
131.4048685852
 20
97.6785128433
 11
131.432898719
 21
97.7270624591
  0
LINE
  5
379
100
AcDbEntity
  8
0
100
AcDbLine
 62
7
  6
CONTINUOUS
 10
131.6803860924
 20
97.7474880252
 11
131.7864521096
 21
97.9311997557
  0
LINE
  5
37A
100
AcDbEntity
  8
0
100
AcDbLine
 62
7
  6
CONTINUOUS
 10
132.033939483
 20
97.9516253219
 11
132.1400055002
 21
98.1353370524
  0
LINE
  5
37B
100
AcDbEntity
  8
0
100
AcDbLine
 62
7
  6
CONTINUOUS
 10
135.3888843076
 20
99.6890093494
 11
139.2148856981
 21
97.4799240976
  0
LINE
  5
37C
100
AcDbEntity
  8
0
100
AcDbLine
 62
7
  6
CONTINUOUS
 10
167.208689461
 20
81.3166526497
 11
170.1226303547
 21
79.6341796979
  0
LINE
  5
37D
100
AcDbEntity
  8
0
100
AcDbLine
 62
7
  6
CONTINUOUS
 10
151.3658888123
 20
90.502982846
 11
155.0576863468
 21
88.3713852187
  0
LINE
  5
37E
100
AcDbEntity
  8
CURVE
100
AcDbLine
 62
250
  6
CONTINUOUS
 10
148.7623130868
 20
83.1369334178
 11
148.7602717005
 21
83.1396778707
  0
LINE
  5
37F
100
AcDbEntity
  8
IMPORT_IGES
100
AcDbLine
 62
7
  6
CONTINUOUS
 10
148.7623130868
 20
83.1369334178
 11
148.7602717005
 21
83.1396778707
  0
LINE
  5
380
100
AcDbEntity
  8
CURVE
100
AcDbLine
 62
250
  6
CONTINUOUS
 10
148.764888005
 20
83.1334153231
 11
148.7623130868
 21
83.1369334178
  0
LINE
  5
381
100
AcDbEntity
  8
IMPORT_IGES
100
AcDbLine
 62
7
  6
CONTINUOUS
 10
148.764888005
 20
83.1334153231
 11
148.7623130868
 21
83.1369334178
  0
LINE
  5
382
100
AcDbEntity
  8
CURVE
100
AcDbLine
 62
250
  6
CONTINUOUS
 10
148.7674385286
 20
83.1298674685
 11
148.764888005
 21
83.1334153231
  0
LINE
  5
383
100
AcDbEntity
  8
IMPORT_IGES
100
AcDbLine
 62
7
  6
CONTINUOUS
 10
148.7674385286
 20
83.1298674685
 11
148.764888005
 21
83.1334153231
  0
LINE
  5
384
100
AcDbEntity
  8
CURVE
100
AcDbLine
 62
250
  6
CONTINUOUS
 10
148.7699642097
 20
83.1262910428
 11
148.7674385286
 21
83.1298674685
  0
LINE
  5
385
100
AcDbEntity
  8
IMPORT_IGES
100
AcDbLine
 62
7
  6
CONTINUOUS
 10
148.7699642097
 20
83.1262910428
 11
148.7674385286
 21
83.1298674685
  0
LINE
  5
386
100
AcDbEntity
  8
CURVE
100
AcDbLine
 62
250
  6
CONTINUOUS
 10
148.7724646009
 20
83.1226872347
 11
148.7699642097
 21
83.1262910428
  0
LINE
  5
387
100
AcDbEntity
  8
IMPORT_IGES
100
AcDbLine
 62
7
  6
CONTINUOUS
 10
148.7724646009
 20
83.1226872347
 11
148.7699642097
 21
83.1262910428
  0
LINE
  5
388
100
AcDbEntity
  8
CURVE
100
AcDbLine
 62
250
  6
CONTINUOUS
 10
148.7749392545
 20
83.1190572331
 11
148.7724646009
 21
83.1226872347
  0
LINE
  5
389
100
AcDbEntity
  8
IMPORT_IGES
100
AcDbLine
 62
7
  6
CONTINUOUS
 10
148.7749392545
 20
83.1190572331
 11
148.7724646009
 21
83.1226872347
  0
LWPOLYLINE
  5
38A
100
AcDbEntity
  8
CURVE
100
AcDbPolyline
 62
250
  6
CONTINUOUS
 90
21
 70
0
 10
148.8207174943
 20
83.0378534759
 10
148.81875607
 20
83.0420087409
 10
148.8167635202
 20
83.0461556435
 10
148.8147393569
 20
83.0502936893
 10
148.812683092
 20
83.0544223842
 10
148.8105942377
 20
83.0585412339
 10
148.8084723058
 20
83.0626497441
 10
148.8063168086
 20
83.0667474206
 10
148.8041272579
 20
83.0708337691
 10
148.8019031658
 20
83.0749082953
 10
148.7996199337
 20
83.0790136067
 10
148.7973014646
 20
83.0831048939
 10
148.794948302
 20
83.0871807138
 10
148.7925609893
 20
83.0912396227
 10
148.79014007
 20
83.0952801774
 10
148.7876860878
 20
83.0993009343
 10
148.7851995861
 20
83.1033004501
 10
148.7826811083
 20
83.1072772813
 10
148.7801311982
 20
83.1112299845
 10
148.777550399
 20
83.1151571162
 10
148.7749392545
 20
83.1190572331
  0
LWPOLYLINE
  5
38B
100
AcDbEntity
  8
IMPORT_IGES
100
AcDbPolyline
 62
7
  6
CONTINUOUS
 90
21
 70
0
 10
148.8207174943
 20
83.0378534759
 10
148.81875607
 20
83.0420087409
 10
148.8167635202
 20
83.0461556435
 10
148.8147393569
 20
83.0502936893
 10
148.812683092
 20
83.0544223842
 10
148.8105942377
 20
83.0585412339
 10
148.8084723058
 20
83.0626497441
 10
148.8063168086
 20
83.0667474206
 10
148.8041272579
 20
83.0708337691
 10
148.8019031658
 20
83.0749082953
 10
148.7996199337
 20
83.0790136067
 10
148.7973014646
 20
83.0831048939
 10
148.794948302
 20
83.0871807138
 10
148.7925609893
 20
83.0912396227
 10
148.79014007
 20
83.0952801774
 10
148.7876860878
 20
83.0993009343
 10
148.7851995861
 20
83.1033004501
 10
148.7826811083
 20
83.1072772813
 10
148.7801311982
 20
83.1112299845
 10
148.777550399
 20
83.1151571162
 10
148.7749392545
 20
83.1190572331
  0
LINE
  5
38C
100
AcDbEntity
  8
0
100
AcDbLine
 62
7
  6
CONTINUOUS
 10
142.9882673619
 20
87.4511186839
 11
143.481392497
 21
85.3703112808
  0
LINE
  5
38D
100
AcDbEntity
  8
CURVE
100
AcDbLine
 62
250
  6
CONTINUOUS
 10
143.481392497
 20
85.3703112808
 11
142.9882673619
 21
87.4511186839
  0
LINE
  5
38E
100
AcDbEntity
  8
IMPORT_IGES
100
AcDbLine
 62
7
  6
CONTINUOUS
 10
143.481392497
 20
85.3703112808
 11
142.9882673619
 21
87.4511186839
  0
LINE
  5
38F
100
AcDbEntity
  8
0
100
AcDbLine
 62
250
  6
CONTINUOUS
 10
139.222093307
 20
97.3364744442
 11
139.222093307
 21
96.9291048064
  0
LINE
  5
390
100
AcDbEntity
  8
0
100
AcDbLine
 62
7
  6
CONTINUOUS
 10
139.2734643419
 20
97.4030519511
 11
139.2734643419
 21
96.9596501011
  0
LINE
  5
391
100
AcDbEntity
  8
0
100
AcDbLine
 62
250
  6
CONTINUOUS
 10
137.2713530548
 20
95.6384865007
 11
137.277613894
 21
95.6574671528
  0
LINE
  5
392
100
AcDbEntity
  8
0
100
AcDbLine
 62
7
  6
CONTINUOUS
 10
132.3874928736
 20
98.1557626186
 11
132.4935588908
 21
98.3394743491
  0
LINE
  5
393
100
AcDbEntity
  8
0
100
AcDbLine
 62
7
  6
CONTINUOUS
 10
132.7410462642
 20
98.3598999152
 11
132.8471122814
 21
98.5436116457
  0
LINE
  5
394
100
AcDbEntity
  8
0
100
AcDbLine
 62
7
  6
CONTINUOUS
 10
133.0945996548
 20
98.5640372119
 11
133.200665672
 21
98.7477489424
  0
LINE
  5
395
100
AcDbEntity
  8
0
100
AcDbLine
 62
7
  6
CONTINUOUS
 10
133.4481530454
 20
98.7681745086
 11
133.5542190626
 21
98.9518862391
  0
LINE
  5
396
100
AcDbEntity
  8
0
100
AcDbLine
 62
7
  6
CONTINUOUS
 10
135.2939558817
 20
95.43300258
 11
135.3219860155
 21
95.4815521958
  0
LINE
  5
397
100
AcDbEntity
  8
0
100
AcDbLine
 62
7
  6
CONTINUOUS
 10
135.5694733889
 20
95.5019777619
 11
135.6755394061
 21
95.6856894924
  0
LINE
  5
398
100
AcDbEntity
  8
0
100
AcDbLine
 62
7
  6
CONTINUOUS
 10
135.9230267795
 20
95.7061150586
 11
136.0290927967
 21
95.8898267891
  0
LINE
  5
399
100
AcDbEntity
  8
0
100
AcDbLine
 62
7
  6
CONTINUOUS
 10
136.2765801701
 20
95.9102523553
 11
136.3826461873
 21
96.0939640858
  0
LINE
  5
39A
100
AcDbEntity
  8
0
100
AcDbLine
 62
7
  6
CONTINUOUS
 10
136.6301335607
 20
96.1143896519
 11
136.7361995779
 21
96.2981013824
  0
LINE
  5
39B
100
AcDbEntity
  8
0
100
AcDbLine
 62
7
  6
CONTINUOUS
 10
136.9836869513
 20
96.3185269486
 11
137.0897529685
 21
96.5022386791
  0
LINE
  5
39C
100
AcDbEntity
  8
0
100
AcDbLine
 62
250
  6
CONTINUOUS
 10
122.1607316645
 20
101.8033530929
 11
123.4408072883
 21
102.5424636463
  0
LINE
  5
39D
100
AcDbEntity
  8
ASSI
100
AcDbLine
 62
250
  6
CONTINUOUS
 10
122.1607316645
 20
101.8033530929
 11
123.4408072883
 21
102.5424636463
  0
LINE
  5
39E
100
AcDbEntity
  8
0
100
AcDbLine
 62
250
  6
CONTINUOUS
 10
122.5134238168
 20
101.1924723663
 11
123.7934994406
 21
101.9315829197
  0
LINE
  5
39F
100
AcDbEntity
  8
ASSI
100
AcDbLine
 62
250
  6
CONTINUOUS
 10
122.5134238168
 20
101.1924723663
 11
123.7934994406
 21
101.9315829197
  0
LINE
  5
3A0
100
AcDbEntity
  8
SMUSSO
100
AcDbLine
 62
7
  6
CONTINUOUS
 10
103.7448757277
 20
166.9922232799
 11
103.7452510352
 21
166.9915869184
  0
LINE
  5
3A1
100
AcDbEntity
  8
ASSI
100
AcDbLine
 62
7
  6
CONTINUOUS
 10
103.7448757277
 20
166.9922232799
 11
103.7452510352
 21
166.9915869184
  0
LWPOLYLINE
  5
3A2
100
AcDbEntity
  8
CURVE
100
AcDbPolyline
 62
250
  6
CONTINUOUS
 90
19
 70
0
 10
148.8580457042
 20
82.9420775915
 10
148.8560168164
 20
82.9482323766
 10
148.8539444159
 20
82.9543912692
 10
148.8521491557
 20
82.9596253442
 10
148.8503207201
 20
82.9648614643
 10
148.8484581774
 20
82.9700986861
 10
148.8465605961
 20
82.9753360658
 10
148.8446270445
 20
82.9805726599
 10
148.842656591
 20
82.9858075248
 10
148.840648304
 20
82.9910397169
 10
148.8386012519
 20
82.9962682926
 10
148.836514503
 20
83.0014923083
 10
148.8343871256
 20
83.0067108204
 10
148.8322181883
 20
83.0119228853
 10
148.8300067593
 20
83.0171275595
 10
148.827751907
 20
83.0223238992
 10
148.8254526998
 20
83.0275109609
 10
148.8231082062
 20
83.032687801
 10
148.8207174943
 20
83.0378534759
  0
LWPOLYLINE
  5
3A3
100
AcDbEntity
  8
IMPORT_IGES
100
AcDbPolyline
 62
7
  6
CONTINUOUS
 90
19
 70
0
 10
148.8580457042
 20
82.9420775915
 10
148.8560168164
 20
82.9482323766
 10
148.8539444159
 20
82.9543912692
 10
148.8521491557
 20
82.9596253442
 10
148.8503207201
 20
82.9648614643
 10
148.8484581774
 20
82.9700986861
 10
148.8465605961
 20
82.9753360658
 10
148.8446270445
 20
82.9805726599
 10
148.842656591
 20
82.9858075248
 10
148.840648304
 20
82.9910397169
 10
148.8386012519
 20
82.9962682926
 10
148.836514503
 20
83.0014923083
 10
148.8343871256
 20
83.0067108204
 10
148.8322181883
 20
83.0119228853
 10
148.8300067593
 20
83.0171275595
 10
148.827751907
 20
83.0223238992
 10
148.8254526998
 20
83.0275109609
 10
148.8231082062
 20
83.032687801
 10
148.8207174943
 20
83.0378534759
  0
LINE
  5
3A4
100
AcDbEntity
  8
0
100
AcDbLine
 62
7
  6
CONTINUOUS
 10
145.2682109804
 20
85.5114332497
 11
145.6491170622
 21
84.1186942848
  0
LINE
  5
3A5
100
AcDbEntity
  8
CURVE
100
AcDbLine
 62
250
  6
CONTINUOUS
 10
145.6491170622
 20
84.1186942848
 11
145.2682109804
 21
85.5114332497
  0
LINE
  5
3A6
100
AcDbEntity
  8
IMPORT_IGES
100
AcDbLine
 62
7
  6
CONTINUOUS
 10
145.6491170622
 20
84.1186942848
 11
145.2682109804
 21
85.5114332497
  0
LINE
  5
3A7
100
AcDbEntity
  8
CURVE
100
AcDbLine
 62
250
  6
CONTINUOUS
 10
145.3523937898
 20
86.0861017139
 11
145.6736590539
 21
84.9034164594
  0
LINE
  5
3A8
100
AcDbEntity
  8
IMPORT_IGES
100
AcDbLine
 62
7
  6
CONTINUOUS
 10
145.3523937898
 20
86.0861017139
 11
145.6736590539
 21
84.9034164594
  0
LINE
  5
3A9
100
AcDbEntity
  8
0
100
AcDbLine
 62
7
  6
CONTINUOUS
 10
145.6736590539
 20
84.9034164594
 11
145.3523937898
 21
86.0861017139
  0
LWPOLYLINE
  5
3AA
100
AcDbEntity
  8
CURVE
100
AcDbPolyline
 62
250
  6
CONTINUOUS
 90
5
 70
0
 10
148.5693043757
 20
82.9772457548
 10
148.5746603154
 20
82.9571899734
 10
148.5797577578
 20
82.937178512
 10
148.5846416325
 20
82.9172040982
 10
148.5893568689
 20
82.8972594598
  0
LWPOLYLINE
  5
3AB
100
AcDbEntity
  8
IMPORT_IGES
100
AcDbPolyline
 62
7
  6
CONTINUOUS
 90
5
 70
0
 10
148.5693043757
 20
82.9772457548
 10
148.5746603154
 20
82.9571899734
 10
148.5797577578
 20
82.937178512
 10
148.5846416325
 20
82.9172040982
 10
148.5893568689
 20
82.8972594598
  0
LWPOLYLINE
  5
3AC
100
AcDbEntity
  8
CURVE
100
AcDbPolyline
 62
250
  6
CONTINUOUS
 90
13
 70
0
 10
148.8822494239
 20
82.8574968712
 10
148.8804645508
 20
82.8645179034
 10
148.8786434935
 20
82.8715437295
 10
148.8767844471
 20
82.8785744036
 10
148.8748856066
 20
82.8856099802
 10
148.8729451671
 20
82.8926505134
 10
148.8709613236
 20
82.8996960575
 10
148.8689322713
 20
82.9067466669
 10
148.8668562052
 20
82.9138023957
 10
148.8647313204
 20
82.9208632983
 10
148.8625558119
 20
82.927929429
 10
148.8603278748
 20
82.935000842
 10
148.8580457042
 20
82.9420775915
  0
LWPOLYLINE
  5
3AD
100
AcDbEntity
  8
IMPORT_IGES
100
AcDbPolyline
 62
7
  6
CONTINUOUS
 90
13
 70
0
 10
148.8822494239
 20
82.8574968712
 10
148.8804645508
 20
82.8645179034
 10
148.8786434935
 20
82.8715437295
 10
148.8767844471
 20
82.8785744036
 10
148.8748856066
 20
82.8856099802
 10
148.8729451671
 20
82.8926505134
 10
148.8709613236
 20
82.8996960575
 10
148.8689322713
 20
82.9067466669
 10
148.8668562052
 20
82.9138023957
 10
148.8647313204
 20
82.9208632983
 10
148.8625558119
 20
82.927929429
 10
148.8603278748
 20
82.935000842
 10
148.8580457042
 20
82.9420775915
  0
LWPOLYLINE
  5
3AE
100
AcDbEntity
  8
CURVE
100
AcDbPolyline
 62
250
  6
CONTINUOUS
 90
3
 70
0
 10
148.8874049874
 20
82.8364619947
 10
148.8857178372
 20
82.8434689711
 10
148.8822494239
 20
82.8574968712
  0
LWPOLYLINE
  5
3AF
100
AcDbEntity
  8
IMPORT_IGES
100
AcDbPolyline
 62
7
  6
CONTINUOUS
 90
3
 70
0
 10
148.8874049874
 20
82.8364619947
 10
148.8857178372
 20
82.8434689711
 10
148.8822494239
 20
82.8574968712
  0
LINE
  5
3B0
100
AcDbEntity
  8
0
100
AcDbLine
 62
7
  6
CONTINUOUS
 10
148.5693043757
 20
82.9772457548
 11
148.5997901909
 21
82.8494927697
  0
LINE
  5
3B1
100
AcDbEntity
  8
CURVE
100
AcDbLine
 62
250
  6
CONTINUOUS
 10
147.3180584262
 20
84.9511515884
 11
147.795325716
 21
82.8795003064
  0
LINE
  5
3B2
100
AcDbEntity
  8
IMPORT_IGES
100
AcDbLine
 62
7
  6
CONTINUOUS
 10
147.3180584262
 20
84.9511515884
 11
147.795325716
 21
82.8795003064
  0
LINE
  5
3B3
100
AcDbEntity
  8
0
100
AcDbLine
 62
7
  6
CONTINUOUS
 10
147.795325716
 20
82.8795003064
 11
147.3180584262
 21
84.9511515884
  0
LWPOLYLINE
  5
3B4
100
AcDbEntity
  8
CURVE
100
AcDbPolyline
 62
250
  6
CONTINUOUS
 90
3
 70
0
 10
148.8923393837
 20
82.8152949321
 10
148.8899021895
 20
82.825873323
 10
148.8874049874
 20
82.8364619947
  0
LWPOLYLINE
  5
3B5
100
AcDbEntity
  8
IMPORT_IGES
100
AcDbPolyline
 62
7
  6
CONTINUOUS
 90
3
 70
0
 10
148.8923393837
 20
82.8152949321
 10
148.8899021895
 20
82.825873323
 10
148.8874049874
 20
82.8364619947
  0
LINE
  5
3B6
100
AcDbEntity
  8
0
100
AcDbLine
 62
7
  6
CONTINUOUS
 10
148.5997901909
 20
82.8494927697
 11
148.6306476095
 21
82.7154123804
  0
LINE
  5
3B7
100
AcDbEntity
  8
CURVE
100
AcDbLine
 62
250
  6
CONTINUOUS
 10
148.5893568689
 20
82.8972594598
 11
148.5984611454
 21
82.8574304195
  0
LINE
  5
3B8
100
AcDbEntity
  8
IMPORT_IGES
100
AcDbLine
 62
7
  6
CONTINUOUS
 10
148.5893568689
 20
82.8972594598
 11
148.5984611454
 21
82.8574304195
  0
LINE
  5
3B9
100
AcDbEntity
  8
CURVE
100
AcDbLine
 62
250
  6
CONTINUOUS
 10
148.5984611454
 20
82.8574304195
 11
148.6647271903
 21
82.5627014339
  0
LINE
  5
3BA
100
AcDbEntity
  8
IMPORT_IGES
100
AcDbLine
 62
7
  6
CONTINUOUS
 10
148.5984611454
 20
82.8574304195
 11
148.6647271903
 21
82.5627014339
  0
LINE
  5
3BB
100
AcDbEntity
  8
CURVE
100
AcDbLine
 62
250
  6
CONTINUOUS
 10
148.8970587241
 20
82.7941682416
 11
148.8923393837
 21
82.8152949321
  0
LINE
  5
3BC
100
AcDbEntity
  8
IMPORT_IGES
100
AcDbLine
 62
7
  6
CONTINUOUS
 10
148.8970587241
 20
82.7941682416
 11
148.8923393837
 21
82.8152949321
  0
LWPOLYLINE
  5
3BD
100
AcDbEntity
  8
0
100
AcDbPolyline
 62
7
  6
CONTINUOUS
 90
3
 70
0
 10
148.6306476095
 20
82.7154123804
 10
148.6946023594
 20
82.4271297071
 10
148.7112853946
 20
82.3506363275
  0
LINE
  5
3BE
100
AcDbEntity
  8
CURVE
100
AcDbLine
 62
250
  6
CONTINUOUS
 10
148.6647271903
 20
82.5627014339
 11
148.7112853946
 21
82.3506363275
  0
LINE
  5
3BF
100
AcDbEntity
  8
IMPORT_IGES
100
AcDbLine
 62
7
  6
CONTINUOUS
 10
148.6647271903
 20
82.5627014339
 11
148.7112853946
 21
82.3506363275
  0
LINE
  5
3C0
100
AcDbEntity
  8
CURVE
100
AcDbLine
 62
250
  6
CONTINUOUS
 10
148.9016129602
 20
82.7730804212
 11
148.8970587241
 21
82.7941682416
  0
LINE
  5
3C1
100
AcDbEntity
  8
IMPORT_IGES
100
AcDbLine
 62
7
  6
CONTINUOUS
 10
148.9016129602
 20
82.7730804212
 11
148.8970587241
 21
82.7941682416
  0
LINE
  5
3C2
100
AcDbEntity
  8
CURVE
100
AcDbLine
 62
250
  6
CONTINUOUS
 10
143.340986081
 20
87.2474633161
 11
143.637493787
 21
85.8399640126
  0
LINE
  5
3C3
100
AcDbEntity
  8
IMPORT_IGES
100
AcDbLine
 62
7
  6
CONTINUOUS
 10
143.340986081
 20
87.2474633161
 11
143.637493787
 21
85.8399640126
  0
LINE
  5
3C4
100
AcDbEntity
  8
0
100
AcDbLine
 62
7
  6
CONTINUOUS
 10
143.637493787
 20
85.8399640126
 11
143.340986081
 21
87.2474633161
  0
LINE
  5
3C5
100
AcDbEntity
  8
CURVE
100
AcDbLine
 62
250
  6
CONTINUOUS
 10
148.9126040278
 20
82.7205210692
 11
148.9016129602
 21
82.7730804212
  0
LINE
  5
3C6
100
AcDbEntity
  8
IMPORT_IGES
100
AcDbLine
 62
7
  6
CONTINUOUS
 10
148.9126040278
 20
82.7205210692
 11
148.9016129602
 21
82.7730804212
  0
LINE
  5
3C7
100
AcDbEntity
  8
0
100
AcDbLine
 62
7
  6
CONTINUOUS
 10
147.3689980597
 20
83.4842183223
 11
147.4531112359
 21
83.0770906583
  0
LINE
  5
3C8
100
AcDbEntity
  8
CURVE
100
AcDbLine
 62
250
  6
CONTINUOUS
 10
147.4531112359
 20
83.0770906583
 11
147.3689980597
 21
83.4842183223
  0
LINE
  5
3C9
100
AcDbEntity
  8
IMPORT_IGES
100
AcDbLine
 62
7
  6
CONTINUOUS
 10
147.4531112359
 20
83.0770906583
 11
147.3689980597
 21
83.4842183223
  0
LINE
  5
3CA
100
AcDbEntity
  8
CURVE
100
AcDbLine
 62
250
  6
CONTINUOUS
 10
148.9398195688
 20
82.5876199658
 11
148.9126040278
 21
82.7205210692
  0
LINE
  5
3CB
100
AcDbEntity
  8
IMPORT_IGES
100
AcDbLine
 62
7
  6
CONTINUOUS
 10
148.9398195688
 20
82.5876199658
 11
148.9126040278
 21
82.7205210692
  0
LINE
  5
3CC
100
AcDbEntity
  8
0
100
AcDbLine
 62
7
  6
CONTINUOUS
 10
148.9507849912
 20
82.5332252417
 11
148.9126040278
 21
82.7205210692
  0
LINE
  5
3CD
100
AcDbEntity
  8
CURVE
100
AcDbLine
 62
250
  6
CONTINUOUS
 10
149.0236039765
 20
82.1703074925
 11
149.0069641922
 21
82.2520620042
  0
LINE
  5
3CE
100
AcDbEntity
  8
IMPORT_IGES
100
AcDbLine
 62
7
  6
CONTINUOUS
 10
149.0236039765
 20
82.1703074925
 11
149.0069641922
 21
82.2520620042
  0
LINE
  5
3CF
100
AcDbEntity
  8
CURVE
100
AcDbLine
 62
250
  6
CONTINUOUS
 10
149.0069641922
 20
82.2520620042
 11
148.9398195688
 21
82.5876199658
  0
LINE
  5
3D0
100
AcDbEntity
  8
IMPORT_IGES
100
AcDbLine
 62
7
  6
CONTINUOUS
 10
149.0069641922
 20
82.2520620042
 11
148.9398195688
 21
82.5876199658
  0
LWPOLYLINE
  5
3D1
100
AcDbEntity
  8
0
100
AcDbPolyline
 62
7
  6
CONTINUOUS
 90
16
 70
0
 10
148.9126040278
 20
82.7205210692
 10
148.904713533
 20
82.7601574404
 10
148.8963214193
 20
82.79877272
 10
148.8874276868
 20
82.8363669079
 10
148.8781479967
 20
82.8730131895
 10
148.8683666878
 20
82.9086383794
 10
148.8577367758
 20
82.9430229217
 10
148.8461643112
 20
82.9762291028
 10
148.8337432434
 20
83.0081946363
 10
148.8204084371
 20
83.0385131072
 10
148.8059765006
 20
83.0672033716
 10
148.7906308256
 20
83.0942465734
 10
148.7748564511
 20
83.1191797286
 10
148.7588150568
 20
83.1418485093
 10
148.7423449631
 20
83.1624072434
 10
148.7254461699
 20
83.180855931
  0
LINE
  5
3D2
100
AcDbEntity
  8
0
100
AcDbLine
 62
7
  6
CONTINUOUS
 10
149.0236039765
 20
82.1703074925
 11
148.9507849912
 21
82.5332252417
  0
LINE
  5
3D3
100
AcDbEntity
  8
0
100
AcDbLine
 62
7
  6
CONTINUOUS
 10
147.1549064065
 20
84.5518355174
 11
147.3041080855
 21
83.7991390634
  0
LINE
  5
3D4
100
AcDbEntity
  8
CURVE
100
AcDbLine
 62
250
  6
CONTINUOUS
 10
147.3041080855
 20
83.7991390634
 11
147.1549064065
 21
84.5518355174
  0
LINE
  5
3D5
100
AcDbEntity
  8
IMPORT_IGES
100
AcDbLine
 62
7
  6
CONTINUOUS
 10
147.3041080855
 20
83.7991390634
 11
147.1549064065
 21
84.5518355174
  0
LINE
  5
3D6
100
AcDbEntity
  8
CURVE
100
AcDbLine
 62
250
  6
CONTINUOUS
 10
146.3196075341
 20
85.5276446199
 11
146.4650645779
 21
83.6475764155
  0
LINE
  5
3D7
100
AcDbEntity
  8
IMPORT_IGES
100
AcDbLine
 62
7
  6
CONTINUOUS
 10
146.3196075341
 20
85.5276446199
 11
146.4650645779
 21
83.6475764155
  0
LINE
  5
3D8
100
AcDbEntity
  8
0
100
AcDbLine
 62
7
  6
CONTINUOUS
 10
146.4650645779
 20
83.6475764155
 11
146.3196075341
 21
85.5276446199
  0
LINE
  5
3D9
100
AcDbEntity
  8
0
100
AcDbLine
 62
7
  6
CONTINUOUS
 10
146.0807175799
 20
85.0374129429
 11
146.1474269061
 21
83.8309764263
  0
LINE
  5
3DA
100
AcDbEntity
  8
CURVE
100
AcDbLine
 62
250
  6
CONTINUOUS
 10
146.1474269061
 20
83.8309764263
 11
146.0807175799
 21
85.0374129429
  0
LINE
  5
3DB
100
AcDbEntity
  8
IMPORT_IGES
100
AcDbLine
 62
7
  6
CONTINUOUS
 10
146.1474269061
 20
83.8309764263
 11
146.0807175799
 21
85.0374129429
  0
LWPOLYLINE
  5
3DC
100
AcDbEntity
  8
CURVE
100
AcDbPolyline
 62
250
  6
CONTINUOUS
 90
38
 70
0
 10
148.6410764106
 20
83.6673276863
 10
148.6411245089
 20
83.661246603
 10
148.6411051711
 20
83.6551904583
 10
148.6410153022
 20
83.6491644641
 10
148.6408518068
 20
83.6431738326
 10
148.6406115897
 20
83.6372237757
 10
148.6402915555
 20
83.6313195055
 10
148.6398886091
 20
83.625466234
 10
148.6393996551
 20
83.6196691732
 10
148.6388215983
 20
83.6139335351
 10
148.6381513434
 20
83.6082645318
 10
148.6373857951
 20
83.6026673754
 10
148.6365218582
 20
83.5971472777
 10
148.6355564374
 20
83.591709451
 10
148.6344864374
 20
83.5863591071
 10
148.633308763
 20
83.5811014581
 10
148.6320203188
 20
83.5759417161
 10
148.6306180097
 20
83.5708850931
 10
148.6290987403
 20
83.5659368011
 10
148.6274594154
 20
83.5611020521
 10
148.6256969398
 20
83.5563860581
 10
148.623808218
 20
83.5517940313
 10
148.621790155
 20
83.5473311835
 10
148.6197558598
 20
83.5432247569
 10
148.617604486
 20
83.5392420282
 10
148.6153379413
 20
83.5353859529
 10
148.6129581335
 20
83.5316594865
 10
148.6104669704
 20
83.5280655844
 10
148.6078663596
 20
83.5246072022
 10
148.6051582089
 20
83.5212872953
 10
148.6023444261
 20
83.5181088193
 10
148.599426919
 20
83.5150747295
 10
148.5964075952
 20
83.5121879815
 10
148.5932883626
 20
83.5094515309
 10
148.5900711289
 20
83.5068683329
 10
148.5867578018
 20
83.5044413432
 10
148.5833502892
 20
83.5021735173
 10
148.5798504986
 20
83.5000678105
  0
LWPOLYLINE
  5
3DD
100
AcDbEntity
  8
IMPORT_IGES
100
AcDbPolyline
 62
7
  6
CONTINUOUS
 90
38
 70
0
 10
148.6410764106
 20
83.6673276863
 10
148.6411245089
 20
83.661246603
 10
148.6411051711
 20
83.6551904583
 10
148.6410153022
 20
83.6491644641
 10
148.6408518068
 20
83.6431738326
 10
148.6406115897
 20
83.6372237757
 10
148.6402915555
 20
83.6313195055
 10
148.6398886091
 20
83.625466234
 10
148.6393996551
 20
83.6196691732
 10
148.6388215983
 20
83.6139335351
 10
148.6381513434
 20
83.6082645318
 10
148.6373857951
 20
83.6026673754
 10
148.6365218582
 20
83.5971472777
 10
148.6355564374
 20
83.591709451
 10
148.6344864374
 20
83.5863591071
 10
148.633308763
 20
83.5811014581
 10
148.6320203188
 20
83.5759417161
 10
148.6306180097
 20
83.5708850931
 10
148.6290987403
 20
83.5659368011
 10
148.6274594154
 20
83.5611020521
 10
148.6256969398
 20
83.5563860581
 10
148.623808218
 20
83.5517940313
 10
148.621790155
 20
83.5473311835
 10
148.6197558598
 20
83.5432247569
 10
148.617604486
 20
83.5392420282
 10
148.6153379413
 20
83.5353859529
 10
148.6129581335
 20
83.5316594865
 10
148.6104669704
 20
83.5280655844
 10
148.6078663596
 20
83.5246072022
 10
148.6051582089
 20
83.5212872953
 10
148.6023444261
 20
83.5181088193
 10
148.599426919
 20
83.5150747295
 10
148.5964075952
 20
83.5121879815
 10
148.5932883626
 20
83.5094515309
 10
148.5900711289
 20
83.5068683329
 10
148.5867578018
 20
83.5044413432
 10
148.5833502892
 20
83.5021735173
 10
148.5798504986
 20
83.5000678105
  0
LINE
  5
3DE
100
AcDbEntity
  8
0
100
AcDbLine
 62
7
  6
CONTINUOUS
 10
144.3880261164
 20
86.6430232962
 11
144.3880261164
 21
84.8468323917
  0
LINE
  5
3DF
100
AcDbEntity
  8
CURVE
100
AcDbLine
 62
250
  6
CONTINUOUS
 10
144.3880261164
 20
86.6430232962
 11
144.3880261164
 21
84.8468323917
  0
LINE
  5
3E0
100
AcDbEntity
  8
IMPORT_IGES
100
AcDbLine
 62
7
  6
CONTINUOUS
 10
144.3880261164
 20
86.6430232962
 11
144.3880261164
 21
84.8468323917
  0
LINE
  5
3E1
100
AcDbEntity
  8
0
100
AcDbLine
 62
7
  6
CONTINUOUS
 10
144.712721185
 20
84.6593575285
 11
144.712721185
 21
86.455548433
  0
LINE
  5
3E2
100
AcDbEntity
  8
CURVE
100
AcDbLine
 62
250
  6
CONTINUOUS
 10
144.712721185
 20
84.6593575285
 11
144.712721185
 21
86.455548433
  0
LINE
  5
3E3
100
AcDbEntity
  8
IMPORT_IGES
100
AcDbLine
 62
7
  6
CONTINUOUS
 10
144.712721185
 20
84.6593575285
 11
144.712721185
 21
86.455548433
  0
LINE
  5
3E4
100
AcDbEntity
  8
0
100
AcDbLine
 62
7
  6
CONTINUOUS
 10
147.8906719656
 20
84.5995475501
 11
147.8906719656
 21
82.8244482367
  0
LINE
  5
3E5
100
AcDbEntity
  8
CURVE
100
AcDbLine
 62
250
  6
CONTINUOUS
 10
147.8906719656
 20
84.5995475501
 11
147.8906719656
 21
82.8244482367
  0
LINE
  5
3E6
100
AcDbEntity
  8
IMPORT_IGES
100
AcDbLine
 62
7
  6
CONTINUOUS
 10
147.8906719656
 20
84.5995475501
 11
147.8906719656
 21
82.8244482367
  0
LINE
  5
3E7
100
AcDbEntity
  8
0
100
AcDbLine
 62
7
  6
CONTINUOUS
 10
148.2032938261
 20
83.6409872522
 11
148.2032938261
 21
84.1340471988
  0
LINE
  5
3E8
100
AcDbEntity
  8
CURVE
100
AcDbLine
 62
250
  6
CONTINUOUS
 10
148.2032938261
 20
83.6409872522
 11
148.2032938261
 21
84.1340471988
  0
LINE
  5
3E9
100
AcDbEntity
  8
IMPORT_IGES
100
AcDbLine
 62
7
  6
CONTINUOUS
 10
148.2032938261
 20
83.6409872522
 11
148.2032938261
 21
84.1340471988
  0
LINE
  5
3EA
100
AcDbEntity
  8
0
100
AcDbLine
 62
7
  6
CONTINUOUS
 10
148.2140602146
 20
82.6377279147
 11
148.2140602146
 21
83.3406157926
  0
LINE
  5
3EB
100
AcDbEntity
  8
CURVE
100
AcDbLine
 62
250
  6
CONTINUOUS
 10
148.2140602146
 20
82.6377279147
 11
148.2140602146
 21
83.3406157926
  0
LINE
  5
3EC
100
AcDbEntity
  8
IMPORT_IGES
100
AcDbLine
 62
7
  6
CONTINUOUS
 10
148.2140602146
 20
82.6377279147
 11
148.2140602146
 21
83.3406157926
  0
LINE
  5
3ED
100
AcDbEntity
  8
0
100
AcDbLine
 62
7
  6
CONTINUOUS
 10
148.7254461699
 20
83.180855931
 11
148.7254461699
 21
83.1914692187
  0
LINE
  5
3EE
100
AcDbEntity
  8
CURVE
100
AcDbLine
 62
250
  6
CONTINUOUS
 10
148.7254461699
 20
83.180855931
 11
148.7254461699
 21
83.1914692187
  0
LINE
  5
3EF
100
AcDbEntity
  8
IMPORT_IGES
100
AcDbLine
 62
7
  6
CONTINUOUS
 10
148.7254461699
 20
83.180855931
 11
148.7254461699
 21
83.1914692187
  0
LWPOLYLINE
  5
3F0
100
AcDbEntity
  8
0
100
AcDbPolyline
 62
7
  6
CONTINUOUS
 90
12
 70
0
 10
148.6410764106
 20
83.6673276863
 10
148.640847401
 20
83.6419506392
 10
148.6393225203
 20
83.6185170833
 10
148.6365017684
 20
83.5970270186
 10
148.6323677717
 20
83.5774740849
 10
148.6269379038
 20
83.5598646423
 10
148.620264286
 20
83.5442177719
 10
148.6123000147
 20
83.5305716716
 10
148.6030919934
 20
83.5188881435
 10
148.5928330542
 20
83.5090716754
 10
148.5815902749
 20
83.5010891885
 10
148.58022893
 20
83.5002901398
  0
LINE
  5
3F1
100
AcDbEntity
  8
CURVE
100
AcDbLine
 62
250
  6
CONTINUOUS
 10
145.2682109804
 20
85.5114332497
 11
145.198141483
 21
84.3790819322
  0
LINE
  5
3F2
100
AcDbEntity
  8
IMPORT_IGES
100
AcDbLine
 62
7
  6
CONTINUOUS
 10
145.2682109804
 20
85.5114332497
 11
145.198141483
 21
84.3790819322
  0
LINE
  5
3F3
100
AcDbEntity
  8
0
100
AcDbLine
 62
7
  6
CONTINUOUS
 10
145.198141483
 20
84.3790819322
 11
145.2682109804
 21
85.5114332497
  0
LINE
  5
3F4
100
AcDbEntity
  8
0
100
AcDbLine
 62
7
  6
CONTINUOUS
 10
145.0279676238
 20
86.2734213161
 11
144.8875145389
 21
84.5584340367
  0
LINE
  5
3F5
100
AcDbEntity
  8
CURVE
100
AcDbLine
 62
250
  6
CONTINUOUS
 10
144.8875145389
 20
84.5584340367
 11
145.0279676238
 21
86.2734213161
  0
LINE
  5
3F6
100
AcDbEntity
  8
IMPORT_IGES
100
AcDbLine
 62
7
  6
CONTINUOUS
 10
144.8875145389
 20
84.5584340367
 11
145.0279676238
 21
86.2734213161
  0
LINE
  5
3F7
100
AcDbEntity
  8
0
100
AcDbLine
 62
7
  6
CONTINUOUS
 10
137.3372403419
 20
96.5226642452
 11
137.4433063591
 21
96.7063759758
  0
LINE
  5
3F8
100
AcDbEntity
  8
0
100
AcDbLine
 62
250
  6
CONTINUOUS
 10
137.277613894
 20
95.6574671528
 11
137.613558859
 21
95.9842207426
  0
LINE
  5
3F9
100
AcDbEntity
  8
0
100
AcDbLine
 62
7
  6
CONTINUOUS
 10
137.2815387515
 20
95.6239319521
 11
137.7105231322
 21
96.0411794211
  0
LINE
  5
3FA
100
AcDbEntity
  8
0
100
AcDbLine
 62
7
  6
CONTINUOUS
 10
131.432898719
 20
97.7270624591
 11
131.5743200752
 21
97.8087173778
  0
LINE
  5
3FB
100
AcDbEntity
  8
0
100
AcDbLine
 62
7
  6
CONTINUOUS
 10
131.7864521096
 20
97.9311997557
 11
131.9278734658
 21
98.0128546744
  0
LINE
  5
3FC
100
AcDbEntity
  8
0
100
AcDbLine
 62
7
  6
CONTINUOUS
 10
132.1400055002
 20
98.1353370524
 11
132.2814268564
 21
98.2169919711
  0
LINE
  5
3FD
100
AcDbEntity
  8
0
100
AcDbLine
 62
7
  6
CONTINUOUS
 10
132.4935588908
 20
98.3394743491
 11
132.634980247
 21
98.4211292677
  0
LINE
  5
3FE
100
AcDbEntity
  8
0
100
AcDbLine
 62
7
  6
CONTINUOUS
 10
132.8471122814
 20
98.5436116457
 11
132.9885336376
 21
98.6252665644
  0
LINE
  5
3FF
100
AcDbEntity
  8
0
100
AcDbLine
 62
7
  6
CONTINUOUS
 10
133.200665672
 20
98.7477489424
 11
133.3420870282
 21
98.8294038611
  0
LINE
  5
400
100
AcDbEntity
  8
0
100
AcDbLine
 62
7
  6
CONTINUOUS
 10
133.5542190626
 20
98.9518862391
 11
133.6956404188
 21
99.0335411577
  0
LINE
  5
401
100
AcDbEntity
  8
0
100
AcDbLine
 62
7
  6
CONTINUOUS
 10
131.1771849959
 20
97.8099744942
 11
133.7292354214
 21
99.1367396002
  0
LINE
  5
402
100
AcDbEntity
  8
SMUSSO
100
AcDbLine
 62
7
  6
CONTINUOUS
 10
188.2993233521
 20
117.0053725543
 11
189.716282483
 21
117.3529908305
  0
LINE
  5
403
100
AcDbEntity
  8
ASSI
100
AcDbLine
 62
7
  6
CONTINUOUS
 10
188.2993233521
 20
117.0053725543
 11
189.716282483
 21
117.3529908305
  0
LWPOLYLINE
  5
404
100
AcDbEntity
  8
0
100
AcDbPolyline
 62
7
  6
CONTINUOUS
 90
11
 70
0
 10
123.6547241259
 20
118.5881493047
 10
123.6734561237
 20
118.5783265913
 10
123.6917679867
 20
118.5705369771
 10
123.709659715
 20
118.5647804618
 10
123.7272590763
 20
118.5610448952
 10
123.744438303
 20
118.5593424277
 10
123.7608140917
 20
118.5597095105
 10
123.7763693902
 20
118.5621925152
 10
123.7911212509
 20
118.5667450701
 10
123.8047375272
 20
118.5732645123
 10
123.8073376728
 20
118.5748209278
  0
LINE
  5
405
100
AcDbEntity
  8
CURVE
100
AcDbLine
 62
250
  6
CONTINUOUS
 10
147.1549064065
 20
84.5518355174
 11
146.9932359438
 21
83.9786327419
  0
LINE
  5
406
100
AcDbEntity
  8
IMPORT_IGES
100
AcDbLine
 62
7
  6
CONTINUOUS
 10
147.1549064065
 20
84.5518355174
 11
146.9932359438
 21
83.9786327419
  0
LINE
  5
407
100
AcDbEntity
  8
0
100
AcDbLine
 62
7
  6
CONTINUOUS
 10
146.9932359438
 20
83.9786327419
 11
147.1549064065
 21
84.5518355174
  0
LINE
  5
408
100
AcDbEntity
  8
0
100
AcDbLine
 62
7
  6
CONTINUOUS
 10
143.9430582508
 20
86.899834391
 11
143.637493787
 21
85.8399640126
  0
LINE
  5
409
100
AcDbEntity
  8
CURVE
100
AcDbLine
 62
250
  6
CONTINUOUS
 10
143.637493787
 20
85.8399640126
 11
143.9430582508
 21
86.899834391
  0
LINE
  5
40A
100
AcDbEntity
  8
IMPORT_IGES
100
AcDbLine
 62
7
  6
CONTINUOUS
 10
143.637493787
 20
85.8399640126
 11
143.9430582508
 21
86.899834391
  0
LINE
  5
40B
100
AcDbEntity
  8
CURVE
100
AcDbLine
 62
250
  6
CONTINUOUS
 10
146.9268177435
 20
83.7395276951
 11
146.8372220657
 21
83.4326973463
  0
LINE
  5
40C
100
AcDbEntity
  8
IMPORT_IGES
100
AcDbLine
 62
7
  6
CONTINUOUS
 10
146.9268177435
 20
83.7395276951
 11
146.8372220657
 21
83.4326973463
  0
LINE
  5
40D
100
AcDbEntity
  8
0
100
AcDbLine
 62
7
  6
CONTINUOUS
 10
146.8372220657
 20
83.4326973463
 11
146.9268177435
 21
83.7395276951
  0
LINE
  5
40E
100
AcDbEntity
  8
0
100
AcDbLine
 62
7
  6
CONTINUOUS
 10
147.0039557494
 20
85.1325105373
 11
146.5160501396
 21
83.6181379911
  0
LINE
  5
40F
100
AcDbEntity
  8
CURVE
100
AcDbLine
 62
250
  6
CONTINUOUS
 10
146.5160501396
 20
83.6181379911
 11
147.0039557494
 21
85.1325105373
  0
LINE
  5
410
100
AcDbEntity
  8
IMPORT_IGES
100
AcDbLine
 62
7
  6
CONTINUOUS
 10
146.5160501396
 20
83.6181379911
 11
147.0039557494
 21
85.1325105373
  0
LINE
  5
411
100
AcDbEntity
  8
CURVE
100
AcDbLine
 62
250
  6
CONTINUOUS
 10
144.2675318266
 20
86.7124874149
 11
143.7675300447
 21
85.2050990469
  0
LINE
  5
412
100
AcDbEntity
  8
IMPORT_IGES
100
AcDbLine
 62
7
  6
CONTINUOUS
 10
144.2675318266
 20
86.7124874149
 11
143.7675300447
 21
85.2050990469
  0
LINE
  5
413
100
AcDbEntity
  8
0
100
AcDbLine
 62
7
  6
CONTINUOUS
 10
143.7675300447
 20
85.2050990469
 11
144.2675318266
 21
86.7124874149
  0
LINE
  5
414
100
AcDbEntity
  8
0
100
AcDbLine
 62
7
  6
CONTINUOUS
 10
145.9983541225
 20
85.7131323136
 11
145.6736590539
 21
84.9034164594
  0
LINE
  5
415
100
AcDbEntity
  8
CURVE
100
AcDbLine
 62
250
  6
CONTINUOUS
 10
145.6736590539
 20
84.9034164594
 11
145.9983541225
 21
85.7131323136
  0
LINE
  5
416
100
AcDbEntity
  8
IMPORT_IGES
100
AcDbLine
 62
7
  6
CONTINUOUS
 10
145.6736590539
 20
84.9034164594
 11
145.9983541225
 21
85.7131323136
  0
LWPOLYLINE
  5
417
100
AcDbEntity
  8
0
100
AcDbPolyline
 62
250
  6
CONTINUOUS
 90
5
 70
0
 10
137.2284319132
 20
95.5829069006
 10
137.2416580416
 20
95.5934682699
 10
137.2532910717
 20
95.60633644
 10
137.2632199368
 20
95.6213893408
 10
137.2713530548
 20
95.6384865007
  0
LINE
  5
418
100
AcDbEntity
  8
0
100
AcDbLine
 62
7
  6
CONTINUOUS
 10
137.9755726797
 20
96.6849576864
 11
135.6776961553
 21
95.2114357554
  0
LINE
  5
419
100
AcDbEntity
  8
0
100
AcDbLine
 62
250
  6
CONTINUOUS
 10
137.2229252311
 20
95.5794684228
 11
137.2284319132
 21
95.5829069006
  0
LINE
  5
41A
100
AcDbEntity
  8
0
100
AcDbLine
 62
7
  6
CONTINUOUS
 10
135.9905188661
 20
95.0308158428
 11
139.222093307
 21
96.9291048064
  0
LINE
  5
41B
100
AcDbEntity
  8
0
100
AcDbLine
 62
7
  6
CONTINUOUS
 10
137.2229244058
 20
95.5794679439
 11
136.1342958123
 21
94.9478008361
  0
LINE
  5
41C
100
AcDbEntity
  8
0
100
AcDbLine
 62
250
  6
CONTINUOUS
 10
137.277613894
 20
95.6574671528
 11
136.0939398144
 21
94.9711018834
  0
LINE
  5
41D
100
AcDbEntity
  8
0
100
AcDbLine
 62
7
  6
CONTINUOUS
 10
135.3219860155
 20
95.4815521958
 11
135.4634073718
 21
95.5632071144
  0
LINE
  5
41E
100
AcDbEntity
  8
0
100
AcDbLine
 62
7
  6
CONTINUOUS
 10
135.6755394061
 20
95.6856894924
 11
135.8169607623
 21
95.7673444111
  0
LINE
  5
41F
100
AcDbEntity
  8
0
100
AcDbLine
 62
7
  6
CONTINUOUS
 10
136.0290927967
 20
95.8898267891
 11
136.1705141529
 21
95.9714817078
  0
LINE
  5
420
100
AcDbEntity
  8
0
100
AcDbLine
 62
7
  6
CONTINUOUS
 10
136.3826461873
 20
96.0939640858
 11
136.5240675435
 21
96.1756190044
  0
LINE
  5
421
100
AcDbEntity
  8
0
100
AcDbLine
 62
7
  6
CONTINUOUS
 10
136.7361995779
 20
96.2981013824
 11
136.8776209341
 21
96.3797563011
  0
LINE
  5
422
100
AcDbEntity
  8
0
100
AcDbLine
 62
7
  6
CONTINUOUS
 10
137.0897529685
 20
96.5022386791
 11
137.2311743247
 21
96.5838935978
  0
LINE
  5
423
100
AcDbEntity
  8
0
100
AcDbLine
 62
7
  6
CONTINUOUS
 10
137.4433063591
 20
96.7063759758
 11
137.5847277153
 21
96.7880308944
  0
LINE
  5
424
100
AcDbEntity
  8
0
100
AcDbLine
 62
7
  6
CONTINUOUS
 10
137.6907937325
 20
96.7268015419
 11
135.3719842239
 21
95.3879499932
  0
LINE
  5
425
100
AcDbEntity
  8
0
100
AcDbLine
 62
7
  6
CONTINUOUS
 10
139.222093307
 20
97.3364744442
 11
138.0422450357
 21
96.7236595978
  0
LINE
  5
426
100
AcDbEntity
  8
0
100
AcDbLine
 62
7
  6
CONTINUOUS
 10
133.8032825744
 20
99.1711833963
 11
135.1136368301
 21
99.708645723
  0
LINE
  5
427
100
AcDbEntity
  8
0
100
AcDbLine
 62
250
  6
CONTINUOUS
 10
126.36565076
 20
125.5362608235
 11
126.7848328656
 21
125.2942303293
  0
LINE
  5
428
100
AcDbEntity
  8
0
100
AcDbLine
 62
7
  6
CONTINUOUS
 10
126.5119557936
 20
125.5490228703
 11
126.9311378992
 21
125.3069923761
  0
LWPOLYLINE
  5
429
100
AcDbEntity
  8
0
100
AcDbPolyline
 62
250
  6
CONTINUOUS
 90
19
 70
0
 10
126.7848328656
 20
125.2942303293
 10
126.8036234358
 20
125.2827989797
 10
126.8222428885
 20
125.2695751885
 10
126.8405495732
 20
125.2546595577
 10
126.8584042232
 20
125.2381655563
 10
126.8756710016
 20
125.2202186686
 10
126.8922185372
 20
125.2009554425
 10
126.9079209291
 20
125.1805224488
 10
126.9226587374
 20
125.1590751186
 10
126.9363198725
 20
125.1367765686
 10
126.9488004197
 20
125.1137963976
 10
126.9600054029
 20
125.0903094641
 10
126.9698495477
 20
125.066494512
 10
126.9782579581
 20
125.0425327501
 10
126.9851666851
 20
125.0186064406
 10
126.990523181
 20
124.9948975762
 10
126.9942866968
 20
124.9715865156
 10
126.9964285985
 20
124.9488506109
 10
126.9969325912
 20
124.9268628287
  0
LINE
  5
42A
100
AcDbEntity
  8
SMUSSO
100
AcDbLine
 62
7
  6
CONTINUOUS
 10
189.0298841354
 20
45.4013182947
 11
189.0302465656
 21
45.400676857
  0
LINE
  5
42B
100
AcDbEntity
  8
ASSI
100
AcDbLine
 62
7
  6
CONTINUOUS
 10
189.0298841354
 20
45.4013182947
 11
189.0302465656
 21
45.400676857
  0
LINE
  5
42C
100
AcDbEntity
  8
0
100
AcDbLine
 62
250
  6
CONTINUOUS
 10
155.0684977601
 20
88.1350242497
 11
155.0684977601
 21
87.7060015556
  0
LINE
  5
42D
100
AcDbEntity
  8
0
100
AcDbLine
 62
7
  6
CONTINUOUS
 10
155.1455543124
 20
88.24952892
 11
155.1455543124
 21
87.8514831352
  0
LINE
  5
42E
100
AcDbEntity
  8
CURVE
100
AcDbLine
 62
250
  6
CONTINUOUS
 10
146.0807175799
 20
85.0374129429
 11
145.6946549389
 21
84.0924012855
  0
LINE
  5
42F
100
AcDbEntity
  8
IMPORT_IGES
100
AcDbLine
 62
7
  6
CONTINUOUS
 10
146.0807175799
 20
85.0374129429
 11
145.6946549389
 21
84.0924012855
  0
LINE
  5
430
100
AcDbEntity
  8
0
100
AcDbLine
 62
7
  6
CONTINUOUS
 10
145.6946549389
 20
84.0924012855
 11
146.0807175799
 21
85.0374129429
  0
LINE
  5
431
100
AcDbEntity
  8
CURVE
100
AcDbLine
 62
7
  6
CONTINUOUS
 10
143.0045773809
 20
87.3822963793
 11
143.0422378196
 21
87.419956818
  0
LINE
  5
432
100
AcDbEntity
  8
CURVE
100
AcDbLine
 62
7
  6
CONTINUOUS
 10
143.0850469038
 20
87.0427444742
 11
143.3085144554
 21
87.2662120258
  0
LINE
  5
433
100
AcDbEntity
  8
CURVE
100
AcDbLine
 62
7
  6
CONTINUOUS
 10
143.1655164267
 20
86.7031925691
 11
143.4051597407
 21
86.9428358831
  0
LINE
  5
434
100
AcDbEntity
  8
SMUSSO
100
AcDbLine
 62
7
  6
CONTINUOUS
 10
189.0302465656
 20
118.5664863805
 11
193.0921795504
 21
120.9117802827
  0
LINE
  5
435
100
AcDbEntity
  8
ASSI
100
AcDbLine
 62
7
  6
CONTINUOUS
 10
189.0302465656
 20
118.5664863805
 11
193.0921795504
 21
120.9117802827
  0
LWPOLYLINE
  5
436
100
AcDbEntity
  8
0
100
AcDbPolyline
 62
250
  6
CONTINUOUS
 90
10
 70
0
 10
126.9311342753
 20
125.3069944684
 10
126.9186465343
 20
125.3130925098
 10
126.9041528385
 20
125.3177652816
 10
126.8887587407
 20
125.3204056272
 10
126.8725826953
 20
125.3210024996
 10
126.8557489456
 20
125.3195601114
 10
126.8384203041
 20
125.3161067827
 10
126.8207416896
 20
125.3106928204
 10
126.802834999
 20
125.3033763957
 10
126.7848328656
 20
125.2942303293
  0
LWPOLYLINE
  5
437
100
AcDbEntity
  8
0
100
AcDbPolyline
 62
250
  6
CONTINUOUS
 90
10
 70
0
 10
126.5119460561
 20
125.5490284918
 10
126.4996551626
 20
125.5550454055
 10
126.4852220723
 20
125.5597339853
 10
126.46986974
 20
125.5624057282
 10
126.4536969356
 20
125.5630402848
 10
126.4368385895
 20
125.5616293569
 10
126.4194666254
 20
125.558195028
 10
126.4017296308
 20
125.5527840946
 10
126.3837464093
 20
125.5454497543
 10
126.36565076
 20
125.5362608235
  0
LWPOLYLINE
  5
438
100
AcDbEntity
  8
0
100
AcDbPolyline
 62
250
  6
CONTINUOUS
 90
10
 70
0
 10
169.0974190474
 20
77.285110453
 10
169.0996896248
 20
77.279769472
 10
169.1015526658
 20
77.2747164009
 10
169.1029741311
 20
77.2699896454
 10
169.1039156335
 20
77.2656474454
 10
169.1043525341
 20
77.2617065304
 10
169.1042492582
 20
77.258165794
 10
169.1035488366
 20
77.2550860821
 10
169.1021935477
 20
77.252539789
 10
169.101343543
 20
77.2515749003
  0
LWPOLYLINE
  5
439
100
AcDbEntity
  8
CURVE
100
AcDbPolyline
 62
250
  6
CONTINUOUS
 90
54
 70
0
 10
148.9042681089
 20
83.3054887473
 10
148.9090647328
 20
83.315153458
 10
148.9135660919
 20
83.3251355077
 10
148.9177694646
 20
83.3354270842
 10
148.9216721293
 20
83.3460203756
 10
148.9261320027
 20
83.3596964524
 10
148.9301195613
 20
83.3738100002
 10
148.9336381993
 20
83.388337717
 10
148.9366913111
 20
83.4032563006
 10
148.9392822909
 20
83.4185424489
 10
148.9414145331
 20
83.4341728597
 10
148.9428356606
 20
83.4473536888
 10
148.9439521338
 20
83.4607430805
 10
148.9447712214
 20
83.4743297304
 10
148.9453001927
 20
83.4881023339
 10
148.945552473
 20
83.5030929589
 10
148.9454810759
 20
83.5182741122
 10
148.945088761
 20
83.5336347576
 10
148.9443782881
 20
83.549163859
 10
148.9432588335
 20
83.5660442373
 10
148.9417584192
 20
83.5831015294
 10
148.9398609937
 20
83.6003305181
 10
148.9376917679
 20
83.6167514017
 10
148.935148753
 20
83.6333120704
 10
148.9322264598
 20
83.6500038711
 10
148.9291828382
 20
83.6655451537
 10
148.9258091491
 20
83.6811781076
 10
148.922104253
 20
83.6968897001
 10
148.9180670108
 20
83.7126668983
 10
148.913696283
 20
83.7284966695
 10
148.9089909305
 20
83.7443659808
 10
148.9034612962
 20
83.7617522673
 10
148.8975358082
 20
83.7791515793
 10
148.8912202658
 20
83.7965452333
 10
148.8845204685
 20
83.8139145456
 10
148.8774422155
 20
83.8312408328
 10
148.8706247486
 20
83.8470739514
 10
148.863500427
 20
83.8628417619
 10
148.8560757002
 20
83.8785308371
 10
148.8483570179
 20
83.8941277494
 10
148.8403508298
 20
83.9096190714
 10
148.8314185203
 20
83.9261624582
 10
148.8221706183
 20
83.9425529676
 10
148.8126172369
 20
83.9587756478
 10
148.8027684897
 20
83.9748155465
 10
148.7926344897
 20
83.9906577118
 10
148.7822253505
 20
84.0062871916
 10
148.7715511852
 20
84.0216890339
 10
148.7606221072
 20
84.0368482867
 10
148.7513838245
 20
84.0492040912
 10
148.7419769837
 20
84.0613462572
 10
148.732400938
 20
84.0732377973
 10
148.7226550405
 20
84.0848417243
 10
148.7127386444
 20
84.096121051
  0
LWPOLYLINE
  5
43A
100
AcDbEntity
  8
IMPORT_IGES
100
AcDbPolyline
 62
7
  6
CONTINUOUS
 90
54
 70
0
 10
148.9042681089
 20
83.3054887473
 10
148.9090647328
 20
83.315153458
 10
148.9135660919
 20
83.3251355077
 10
148.9177694646
 20
83.3354270842
 10
148.9216721293
 20
83.3460203756
 10
148.9261320027
 20
83.3596964524
 10
148.9301195613
 20
83.3738100002
 10
148.9336381993
 20
83.388337717
 10
148.9366913111
 20
83.4032563006
 10
148.9392822909
 20
83.4185424489
 10
148.9414145331
 20
83.4341728597
 10
148.9428356606
 20
83.4473536888
 10
148.9439521338
 20
83.4607430805
 10
148.9447712214
 20
83.4743297304
 10
148.9453001927
 20
83.4881023339
 10
148.945552473
 20
83.5030929589
 10
148.9454810759
 20
83.5182741122
 10
148.945088761
 20
83.5336347576
 10
148.9443782881
 20
83.549163859
 10
148.9432588335
 20
83.5660442373
 10
148.9417584192
 20
83.5831015294
 10
148.9398609937
 20
83.6003305181
 10
148.9376917679
 20
83.6167514017
 10
148.935148753
 20
83.6333120704
 10
148.9322264598
 20
83.6500038711
 10
148.9291828382
 20
83.6655451537
 10
148.9258091491
 20
83.6811781076
 10
148.922104253
 20
83.6968897001
 10
148.9180670108
 20
83.7126668983
 10
148.913696283
 20
83.7284966695
 10
148.9089909305
 20
83.7443659808
 10
148.9034612962
 20
83.7617522673
 10
148.8975358082
 20
83.7791515793
 10
148.8912202658
 20
83.7965452333
 10
148.8845204685
 20
83.8139145456
 10
148.8774422155
 20
83.8312408328
 10
148.8706247486
 20
83.8470739514
 10
148.863500427
 20
83.8628417619
 10
148.8560757002
 20
83.8785308371
 10
148.8483570179
 20
83.8941277494
 10
148.8403508298
 20
83.9096190714
 10
148.8314185203
 20
83.9261624582
 10
148.8221706183
 20
83.9425529676
 10
148.8126172369
 20
83.9587756478
 10
148.8027684897
 20
83.9748155465
 10
148.7926344897
 20
83.9906577118
 10
148.7822253505
 20
84.0062871916
 10
148.7715511852
 20
84.0216890339
 10
148.7606221072
 20
84.0368482867
 10
148.7513838245
 20
84.0492040912
 10
148.7419769837
 20
84.0613462572
 10
148.732400938
 20
84.0732377973
 10
148.7226550405
 20
84.0848417243
 10
148.7127386444
 20
84.096121051
  0
LINE
  5
43B
100
AcDbEntity
  8
CURVE
100
AcDbLine
 62
7
  6
CONTINUOUS
 10
143.2459859497
 20
86.363640664
 11
143.478246054
 21
86.5959007683
  0
LINE
  5
43C
100
AcDbEntity
  8
CURVE
100
AcDbLine
 62
7
  6
CONTINUOUS
 10
143.3264554726
 20
86.024088759
 11
143.5513323672
 21
86.2489656535
  0
LINE
  5
43D
100
AcDbEntity
  8
CURVE
100
AcDbLine
 62
7
  6
CONTINUOUS
 10
143.8380811511
 20
86.5357144374
 11
144.1073443626
 21
86.804977649
  0
LINE
  5
43E
100
AcDbEntity
  8
CURVE
100
AcDbLine
 62
7
  6
CONTINUOUS
 10
143.4069249956
 20
85.6845368539
 11
143.6244186805
 21
85.9020305388
  0
LINE
  5
43F
100
AcDbEntity
  8
CURVE
100
AcDbLine
 62
7
  6
CONTINUOUS
 10
143.667933178
 20
85.9455450363
 11
144.1844731832
 21
86.4620850415
  0
LINE
  5
440
100
AcDbEntity
  8
CURVE
100
AcDbLine
 62
7
  6
CONTINUOUS
 10
143.5012534089
 20
85.3588438392
 11
143.9760016139
 21
85.8335920442
  0
LINE
  5
441
100
AcDbEntity
  8
CURVE
100
AcDbLine
 62
7
  6
CONTINUOUS
 10
144.3880261164
 20
86.2456165467
 11
144.6399659586
 21
86.4975563889
  0
LINE
  5
442
100
AcDbEntity
  8
CURVE
100
AcDbLine
 62
7
  6
CONTINUOUS
 10
144.3880261164
 20
85.8255951187
 11
144.712721185
 21
86.1502901873
  0
LINE
  5
443
100
AcDbEntity
  8
CURVE
100
AcDbLine
 62
7
  6
CONTINUOUS
 10
144.3880261164
 20
85.4055736907
 11
144.712721185
 21
85.7302687592
  0
LINE
  5
444
100
AcDbEntity
  8
CURVE
100
AcDbLine
 62
7
  6
CONTINUOUS
 10
145.0076377272
 20
86.0251853015
 11
145.1724509057
 21
86.1899984799
  0
LINE
  5
445
100
AcDbEntity
  8
CURVE
100
AcDbLine
 62
7
  6
CONTINUOUS
 10
144.3880261164
 20
84.9855522627
 11
144.712721185
 21
85.3102473312
  0
LINE
  5
446
100
AcDbEntity
  8
CURVE
100
AcDbLine
 62
7
  6
CONTINUOUS
 10
144.9701705795
 20
85.5676967257
 11
145.3814841583
 21
85.9790103045
  0
LINE
  5
447
100
AcDbEntity
  8
CURVE
100
AcDbLine
 62
7
  6
CONTINUOUS
 10
144.566359952
 20
84.7438646701
 11
144.712721185
 21
84.8902259032
  0
LINE
  5
448
100
AcDbEntity
  8
CURVE
100
AcDbLine
 62
7
  6
CONTINUOUS
 10
144.9327034317
 20
85.1102081499
 11
145.2638761648
 21
85.441380883
  0
LINE
  5
449
100
AcDbEntity
  8
CURVE
100
AcDbLine
 62
7
  6
CONTINUOUS
 10
145.2823244102
 20
85.4598291284
 11
145.4712067212
 21
85.6487114394
  0
LINE
  5
44A
100
AcDbEntity
  8
CURVE
100
AcDbLine
 62
7
  6
CONTINUOUS
 10
144.8952362839
 20
84.6527195741
 11
145.2361710024
 21
84.9936542925
  0
LINE
  5
44B
100
AcDbEntity
  8
CURVE
100
AcDbLine
 62
7
  6
CONTINUOUS
 10
145.3725277554
 20
85.1300110456
 11
145.5609292841
 21
85.3184125743
  0
LINE
  5
44C
100
AcDbEntity
  8
CURVE
100
AcDbLine
 62
7
  6
CONTINUOUS
 10
145.0989132235
 20
84.4363750856
 11
145.2084658399
 21
84.5459277021
  0
LINE
  5
44D
100
AcDbEntity
  8
CURVE
100
AcDbLine
 62
7
  6
CONTINUOUS
 10
145.4627311007
 20
84.8001929628
 11
145.650651847
 21
84.9881137092
  0
LINE
  5
44E
100
AcDbEntity
  8
CURVE
100
AcDbLine
 62
7
  6
CONTINUOUS
 10
145.7457613369
 20
85.083223199
 11
146.2375574488
 21
85.5750193109
  0
LINE
  5
44F
100
AcDbEntity
  8
CURVE
100
AcDbLine
 62
7
  6
CONTINUOUS
 10
145.5529344459
 20
84.47037488
 11
146.0536044424
 21
84.9710448765
  0
LINE
  5
450
100
AcDbEntity
  8
CURVE
100
AcDbLine
 62
7
  6
CONTINUOUS
 10
146.0827744298
 20
85.0002148639
 11
146.3404758644
 21
85.2579162985
  0
LINE
  5
451
100
AcDbEntity
  8
CURVE
100
AcDbLine
 62
7
  6
CONTINUOUS
 10
145.6431377911
 20
84.1405567972
 11
145.7634982306
 21
84.2609172366
  0
LINE
  5
452
100
AcDbEntity
  8
CURVE
100
AcDbLine
 62
7
  6
CONTINUOUS
 10
146.1047823926
 20
84.6022013987
 11
146.3706384483
 21
84.8680574544
  0
LINE
  5
453
100
AcDbEntity
  8
CURVE
100
AcDbLine
 62
7
  6
CONTINUOUS
 10
146.1267903555
 20
84.2041879336
 11
146.4008010322
 21
84.4781986103
  0
LINE
  5
454
100
AcDbEntity
  8
CURVE
100
AcDbLine
 62
7
  6
CONTINUOUS
 10
146.979639438
 20
85.0570370161
 11
147.0363873561
 21
85.1137849341
  0
LINE
  5
455
100
AcDbEntity
  8
CURVE
100
AcDbLine
 62
7
  6
CONTINUOUS
 10
146.1640197665
 20
83.8213959166
 11
146.4309636161
 21
84.0883397661
  0
LINE
  5
456
100
AcDbEntity
  8
CURVE
100
AcDbLine
 62
7
  6
CONTINUOUS
 10
146.7799926655
 20
84.4373688155
 11
147.3026639918
 21
84.9600401419
  0
LINE
  5
457
100
AcDbEntity
  8
CURVE
100
AcDbLine
 62
7
  6
CONTINUOUS
 10
146.4302964023
 20
83.6676511243
 11
146.4611262
 21
83.698480922
  0
LINE
  5
458
100
AcDbEntity
  8
CURVE
100
AcDbLine
 62
7
  6
CONTINUOUS
 10
146.5803458929
 20
83.817700615
 11
147.0922176103
 21
84.3295723323
  0
LINE
  5
459
100
AcDbEntity
  8
CURVE
100
AcDbLine
 62
7
  6
CONTINUOUS
 10
147.1813049164
 20
84.4186596384
 11
147.3921576991
 21
84.6295124211
  0
LINE
  5
45A
100
AcDbEntity
  8
CURVE
100
AcDbLine
 62
7
  6
CONTINUOUS
 10
146.6965730381
 20
83.5139063321
 11
147.0997814233
 21
83.9171147173
  0
LINE
  5
45B
100
AcDbEntity
  8
CURVE
100
AcDbLine
 62
7
  6
CONTINUOUS
 10
147.2507893736
 20
84.0681226676
 11
147.4708037927
 21
84.2881370867
  0
LINE
  5
45C
100
AcDbEntity
  8
CURVE
100
AcDbLine
 62
7
  6
CONTINUOUS
 10
147.1901633668
 20
83.5874752327
 11
147.5494498863
 21
83.9467617523
  0
LINE
  5
45D
100
AcDbEntity
  8
CURVE
100
AcDbLine
 62
7
  6
CONTINUOUS
 10
147.8906719656
 20
84.2879838315
 11
148.1068846999
 21
84.5041965659
  0
LINE
  5
45E
100
AcDbEntity
  8
SMUSSO
100
AcDbLine
 62
7
  6
CONTINUOUS
 10
189.7377838349
 20
117.3409958831
 11
193.7997168196
 21
119.6862897853
  0
LINE
  5
45F
100
AcDbEntity
  8
ASSI
100
AcDbLine
 62
7
  6
CONTINUOUS
 10
189.7377838349
 20
117.3409958831
 11
193.7997168196
 21
119.6862897853
  0
LWPOLYLINE
  5
460
100
AcDbEntity
  8
0
100
AcDbPolyline
 62
250
  6
CONTINUOUS
 90
16
 70
0
 10
121.8880985025
 20
138.0602791646
 10
121.9029340929
 20
138.0525302551
 10
121.9190361392
 20
138.045675873
 10
121.936243525
 20
138.039784587
 10
121.9543840758
 20
138.0349153295
 10
121.9732762887
 20
138.031116805
 10
121.9927311494
 20
138.0284270045
 10
122.0125540086
 20
138.0268728284
 10
122.0325465421
 20
138.0264698142
 10
122.0525087436
 20
138.0272219838
 10
122.0722408975
 20
138.0291218028
 10
122.0915455952
 20
138.0321502556
 10
122.1102297228
 20
138.0362770396
 10
122.1281063632
 20
138.0414608647
 10
122.1449966682
 20
138.0476498632
 10
122.1607316645
 20
138.0547821126
  0
LWPOLYLINE
  5
461
100
AcDbEntity
  8
ASSI
100
AcDbPolyline
 62
250
  6
CONTINUOUS
 90
16
 70
0
 10
121.8880985025
 20
138.0602791646
 10
121.9029340929
 20
138.0525302551
 10
121.9190361392
 20
138.045675873
 10
121.936243525
 20
138.039784587
 10
121.9543840758
 20
138.0349153295
 10
121.9732762887
 20
138.031116805
 10
121.9927311494
 20
138.0284270045
 10
122.0125540086
 20
138.0268728284
 10
122.0325465421
 20
138.0264698142
 10
122.0525087436
 20
138.0272219838
 10
122.0722408975
 20
138.0291218028
 10
122.0915455952
 20
138.0321502556
 10
122.1102297228
 20
138.0362770396
 10
122.1281063632
 20
138.0414608647
 10
122.1449966682
 20
138.0476498632
 10
122.1607316645
 20
138.0547821126
  0
LINE
  5
462
100
AcDbEntity
  8
0
100
AcDbLine
 62
7
  6
CONTINUOUS
 10
122.4232840399
 20
138.2537727298
 11
169.7288565098
 21
110.9401280638
  0
LINE
  5
463
100
AcDbEntity
  8
ASSI
100
AcDbLine
 62
7
  6
CONTINUOUS
 10
122.4232840399
 20
138.2537727298
 11
169.7288565098
 21
110.9401280638
  0
LINE
  5
464
100
AcDbEntity
  8
0
100
AcDbLine
 62
250
  6
CONTINUOUS
 10
122.3818675157
 20
138.3453201021
 11
169.6874399853
 21
111.0316754362
  0
LINE
  5
465
100
AcDbEntity
  8
ASSI
100
AcDbLine
 62
250
  6
CONTINUOUS
 10
122.3818675157
 20
138.3453201021
 11
169.6874399853
 21
111.0316754362
  0
LWPOLYLINE
  5
466
100
AcDbEntity
  8
0
100
AcDbPolyline
 62
7
  6
CONTINUOUS
 90
24
 70
0
 10
169.7289018122
 20
110.9401019304
 10
169.7472817822
 20
110.9289274317
 10
169.7713126521
 20
110.9126639971
 10
169.7962141095
 20
110.893859936
 10
169.8215936828
 20
110.8726367245
 10
169.847224505
 20
110.8490432621
 10
169.872895754
 20
110.8231389789
 10
169.8982780006
 20
110.7951404769
 10
169.9231538778
 20
110.7651975133
 10
169.9473193835
 20
110.7334709181
 10
169.9705000305
 20
110.7002572865
 10
169.9925170166
 20
110.6657750397
 10
170.0132051449
 20
110.6302526567
 10
170.0323580583
 20
110.5940419471
 10
170.0498561666
 20
110.5573973584
 10
170.065593807
 20
110.5205835841
 10
170.0794439072
 20
110.4839901589
 10
170.0913637859
 20
110.4478750459
 10
170.1013275306
 20
110.4125015286
 10
170.1093049074
 20
110.3782682695
 10
170.1153438787
 20
110.3453937913
 10
170.119510643
 20
110.3141011544
 10
170.121889782
 20
110.284791506
 10
170.1226303824
 20
110.2581580335
  0
LWPOLYLINE
  5
467
100
AcDbEntity
  8
ASSI
100
AcDbPolyline
 62
7
  6
CONTINUOUS
 90
24
 70
0
 10
169.7289018122
 20
110.9401019304
 10
169.7472817822
 20
110.9289274317
 10
169.7713126521
 20
110.9126639971
 10
169.7962141095
 20
110.893859936
 10
169.8215936828
 20
110.8726367245
 10
169.847224505
 20
110.8490432621
 10
169.872895754
 20
110.8231389789
 10
169.8982780006
 20
110.7951404769
 10
169.9231538778
 20
110.7651975133
 10
169.9473193835
 20
110.7334709181
 10
169.9705000305
 20
110.7002572865
 10
169.9925170166
 20
110.6657750397
 10
170.0132051449
 20
110.6302526567
 10
170.0323580583
 20
110.5940419471
 10
170.0498561666
 20
110.5573973584
 10
170.065593807
 20
110.5205835841
 10
170.0794439072
 20
110.4839901589
 10
170.0913637859
 20
110.4478750459
 10
170.1013275306
 20
110.4125015286
 10
170.1093049074
 20
110.3782682695
 10
170.1153438787
 20
110.3453937913
 10
170.119510643
 20
110.3141011544
 10
170.121889782
 20
110.284791506
 10
170.1226303824
 20
110.2581580335
  0
LWPOLYLINE
  5
468
100
AcDbEntity
  8
0
100
AcDbPolyline
 62
250
  6
CONTINUOUS
 90
5
 70
0
 10
169.6874399853
 20
111.0316754362
 10
169.7199491596
 20
111.0116020046
 10
169.7519289663
 20
110.9895298124
 10
169.7833794053
 20
110.9654588597
 10
169.8143786988
 20
110.9393041949
  0
LWPOLYLINE
  5
469
100
AcDbEntity
  8
ASSI
100
AcDbPolyline
 62
250
  6
CONTINUOUS
 90
5
 70
0
 10
169.6874399853
 20
111.0316754362
 10
169.7199491596
 20
111.0116020046
 10
169.7519289663
 20
110.9895298124
 10
169.7833794053
 20
110.9654588597
 10
169.8143786988
 20
110.9393041949
  0
LWPOLYLINE
  5
46A
100
AcDbEntity
  8
0
100
AcDbPolyline
 62
250
  6
CONTINUOUS
 90
9
 70
0
 10
170.1812089985
 20
110.176442419
 10
170.1677886418
 20
110.1850081027
 10
170.1559174393
 20
110.1943050267
 10
170.1457141597
 20
110.2042401775
 10
170.1372808843
 20
110.2147141562
 10
170.1307019859
 20
110.2256221734
 10
170.1260432849
 20
110.2368550968
 10
170.1233513905
 20
110.2483005437
 10
170.1226303547
 20
110.2580973376
  0
LWPOLYLINE
  5
46B
100
AcDbEntity
  8
ASSI
100
AcDbPolyline
 62
250
  6
CONTINUOUS
 90
9
 70
0
 10
170.1812089985
 20
110.176442419
 10
170.1677886418
 20
110.1850081027
 10
170.1559174393
 20
110.1943050267
 10
170.1457141597
 20
110.2042401775
 10
170.1372808843
 20
110.2147141562
 10
170.1307019859
 20
110.2256221734
 10
170.1260432849
 20
110.2368550968
 10
170.1233513905
 20
110.2483005437
 10
170.1226303547
 20
110.2580973376
  0
LWPOLYLINE
  5
46C
100
AcDbEntity
  8
0
100
AcDbPolyline
 62
250
  6
CONTINUOUS
 90
9
 70
0
 10
169.6874399853
 20
111.0316754362
 10
169.6881474604
 20
111.0157707065
 10
169.6902627969
 20
111.0008421342
 10
169.6937648152
 20
110.9870390701
 10
169.6986184616
 20
110.9744996031
 10
169.7047751612
 20
110.9633491741
 10
169.7121733061
 20
110.9536993225
 10
169.7207388664
 20
110.9456465793
 10
169.7288565098
 20
110.9401280638
  0
LWPOLYLINE
  5
46D
100
AcDbEntity
  8
ASSI
100
AcDbPolyline
 62
250
  6
CONTINUOUS
 90
9
 70
0
 10
169.6874399853
 20
111.0316754362
 10
169.6881474604
 20
111.0157707065
 10
169.6902627969
 20
111.0008421342
 10
169.6937648152
 20
110.9870390701
 10
169.6986184616
 20
110.9744996031
 10
169.7047751612
 20
110.9633491741
 10
169.7121733061
 20
110.9536993225
 10
169.7207388664
 20
110.9456465793
 10
169.7288565098
 20
110.9401280638
  0
LWPOLYLINE
  5
46E
100
AcDbEntity
  8
0
100
AcDbPolyline
 62
7
  6
CONTINUOUS
 90
5
 70
0
 10
155.0976378546
 20
87.730191457
 10
155.1206180596
 20
87.759787939
 10
155.1365763124
 20
87.7941513922
 10
155.1445945629
 20
87.832294012
 10
155.145476329
 20
87.8514032362
  0
LINE
  5
46F
100
AcDbEntity
  8
CURVE
100
AcDbLine
 62
7
  6
CONTINUOUS
 10
147.392615224
 20
83.369905662
 11
147.6280959799
 21
83.6053864179
  0
LINE
  5
470
100
AcDbEntity
  8
CURVE
100
AcDbLine
 62
7
  6
CONTINUOUS
 10
147.8906719656
 20
83.8679624035
 11
148.3799893704
 21
84.3572798083
  0
LINE
  5
471
100
AcDbEntity
  8
CURVE
100
AcDbLine
 62
7
  6
CONTINUOUS
 10
147.4954029454
 20
83.0526719553
 11
147.7067420736
 21
83.2640110835
  0
LINE
  5
472
100
AcDbEntity
  8
CURVE
100
AcDbLine
 62
7
  6
CONTINUOUS
 10
147.8906719656
 20
83.4479409755
 11
148.2032938261
 21
83.760562836
  0
LINE
  5
473
100
AcDbEntity
  8
CURVE
100
AcDbLine
 62
7
  6
CONTINUOUS
 10
148.4475074206
 20
84.0047764305
 11
148.6236838295
 21
84.1809528394
  0
LINE
  5
474
100
AcDbEntity
  8
CURVE
100
AcDbLine
 62
7
  6
CONTINUOUS
 10
147.7616795811
 20
82.898927163
 11
147.7853881672
 21
82.9226357491
  0
LINE
  5
475
100
AcDbEntity
  8
CURVE
100
AcDbLine
 62
7
  6
CONTINUOUS
 10
147.8906719656
 20
83.0279195475
 11
148.3939303717
 21
83.5311779535
  0
LINE
  5
476
100
AcDbEntity
  8
CURVE
100
AcDbLine
 62
7
  6
CONTINUOUS
 10
148.6250242593
 20
83.7622718412
 11
148.8159445399
 21
83.9531921218
  0
LINE
  5
477
100
AcDbEntity
  8
CURVE
100
AcDbLine
 62
7
  6
CONTINUOUS
 10
148.0279560012
 20
82.7451821551
 11
148.2140602146
 21
82.9312863684
  0
LINE
  5
478
100
AcDbEntity
  8
CURVE
100
AcDbLine
 62
7
  6
CONTINUOUS
 10
148.4622971602
 20
83.1795233141
 11
148.9322998981
 21
83.6495260519
  0
LINE
  5
479
100
AcDbEntity
  8
CURVE
100
AcDbLine
 62
7
  6
CONTINUOUS
 10
148.5913455804
 20
82.8885503062
 11
148.7930099068
 21
83.0902146326
  0
LINE
  5
47A
100
AcDbEntity
  8
CURVE
100
AcDbLine
 62
7
  6
CONTINUOUS
 10
148.6684059436
 20
82.5455892414
 11
148.9005575932
 21
82.7777408911
  0
LINE
  5
47B
100
AcDbEntity
  8
CURVE
100
AcDbLine
 62
7
  6
CONTINUOUS
 10
148.8267859085
 20
82.2839477783
 11
148.9716576156
 21
82.4288194854
  0
LINE
  5
47C
100
AcDbEntity
  8
0
100
AcDbLine
 62
7
  6
CONTINUOUS
 10
153.8786478352
 20
87.0066857134
 11
153.5358671652
 21
86.6732834418
  0
LINE
  5
47D
100
AcDbEntity
  8
0
100
AcDbLine
 62
7
  6
CONTINUOUS
 10
155.0684977601
 20
87.7060015556
 11
155.0976378546
 21
87.730191457
  0
LWPOLYLINE
  5
47E
100
AcDbEntity
  8
CURVE
100
AcDbPolyline
 62
250
  6
CONTINUOUS
 90
21
 70
0
 10
148.8419008019
 20
83.2287837613
 10
148.8451343439
 20
83.2313565594
 10
148.8483222749
 20
83.233999789
 10
148.851464239
 20
83.236713448
 10
148.8550346712
 20
83.2399344485
 10
148.8585427128
 20
83.2432485293
 10
148.8619877396
 20
83.2466548646
 10
148.8653691271
 20
83.2501526282
 10
148.8686862511
 20
83.2537409941
 10
148.871938487
 20
83.2574191362
 10
148.8751252108
 20
83.2611862284
 10
148.8782457978
 20
83.2650414448
 10
148.8812996239
 20
83.2689839593
 10
148.8842860646
 20
83.2730129458
 10
148.8872044957
 20
83.2771275782
 10
148.8900542927
 20
83.2813270305
 10
148.8930610033
 20
83.2859672884
 10
148.895986153
 20
83.2907047741
 10
148.8988293291
 20
83.2955383026
 10
148.9015901187
 20
83.3004666887
 10
148.9042681089
 20
83.3054887473
  0
LWPOLYLINE
  5
47F
100
AcDbEntity
  8
IMPORT_IGES
100
AcDbPolyline
 62
7
  6
CONTINUOUS
 90
21
 70
0
 10
148.8419008019
 20
83.2287837613
 10
148.8451343439
 20
83.2313565594
 10
148.8483222749
 20
83.233999789
 10
148.851464239
 20
83.236713448
 10
148.8550346712
 20
83.2399344485
 10
148.8585427128
 20
83.2432485293
 10
148.8619877396
 20
83.2466548646
 10
148.8653691271
 20
83.2501526282
 10
148.8686862511
 20
83.2537409941
 10
148.871938487
 20
83.2574191362
 10
148.8751252108
 20
83.2611862284
 10
148.8782457978
 20
83.2650414448
 10
148.8812996239
 20
83.2689839593
 10
148.8842860646
 20
83.2730129458
 10
148.8872044957
 20
83.2771275782
 10
148.8900542927
 20
83.2813270305
 10
148.8930610033
 20
83.2859672884
 10
148.895986153
 20
83.2907047741
 10
148.8988293291
 20
83.2955383026
 10
148.9015901187
 20
83.3004666887
 10
148.9042681089
 20
83.3054887473
  0
LINE
  5
480
100
AcDbEntity
  8
0
100
AcDbLine
 62
7
  6
CONTINUOUS
 10
155.0684977601
 20
88.1350242497
 11
151.658258231
 21
85.9844594964
  0
LWPOLYLINE
  5
481
100
AcDbEntity
  8
CURVE
100
AcDbPolyline
 62
250
  6
CONTINUOUS
 90
11
 70
0
 10
148.8215616559
 20
83.2148261568
 10
148.8236666921
 20
83.2161078013
 10
148.8257561285
 20
83.2174148061
 10
148.8278298883
 20
83.2187471709
 10
148.8298878946
 20
83.220104895
 10
148.8319300704
 20
83.2214879781
 10
148.8339563389
 20
83.2228964197
 10
148.8359666232
 20
83.2243302192
 10
148.8379608464
 20
83.2257893763
 10
148.8399389316
 20
83.2272738905
 10
148.8419008019
 20
83.2287837613
  0
LWPOLYLINE
  5
482
100
AcDbEntity
  8
IMPORT_IGES
100
AcDbPolyline
 62
7
  6
CONTINUOUS
 90
11
 70
0
 10
148.8215616559
 20
83.2148261568
 10
148.8236666921
 20
83.2161078013
 10
148.8257561285
 20
83.2174148061
 10
148.8278298883
 20
83.2187471709
 10
148.8298878946
 20
83.220104895
 10
148.8319300704
 20
83.2214879781
 10
148.8339563389
 20
83.2228964197
 10
148.8359666232
 20
83.2243302192
 10
148.8379608464
 20
83.2257893763
 10
148.8399389316
 20
83.2272738905
 10
148.8419008019
 20
83.2287837613
  0
LWPOLYLINE
  5
483
100
AcDbEntity
  8
0
100
AcDbPolyline
 62
7
  6
CONTINUOUS
 90
9
 70
0
 10
153.302766705
 20
86.4918395596
 10
153.3287885482
 20
86.5076025108
 10
153.3582885046
 20
86.5268719991
 10
153.3878380699
 20
86.547612533
 10
153.4174557111
 20
86.5698885661
 10
153.4470741674
 20
86.5936033486
 10
153.4766710183
 20
86.6187246304
 10
153.5062686843
 20
86.6452846614
 10
153.5358671652
 20
86.6732834418
  0
LWPOLYLINE
  5
484
100
AcDbEntity
  8
0
100
AcDbPolyline
 62
7
  6
CONTINUOUS
 90
52
 70
0
 10
148.8185224618
 20
83.2130386682
 10
148.8230091119
 20
83.2157068155
 10
148.828161668
 20
83.2189548972
 10
148.8333488829
 20
83.222470351
 10
148.8385727112
 20
83.2262495763
 10
148.8438311982
 20
83.2302961735
 10
148.8491066827
 20
83.2346669791
 10
148.8544003104
 20
83.2393574985
 10
148.8597109355
 20
83.2443722263
 10
148.8650174608
 20
83.2497814817
 10
148.870325063
 20
83.2555817088
 10
148.8756285654
 20
83.2617764635
 10
148.8808913392
 20
83.2684467329
 10
148.8861192881
 20
83.2755890915
 10
148.8913065085
 20
83.2832069649
 10
148.896398661
 20
83.291391617
 10
148.9014022994
 20
83.3001404227
 10
148.9063108699
 20
83.3094560071
 10
148.9110503718
 20
83.3194375091
 10
148.9156265967
 20
83.3300810185
 10
148.9200337529
 20
83.3413904454
 10
148.9241804645
 20
83.3534766595
 10
148.9280720214
 20
83.3663445321
 10
148.9317031337
 20
83.379989192
 10
148.9349665562
 20
83.3945068948
 10
148.9378663314
 20
83.4098982693
 10
148.9403984167
 20
83.4261626867
 10
148.9424434394
 20
83.4433945165
 10
148.9440059813
 20
83.4615723918
 10
148.9450814607
 20
83.4807176795
 10
148.9455367589
 20
83.5009888502
 10
148.9454187942
 20
83.5223693258
 10
148.9446806484
 20
83.5448756843
 10
148.9430484481
 20
83.5687161306
 10
148.9405772362
 20
83.5939258397
 10
148.9372119699
 20
83.6204696365
 10
148.9325136475
 20
83.6484502
 10
148.9264737308
 20
83.6779815455
 10
148.9191007581
 20
83.7089496577
 10
148.909981343
 20
83.7411151699
 10
148.8989772191
 20
83.7747195273
 10
148.8862266529
 20
83.8095212848
 10
148.871731057
 20
83.84455674
 10
148.8552516136
 20
83.879977501
 10
148.8370271405
 20
83.9156319598
 10
148.8177755041
 20
83.9501015897
 10
148.7973716267
 20
83.9833291828
 10
148.7759405861
 20
84.015371947
 10
148.7545754816
 20
84.0449829794
 10
148.7336406796
 20
84.0717466456
 10
148.7127718137
 20
84.09607858
 10
148.6919688839
 20
84.1179787825
  0
LINE
  5
485
100
AcDbEntity
  8
0
100
AcDbLine
 62
7
  6
CONTINUOUS
 10
151.9004214428
 20
85.844637493
 11
155.0591469147
 21
87.7001335713
  0
LINE
  5
486
100
AcDbEntity
  8
0
100
AcDbLine
 62
7
  6
CONTINUOUS
 10
153.3027432115
 20
86.4918819823
 11
152.044198389
 21
85.7616224862
  0
LINE
  5
487
100
AcDbEntity
  8
0
100
AcDbLine
 62
250
  6
CONTINUOUS
 10
153.5358671652
 20
86.6732834418
 11
152.0038423911
 21
85.7849235336
  0
LWPOLYLINE
  5
488
100
AcDbEntity
  8
CURVE
100
AcDbPolyline
 62
250
  6
CONTINUOUS
 90
11
 70
0
 10
148.5798504986
 20
83.5000678105
 10
148.5788489231
 20
83.4995047
 10
148.5778402289
 20
83.4989547364
 10
148.5768244587
 20
83.4984179855
 10
148.5758016549
 20
83.4978945134
 10
148.5747718603
 20
83.4973843859
 10
148.5737351173
 20
83.496887669
 10
148.5726914684
 20
83.4964044286
 10
148.5716409563
 20
83.4959347307
 10
148.5705836234
 20
83.4954786411
 10
148.5695195125
 20
83.4950362258
  0
LWPOLYLINE
  5
489
100
AcDbEntity
  8
IMPORT_IGES
100
AcDbPolyline
 62
7
  6
CONTINUOUS
 90
11
 70
0
 10
148.5798504986
 20
83.5000678105
 10
148.5788489231
 20
83.4995047
 10
148.5778402289
 20
83.4989547364
 10
148.5768244587
 20
83.4984179855
 10
148.5758016549
 20
83.4978945134
 10
148.5747718603
 20
83.4973843859
 10
148.5737351173
 20
83.496887669
 10
148.5726914684
 20
83.4964044286
 10
148.5716409563
 20
83.4959347307
 10
148.5705836234
 20
83.4954786411
 10
148.5695195125
 20
83.4950362258
  0
LINE
  5
48A
100
AcDbEntity
  8
0
100
AcDbLine
 62
7
  6
CONTINUOUS
 10
147.1655628964
 20
88.5784854759
 11
150.953017596
 21
90.5112509173
  0
LWPOLYLINE
  5
48B
100
AcDbEntity
  8
0
100
AcDbPolyline
 62
250
  6
CONTINUOUS
 90
17
 70
0
 10
169.8143786988
 20
110.9393041949
 10
169.8448486247
 20
110.9111507695
 10
169.8745545167
 20
110.8812534382
 10
169.9035377751
 20
110.8495578637
 10
169.9317569996
 20
110.8161183834
 10
169.9588533229
 20
110.7813528634
 10
169.9848157818
 20
110.7452332518
 10
170.0096553395
 20
110.7077876006
 10
170.0330460188
 20
110.6695179328
 10
170.0549509446
 20
110.63045101
 10
170.075406992
 20
110.5905600706
 10
170.0941988086
 20
110.5502668527
 10
170.1112920876
 20
110.5097231535
 10
170.1267211358
 20
110.4687771759
 10
170.1403735212
 20
110.4273952664
 10
170.152343028
 20
110.3853232261
 10
170.162535872
 20
110.3428152539
  0
LWPOLYLINE
  5
48C
100
AcDbEntity
  8
ASSI
100
AcDbPolyline
 62
250
  6
CONTINUOUS
 90
17
 70
0
 10
169.8143786988
 20
110.9393041949
 10
169.8448486247
 20
110.9111507695
 10
169.8745545167
 20
110.8812534382
 10
169.9035377751
 20
110.8495578637
 10
169.9317569996
 20
110.8161183834
 10
169.9588533229
 20
110.7813528634
 10
169.9848157818
 20
110.7452332518
 10
170.0096553395
 20
110.7077876006
 10
170.0330460188
 20
110.6695179328
 10
170.0549509446
 20
110.63045101
 10
170.075406992
 20
110.5905600706
 10
170.0941988086
 20
110.5502668527
 10
170.1112920876
 20
110.5097231535
 10
170.1267211358
 20
110.4687771759
 10
170.1403735212
 20
110.4273952664
 10
170.152343028
 20
110.3853232261
 10
170.162535872
 20
110.3428152539
  0
LINE
  5
48D
100
AcDbEntity
  8
0
100
AcDbLine
 62
7
  6
CONTINUOUS
 10
170.1226303547
 20
110.2580973376
 11
170.1226303547
 21
74.0066683176
  0
LINE
  5
48E
100
AcDbEntity
  8
ASSI
100
AcDbLine
 62
7
  6
CONTINUOUS
 10
170.1226303547
 20
110.2580973376
 11
170.1226303547
 21
74.0066683176
  0
LINE
  5
48F
100
AcDbEntity
  8
0
100
AcDbLine
 62
250
  6
CONTINUOUS
 10
170.1812089985
 20
110.176442419
 11
170.1812089985
 21
73.9250133993
  0
LINE
  5
490
100
AcDbEntity
  8
ASSI
100
AcDbLine
 62
250
  6
CONTINUOUS
 10
170.1812089985
 20
110.176442419
 11
170.1812089985
 21
73.9250133993
  0
LWPOLYLINE
  5
491
100
AcDbEntity
  8
0
100
AcDbPolyline
 62
7
  6
CONTINUOUS
 90
12
 70
0
 10
170.1226304533
 20
74.0065536866
 10
170.1225322047
 20
73.9972510242
 10
170.1214416227
 20
73.9746158043
 10
170.1191879016
 20
73.9534509443
 10
170.1158339752
 20
73.9339025588
 10
170.1115104255
 20
73.9163096716
 10
170.1065054768
 20
73.9011806942
 10
170.1011512107
 20
73.8887168768
 10
170.0957217658
 20
73.8787963184
 10
170.0905174823
 20
73.8712834452
 10
170.0857886046
 20
73.8659247792
 10
170.0817193891
 20
73.8623545833
  0
LWPOLYLINE
  5
492
100
AcDbEntity
  8
ASSI
100
AcDbPolyline
 62
7
  6
CONTINUOUS
 90
12
 70
0
 10
170.1226304533
 20
74.0065536866
 10
170.1225322047
 20
73.9972510242
 10
170.1214416227
 20
73.9746158043
 10
170.1191879016
 20
73.9534509443
 10
170.1158339752
 20
73.9339025588
 10
170.1115104255
 20
73.9163096716
 10
170.1065054768
 20
73.9011806942
 10
170.1011512107
 20
73.8887168768
 10
170.0957217658
 20
73.8787963184
 10
170.0905174823
 20
73.8712834452
 10
170.0857886046
 20
73.8659247792
 10
170.0817193891
 20
73.8623545833
  0
LWPOLYLINE
  5
493
100
AcDbEntity
  8
0
100
AcDbPolyline
 62
250
  6
CONTINUOUS
 90
4
 70
0
 10
170.1812089985
 20
73.9250133993
 10
170.1800804948
 20
73.8881278314
 10
170.1769562486
 20
73.8530058217
 10
170.1718362598
 20
73.8196473701
  0
LWPOLYLINE
  5
494
100
AcDbEntity
  8
ASSI
100
AcDbPolyline
 62
250
  6
CONTINUOUS
 90
4
 70
0
 10
170.1812089985
 20
73.9250133993
 10
170.1800804948
 20
73.8881278314
 10
170.1769562486
 20
73.8530058217
 10
170.1718362598
 20
73.8196473701
  0
LWPOLYLINE
  5
495
100
AcDbEntity
  8
0
100
AcDbPolyline
 62
250
  6
CONTINUOUS
 90
16
 70
0
 10
169.6874399853
 20
73.6399724618
 10
169.6881474287
 20
73.6566937836
 10
169.6902626811
 20
73.6740647505
 10
169.69376458
 20
73.6919115702
 10
169.6986180896
 20
73.7100556894
 10
169.7047746517
 20
73.7283155806
 10
169.7121726715
 20
73.746508558
 10
169.7207381336
 20
73.7644526051
 10
169.7303853424
 20
73.7819681961
 10
169.74101778
 20
73.7988800917
 10
169.7525290714
 20
73.8150190925
 10
169.764804049
 20
73.8302237315
 10
169.7777199044
 20
73.84434189
 10
169.7911474176
 20
73.8572323192
 10
169.8049522496
 20
73.8687660534
 10
169.8189962864
 20
73.8788277005
  0
LWPOLYLINE
  5
496
100
AcDbEntity
  8
ASSI
100
AcDbPolyline
 62
250
  6
CONTINUOUS
 90
16
 70
0
 10
169.6874399853
 20
73.6399724618
 10
169.6881474287
 20
73.6566937836
 10
169.6902626811
 20
73.6740647505
 10
169.69376458
 20
73.6919115702
 10
169.6986180896
 20
73.7100556894
 10
169.7047746517
 20
73.7283155806
 10
169.7121726715
 20
73.746508558
 10
169.7207381336
 20
73.7644526051
 10
169.7303853424
 20
73.7819681961
 10
169.74101778
 20
73.7988800917
 10
169.7525290714
 20
73.8150190925
 10
169.764804049
 20
73.8302237315
 10
169.7777199044
 20
73.84434189
 10
169.7911474176
 20
73.8572323192
 10
169.8049522496
 20
73.8687660534
 10
169.8189962864
 20
73.8788277005
  0
LINE
  5
497
100
AcDbEntity
  8
SMUSSO
100
AcDbLine
 62
7
  6
CONTINUOUS
 10
188.020347418
 20
117.4885730458
 11
189.0298841354
 21
118.5418676416
  0
LINE
  5
498
100
AcDbEntity
  8
ASSI
100
AcDbLine
 62
7
  6
CONTINUOUS
 10
188.020347418
 20
117.4885730458
 11
189.0298841354
 21
118.5418676416
  0
LWPOLYLINE
  5
499
100
AcDbEntity
  8
0
100
AcDbPolyline
 62
7
  6
CONTINUOUS
 90
12
 70
0
 10
148.58022893
 20
83.5002901398
 10
148.5692965777
 20
83.4949737615
 10
148.5559435612
 20
83.4907291183
 10
148.5415392481
 20
83.4883835685
 10
148.5260756157
 20
83.4879088025
 10
148.5095201943
 20
83.4892236154
 10
148.4918007356
 20
83.4923262687
 10
148.472989488
 20
83.497218501
 10
148.453270727
 20
83.5038243233
 10
148.4327058778
 20
83.512118406
 10
148.4112335153
 20
83.5221260788
 10
148.3888536394
 20
83.5338473416
  0
LWPOLYLINE
  5
49A
100
AcDbEntity
  8
CURVE
100
AcDbPolyline
 62
250
  6
CONTINUOUS
 90
13
 70
0
 10
148.5695195125
 20
83.4950362258
 10
148.5685310254
 20
83.4946399374
 10
148.5675368297
 20
83.4942554144
 10
148.5665369589
 20
83.4938827089
 10
148.565412302
 20
83.4934800083
 10
148.5642806627
 20
83.4930920616
 10
148.5631421119
 20
83.4927187838
 10
148.5619967203
 20
83.4923600898
 10
148.560844559
 20
83.4920158944
 10
148.5596856987
 20
83.4916861126
 10
148.5585202102
 20
83.4913706594
 10
148.5573481643
 20
83.4910694495
 10
148.5561696321
 20
83.490782398
  0
LWPOLYLINE
  5
49B
100
AcDbEntity
  8
IMPORT_IGES
100
AcDbPolyline
 62
7
  6
CONTINUOUS
 90
13
 70
0
 10
148.5695195125
 20
83.4950362258
 10
148.5685310254
 20
83.4946399374
 10
148.5675368297
 20
83.4942554144
 10
148.5665369589
 20
83.4938827089
 10
148.565412302
 20
83.4934800083
 10
148.5642806627
 20
83.4930920616
 10
148.5631421119
 20
83.4927187838
 10
148.5619967203
 20
83.4923600898
 10
148.560844559
 20
83.4920158944
 10
148.5596856987
 20
83.4916861126
 10
148.5585202102
 20
83.4913706594
 10
148.5573481643
 20
83.4910694495
 10
148.5561696321
 20
83.490782398
  0
LWPOLYLINE
  5
49C
100
AcDbEntity
  8
0
100
AcDbPolyline
 62
250
  6
CONTINUOUS
 90
5
 70
0
 10
170.162535872
 20
110.3428152539
 10
170.1705582695
 20
110.3006002928
 10
170.1762789591
 20
110.2589213238
 10
170.1798292021
 20
110.2175353658
 10
170.1812089985
 20
110.176442419
  0
LWPOLYLINE
  5
49D
100
AcDbEntity
  8
ASSI
100
AcDbPolyline
 62
250
  6
CONTINUOUS
 90
5
 70
0
 10
170.162535872
 20
110.3428152539
 10
170.1705582695
 20
110.3006002928
 10
170.1762789591
 20
110.2589213238
 10
170.1798292021
 20
110.2175353658
 10
170.1812089985
 20
110.176442419
  0
LWPOLYLINE
  5
49E
100
AcDbEntity
  8
0
100
AcDbPolyline
 62
250
  6
CONTINUOUS
 90
22
 70
0
 10
170.1718362598
 20
73.8196473701
 10
170.1646860706
 20
73.787982052
 10
170.1555401389
 20
73.758080292
 10
170.1445018379
 20
73.7301533643
 10
170.1315448106
 20
73.7041686835
 10
170.1166954141
 20
73.6801588349
 10
170.1001360917
 20
73.6584328489
 10
170.0818370668
 20
73.6390205772
 10
170.061828116
 20
73.6218921679
 10
170.0403810137
 20
73.6072670961
 10
170.0175004976
 20
73.5951852046
 10
169.9931818299
 20
73.5856066506
 10
169.9676825718
 20
73.5786313809
 10
169.9411170327
 20
73.5742330077
 10
169.9133709031
 20
73.5724379189
 10
169.8843588161
 20
73.5734252254
 10
169.8539075184
 20
73.5771866724
 10
169.8221902632
 20
73.5837305147
 10
169.789641443
 20
73.5932606273
 10
169.7564058554
 20
73.6058449685
 10
169.7223387028
 20
73.62141558
 10
169.6874399853
 20
73.6399724618
  0
LWPOLYLINE
  5
49F
100
AcDbEntity
  8
ASSI
100
AcDbPolyline
 62
250
  6
CONTINUOUS
 90
22
 70
0
 10
170.1718362598
 20
73.8196473701
 10
170.1646860706
 20
73.787982052
 10
170.1555401389
 20
73.758080292
 10
170.1445018379
 20
73.7301533643
 10
170.1315448106
 20
73.7041686835
 10
170.1166954141
 20
73.6801588349
 10
170.1001360917
 20
73.6584328489
 10
170.0818370668
 20
73.6390205772
 10
170.061828116
 20
73.6218921679
 10
170.0403810137
 20
73.6072670961
 10
170.0175004976
 20
73.5951852046
 10
169.9931818299
 20
73.5856066506
 10
169.9676825718
 20
73.5786313809
 10
169.9411170327
 20
73.5742330077
 10
169.9133709031
 20
73.5724379189
 10
169.8843588161
 20
73.5734252254
 10
169.8539075184
 20
73.5771866724
 10
169.8221902632
 20
73.5837305147
 10
169.789641443
 20
73.5932606273
 10
169.7564058554
 20
73.6058449685
 10
169.7223387028
 20
73.62141558
 10
169.6874399853
 20
73.6399724618
  0
LINE
  5
4A0
100
AcDbEntity
  8
0
100
AcDbLine
 62
250
  6
CONTINUOUS
 10
169.0911582082
 20
77.2661298009
 11
169.0974190474
 21
77.285110453
  0
LINE
  5
4A1
100
AcDbEntity
  8
0
100
AcDbLine
 62
7
  6
CONTINUOUS
 10
163.2246737386
 20
79.3061561436
 11
163.2527038724
 21
79.3547057593
  0
LINE
  5
4A2
100
AcDbEntity
  8
0
100
AcDbLine
 62
7
  6
CONTINUOUS
 10
163.5001912458
 20
79.3751313255
 11
163.606257263
 21
79.558843056
  0
LINE
  5
4A3
100
AcDbEntity
  8
0
100
AcDbLine
 62
7
  6
CONTINUOUS
 10
163.8537446364
 20
79.5792686221
 11
163.9598106536
 21
79.7629803527
  0
LINE
  5
4A4
100
AcDbEntity
  8
0
100
AcDbLine
 62
7
  6
CONTINUOUS
 10
164.207298027
 20
79.7834059188
 11
164.3133640442
 21
79.9671176493
  0
LINE
  5
4A5
100
AcDbEntity
  8
0
100
AcDbLine
 62
7
  6
CONTINUOUS
 10
164.5608514176
 20
79.9875432155
 11
164.6669174348
 21
80.171254946
  0
LINE
  5
4A6
100
AcDbEntity
  8
0
100
AcDbLine
 62
7
  6
CONTINUOUS
 10
164.9144048082
 20
80.1916805121
 11
165.0204708254
 21
80.3753922427
  0
LINE
  5
4A7
100
AcDbEntity
  8
0
100
AcDbLine
 62
7
  6
CONTINUOUS
 10
165.2679581988
 20
80.3958178088
 11
165.3740242159
 21
80.5795295393
  0
LINE
  5
4A8
100
AcDbEntity
  8
0
100
AcDbLine
 62
7
  6
CONTINUOUS
 10
167.1137610351
 20
77.0606458803
 11
167.1417911689
 21
77.109195496
  0
LINE
  5
4A9
100
AcDbEntity
  8
0
100
AcDbLine
 62
7
  6
CONTINUOUS
 10
167.3892785423
 20
77.1296210622
 11
167.4953445595
 21
77.3133327927
  0
LINE
  5
4AA
100
AcDbEntity
  8
0
100
AcDbLine
 62
7
  6
CONTINUOUS
 10
165.6230877278
 20
80.7988266965
 11
166.9334419834
 21
81.3362890232
  0
LINE
  5
4AB
100
AcDbEntity
  8
SMUSSO
100
AcDbLine
 62
7
  6
CONTINUOUS
 10
189.716282483
 20
117.3529908305
 11
189.7377838349
 21
117.3409958831
  0
LINE
  5
4AC
100
AcDbEntity
  8
ASSI
100
AcDbLine
 62
7
  6
CONTINUOUS
 10
189.716282483
 20
117.3529908305
 11
189.7377838349
 21
117.3409958831
  0
LINE
  5
4AD
100
AcDbEntity
  8
SMUSSO
100
AcDbLine
 62
7
  6
CONTINUOUS
 10
188.020347418
 20
117.4885730458
 11
104.048960083
 21
165.9725996844
  0
LINE
  5
4AE
100
AcDbEntity
  8
ASSI
100
AcDbLine
 62
7
  6
CONTINUOUS
 10
188.020347418
 20
117.4885730458
 11
104.048960083
 21
165.9725996844
  0
LINE
  5
4AF
100
AcDbEntity
  8
SMUSSO
100
AcDbLine
 62
7
  6
CONTINUOUS
 10
189.0302465656
 20
118.5664863805
 11
104.452412997
 21
167.4006674738
  0
LINE
  5
4B0
100
AcDbEntity
  8
ASSI
100
AcDbLine
 62
7
  6
CONTINUOUS
 10
189.0302465656
 20
118.5664863805
 11
104.452412997
 21
167.4006674738
  0
LINE
  5
4B1
100
AcDbEntity
  8
0
100
AcDbLine
 62
7
  6
CONTINUOUS
 10
167.7428319329
 20
77.3337583588
 11
167.8488979501
 21
77.5174700894
  0
LINE
  5
4B2
100
AcDbEntity
  8
0
100
AcDbLine
 62
7
  6
CONTINUOUS
 10
168.0963853235
 20
77.5378956555
 11
168.2024513407
 21
77.721607386
  0
LINE
  5
4B3
100
AcDbEntity
  8
0
100
AcDbLine
 62
7
  6
CONTINUOUS
 10
168.4499387141
 20
77.7420329522
 11
168.5560047313
 21
77.9257446827
  0
LINE
  5
4B4
100
AcDbEntity
  8
0
100
AcDbLine
 62
7
  6
CONTINUOUS
 10
168.8034921047
 20
77.9461702488
 11
168.9095581219
 21
78.1298819794
  0
LINE
  5
4B5
100
AcDbEntity
  8
0
100
AcDbLine
 62
7
  6
CONTINUOUS
 10
169.1570454953
 20
78.1503075455
 11
169.2631115125
 21
78.334019276
  0
LINE
  5
4B6
100
AcDbEntity
  8
0
100
AcDbLine
 62
250
  6
CONTINUOUS
 10
169.0974190474
 20
77.285110453
 11
169.4333640124
 21
77.6118640428
  0
LINE
  5
4B7
100
AcDbEntity
  8
0
100
AcDbLine
 62
7
  6
CONTINUOUS
 10
169.1013439049
 20
77.2515752523
 11
169.5303282856
 21
77.6688227214
  0
LWPOLYLINE
  5
4B8
100
AcDbEntity
  8
0
100
AcDbPolyline
 62
250
  6
CONTINUOUS
 90
5
 70
0
 10
169.0482370666
 20
77.2105502008
 10
169.061463195
 20
77.2211115701
 10
169.0730962251
 20
77.2339797402
 10
169.0830250902
 20
77.2490326411
 10
169.0911582082
 20
77.2661298009
  0
LINE
  5
4B9
100
AcDbEntity
  8
0
100
AcDbLine
 62
7
  6
CONTINUOUS
 10
169.7953778331
 20
78.3126009866
 11
167.4975013087
 21
76.8390790557
  0
LINE
  5
4BA
100
AcDbEntity
  8
0
100
AcDbLine
 62
7
  6
CONTINUOUS
 10
167.8103240195
 20
76.6584591431
 11
170.1226303547
 21
78.0167523456
  0
LINE
  5
4BB
100
AcDbEntity
  8
0
100
AcDbLine
 62
7
  6
CONTINUOUS
 10
169.0427295592
 20
77.2071112442
 11
167.9541009657
 21
76.5754441363
  0
LINE
  5
4BC
100
AcDbEntity
  8
0
100
AcDbLine
 62
250
  6
CONTINUOUS
 10
169.0974190474
 20
77.285110453
 11
167.9137449678
 21
76.5987451837
  0
LINE
  5
4BD
100
AcDbEntity
  8
0
100
AcDbLine
 62
7
  6
CONTINUOUS
 10
163.2527038724
 20
79.3547057593
 11
163.3941252286
 21
79.436360678
  0
LINE
  5
4BE
100
AcDbEntity
  8
0
100
AcDbLine
 62
7
  6
CONTINUOUS
 10
163.606257263
 20
79.558843056
 11
163.7476786192
 21
79.6404979747
  0
LINE
  5
4BF
100
AcDbEntity
  8
0
100
AcDbLine
 62
7
  6
CONTINUOUS
 10
163.9598106536
 20
79.7629803527
 11
164.1012320098
 21
79.8446352713
  0
LINE
  5
4C0
100
AcDbEntity
  8
0
100
AcDbLine
 62
7
  6
CONTINUOUS
 10
164.3133640442
 20
79.9671176493
 11
164.4547854004
 21
80.048772568
  0
LINE
  5
4C1
100
AcDbEntity
  8
0
100
AcDbLine
 62
7
  6
CONTINUOUS
 10
164.6669174348
 20
80.171254946
 11
164.808338791
 21
80.2529098647
  0
LINE
  5
4C2
100
AcDbEntity
  8
0
100
AcDbLine
 62
7
  6
CONTINUOUS
 10
165.0204708254
 20
80.3753922427
 11
165.1618921816
 21
80.4570471613
  0
LINE
  5
4C3
100
AcDbEntity
  8
0
100
AcDbLine
 62
7
  6
CONTINUOUS
 10
165.3740242159
 20
80.5795295393
 11
165.5154455722
 21
80.661184458
  0
LINE
  5
4C4
100
AcDbEntity
  8
0
100
AcDbLine
 62
7
  6
CONTINUOUS
 10
167.1417911689
 20
77.109195496
 11
167.2832125251
 21
77.1908504147
  0
LINE
  5
4C5
100
AcDbEntity
  8
0
100
AcDbLine
 62
7
  6
CONTINUOUS
 10
167.4953445595
 20
77.3133327927
 11
167.6367659157
 21
77.3949877114
  0
LINE
  5
4C6
100
AcDbEntity
  8
0
100
AcDbLine
 62
7
  6
CONTINUOUS
 10
167.8488979501
 20
77.5174700894
 11
167.9903193063
 21
77.599125008
  0
LINE
  5
4C7
100
AcDbEntity
  8
0
100
AcDbLine
 62
7
  6
CONTINUOUS
 10
168.2024513407
 20
77.721607386
 11
168.3438726969
 21
77.8032623047
  0
LINE
  5
4C8
100
AcDbEntity
  8
0
100
AcDbLine
 62
7
  6
CONTINUOUS
 10
168.5560047313
 20
77.9257446827
 11
168.6974260875
 21
78.0073996014
  0
LINE
  5
4C9
100
AcDbEntity
  8
0
100
AcDbLine
 62
7
  6
CONTINUOUS
 10
168.9095581219
 20
78.1298819794
 11
169.0509794781
 21
78.211536898
  0
LINE
  5
4CA
100
AcDbEntity
  8
0
100
AcDbLine
 62
7
  6
CONTINUOUS
 10
169.2631115125
 20
78.334019276
 11
169.4045328687
 21
78.4156741947
  0
LINE
  5
4CB
100
AcDbEntity
  8
0
100
AcDbLine
 62
7
  6
CONTINUOUS
 10
169.5105988859
 20
78.3544448422
 11
167.1917893773
 21
77.0155932934
  0
LINE
  5
4CC
100
AcDbEntity
  8
0
100
AcDbLine
 62
7
  6
CONTINUOUS
 10
162.9969901493
 20
79.4376177945
 11
165.5490405748
 21
80.7643829005
  0
LINE
  5
4CD
100
AcDbEntity
  8
0
100
AcDbLine
 62
7
  6
CONTINUOUS
 10
170.1226303547
 20
78.4866486015
 11
169.8620501891
 21
78.351302898
  0
LINE
  5
4CE
100
AcDbEntity
  8
SMUSSO
100
AcDbLine
 62
7
  6
CONTINUOUS
 10
193.0921795504
 20
120.9117802827
 11
108.2402267842
 21
169.9042343651
  0
LINE
  5
4CF
100
AcDbEntity
  8
ASSI
100
AcDbLine
 62
7
  6
CONTINUOUS
 10
193.0921795504
 20
120.9117802827
 11
108.2402267842
 21
169.9042343651
  0
LINE
  5
4D0
100
AcDbEntity
  8
SMUSSO
100
AcDbLine
 62
7
  6
CONTINUOUS
 10
188.2993233521
 20
46.173738955
 11
188.2993233521
 21
117.0053725543
  0
LINE
  5
4D1
100
AcDbEntity
  8
ASSI
100
AcDbLine
 62
7
  6
CONTINUOUS
 10
188.2993233521
 20
46.173738955
 11
188.2993233521
 21
117.0053725543
  0
LINE
  5
4D2
100
AcDbEntity
  8
SMUSSO
100
AcDbLine
 62
7
  6
CONTINUOUS
 10
189.7377838349
 20
45.8091210509
 11
189.7377838349
 21
117.3409958831
  0
LINE
  5
4D3
100
AcDbEntity
  8
ASSI
100
AcDbLine
 62
7
  6
CONTINUOUS
 10
189.7377838349
 20
45.8091210509
 11
189.7377838349
 21
117.3409958831
  0
LINE
  5
4D4
100
AcDbEntity
  8
SMUSSO
100
AcDbLine
 62
7
  6
CONTINUOUS
 10
189.0302465656
 20
118.5664863805
 11
189.0298841354
 21
118.5418676416
  0
LINE
  5
4D5
100
AcDbEntity
  8
ASSI
100
AcDbLine
 62
7
  6
CONTINUOUS
 10
189.0302465656
 20
118.5664863805
 11
189.0298841354
 21
118.5418676416
  0
LINE
  5
4D6
100
AcDbEntity
  8
0
100
AcDbLine
 62
250
  6
CONTINUOUS
 10
169.8189962864
 20
73.8788277005
 11
170.1226303547
 21
74.1068631845
  0
LINE
  5
4D7
100
AcDbEntity
  8
ASSI
100
AcDbLine
 62
250
  6
CONTINUOUS
 10
169.8189962864
 20
73.8788277005
 11
170.1226303547
 21
74.1068631845
  0
LINE
  5
4D8
100
AcDbEntity
  8
0
100
AcDbLine
 62
7
  6
CONTINUOUS
 10
170.081513753
 20
73.8622003598
 11
170.0811532452
 21
73.8619303591
  0
LINE
  5
4D9
100
AcDbEntity
  8
ASSI
100
AcDbLine
 62
7
  6
CONTINUOUS
 10
170.081513753
 20
73.8622003598
 11
170.0811532452
 21
73.8619303591
  0
LWPOLYLINE
  5
4DA
100
AcDbEntity
  8
0
100
AcDbPolyline
 62
250
  6
CONTINUOUS
 90
14
 70
0
 10
170.0811532452
 20
73.8619303591
 10
170.0673286847
 20
73.8526366263
 10
170.0509826101
 20
73.8440053663
 10
170.0337313492
 20
73.837235824
 10
170.0156136813
 20
73.8323421023
 10
169.9967767382
 20
73.8293561692
 10
169.9772317406
 20
73.8282762946
 10
169.956780402
 20
73.8291368874
 10
169.9353630119
 20
73.8320348399
 10
169.9131581944
 20
73.8370411618
 10
169.8903123366
 20
73.844196652
 10
169.8669430076
 20
73.8535284918
 10
169.8431331031
 20
73.8650674539
 10
169.8189962864
 20
73.8788277005
  0
LWPOLYLINE
  5
4DB
100
AcDbEntity
  8
ASSI
100
AcDbPolyline
 62
250
  6
CONTINUOUS
 90
14
 70
0
 10
170.0811532452
 20
73.8619303591
 10
170.0673286847
 20
73.8526366263
 10
170.0509826101
 20
73.8440053663
 10
170.0337313492
 20
73.837235824
 10
170.0156136813
 20
73.8323421023
 10
169.9967767382
 20
73.8293561692
 10
169.9772317406
 20
73.8282762946
 10
169.956780402
 20
73.8291368874
 10
169.9353630119
 20
73.8320348399
 10
169.9131581944
 20
73.8370411618
 10
169.8903123366
 20
73.844196652
 10
169.8669430076
 20
73.8535284918
 10
169.8431331031
 20
73.8650674539
 10
169.8189962864
 20
73.8788277005
  0
LINE
  5
4DC
100
AcDbEntity
  8
0
100
AcDbLine
 62
250
  6
CONTINUOUS
 10
169.0427303845
 20
77.2071117231
 11
169.0482370666
 21
77.2105502008
  0
LINE
  5
4DD
100
AcDbEntity
  8
SMUSSO
100
AcDbLine
 62
7
  6
CONTINUOUS
 10
188.2993233521
 20
117.0053725543
 11
188.020347418
 21
117.4885730458
  0
LINE
  5
4DE
100
AcDbEntity
  8
ASSI
100
AcDbLine
 62
7
  6
CONTINUOUS
 10
188.2993233521
 20
117.0053725543
 11
188.020347418
 21
117.4885730458
  0
LINE
  5
4DF
100
AcDbEntity
  8
SMUSSO
100
AcDbLine
 62
7
  6
CONTINUOUS
 10
189.716282483
 20
117.3529908305
 11
189.0298841354
 21
118.5418676416
  0
LINE
  5
4E0
100
AcDbEntity
  8
ASSI
100
AcDbLine
 62
7
  6
CONTINUOUS
 10
189.716282483
 20
117.3529908305
 11
189.0298841354
 21
118.5418676416
  0
LINE
  5
4E1
100
AcDbEntity
  8
SMUSSO
100
AcDbLine
 62
7
  6
CONTINUOUS
 10
193.7997168196
 20
47.8378995652
 11
193.7997168196
 21
119.6862897853
  0
LINE
  5
4E2
100
AcDbEntity
  8
ASSI
100
AcDbLine
 62
7
  6
CONTINUOUS
 10
193.7997168196
 20
47.8378995652
 11
193.7997168196
 21
119.6862897853
  0
LINE
  5
4E3
100
AcDbEntity
  8
SMUSSO
100
AcDbLine
 62
7
  6
CONTINUOUS
 10
193.0921795504
 20
120.9117802827
 11
193.7997168196
 21
119.6862897853
  0
LINE
  5
4E4
100
AcDbEntity
  8
ASSI
100
AcDbLine
 62
7
  6
CONTINUOUS
 10
193.0921795504
 20
120.9117802827
 11
193.7997168196
 21
119.6862897853
  0
LINE
  5
4E5
100
AcDbEntity
  8
SMUSSO
100
AcDbLine
 62
7
  6
CONTINUOUS
 10
188.020347418
 20
46.0126928794
 11
188.2993233521
 21
46.173738955
  0
LINE
  5
4E6
100
AcDbEntity
  8
ASSI
100
AcDbLine
 62
7
  6
CONTINUOUS
 10
188.020347418
 20
46.0126928794
 11
188.2993233521
 21
46.173738955
  0
LINE
  5
4E7
100
AcDbEntity
  8
SMUSSO
100
AcDbLine
 62
7
  6
CONTINUOUS
 10
189.0298841354
 20
45.4013182947
 11
189.716282483
 21
45.7975594991
  0
LINE
  5
4E8
100
AcDbEntity
  8
ASSI
100
AcDbLine
 62
7
  6
CONTINUOUS
 10
189.0298841354
 20
45.4013182947
 11
189.716282483
 21
45.7975594991
  0
LINE
  5
4E9
100
AcDbEntity
  8
SMUSSO
100
AcDbLine
 62
7
  6
CONTINUOUS
 10
193.7997168196
 20
47.8378995652
 11
193.0921795504
 21
47.4294553713
  0
LINE
  5
4EA
100
AcDbEntity
  8
ASSI
100
AcDbLine
 62
7
  6
CONTINUOUS
 10
193.7997168196
 20
47.8378995652
 11
193.0921795504
 21
47.4294553713
  0
LINE
  5
4EB
100
AcDbEntity
  8
SMUSSO
100
AcDbLine
 62
7
  6
CONTINUOUS
 10
189.7377838349
 20
45.8091210509
 11
189.716282483
 21
45.7975594991
  0
LINE
  5
4EC
100
AcDbEntity
  8
ASSI
100
AcDbLine
 62
7
  6
CONTINUOUS
 10
189.7377838349
 20
45.8091210509
 11
189.716282483
 21
45.7975594991
  0
LINE
  5
4ED
100
AcDbEntity
  8
SMUSSO
100
AcDbLine
 62
7
  6
CONTINUOUS
 10
189.7377838349
 20
45.8091210509
 11
193.7997168196
 21
47.8378995652
  0
LINE
  5
4EE
100
AcDbEntity
  8
ASSI
100
AcDbLine
 62
7
  6
CONTINUOUS
 10
189.7377838349
 20
45.8091210509
 11
193.7997168196
 21
47.8378995652
  0
LINE
  5
4EF
100
AcDbEntity
  8
SMUSSO
100
AcDbLine
 62
7
  6
CONTINUOUS
 10
189.0302465656
 20
45.400676857
 11
193.0921795504
 21
47.4294553713
  0
LINE
  5
4F0
100
AcDbEntity
  8
ASSI
100
AcDbLine
 62
7
  6
CONTINUOUS
 10
189.0302465656
 20
45.400676857
 11
193.0921795504
 21
47.4294553713
  0
ARC
  5
4F1
100
AcDbEntity
  8
0
100
AcDbCircle
 62
7
  6
CONTINUOUS
 10
126.7811306511
 20
125.0471889397
 40
0.3
100
AcDbArc
 50
0.0007992921
 51
59.9992007801
  0
ARC
  5
4F2
100
AcDbEntity
  8
0
100
AcDbCircle
 62
7
  6
CONTINUOUS
 10
126.3619485455
 20
125.2892194339
 40
0.3
100
AcDbArc
 50
60.0005489507
 51
118.2699256376
  0
ARC
  5
4F3
100
AcDbEntity
  8
0
100
AcDbCircle
 62
7
  6
CONTINUOUS
 10
126.7811306511
 20
120.7665879431
 40
0.3
100
AcDbArc
 50
301.7332683128
 51
359.9978457589
  0
ARC
  5
4F4
100
AcDbEntity
  8
0
100
AcDbCircle
 62
7
  6
CONTINUOUS
 10
137.0722050034
 20
95.8391158697
 40
0.3
100
AcDbArc
 50
300.108989087
 51
314.2001405653
  0
ARC
  5
4F5
100
AcDbEntity
  8
0
100
AcDbCircle
 62
7
  6
CONTINUOUS
 10
168.8920101568
 20
77.4667591699
 40
0.3
100
AcDbArc
 50
300.108989087
 51
314.2001405653
  0
ELLIPSE
  5
4F6
100
AcDbEntity
  8
0
100
AcDbEllipse
 62
7
  6
CONTINUOUS
 10
139.0734643419
 20
96.8432337502
 30
0.0
 11
0.1999995634
 21
0.1164181051
 31
0.0
 40
0.0035896273
 41
-0.7351277754
 42
-0.6748017824
  0
ELLIPSE
  5
4F7
100
AcDbEntity
  8
0
100
AcDbEllipse
 62
7
  6
CONTINUOUS
 10
167.0672681047
 20
81.2513271366
 30
0.0
 11
0.1998333781
 21
-0.0157785196
 31
0.0
 40
0.5172961965
 41
0.8262203412
 42
2.3446567905
  0
ELLIPSE
  5
4F8
100
AcDbEntity
  8
0
100
AcDbEllipse
 62
7
  6
CONTINUOUS
 10
135.2474629513
 20
99.6236838363
 30
0.0
 11
0.1998333781
 21
-0.0157785196
 31
0.0
 40
0.5172961965
 41
0.8262203412
 42
2.3446567905
  0
ELLIPSE
  5
4F9
100
AcDbEntity
  8
0
100
AcDbEllipse
 62
7
  6
CONTINUOUS
 10
151.1537567779
 20
90.3826380365
 30
0.0
 11
0.2999972416
 21
-0.0022477848
 31
0.0
 40
0.5723275643
 41
0.7896864073
 42
2.3081228565
  0
ELLIPSE
  5
4FA
100
AcDbEntity
  8
0
100
AcDbEllipse
 62
7
  6
CONTINUOUS
 10
165.5490405748
 20
79.9479126237
 30
0.0
 11
0.5413005334
 21
0.8416911418
 31
0.0
 40
0.6067084637
 41
0.7148472392
 42
0.8145158917
  0
ELLIPSE
  5
4FB
100
AcDbEntity
  8
0
100
AcDbEllipse
 62
7
  6
CONTINUOUS
 10
133.7292354214
 20
98.3202693234
 30
0.0
 11
0.5413005334
 21
0.8416911418
 31
0.0
 40
0.6067084637
 41
0.7148472392
 42
0.8145158917
  0
ELLIPSE
  5
4FC
100
AcDbEntity
  8
0
100
AcDbEllipse
 62
7
  6
CONTINUOUS
 10
155.0579774653
 20
88.0458514782
 30
0.0
 11
0.0858610644
 21
0.3627848639
 31
0.0
 40
0.5009985936
 41
-2.6944494219
 42
-2.6479073085
  0
ELLIPSE
  5
4FD
100
AcDbEntity
  8
0
100
AcDbEllipse
 62
7
  6
CONTINUOUS
 10
139.0734643419
 20
97.4145985845
 30
0.0
 11
0.1998333781
 21
-0.0157785196
 31
0.0
 40
0.5172961965
 41
-0.692216108
 42
0.8262203412
  0
ELLIPSE
  5
4FE
100
AcDbEntity
  8
0
100
AcDbEllipse
 62
7
  6
CONTINUOUS
 10
154.8455543124
 20
88.2510404091
 30
0.0
 11
0.2999972416
 21
-0.0022477848
 31
0.0
 40
0.5723275643
 41
-0.728750042
 42
0.7896864073
  0
ELLIPSE
  5
4FF
100
AcDbEntity
  8
0
100
AcDbEllipse
 62
7
  6
CONTINUOUS
 10
169.7953778331
 20
77.4961307098
 30
0.0
 11
0.4625183445
 21
0.8873459255
 31
0.0
 40
0.5463614449
 41
0.662201126
 42
0.7618697785
  0
ELLIPSE
  5
500
100
AcDbEntity
  8
0
100
AcDbEllipse
 62
7
  6
CONTINUOUS
 10
137.9755726797
 20
95.8684874096
 30
0.0
 11
0.4625183445
 21
0.8873459255
 31
0.0
 40
0.5463614449
 41
0.662201126
 42
0.7618697785
  0
ELLIPSE
  5
501
100
AcDbEntity
  8
RACCORDO
100
AcDbEllipse
 62
7
  6
CONTINUOUS
 10
123.5848767892
 20
102.2183485877
 30
0.0
 11
-0.2500122581
 21
0.4330056244
 31
0.0
 40
0.5801478137
 41
0.7877823601
 42
2.353712702
  0
ELLIPSE
  5
502
100
AcDbEntity
  8
ASSI
100
AcDbEllipse
 62
7
  6
CONTINUOUS
 10
123.5848767892
 20
102.2183485877
 30
0.0
 11
-0.2500122581
 21
0.4330056244
 31
0.0
 40
0.5801478137
 41
0.7877823601
 42
2.353712702
  0
ENDSEC
  0
SECTION
  2
OBJECTS
  0
DICTIONARY
  5
C
100
AcDbDictionary
280
0
281
1
  3
ACAD_GROUP
350
D
  3
ACAD_MLINESTYLE
350
17
  3
ACAD_LAYOUT
350
1A
  3
ACAD_PLOTSETTINGS
350
19
  3
ACAD_PLOTSTYLENAME
350
E
  0
DICTIONARY
  5
D
102
{ACAD_REACTORS
330
C
102
}
100
AcDbDictionary
280
0
281
1
  0
ACDBDICTIONARYWDFLT
  5
E
102
{ACAD_REACTORS
330
C
102
}
100
AcDbDictionary
281
1
  3
Normal
350
F
100
AcDbDictionaryWithDefault
340
F
  0
DICTIONARY
  5
17
102
{ACAD_REACTORS
330
C
102
}
100
AcDbDictionary
280
0
281
1
  3
Standard
350
18
  0
DICTIONARY
  5
19
102
{ACAD_REACTORS
330
C
102
}
100
AcDbDictionary
281
1
  0
DICTIONARY
  5
1A
102
{ACAD_REACTORS
330
C
102
}
100
AcDbDictionary
281
1
  3
Model
350
503
  3
Layout1
350
504
  0
ACDBPLACEHOLDER
  5
F
102
{ACAD_REACTORS
330
E
102
}
  0
MLINESTYLE
  5
18
102
{ACAD_REACTORS
330
17
102
}
100
AcDbMlineStyle
  2
STANDARD
 70
0
  3

 62
256
 51
90.0
 52
90.0
 71
2
 49
0.5
 62
256
  6
BYLAYER
 49
-0.5
 62
256
  6
BYLAYER
  0
LAYOUT
  5
503
102
{ACAD_REACTORS
330
1A
102
}
100
AcDbPlotSettings
  1

  2
none_device
  4
ISO_A4_(297.00_x_210.00_MM)
  6

 40
0.0
 41
0.0
 42
0.0
 43
0.0
 44
297.0
 45
210.0
 46
0.0
 47
0.0
 48
0.0
 49
0.0
140
0.0
141
0.0
142
1.0
143
1.0
 70
1024
 72
1
 73
0
 74
0
  7

 75
0
147
1.0
148
0.0
149
0.0
100
AcDbLayout
  1
Model
 70
0
 71
0
 10
0.0
 20
0.0
 11
297.0
 21
210.0
 12
0.0
 22
0.0
 32
0.0
 14
0.0
 24
0.0
 34
0.0
 15
0.0
 25
0.0
 35
0.0
146
0.0
 13
0.0
 23
0.0
 33
0.0
 16
1.0
 26
0.0
 36
0.0
 17
0.0
 27
1.0
 37
0.0
 76
0
330
21C
345
0
346
0
  0
LAYOUT
  5
504
102
{ACAD_REACTORS
330
1A
102
}
100
AcDbPlotSettings
  1

  2
none_device
  4
ISO_A4_(297.00_x_210.00_MM)
  6

 40
0.0
 41
0.0
 42
0.0
 43
0.0
 44
297.0
 45
210.0
 46
0.0
 47
0.0
 48
0.0
 49
0.0
140
0.0
141
0.0
142
1.0
143
1.0
 70
0
 72
1
 73
0
 74
0
  7

 75
0
147
1.0
148
0.0
149
0.0
100
AcDbLayout
  1
Layout1
 70
0
 71
1
 10
0.0
 20
0.0
 11
297.0
 21
210.0
 12
0.0
 22
0.0
 32
0.0
 14
0.0
 24
0.0
 34
0.0
 15
0.0
 25
0.0
 35
0.0
146
0.0
 13
0.0
 23
0.0
 33
0.0
 16
1.0
 26
0.0
 36
0.0
 17
0.0
 27
1.0
 37
0.0
 76
0
330
21D
345
0
346
0
  0
ENDSEC
  0
EOF
