  0
SECTION
  2
HEADER
  9
$ACADVER
  1
AC1021
  9
$DWGCODEPAGE
  3
ANSI_1252
  9
$EXTMAX
 10
297.0
 20
210.0
 30
0.0
  9
$EXTMIN
 10
0.0
 20
0.0
 30
0.0
  9
$LIMMIN
 10
0.0
 20
0.0
  9
$LIMMAX
 10
297.0
 20
210.0
  9
$VIEWCTR
 10
148.5
 20
105.0
  9
$VIEWSIZE
 40
210.0
  9
$CLAYER
  8
0
  9
$LTSCALE
 40
16.335
  9
$CELTYPE
  6
BYLAYER
  9
$DIMSCALE
 40
1.0
  9
$DIMASZ
 40
3.0
  9
$DIMEXO
 40
0.5
  9
$DIMDLI
 40
11.286
  9
$DIMEXE
 40
1.5
  9
$DIMCEN
 40
2.673
  9
$DIMLFAC
 40
1.0
  9
$DIMBLK
  1
_FILLED
  9
$DIMALT
 70
0
  9
$DIMALTF
 40
25.4
  9
$DIMTXT
 40
3.0
  9
$DIMTOL
 70
1
  9
$DIMLIM
 70
0
  9
$DIMTFAC
 40
1.0
  9
$DIMTP
 40
0.01
  9
$DIMTM
 40
0.01
  9
$DIMGAP
 40
0.625
  9
$DIMDSEP
 70
44
  9
$AUNITS
 70
0
  9
$PDMODE
 70
3
  9
$PDSIZE
 40
3.0
  9
$HANDSEED
  5
3CB
  9
$TILEMODE
 70
1
  9
$MEASUREMENT
 70
1
  9
$INSUNITS
 70
4
  0
ENDSEC
  0
SECTION
  2
CLASSES
  0
CLASS
  1
ACDBDICTIONARYWDFLT
  2
AcDbDictionaryWithDefault
  3
AutoCAD 2000
 90
0
 91
1
280
0
281
0
  0
CLASS
  1
ACDBPLACEHOLDER
  2
AcDbPlaceHolder
  3
AutoCAD 2000
 90
0
 91
1
280
0
281
0
  0
CLASS
  1
LAYOUT
  2
AcDbLayout
  3
AutoCAD 2000
 90
0
 91
0
280
0
281
0
  0
ENDSEC
  0
SECTION
  2
TABLES
  0
TABLE
  2
VPORT
  5
8
100
AcDbSymbolTable
 70
2
  0
VPORT
  5
1F4
100
AcDbSymbolTableRecord
100
AcDbViewportTableRecord
  2
*ACTIVE
 70
0
 10
0.0
 20
0.0
 11
1.0
 21
1.0
 12
148.5
 22
105.0
 13
0.0
 23
0.0
 14
1.0
 24
1.0
 15
0.0
 25
0.0
 16
0.0
 26
0.0
 36
1.0
 17
0.0
 27
0.0
 37
0.0
 40
210.0
 41
1.4142857143
 42
50.0
 43
0.0
 44
0.0
 50
0.0
 51
0.0
 71
0
 72
100
 73
1
 74
1
 75
0
 76
0
 77
0
 78
0
  0
ENDTAB
  0
TABLE
  2
LTYPE
  5
5
100
AcDbSymbolTable
 70
6
  0
LTYPE
  5
14
100
AcDbSymbolTableRecord
100
AcDbLinetypeTableRecord
  2
BYBLOCK
 70
0
  3

 72
65
 73
0
 40
0.0
  0
LTYPE
  5
15
100
AcDbSymbolTableRecord
100
AcDbLinetypeTableRecord
  2
BYLAYER
 70
0
  3

 72
65
 73
0
 40
0.0
  0
LTYPE
  5
16
100
AcDbSymbolTableRecord
100
AcDbLinetypeTableRecord
  2
CONTINUOUS
 70
64
  3
Solid line
 72
65
 73
0
 40
0.0
  0
LTYPE
  5
1F5
100
AcDbSymbolTableRecord
100
AcDbLinetypeTableRecord
  2
CENTER
 70
64
  3
____ _ ____ _ ____ _ ____ _ ____ _ ____ _ ____
 72
65
 73
4
 40
0.6
 49
0.375
 74
0
 49
-0.075
 74
0
 49
0.075
 74
0
 49
-0.075
 74
0
  0
LTYPE
  5
1F6
100
AcDbSymbolTableRecord
100
AcDbLinetypeTableRecord
  2
HIDDEN
 70
64
  3
- - - - - - - - - - - - - - - - - - - -
 72
65
 73
2
 40
0.2
 49
0.1
 74
0
 49
-0.1
 74
0
  0
LTYPE
  5
1F7
100
AcDbSymbolTableRecord
100
AcDbLinetypeTableRecord
  2
PHANTOM
 70
64
  3
_____ _ _ _____ _ _ _____ _ _ _____
 72
65
 73
6
 40
0.8
 49
0.45
 74
0
 49
-0.05
 74
0
 49
0.1
 74
0
 49
-0.05
 74
0
 49
0.1
 74
0
 49
-0.05
 74
0
  0
LTYPE
  5
1F8
100
AcDbSymbolTableRecord
100
AcDbLinetypeTableRecord
  2
DOT
 70
64
  3
. . . . . . . . . . . . . . . . . . . .
 72
65
 73
2
 40
0.2
 49
0.1
 74
0
 49
-0.1
 74
0
  0
LTYPE
  5
1F9
100
AcDbSymbolTableRecord
100
AcDbLinetypeTableRecord
  2
DASHED
 70
64
  3
- - - - - - - - - - - - - - - - - - - -
 72
65
 73
2
 40
0.2
 49
0.1
 74
0
 49
-0.1
 74
0
  0
ENDTAB
  0
TABLE
  2
LAYER
  5
2
100
AcDbSymbolTable
 70
36
  0
LAYER
  5
10
100
AcDbSymbolTableRecord
100
AcDbLayerTableRecord
  2
0
 70
0
 62
7
  6
CONTINUOUS
370
-3
390
F
  0
LAYER
  5
1FA
100
AcDbSymbolTableRecord
100
AcDbLayerTableRecord
  2
DEFAULT_1
 70
0
 62
7
  6
CENTER
370
-3
390
F
  0
LAYER
  5
1FB
100
AcDbSymbolTableRecord
100
AcDbLayerTableRecord
  2
DEFAULT_2
 70
0
 62
7
  6
HIDDEN
370
-3
390
F
  0
LAYER
  5
1FC
100
AcDbSymbolTableRecord
100
AcDbLayerTableRecord
  2
DEFAULT_3
 70
0
 62
7
  6
PHANTOM
370
-3
390
F
  0
LAYER
  5
1FD
100
AcDbSymbolTableRecord
100
AcDbLayerTableRecord
  2
ASSI
 70
0
 62
7
  6
CONTINUOUS
370
-3
390
F
  0
LAYER
  5
1FE
100
AcDbSymbolTableRecord
100
AcDbLayerTableRecord
  2
COORDINATE
 70
0
 62
7
  6
CONTINUOUS
370
-3
390
F
  0
LAYER
  5
1FF
100
AcDbSymbolTableRecord
100
AcDbLayerTableRecord
  2
COORD_ORIGINE
 70
0
 62
7
  6
CONTINUOUS
370
-3
390
F
  0
LAYER
  5
200
100
AcDbSymbolTableRecord
100
AcDbLayerTableRecord
  2
COPY_PUBLISH
 70
0
 62
7
  6
CONTINUOUS
370
-3
390
F
  0
LAYER
  5
201
100
AcDbSymbolTableRecord
100
AcDbLayerTableRecord
  2
COSMETIC
 70
0
 62
7
  6
CONTINUOUS
370
-3
390
F
  0
LAYER
  5
202
100
AcDbSymbolTableRecord
100
AcDbLayerTableRecord
  2
COSMETICI
 70
0
 62
7
  6
CONTINUOUS
370
-3
390
F
  0
LAYER
  5
203
100
AcDbSymbolTableRecord
100
AcDbLayerTableRecord
  2
CURVA_TASSELLO
 70
0
 62
7
  6
CONTINUOUS
370
-3
390
F
  0
LAYER
  5
204
100
AcDbSymbolTableRecord
100
AcDbLayerTableRecord
  2
CURVE
 70
0
 62
7
  6
CONTINUOUS
370
-3
390
F
  0
LAYER
  5
205
100
AcDbSymbolTableRecord
100
AcDbLayerTableRecord
  2
DRAFT
 70
0
 62
7
  6
CONTINUOUS
370
-3
390
F
  0
LAYER
  5
206
100
AcDbSymbolTableRecord
100
AcDbLayerTableRecord
  2
IMPORT_IGES
 70
0
 62
7
  6
CONTINUOUS
370
-3
390
F
  0
LAYER
  5
207
100
AcDbSymbolTableRecord
100
AcDbLayerTableRecord
  2
INTFCLR_2
 70
0
 62
7
  6
CONTINUOUS
370
-3
390
F
  0
LAYER
  5
208
100
AcDbSymbolTableRecord
100
AcDbLayerTableRecord
  2
INTF_1
 70
0
 62
7
  6
CONTINUOUS
370
-3
390
F
  0
LAYER
  5
209
100
AcDbSymbolTableRecord
100
AcDbLayerTableRecord
  2
INTF_21
 70
0
 62
7
  6
CONTINUOUS
370
-3
390
F
  0
LAYER
  5
20A
100
AcDbSymbolTableRecord
100
AcDbLayerTableRecord
  2
INTF_7
 70
0
 62
7
  6
CONTINUOUS
370
-3
390
F
  0
LAYER
  5
20B
100
AcDbSymbolTableRecord
100
AcDbLayerTableRecord
  2
NOTE
 70
0
 62
7
  6
CONTINUOUS
370
-3
390
F
  0
LAYER
  5
20C
100
AcDbSymbolTableRecord
100
AcDbLayerTableRecord
  2
PIANI
 70
0
 62
7
  6
CONTINUOUS
370
-3
390
F
  0
LAYER
  5
20D
100
AcDbSymbolTableRecord
100
AcDbLayerTableRecord
  2
PIANI_ORIGINE
 70
0
 62
7
  6
CONTINUOUS
370
-3
390
F
  0
LAYER
  5
20E
100
AcDbSymbolTableRecord
100
AcDbLayerTableRecord
  2
PIANI_RIFERIMENTO
 70
0
 62
7
  6
CONTINUOUS
370
-3
390
F
  0
LAYER
  5
20F
100
AcDbSymbolTableRecord
100
AcDbLayerTableRecord
  2
PUNTI
 70
0
 62
7
  6
CONTINUOUS
370
-3
390
F
  0
LAYER
  5
210
100
AcDbSymbolTableRecord
100
AcDbLayerTableRecord
  2
RACCORDO
 70
0
 62
7
  6
CONTINUOUS
370
-3
390
F
  0
LAYER
  5
211
100
AcDbSymbolTableRecord
100
AcDbLayerTableRecord
  2
RGB__255__255__255__
 70
0
 62
7
  6
CONTINUOUS
370
-3
390
F
  0
LAYER
  5
212
100
AcDbSymbolTableRecord
100
AcDbLayerTableRecord
  2
RGB____0____0____0__
 70
0
 62
7
  6
CONTINUOUS
370
-3
390
F
  0
LAYER
  5
213
100
AcDbSymbolTableRecord
100
AcDbLayerTableRecord
  2
SIMBOLI
 70
0
 62
7
  6
CONTINUOUS
370
-3
390
F
  0
LAYER
  5
214
100
AcDbSymbolTableRecord
100
AcDbLayerTableRecord
  2
SMUSSO
 70
0
 62
7
  6
CONTINUOUS
370
-3
390
F
  0
LAYER
  5
215
100
AcDbSymbolTableRecord
100
AcDbLayerTableRecord
  2
SNAPLINE
 70
0
 62
7
  6
CONTINUOUS
370
-3
390
F
  0
LAYER
  5
216
100
AcDbSymbolTableRecord
100
AcDbLayerTableRecord
  2
SUPERFICI
 70
0
 62
7
  6
CONTINUOUS
370
-3
390
F
  0
LAYER
  5
217
100
AcDbSymbolTableRecord
100
AcDbLayerTableRecord
  2
TRASH
 70
0
 62
7
  6
CONTINUOUS
370
-3
390
F
  0
LAYER
  5
218
100
AcDbSymbolTableRecord
100
AcDbLayerTableRecord
  2
WHITE
 70
0
 62
7
  6
CONTINUOUS
370
-3
390
F
  0
LAYER
  5
219
100
AcDbSymbolTableRecord
100
AcDbLayerTableRecord
  2
XSEC_DATUMS
 70
0
 62
7
  6
CONTINUOUS
370
-3
390
F
  0
ENDTAB
  0
TABLE
  2
STYLE
  5
3
100
AcDbSymbolTable
 70
1
  0
STYLE
  5
11
100
AcDbSymbolTableRecord
100
AcDbTextStyleTableRecord
  2
STANDARD
 70
0
 40
0.0
 41
0.8
 50
0.0
 71
0
 42
0.2
  3
txt
  4

  0
STYLE
  5
21A
100
AcDbSymbolTableRecord
100
AcDbTextStyleTableRecord
  2
TEXTSTYLE_1
 70
0
 40
0.0
 41
0.8
 50
0.0
 71
0
 42
0.2
  3
gdt
  4

  0
ENDTAB
  0
TABLE
  2
VIEW
  5
6
100
AcDbSymbolTable
 70
0
  0
ENDTAB
  0
TABLE
  2
UCS
  5
7
100
AcDbSymbolTable
 70
0
  0
ENDTAB
  0
TABLE
  2
APPID
  5
9
100
AcDbSymbolTable
 70
1
  0
APPID
  5
21B
100
AcDbSymbolTableRecord
100
AcDbRegAppTableRecord
  2
ACAD
 70
0
  0
ENDTAB
  0
TABLE
  2
BLOCK_RECORD
  5
1
100
AcDbSymbolTable
 70
0
  0
BLOCK_RECORD
  5
21C
100
AcDbSymbolTableRecord
100
AcDbBlockTableRecord
  2
*Model_Space
  0
BLOCK_RECORD
  5
21D
100
AcDbSymbolTableRecord
100
AcDbBlockTableRecord
  2
*Paper_Space
  0
BLOCK_RECORD
  5
21E
100
AcDbSymbolTableRecord
100
AcDbBlockTableRecord
  2
_FILLED
  0
ENDTAB
  0
TABLE
  2
DIMSTYLE
  5
A
100
AcDbSymbolTable
 70
1
100
AcDbDimStyleTable
 71
0
  0
DIMSTYLE
105
21F
100
AcDbSymbolTableRecord
100
AcDbDimStyleTableRecord
  2
STANDARD
 70
0
  3

  4

 40
1.0
 41
3.0
 42
0.5
 43
0.38
 44
1.5
 45
0.0
 46
0.0
 47
0.01
 48
0.01
140
3.0
141
0.09
142
0.0
143
25.4
144
1.0
145
0.0
146
1.0
147
0.625
 71
1.0
 72
0.0
 73
0
 74
0
 75
0
 76
0
 77
1
 78
8
 79
2
170
0
171
1
172
0
173
0
174
0
175
0
176
0
177
0
178
0
270
2
179
2
271
2
272
2
273
2
274
2
275
0
280
0
281
0
282
0
283
1
284
8
285
0
286
0
287
3
288
0
340
11
278
44
341
21E
342
21E
343
21E
344
21E
  0
ENDTAB
  0
ENDSEC
  0
SECTION
  2
BLOCKS
  0
BLOCK
  5
20
100
AcDbEntity
  8
0
100
AcDbBlockBegin
  2
*Model_Space
 70
0
 10
0.0
 20
0.0
 30
0.0
  3
*Model_Space
  1

  0
ENDBLK
  5
21
100
AcDbEntity
  8
0
100
AcDbBlockEnd
  0
BLOCK
  5
1C
100
AcDbEntity
  8
0
100
AcDbBlockBegin
  2
*Paper_Space
 70
0
 10
0.0
 20
0.0
 30
0.0
  3
*Paper_Space
  1

  0
ENDBLK
  5
1D
100
AcDbEntity
  8
0
100
AcDbBlockEnd
  0
BLOCK
  5
220
100
AcDbEntity
  8
0
100
AcDbBlockBegin
  2
_FILLED
 70
64
 10
0.0
 20
0.0
  3
_FILLED
  1

  0
SOLID
  5
221
100
AcDbEntity
  8
0
  6
BYBLOCK
 62
0
100
AcDbTrace
 10
0.0
 20
0.0
 11
-1.0
 21
0.3166666667
 12
-1.0
 22
-0.3166666667
 13
-1.0
 23
-0.3166666667
  0
ENDBLK
  5
222
100
AcDbEntity
  8
0
  6
BYBLOCK
 62
0
100
AcDbBlockEnd
  0
ENDSEC
  0
SECTION
  2
ENTITIES
  0
LWPOLYLINE
  5
223
100
AcDbEntity
  8
SMUSSO
100
AcDbPolyline
 62
7
  6
CONTINUOUS
 90
15
 70
0
 10
105.8382265141
 20
168.2123083513
 10
105.8239197884
 20
168.2035609448
 10
105.7965753606
 20
168.1838703041
 10
105.7710639521
 20
168.1613456733
 10
105.747471811
 20
168.1360632256
 10
105.7258785118
 20
168.1081083625
 10
105.7063565476
 20
168.0775753441
 10
105.6889725441
 20
168.0445678133
 10
105.6737867819
 20
168.0091982994
 10
105.6608523168
 20
167.9715874466
 10
105.6502112558
 20
167.9318615604
 10
105.6418960711
 20
167.8901530207
 10
105.6359337236
 20
167.8466022775
 10
105.6323455678
 20
167.8013573739
 10
105.6311437337
 20
167.7545713981
  0
LINE
  5
224
100
AcDbEntity
  8
RACCORDO
100
AcDbLine
 62
7
  6
CONTINUOUS
 10
105.8382263548
 20
168.2123082593
 11
106.8988865265
 21
168.8247201493
  0
LINE
  5
225
100
AcDbEntity
  8
SMUSSO
100
AcDbLine
 62
250
  6
CONTINUOUS
 10
106.3382505149
 20
168.1627670816
 11
107.3989106867
 21
168.7751789716
  0
LINE
  5
226
100
AcDbEntity
  8
0
100
AcDbLine
 62
7
  6
CONTINUOUS
 10
109.9267679883
 20
169.4292429015
 11
108.0314109717
 21
168.4099812341
  0
LINE
  5
227
100
AcDbEntity
  8
ASSI
100
AcDbLine
 62
7
  6
CONTINUOUS
 10
109.9267679883
 20
169.4292429015
 11
108.0314109717
 21
168.4099812341
  0
LINE
  5
228
100
AcDbEntity
  8
0
100
AcDbLine
 62
250
  6
CONTINUOUS
 10
110.4040068109
 20
169.367294551
 11
108.3176036206
 21
168.2452944339
  0
LINE
  5
229
100
AcDbEntity
  8
ASSI
100
AcDbLine
 62
250
  6
CONTINUOUS
 10
110.4040068109
 20
169.367294551
 11
108.3176036206
 21
168.2452944339
  0
LWPOLYLINE
  5
22A
100
AcDbEntity
  8
SMUSSO
100
AcDbPolyline
 62
7
  6
CONTINUOUS
 90
13
 70
0
 10
106.8988865265
 20
168.8247201493
 10
106.9326853125
 20
168.841758793
 10
106.9684565554
 20
168.8550015468
 10
107.0060709961
 20
168.8644056422
 10
107.0453675217
 20
168.8699309052
 10
107.0861777792
 20
168.8715537662
 10
107.1283265253
 20
168.8692674184
 10
107.1716331489
 20
168.86308188
 10
107.2159121844
 20
168.8530238563
 10
107.2609736531
 20
168.8391367453
 10
107.3066244471
 20
168.8214803502
 10
107.3526691773
 20
168.8001305293
 10
107.3989106867
 20
168.7751789716
  0
LINE
  5
22B
100
AcDbEntity
  8
SMUSSO
100
AcDbLine
 62
250
  6
CONTINUOUS
 10
105.6311437337
 20
166.9380222115
 11
106.3382505149
 21
168.1627670816
  0
LINE
  5
22C
100
AcDbEntity
  8
0
100
AcDbLine
 62
250
  6
CONTINUOUS
 10
193.3196074518
 20
53.4105177141
 11
194.2281665579
 21
53.6490339861
  0
LINE
  5
22D
100
AcDbEntity
  8
0
100
AcDbLine
 62
250
  6
CONTINUOUS
 10
194.6395524123
 20
54.0246767625
 11
193.3196074518
 21
53.7340857013
  0
LINE
  5
22E
100
AcDbEntity
  8
SMUSSO
100
AcDbLine
 62
250
  6
CONTINUOUS
 10
190.4839574761
 20
46.0956866544
 11
191.8981710385
 21
46.0956866544
  0
LINE
  5
22F
100
AcDbEntity
  8
0
100
AcDbLine
 62
250
  6
CONTINUOUS
 10
194.1721428582
 20
56.9619240008
 11
193.6822945053
 21
56.8302628015
  0
LINE
  5
230
100
AcDbEntity
  8
0
100
AcDbLine
 62
250
  6
CONTINUOUS
 10
194.6395524123
 20
57.0858108019
 11
194.376044336
 21
57.0176042627
  0
LINE
  5
231
100
AcDbEntity
  8
0
100
AcDbLine
 62
250
  6
CONTINUOUS
 10
193.3196074518
 20
56.4628812298
 11
194.6395524123
 21
56.7655340064
  0
LINE
  5
232
100
AcDbEntity
  8
0
100
AcDbLine
 62
250
  6
CONTINUOUS
 10
193.3196074518
 20
55.4600826382
 11
194.0524447156
 21
55.5744584181
  0
LINE
  5
233
100
AcDbEntity
  8
0
100
AcDbLine
 62
250
  6
CONTINUOUS
 10
194.6395524123
 20
55.94642898
 11
193.7812462945
 21
55.8182319898
  0
LINE
  5
234
100
AcDbEntity
  8
SMUSSO
100
AcDbLine
 62
7
  6
CONTINUOUS
 10
105.6311437337
 20
95.0886378537
 11
105.6311437337
 21
167.7545713981
  0
LINE
  5
235
100
AcDbEntity
  8
RACCORDO
100
AcDbLine
 62
250
  6
CONTINUOUS
 10
124.1219860617
 20
137.8094133404
 11
124.9704731951
 21
138.2993191772
  0
LWPOLYLINE
  5
236
100
AcDbEntity
  8
RACCORDO
100
AcDbPolyline
 62
7
  6
CONTINUOUS
 90
13
 70
0
 10
124.370485207
 20
138.3586975738
 10
124.4109962587
 20
138.3790875298
 10
124.4540402809
 20
138.3950232982
 10
124.4990972241
 20
138.406318351
 10
124.5461928737
 20
138.4129132414
 10
124.5953014443
 20
138.414867416
 10
124.6457965391
 20
138.4121559489
 10
124.6976959192
 20
138.4047190738
 10
124.7509818234
 20
138.3926165569
 10
124.8049745716
 20
138.3760027699
 10
124.8594476036
 20
138.3549291702
 10
124.9146274794
 20
138.3293443004
 10
124.9705141992
 20
138.2992481606
  0
LWPOLYLINE
  5
237
100
AcDbEntity
  8
SMUSSO
100
AcDbPolyline
 62
7
  6
CONTINUOUS
 90
15
 70
0
 10
191.1910642573
 20
45.6874909709
 10
191.2321848547
 20
45.665136714
 10
191.2731639392
 20
45.6456194034
 10
191.3138628628
 20
45.6290050863
 10
191.3541426511
 20
45.6153492517
 10
191.3938682679
 20
45.6046988329
 10
191.432909076
 20
45.5970920509
 10
191.4711348203
 20
45.592555711
 10
191.5084142981
 20
45.5911040893
 10
191.5446195947
 20
45.592741074
 10
191.5796274502
 20
45.5974606917
 10
191.6133201635
 20
45.6052474083
 10
191.6455842167
 20
45.6160751574
 10
191.6763106094
 20
45.6299074001
 10
191.6910885768
 20
45.6379498852
  0
LINE
  5
238
100
AcDbEntity
  8
SMUSSO
100
AcDbLine
 62
7
  6
CONTINUOUS
 10
190.4839574761
 20
46.0956866544
 11
191.1910642573
 21
45.6874909709
  0
LINE
  5
239
100
AcDbEntity
  8
SMUSSO
100
AcDbLine
 62
7
  6
CONTINUOUS
 10
105.6311437337
 20
95.0886378537
 11
190.4839574761
 21
46.0956866544
  0
LINE
  5
23A
100
AcDbEntity
  8
RACCORDO
100
AcDbLine
 62
7
  6
CONTINUOUS
 10
124.1219860617
 20
137.8094133404
 11
124.1219860617
 21
102.8644854937
  0
LWPOLYLINE
  5
23B
100
AcDbEntity
  8
RACCORDO
100
AcDbPolyline
 62
7
  6
CONTINUOUS
 90
13
 70
0
 10
124.1219860617
 20
137.8094133404
 10
124.1238672609
 20
137.872857506
 10
124.1293020043
 20
137.933433733
 10
124.138290292
 20
137.9911420213
 10
124.1509008501
 20
138.0462042899
 10
124.1670649524
 20
138.09839862
 10
124.1865764202
 20
138.1470592545
 10
124.2094781326
 20
138.1921409275
 10
124.2357272105
 20
138.2336889051
 10
124.2649888377
 20
138.2711732282
 10
124.2973016044
 20
138.3045418422
 10
124.3326269205
 20
138.3338468017
 10
124.370485207
 20
138.3586975738
  0
LWPOLYLINE
  5
23C
100
AcDbEntity
  8
RACCORDO
100
AcDbPolyline
 62
7
  6
CONTINUOUS
 90
25
 70
0
 10
126.2433064053
 20
104.0893092737
 10
126.2451876045
 20
104.0236927464
 10
126.2506223479
 20
103.956840614
 10
126.2596106355
 20
103.8887528764
 10
126.2722211937
 20
103.8191282514
 10
126.288385296
 20
103.7482680211
 10
126.3078967638
 20
103.6770760327
 10
126.3307984762
 20
103.6055480362
 10
126.3570475541
 20
103.5336882815
 10
126.3863091813
 20
103.4624133648
 10
126.418621948
 20
103.3917307777
 10
126.4539472641
 20
103.3216330286
 10
126.4918345427
 20
103.2530142387
 10
126.5323166023
 20
103.1858933532
 10
126.5753606244
 20
103.1202514269
 10
126.6204175677
 20
103.0569257454
 10
126.6675132172
 20
102.9959459795
 10
126.7166217878
 20
102.9372824584
 10
126.7671168826
 20
102.8816834558
 10
126.8190162627
 20
102.8291882276
 10
126.872302167
 20
102.7797575179
 10
126.9262949152
 20
102.7340218327
 10
126.9807679471
 20
102.6921913406
 10
127.035947823
 20
102.6540558728
 10
127.0918345427
 20
102.6196154295
  0
LINE
  5
23D
100
AcDbEntity
  8
RACCORDO
100
AcDbLine
 62
7
  6
CONTINUOUS
 10
126.2433064053
 20
137.5643538926
 11
126.2433064053
 21
104.0893092737
  0
LINE
  5
23E
100
AcDbEntity
  8
0
100
AcDbLine
 62
250
  6
CONTINUOUS
 10
126.8356421666
 20
102.8137651952
 11
126.8356421666
 21
137.2223466477
  0
LINE
  5
23F
100
AcDbEntity
  8
ASSI
100
AcDbLine
 62
250
  6
CONTINUOUS
 10
126.8356421666
 20
102.8137651952
 11
126.8356421666
 21
137.2223466477
  0
LINE
  5
240
100
AcDbEntity
  8
0
100
AcDbLine
 62
7
  6
CONTINUOUS
 10
126.9198402265
 20
102.7394894116
 11
126.9198402265
 21
137.1737317432
  0
LINE
  5
241
100
AcDbEntity
  8
ASSI
100
AcDbLine
 62
7
  6
CONTINUOUS
 10
126.9198402265
 20
102.7394894116
 11
126.9198402265
 21
137.1737317432
  0
LINE
  5
242
100
AcDbEntity
  8
RACCORDO
100
AcDbLine
 62
7
  6
CONTINUOUS
 10
124.9705141992
 20
101.3947916496
 11
171.1445870107
 21
74.7344607053
  0
LINE
  5
243
100
AcDbEntity
  8
RACCORDO
100
AcDbLine
 62
7
  6
CONTINUOUS
 10
127.0918345427
 20
102.6196154295
 11
171.9931151481
 21
76.6941787532
  0
LINE
  5
244
100
AcDbEntity
  8
0
100
AcDbLine
 62
7
  6
CONTINUOUS
 10
169.8010841264
 20
78.000850781
 11
165.9119968299
 21
80.2463610443
  0
LINE
  5
245
100
AcDbEntity
  8
ASSI
100
AcDbLine
 62
7
  6
CONTINUOUS
 10
169.8010841264
 20
78.000850781
 11
165.9119968299
 21
80.2463610443
  0
LINE
  5
246
100
AcDbEntity
  8
0
100
AcDbLine
 62
7
  6
CONTINUOUS
 10
137.981278973
 20
96.3732074808
 11
134.0921916765
 21
98.6187177441
  0
LINE
  5
247
100
AcDbEntity
  8
ASSI
100
AcDbLine
 62
7
  6
CONTINUOUS
 10
137.981278973
 20
96.3732074808
 11
134.0921916765
 21
98.6187177441
  0
LINE
  5
248
100
AcDbEntity
  8
0
100
AcDbLine
 62
7
  6
CONTINUOUS
 10
170.0485714998
 20
78.0212763472
 11
166.0534181861
 21
80.328015963
  0
LINE
  5
249
100
AcDbEntity
  8
ASSI
100
AcDbLine
 62
7
  6
CONTINUOUS
 10
170.0485714998
 20
78.0212763472
 11
166.0534181861
 21
80.328015963
  0
LINE
  5
24A
100
AcDbEntity
  8
0
100
AcDbLine
 62
7
  6
CONTINUOUS
 10
134.2336130327
 20
98.7003726628
 11
138.2287663464
 21
96.3936330469
  0
LINE
  5
24B
100
AcDbEntity
  8
ASSI
100
AcDbLine
 62
7
  6
CONTINUOUS
 10
134.2336130327
 20
98.7003726628
 11
138.2287663464
 21
96.3936330469
  0
LINE
  5
24C
100
AcDbEntity
  8
0
100
AcDbLine
 62
7
  6
CONTINUOUS
 10
170.154637517
 20
78.2049880777
 11
166.2655502205
 21
80.450498341
  0
LINE
  5
24D
100
AcDbEntity
  8
ASSI
100
AcDbLine
 62
7
  6
CONTINUOUS
 10
170.154637517
 20
78.2049880777
 11
166.2655502205
 21
80.450498341
  0
LINE
  5
24E
100
AcDbEntity
  8
0
100
AcDbLine
 62
7
  6
CONTINUOUS
 10
138.3348323636
 20
96.5773447775
 11
134.4457450671
 21
98.8228550408
  0
LINE
  5
24F
100
AcDbEntity
  8
ASSI
100
AcDbLine
 62
7
  6
CONTINUOUS
 10
138.3348323636
 20
96.5773447775
 11
134.4457450671
 21
98.8228550408
  0
LINE
  5
250
100
AcDbEntity
  8
0
100
AcDbLine
 62
7
  6
CONTINUOUS
 10
170.4021248904
 20
78.2254136439
 11
166.4069715767
 21
80.5321532597
  0
LINE
  5
251
100
AcDbEntity
  8
ASSI
100
AcDbLine
 62
7
  6
CONTINUOUS
 10
170.4021248904
 20
78.2254136439
 11
166.4069715767
 21
80.5321532597
  0
LINE
  5
252
100
AcDbEntity
  8
0
100
AcDbLine
 62
7
  6
CONTINUOUS
 10
134.5871664233
 20
98.9045099594
 11
138.582319737
 21
96.5977703436
  0
LINE
  5
253
100
AcDbEntity
  8
ASSI
100
AcDbLine
 62
7
  6
CONTINUOUS
 10
134.5871664233
 20
98.9045099594
 11
138.582319737
 21
96.5977703436
  0
LINE
  5
254
100
AcDbEntity
  8
0
100
AcDbLine
 62
7
  6
CONTINUOUS
 10
170.5081909076
 20
78.4091253744
 11
166.6191036111
 21
80.6546356377
  0
LINE
  5
255
100
AcDbEntity
  8
ASSI
100
AcDbLine
 62
7
  6
CONTINUOUS
 10
170.5081909076
 20
78.4091253744
 11
166.6191036111
 21
80.6546356377
  0
LINE
  5
256
100
AcDbEntity
  8
0
100
AcDbLine
 62
7
  6
CONTINUOUS
 10
138.6883857542
 20
96.7814820741
 11
134.7992984577
 21
99.0269923374
  0
LINE
  5
257
100
AcDbEntity
  8
ASSI
100
AcDbLine
 62
7
  6
CONTINUOUS
 10
138.6883857542
 20
96.7814820741
 11
134.7992984577
 21
99.0269923374
  0
LINE
  5
258
100
AcDbEntity
  8
0
100
AcDbLine
 62
7
  6
CONTINUOUS
 10
170.755678281
 20
78.4295509405
 11
166.7605249673
 21
80.7362905563
  0
LINE
  5
259
100
AcDbEntity
  8
ASSI
100
AcDbLine
 62
7
  6
CONTINUOUS
 10
170.755678281
 20
78.4295509405
 11
166.7605249673
 21
80.7362905563
  0
LINE
  5
25A
100
AcDbEntity
  8
0
100
AcDbLine
 62
7
  6
CONTINUOUS
 10
134.9407198139
 20
99.1086472561
 11
138.9358731276
 21
96.8019076403
  0
LINE
  5
25B
100
AcDbEntity
  8
ASSI
100
AcDbLine
 62
7
  6
CONTINUOUS
 10
134.9407198139
 20
99.1086472561
 11
138.9358731276
 21
96.8019076403
  0
LINE
  5
25C
100
AcDbEntity
  8
0
100
AcDbLine
 62
7
  6
CONTINUOUS
 10
170.8617442982
 20
78.613262671
 11
166.9726570017
 21
80.8587729343
  0
LINE
  5
25D
100
AcDbEntity
  8
ASSI
100
AcDbLine
 62
7
  6
CONTINUOUS
 10
170.8617442982
 20
78.613262671
 11
166.9726570017
 21
80.8587729343
  0
LINE
  5
25E
100
AcDbEntity
  8
0
100
AcDbLine
 62
7
  6
CONTINUOUS
 10
139.0419391448
 20
96.9856193708
 11
135.1528518483
 21
99.2311296341
  0
LINE
  5
25F
100
AcDbEntity
  8
ASSI
100
AcDbLine
 62
7
  6
CONTINUOUS
 10
139.0419391448
 20
96.9856193708
 11
135.1528518483
 21
99.2311296341
  0
LINE
  5
260
100
AcDbEntity
  8
0
100
AcDbLine
 62
7
  6
CONTINUOUS
 10
171.1092316716
 20
78.6336882372
 11
167.1140783579
 21
80.940427853
  0
LINE
  5
261
100
AcDbEntity
  8
ASSI
100
AcDbLine
 62
7
  6
CONTINUOUS
 10
171.1092316716
 20
78.6336882372
 11
167.1140783579
 21
80.940427853
  0
LINE
  5
262
100
AcDbEntity
  8
0
100
AcDbLine
 62
7
  6
CONTINUOUS
 10
135.2942732045
 20
99.3127845527
 11
139.2894265182
 21
97.0060449369
  0
LINE
  5
263
100
AcDbEntity
  8
ASSI
100
AcDbLine
 62
7
  6
CONTINUOUS
 10
135.2942732045
 20
99.3127845527
 11
139.2894265182
 21
97.0060449369
  0
LWPOLYLINE
  5
264
100
AcDbEntity
  8
RACCORDO
100
AcDbPolyline
 62
7
  6
CONTINUOUS
 90
25
 70
0
 10
124.9705141992
 20
101.3947916496
 10
124.9146274794
 20
101.4292320928
 10
124.8594476036
 20
101.4673675606
 10
124.8049745716
 20
101.5091980527
 10
124.7509818234
 20
101.554933738
 10
124.6976959192
 20
101.6043644476
 10
124.6457965391
 20
101.6568596758
 10
124.5953014443
 20
101.7124586784
 10
124.5461928737
 20
101.7711221995
 10
124.4990972241
 20
101.8321019654
 10
124.4540402809
 20
101.8954276469
 10
124.4109962587
 20
101.9610695732
 10
124.3705141992
 20
102.0281904587
 10
124.3326269205
 20
102.0968092486
 10
124.2973016044
 20
102.1669069977
 10
124.2649888377
 20
102.2375895848
 10
124.2357272105
 20
102.3088645015
 10
124.2094781326
 20
102.3807242562
 10
124.1865764202
 20
102.4522522527
 10
124.1670649524
 20
102.5234442411
 10
124.1509008501
 20
102.5943044714
 10
124.138290292
 20
102.6639290964
 10
124.1293020043
 20
102.732016834
 10
124.1238672609
 20
102.7988689665
 10
124.1219860617
 20
102.8644854937
  0
LINE
  5
265
100
AcDbEntity
  8
0
100
AcDbLine
 62
7
  6
CONTINUOUS
 10
134.0744294401
 20
98.5879526483
 11
134.0921916765
 21
98.6187177441
  0
LINE
  5
266
100
AcDbEntity
  8
ASSI
100
AcDbLine
 62
7
  6
CONTINUOUS
 10
134.0744294401
 20
98.5879526483
 11
134.0921916765
 21
98.6187177441
  0
LINE
  5
267
100
AcDbEntity
  8
0
100
AcDbLine
 62
7
  6
CONTINUOUS
 10
134.3396790499
 20
98.6391433102
 11
134.4457450671
 21
98.8228550408
  0
LINE
  5
268
100
AcDbEntity
  8
ASSI
100
AcDbLine
 62
7
  6
CONTINUOUS
 10
134.3396790499
 20
98.6391433102
 11
134.4457450671
 21
98.8228550408
  0
LINE
  5
269
100
AcDbEntity
  8
0
100
AcDbLine
 62
7
  6
CONTINUOUS
 10
171.2152976888
 20
78.8173999677
 11
167.3262103922
 21
81.062910231
  0
LINE
  5
26A
100
AcDbEntity
  8
ASSI
100
AcDbLine
 62
7
  6
CONTINUOUS
 10
171.2152976888
 20
78.8173999677
 11
167.3262103922
 21
81.062910231
  0
LINE
  5
26B
100
AcDbEntity
  8
0
100
AcDbLine
 62
7
  6
CONTINUOUS
 10
139.3954925354
 20
97.1897566674
 11
135.5064052389
 21
99.4352669307
  0
LINE
  5
26C
100
AcDbEntity
  8
ASSI
100
AcDbLine
 62
7
  6
CONTINUOUS
 10
139.3954925354
 20
97.1897566674
 11
135.5064052389
 21
99.4352669307
  0
LINE
  5
26D
100
AcDbEntity
  8
0
100
AcDbLine
 62
7
  6
CONTINUOUS
 10
171.4627850622
 20
78.8378255338
 11
167.4676317485
 21
81.1445651497
  0
LINE
  5
26E
100
AcDbEntity
  8
ASSI
100
AcDbLine
 62
7
  6
CONTINUOUS
 10
171.4627850622
 20
78.8378255338
 11
167.4676317485
 21
81.1445651497
  0
LINE
  5
26F
100
AcDbEntity
  8
0
100
AcDbLine
 62
7
  6
CONTINUOUS
 10
135.6478265951
 20
99.5169218494
 11
139.6429799088
 21
97.2101822336
  0
LINE
  5
270
100
AcDbEntity
  8
ASSI
100
AcDbLine
 62
7
  6
CONTINUOUS
 10
135.6478265951
 20
99.5169218494
 11
139.6429799088
 21
97.2101822336
  0
LINE
  5
271
100
AcDbEntity
  8
0
100
AcDbLine
 62
7
  6
CONTINUOUS
 10
171.5688510794
 20
79.0215372644
 11
167.6797637828
 21
81.2670475277
  0
LINE
  5
272
100
AcDbEntity
  8
ASSI
100
AcDbLine
 62
7
  6
CONTINUOUS
 10
171.5688510794
 20
79.0215372644
 11
167.6797637828
 21
81.2670475277
  0
LINE
  5
273
100
AcDbEntity
  8
0
100
AcDbLine
 62
7
  6
CONTINUOUS
 10
139.749045926
 20
97.3938939641
 11
135.8599586294
 21
99.6394042274
  0
LINE
  5
274
100
AcDbEntity
  8
ASSI
100
AcDbLine
 62
7
  6
CONTINUOUS
 10
139.749045926
 20
97.3938939641
 11
135.8599586294
 21
99.6394042274
  0
LINE
  5
275
100
AcDbEntity
  8
0
100
AcDbLine
 62
7
  6
CONTINUOUS
 10
171.8163384528
 20
79.0419628305
 11
167.8211851391
 21
81.3487024463
  0
LINE
  5
276
100
AcDbEntity
  8
ASSI
100
AcDbLine
 62
7
  6
CONTINUOUS
 10
171.8163384528
 20
79.0419628305
 11
167.8211851391
 21
81.3487024463
  0
LINE
  5
277
100
AcDbEntity
  8
0
100
AcDbLine
 62
7
  6
CONTINUOUS
 10
136.0013799857
 20
99.7210591461
 11
139.9965332994
 21
97.4143195303
  0
LINE
  5
278
100
AcDbEntity
  8
ASSI
100
AcDbLine
 62
7
  6
CONTINUOUS
 10
136.0013799857
 20
99.7210591461
 11
139.9965332994
 21
97.4143195303
  0
LINE
  5
279
100
AcDbEntity
  8
0
100
AcDbLine
 62
250
  6
CONTINUOUS
 10
171.9931151481
 20
79.0624781216
 11
167.8547801417
 21
81.4519008888
  0
LINE
  5
27A
100
AcDbEntity
  8
ASSI
100
AcDbLine
 62
250
  6
CONTINUOUS
 10
171.9931151481
 20
79.0624781216
 11
167.8547801417
 21
81.4519008888
  0
LINE
  5
27B
100
AcDbEntity
  8
0
100
AcDbLine
 62
250
  6
CONTINUOUS
 10
140.2813122466
 20
97.3724756747
 11
136.0349749883
 21
99.8242575886
  0
LINE
  5
27C
100
AcDbEntity
  8
ASSI
100
AcDbLine
 62
250
  6
CONTINUOUS
 10
140.2813122466
 20
97.3724756747
 11
136.0349749883
 21
99.8242575886
  0
LINE
  5
27D
100
AcDbEntity
  8
0
100
AcDbLine
 62
250
  6
CONTINUOUS
 10
171.9931151481
 20
79.1396758158
 11
167.9288272947
 21
81.4863446849
  0
LINE
  5
27E
100
AcDbEntity
  8
ASSI
100
AcDbLine
 62
250
  6
CONTINUOUS
 10
171.9931151481
 20
79.1396758158
 11
167.9288272947
 21
81.4863446849
  0
LINE
  5
27F
100
AcDbEntity
  8
0
100
AcDbLine
 62
250
  6
CONTINUOUS
 10
140.3479846026
 20
97.4111775861
 11
136.1090221413
 21
99.8587013846
  0
LINE
  5
280
100
AcDbEntity
  8
ASSI
100
AcDbLine
 62
250
  6
CONTINUOUS
 10
140.3479846026
 20
97.4111775861
 11
136.1090221413
 21
99.8587013846
  0
LINE
  5
281
100
AcDbEntity
  8
0
100
AcDbLine
 62
7
  6
CONTINUOUS
 10
137.6946238745
 20
100.3765273378
 11
141.520625265
 21
98.1674420859
  0
LINE
  5
282
100
AcDbEntity
  8
ASSI
100
AcDbLine
 62
7
  6
CONTINUOUS
 10
137.6946238745
 20
100.3765273378
 11
141.520625265
 21
98.1674420859
  0
LINE
  5
283
100
AcDbEntity
  8
0
100
AcDbLine
 62
7
  6
CONTINUOUS
 10
169.5144290278
 20
82.004170638
 11
171.9931151481
 21
80.5730083375
  0
LINE
  5
284
100
AcDbEntity
  8
ASSI
100
AcDbLine
 62
7
  6
CONTINUOUS
 10
169.5144290278
 20
82.004170638
 11
171.9931151481
 21
80.5730083375
  0
LINE
  5
285
100
AcDbEntity
  8
0
100
AcDbLine
 62
7
  6
CONTINUOUS
 10
153.6716283792
 20
91.1905008344
 11
157.3634259137
 21
89.058903207
  0
LINE
  5
286
100
AcDbEntity
  8
ASSI
100
AcDbLine
 62
7
  6
CONTINUOUS
 10
153.6716283792
 20
91.1905008344
 11
157.3634259137
 21
89.058903207
  0
LWPOLYLINE
  5
287
100
AcDbEntity
  8
0
100
AcDbPolyline
 62
250
  6
CONTINUOUS
 90
10
 70
0
 10
139.5833534609
 20
96.3449851411
 10
139.5856210823
 20
96.3396516974
 10
139.5874824979
 20
96.3346049069
 10
139.5889037101
 20
96.3298831045
 10
139.5898463197
 20
96.3255446736
 10
139.5902858086
 20
96.3216060281
 10
139.590186637
 20
96.3180654941
 10
139.5894916257
 20
96.3149840034
 10
139.5881428152
 20
96.3124342255
 10
139.5872779955
 20
96.3114496264
  0
LWPOLYLINE
  5
288
100
AcDbEntity
  8
ASSI
100
AcDbPolyline
 62
250
  6
CONTINUOUS
 90
10
 70
0
 10
139.5833534609
 20
96.3449851411
 10
139.5856210823
 20
96.3396516974
 10
139.5874824979
 20
96.3346049069
 10
139.5889037101
 20
96.3298831045
 10
139.5898463197
 20
96.3255446736
 10
139.5902858086
 20
96.3216060281
 10
139.590186637
 20
96.3180654941
 10
139.5894916257
 20
96.3149840034
 10
139.5881428152
 20
96.3124342255
 10
139.5872779955
 20
96.3114496264
  0
LINE
  5
289
100
AcDbEntity
  8
0
100
AcDbLine
 62
250
  6
CONTINUOUS
 10
141.5278328739
 20
98.0239924326
 11
141.5278328739
 21
97.6166227947
  0
LINE
  5
28A
100
AcDbEntity
  8
ASSI
100
AcDbLine
 62
250
  6
CONTINUOUS
 10
141.5278328739
 20
98.0239924326
 11
141.5278328739
 21
97.6166227947
  0
LINE
  5
28B
100
AcDbEntity
  8
0
100
AcDbLine
 62
7
  6
CONTINUOUS
 10
141.5792039088
 20
98.0905699394
 11
141.5792039088
 21
97.6471680895
  0
LINE
  5
28C
100
AcDbEntity
  8
ASSI
100
AcDbLine
 62
7
  6
CONTINUOUS
 10
141.5792039088
 20
98.0905699394
 11
141.5792039088
 21
97.6471680895
  0
LINE
  5
28D
100
AcDbEntity
  8
0
100
AcDbLine
 62
250
  6
CONTINUOUS
 10
139.5778059039
 20
96.3278216953
 11
139.5833534609
 21
96.3449851411
  0
LINE
  5
28E
100
AcDbEntity
  8
ASSI
100
AcDbLine
 62
250
  6
CONTINUOUS
 10
139.5778059039
 20
96.3278216953
 11
139.5833534609
 21
96.3449851411
  0
LINE
  5
28F
100
AcDbEntity
  8
0
100
AcDbLine
 62
7
  6
CONTINUOUS
 10
134.6932324405
 20
98.8432806069
 11
134.7992984577
 21
99.0269923374
  0
LINE
  5
290
100
AcDbEntity
  8
ASSI
100
AcDbLine
 62
7
  6
CONTINUOUS
 10
134.6932324405
 20
98.8432806069
 11
134.7992984577
 21
99.0269923374
  0
LINE
  5
291
100
AcDbEntity
  8
0
100
AcDbLine
 62
7
  6
CONTINUOUS
 10
135.0467858311
 20
99.0474179036
 11
135.1528518483
 21
99.2311296341
  0
LINE
  5
292
100
AcDbEntity
  8
ASSI
100
AcDbLine
 62
7
  6
CONTINUOUS
 10
135.0467858311
 20
99.0474179036
 11
135.1528518483
 21
99.2311296341
  0
LINE
  5
293
100
AcDbEntity
  8
0
100
AcDbLine
 62
7
  6
CONTINUOUS
 10
135.4003392217
 20
99.2515552002
 11
135.5064052389
 21
99.4352669307
  0
LINE
  5
294
100
AcDbEntity
  8
ASSI
100
AcDbLine
 62
7
  6
CONTINUOUS
 10
135.4003392217
 20
99.2515552002
 11
135.5064052389
 21
99.4352669307
  0
LINE
  5
295
100
AcDbEntity
  8
0
100
AcDbLine
 62
7
  6
CONTINUOUS
 10
135.7538926123
 20
99.4556924969
 11
135.8599586294
 21
99.6394042274
  0
LINE
  5
296
100
AcDbEntity
  8
ASSI
100
AcDbLine
 62
7
  6
CONTINUOUS
 10
135.7538926123
 20
99.4556924969
 11
135.8599586294
 21
99.6394042274
  0
LINE
  5
297
100
AcDbEntity
  8
0
100
AcDbLine
 62
7
  6
CONTINUOUS
 10
137.9635167366
 20
96.342442385
 11
137.981278973
 21
96.3732074808
  0
LINE
  5
298
100
AcDbEntity
  8
ASSI
100
AcDbLine
 62
7
  6
CONTINUOUS
 10
137.9635167366
 20
96.342442385
 11
137.981278973
 21
96.3732074808
  0
LINE
  5
299
100
AcDbEntity
  8
0
100
AcDbLine
 62
7
  6
CONTINUOUS
 10
138.2287663464
 20
96.3936330469
 11
138.3348323636
 21
96.5773447775
  0
LINE
  5
29A
100
AcDbEntity
  8
ASSI
100
AcDbLine
 62
7
  6
CONTINUOUS
 10
138.2287663464
 20
96.3936330469
 11
138.3348323636
 21
96.5773447775
  0
LINE
  5
29B
100
AcDbEntity
  8
0
100
AcDbLine
 62
7
  6
CONTINUOUS
 10
138.582319737
 20
96.5977703436
 11
138.6883857542
 21
96.7814820741
  0
LINE
  5
29C
100
AcDbEntity
  8
ASSI
100
AcDbLine
 62
7
  6
CONTINUOUS
 10
138.582319737
 20
96.5977703436
 11
138.6883857542
 21
96.7814820741
  0
LINE
  5
29D
100
AcDbEntity
  8
0
100
AcDbLine
 62
7
  6
CONTINUOUS
 10
138.9358731276
 20
96.8019076403
 11
139.0419391448
 21
96.9856193708
  0
LINE
  5
29E
100
AcDbEntity
  8
ASSI
100
AcDbLine
 62
7
  6
CONTINUOUS
 10
138.9358731276
 20
96.8019076403
 11
139.0419391448
 21
96.9856193708
  0
LINE
  5
29F
100
AcDbEntity
  8
0
100
AcDbLine
 62
7
  6
CONTINUOUS
 10
139.2894265182
 20
97.0060449369
 11
139.3954925354
 21
97.1897566674
  0
LINE
  5
2A0
100
AcDbEntity
  8
ASSI
100
AcDbLine
 62
7
  6
CONTINUOUS
 10
139.2894265182
 20
97.0060449369
 11
139.3954925354
 21
97.1897566674
  0
LINE
  5
2A1
100
AcDbEntity
  8
RACCORDO
100
AcDbLine
 62
250
  6
CONTINUOUS
 10
124.1219860617
 20
102.8644854937
 11
126.2433064053
 21
104.0893092737
  0
LINE
  5
2A2
100
AcDbEntity
  8
RACCORDO
100
AcDbLine
 62
250
  6
CONTINUOUS
 10
124.9705141992
 20
101.3947916496
 11
127.0918345427
 21
102.6196154295
  0
LINE
  5
2A3
100
AcDbEntity
  8
0
100
AcDbLine
 62
7
  6
CONTINUOUS
 10
139.6429799088
 20
97.2101822336
 11
139.749045926
 21
97.3938939641
  0
LINE
  5
2A4
100
AcDbEntity
  8
ASSI
100
AcDbLine
 62
7
  6
CONTINUOUS
 10
139.6429799088
 20
97.2101822336
 11
139.749045926
 21
97.3938939641
  0
LINE
  5
2A5
100
AcDbEntity
  8
0
100
AcDbLine
 62
250
  6
CONTINUOUS
 10
139.5833534609
 20
96.3449851411
 11
139.9192984259
 21
96.6717387309
  0
LINE
  5
2A6
100
AcDbEntity
  8
ASSI
100
AcDbLine
 62
250
  6
CONTINUOUS
 10
139.5833534609
 20
96.3449851411
 11
139.9192984259
 21
96.6717387309
  0
LINE
  5
2A7
100
AcDbEntity
  8
0
100
AcDbLine
 62
7
  6
CONTINUOUS
 10
139.5872783556
 20
96.3114499766
 11
140.0162626991
 21
96.7286974095
  0
LINE
  5
2A8
100
AcDbEntity
  8
ASSI
100
AcDbLine
 62
7
  6
CONTINUOUS
 10
139.5872783556
 20
96.3114499766
 11
140.0162626991
 21
96.7286974095
  0
LINE
  5
2A9
100
AcDbEntity
  8
0
100
AcDbLine
 62
7
  6
CONTINUOUS
 10
134.0921916765
 20
98.6187177441
 11
134.2336130327
 21
98.7003726628
  0
LINE
  5
2AA
100
AcDbEntity
  8
ASSI
100
AcDbLine
 62
7
  6
CONTINUOUS
 10
134.0921916765
 20
98.6187177441
 11
134.2336130327
 21
98.7003726628
  0
LINE
  5
2AB
100
AcDbEntity
  8
0
100
AcDbLine
 62
7
  6
CONTINUOUS
 10
134.4457450671
 20
98.8228550408
 11
134.5871664233
 21
98.9045099594
  0
LINE
  5
2AC
100
AcDbEntity
  8
ASSI
100
AcDbLine
 62
7
  6
CONTINUOUS
 10
134.4457450671
 20
98.8228550408
 11
134.5871664233
 21
98.9045099594
  0
LINE
  5
2AD
100
AcDbEntity
  8
0
100
AcDbLine
 62
7
  6
CONTINUOUS
 10
134.7992984577
 20
99.0269923374
 11
134.9407198139
 21
99.1086472561
  0
LINE
  5
2AE
100
AcDbEntity
  8
ASSI
100
AcDbLine
 62
7
  6
CONTINUOUS
 10
134.7992984577
 20
99.0269923374
 11
134.9407198139
 21
99.1086472561
  0
LINE
  5
2AF
100
AcDbEntity
  8
0
100
AcDbLine
 62
7
  6
CONTINUOUS
 10
135.1528518483
 20
99.2311296341
 11
135.2942732045
 21
99.3127845527
  0
LINE
  5
2B0
100
AcDbEntity
  8
ASSI
100
AcDbLine
 62
7
  6
CONTINUOUS
 10
135.1528518483
 20
99.2311296341
 11
135.2942732045
 21
99.3127845527
  0
LINE
  5
2B1
100
AcDbEntity
  8
0
100
AcDbLine
 62
7
  6
CONTINUOUS
 10
135.5064052389
 20
99.4352669307
 11
135.6478265951
 21
99.5169218494
  0
LINE
  5
2B2
100
AcDbEntity
  8
ASSI
100
AcDbLine
 62
7
  6
CONTINUOUS
 10
135.5064052389
 20
99.4352669307
 11
135.6478265951
 21
99.5169218494
  0
LINE
  5
2B3
100
AcDbEntity
  8
0
100
AcDbLine
 62
7
  6
CONTINUOUS
 10
135.8599586294
 20
99.6394042274
 11
136.0013799857
 21
99.7210591461
  0
LINE
  5
2B4
100
AcDbEntity
  8
ASSI
100
AcDbLine
 62
7
  6
CONTINUOUS
 10
135.8599586294
 20
99.6394042274
 11
136.0013799857
 21
99.7210591461
  0
LINE
  5
2B5
100
AcDbEntity
  8
0
100
AcDbLine
 62
7
  6
CONTINUOUS
 10
133.8766178874
 20
98.7021665596
 11
136.0349749883
 21
99.8242575886
  0
LINE
  5
2B6
100
AcDbEntity
  8
ASSI
100
AcDbLine
 62
7
  6
CONTINUOUS
 10
133.8766178874
 20
98.7021665596
 11
136.0349749883
 21
99.8242575886
  0
LWPOLYLINE
  5
2B7
100
AcDbEntity
  8
0
100
AcDbPolyline
 62
250
  6
CONTINUOUS
 90
6
 70
0
 10
139.5286640663
 20
96.2669859866
 10
139.5409748384
 20
96.2754096838
 10
139.5522492691
 20
96.2858634909
 10
139.5621951995
 20
96.2981483707
 10
139.5707351794
 20
96.3121696921
 10
139.5778059039
 20
96.3278216953
  0
LWPOLYLINE
  5
2B8
100
AcDbEntity
  8
ASSI
100
AcDbPolyline
 62
250
  6
CONTINUOUS
 90
6
 70
0
 10
139.5286640663
 20
96.2669859866
 10
139.5409748384
 20
96.2754096838
 10
139.5522492691
 20
96.2858634909
 10
139.5621951995
 20
96.2981483707
 10
139.5707351794
 20
96.3121696921
 10
139.5778059039
 20
96.3278216953
  0
LINE
  5
2B9
100
AcDbEntity
  8
0
100
AcDbLine
 62
7
  6
CONTINUOUS
 10
140.2813122466
 20
97.3724756747
 11
138.3379187839
 21
96.1262673352
  0
LINE
  5
2BA
100
AcDbEntity
  8
ASSI
100
AcDbLine
 62
7
  6
CONTINUOUS
 10
140.2813122466
 20
97.3724756747
 11
138.3379187839
 21
96.1262673352
  0
LINE
  5
2BB
100
AcDbEntity
  8
0
100
AcDbLine
 62
7
  6
CONTINUOUS
 10
138.6671248354
 20
95.936187887
 11
141.5278328739
 21
97.6166227947
  0
LINE
  5
2BC
100
AcDbEntity
  8
ASSI
100
AcDbLine
 62
7
  6
CONTINUOUS
 10
138.6671248354
 20
95.936187887
 11
141.5278328739
 21
97.6166227947
  0
LINE
  5
2BD
100
AcDbEntity
  8
0
100
AcDbLine
 62
7
  6
CONTINUOUS
 10
139.5286640058
 20
96.2669859515
 11
138.8132014031
 21
95.8518451076
  0
LINE
  5
2BE
100
AcDbEntity
  8
ASSI
100
AcDbLine
 62
7
  6
CONTINUOUS
 10
139.5286640058
 20
96.2669859515
 11
138.8132014031
 21
95.8518451076
  0
LINE
  5
2BF
100
AcDbEntity
  8
0
100
AcDbLine
 62
250
  6
CONTINUOUS
 10
139.5833534609
 20
96.3449851411
 11
138.7729683064
 21
95.8750751934
  0
LINE
  5
2C0
100
AcDbEntity
  8
ASSI
100
AcDbLine
 62
250
  6
CONTINUOUS
 10
139.5833534609
 20
96.3449851411
 11
138.7729683064
 21
95.8750751934
  0
LINE
  5
2C1
100
AcDbEntity
  8
0
100
AcDbLine
 62
7
  6
CONTINUOUS
 10
137.981278973
 20
96.3732074808
 11
138.1227003292
 21
96.4548623995
  0
LINE
  5
2C2
100
AcDbEntity
  8
ASSI
100
AcDbLine
 62
7
  6
CONTINUOUS
 10
137.981278973
 20
96.3732074808
 11
138.1227003292
 21
96.4548623995
  0
LINE
  5
2C3
100
AcDbEntity
  8
0
100
AcDbLine
 62
7
  6
CONTINUOUS
 10
138.3348323636
 20
96.5773447775
 11
138.4762537198
 21
96.6589996961
  0
LINE
  5
2C4
100
AcDbEntity
  8
ASSI
100
AcDbLine
 62
7
  6
CONTINUOUS
 10
138.3348323636
 20
96.5773447775
 11
138.4762537198
 21
96.6589996961
  0
LINE
  5
2C5
100
AcDbEntity
  8
0
100
AcDbLine
 62
7
  6
CONTINUOUS
 10
138.6883857542
 20
96.7814820741
 11
138.8298071104
 21
96.8631369928
  0
LINE
  5
2C6
100
AcDbEntity
  8
ASSI
100
AcDbLine
 62
7
  6
CONTINUOUS
 10
138.6883857542
 20
96.7814820741
 11
138.8298071104
 21
96.8631369928
  0
LINE
  5
2C7
100
AcDbEntity
  8
0
100
AcDbLine
 62
7
  6
CONTINUOUS
 10
139.0419391448
 20
96.9856193708
 11
139.183360501
 21
97.0672742894
  0
LINE
  5
2C8
100
AcDbEntity
  8
ASSI
100
AcDbLine
 62
7
  6
CONTINUOUS
 10
139.0419391448
 20
96.9856193708
 11
139.183360501
 21
97.0672742894
  0
LINE
  5
2C9
100
AcDbEntity
  8
0
100
AcDbLine
 62
7
  6
CONTINUOUS
 10
139.3954925354
 20
97.1897566674
 11
139.5369138916
 21
97.2714115861
  0
LINE
  5
2CA
100
AcDbEntity
  8
ASSI
100
AcDbLine
 62
7
  6
CONTINUOUS
 10
139.3954925354
 20
97.1897566674
 11
139.5369138916
 21
97.2714115861
  0
LINE
  5
2CB
100
AcDbEntity
  8
0
100
AcDbLine
 62
7
  6
CONTINUOUS
 10
139.749045926
 20
97.3938939641
 11
139.8904672822
 21
97.4755488828
  0
LINE
  5
2CC
100
AcDbEntity
  8
ASSI
100
AcDbLine
 62
7
  6
CONTINUOUS
 10
139.749045926
 20
97.3938939641
 11
139.8904672822
 21
97.4755488828
  0
LINE
  5
2CD
100
AcDbEntity
  8
0
100
AcDbLine
 62
7
  6
CONTINUOUS
 10
139.9965332994
 20
97.4143195303
 11
138.0518119839
 21
96.2914618158
  0
LINE
  5
2CE
100
AcDbEntity
  8
ASSI
100
AcDbLine
 62
7
  6
CONTINUOUS
 10
139.9965332994
 20
97.4143195303
 11
138.0518119839
 21
96.2914618158
  0
LINE
  5
2CF
100
AcDbEntity
  8
0
100
AcDbLine
 62
7
  6
CONTINUOUS
 10
141.5278328739
 20
98.0239924326
 11
140.3479846026
 21
97.4111775861
  0
LINE
  5
2D0
100
AcDbEntity
  8
ASSI
100
AcDbLine
 62
7
  6
CONTINUOUS
 10
141.5278328739
 20
98.0239924326
 11
140.3479846026
 21
97.4111775861
  0
LINE
  5
2D1
100
AcDbEntity
  8
0
100
AcDbLine
 62
7
  6
CONTINUOUS
 10
136.1090221413
 20
99.8587013846
 11
137.4193763969
 21
100.3961637113
  0
LINE
  5
2D2
100
AcDbEntity
  8
ASSI
100
AcDbLine
 62
7
  6
CONTINUOUS
 10
136.1090221413
 20
99.8587013846
 11
137.4193763969
 21
100.3961637113
  0
LINE
  5
2D3
100
AcDbEntity
  8
0
100
AcDbLine
 62
250
  6
CONTINUOUS
 10
157.374237327
 20
88.822542238
 11
157.374237327
 21
88.393519544
  0
LINE
  5
2D4
100
AcDbEntity
  8
ASSI
100
AcDbLine
 62
250
  6
CONTINUOUS
 10
157.374237327
 20
88.822542238
 11
157.374237327
 21
88.393519544
  0
LINE
  5
2D5
100
AcDbEntity
  8
0
100
AcDbLine
 62
7
  6
CONTINUOUS
 10
157.4512938793
 20
88.9370469083
 11
157.4512938793
 21
88.5390011236
  0
LINE
  5
2D6
100
AcDbEntity
  8
ASSI
100
AcDbLine
 62
7
  6
CONTINUOUS
 10
157.4512938793
 20
88.9370469083
 11
157.4512938793
 21
88.5390011236
  0
LINE
  5
2D7
100
AcDbEntity
  8
SMUSSO
100
AcDbLine
 62
250
  6
CONTINUOUS
 10
191.1910642573
 20
119.1698158823
 11
192.2517244291
 21
119.7822277723
  0
LINE
  5
2D8
100
AcDbEntity
  8
0
100
AcDbLine
 62
250
  6
CONTINUOUS
 10
192.2522703107
 20
119.7824698356
 11
194.2670864512
 21
120.9458034179
  0
LINE
  5
2D9
100
AcDbEntity
  8
ASSI
100
AcDbLine
 62
250
  6
CONTINUOUS
 10
192.2522703107
 20
119.7824698356
 11
194.2670864512
 21
120.9458034179
  0
LINE
  5
2DA
100
AcDbEntity
  8
SMUSSO
100
AcDbLine
 62
250
  6
CONTINUOUS
 10
190.4839574761
 20
117.9450710121
 11
191.8981710385
 21
117.9450710121
  0
LWPOLYLINE
  5
2DB
100
AcDbEntity
  8
0
100
AcDbPolyline
 62
250
  6
CONTINUOUS
 90
10
 70
0
 10
171.4031586143
 20
77.9726284414
 10
171.4054262357
 20
77.9672949977
 10
171.4072876512
 20
77.9622482072
 10
171.4087088635
 20
77.9575264047
 10
171.4096514731
 20
77.9531879739
 10
171.410090962
 20
77.9492493284
 10
171.4099917904
 20
77.9457087943
 10
171.4092967791
 20
77.9426273036
 10
171.4079479686
 20
77.9400775257
 10
171.4070831489
 20
77.9390929266
  0
LWPOLYLINE
  5
2DC
100
AcDbEntity
  8
ASSI
100
AcDbPolyline
 62
250
  6
CONTINUOUS
 90
10
 70
0
 10
171.4031586143
 20
77.9726284414
 10
171.4054262357
 20
77.9672949977
 10
171.4072876512
 20
77.9622482072
 10
171.4087088635
 20
77.9575264047
 10
171.4096514731
 20
77.9531879739
 10
171.410090962
 20
77.9492493284
 10
171.4099917904
 20
77.9457087943
 10
171.4092967791
 20
77.9426273036
 10
171.4079479686
 20
77.9400775257
 10
171.4070831489
 20
77.9390929266
  0
LINE
  5
2DD
100
AcDbEntity
  8
0
100
AcDbLine
 62
250
  6
CONTINUOUS
 10
192.9592693961
 20
118.5579115
 11
194.9740855366
 21
119.7212450824
  0
LINE
  5
2DE
100
AcDbEntity
  8
ASSI
100
AcDbLine
 62
250
  6
CONTINUOUS
 10
192.9592693961
 20
118.5579115
 11
194.9740855366
 21
119.7212450824
  0
LINE
  5
2DF
100
AcDbEntity
  8
SMUSSO
100
AcDbLine
 62
250
  6
CONTINUOUS
 10
191.8981710385
 20
117.9450710121
 11
192.9588312103
 21
118.5574829021
  0
LINE
  5
2E0
100
AcDbEntity
  8
0
100
AcDbLine
 62
7
  6
CONTINUOUS
 10
149.8684614066
 20
89.4686765365
 11
153.2587571629
 21
91.1987689057
  0
LINE
  5
2E1
100
AcDbEntity
  8
ASSI
100
AcDbLine
 62
7
  6
CONTINUOUS
 10
149.8684614066
 20
89.4686765365
 11
153.2587571629
 21
91.1987689057
  0
LINE
  5
2E2
100
AcDbEntity
  8
RACCORDO
100
AcDbLine
 62
7
  6
CONTINUOUS
 10
171.1445870107
 20
111.6389172163
 11
124.9705141992
 21
138.2992481606
  0
LWPOLYLINE
  5
2E3
100
AcDbEntity
  8
RACCORDO
100
AcDbPolyline
 62
7
  6
CONTINUOUS
 90
25
 70
0
 10
171.1445870107
 20
111.6389172163
 10
171.2004737304
 20
111.604476773
 10
171.2556536063
 20
111.5663413053
 10
171.3101266382
 20
111.5245108131
 10
171.3641193864
 20
111.4787751279
 10
171.4174052906
 20
111.4293444182
 10
171.4693046707
 20
111.37684919
 10
171.5197997655
 20
111.3212501874
 10
171.5689083362
 20
111.2625866663
 10
171.6160039857
 20
111.2016069004
 10
171.661060929
 20
111.1382812189
 10
171.7041049511
 20
111.0726392926
 10
171.7445870107
 20
111.0055184071
 10
171.7824742893
 20
110.9368996172
 10
171.8177996054
 20
110.8668018681
 10
171.8501123721
 20
110.7961192811
 10
171.8793739993
 20
110.7248443643
 10
171.9056230772
 20
110.6529846096
 10
171.9285247896
 20
110.5814566132
 10
171.9480362574
 20
110.5102646247
 10
171.9642003597
 20
110.4394043945
 10
171.9768109178
 20
110.3697797694
 10
171.9857992055
 20
110.3016920318
 10
171.9912339489
 20
110.2348398994
 10
171.9931151481
 20
110.1692233721
  0
LWPOLYLINE
  5
2E4
100
AcDbEntity
  8
0
100
AcDbPolyline
 62
7
  6
CONTINUOUS
 90
5
 70
0
 10
157.4033774215
 20
88.4177094454
 10
157.4263576265
 20
88.4473059274
 10
157.4423158793
 20
88.4816693806
 10
157.4503341298
 20
88.5198120004
 10
157.4512158959
 20
88.5389212245
  0
LWPOLYLINE
  5
2E5
100
AcDbEntity
  8
ASSI
100
AcDbPolyline
 62
7
  6
CONTINUOUS
 90
5
 70
0
 10
157.4033774215
 20
88.4177094454
 10
157.4263576265
 20
88.4473059274
 10
157.4423158793
 20
88.4816693806
 10
157.4503341298
 20
88.5198120004
 10
157.4512158959
 20
88.5389212245
  0
LINE
  5
2E6
100
AcDbEntity
  8
0
100
AcDbLine
 62
7
  6
CONTINUOUS
 10
156.1843874021
 20
87.6942037017
 11
155.8416067321
 21
87.3608014302
  0
LINE
  5
2E7
100
AcDbEntity
  8
ASSI
100
AcDbLine
 62
7
  6
CONTINUOUS
 10
156.1843874021
 20
87.6942037017
 11
155.8416067321
 21
87.3608014302
  0
LINE
  5
2E8
100
AcDbEntity
  8
0
100
AcDbLine
 62
7
  6
CONTINUOUS
 10
157.374237327
 20
88.393519544
 11
157.4033774215
 21
88.4177094454
  0
LINE
  5
2E9
100
AcDbEntity
  8
ASSI
100
AcDbLine
 62
7
  6
CONTINUOUS
 10
157.374237327
 20
88.393519544
 11
157.4033774215
 21
88.4177094454
  0
LINE
  5
2EA
100
AcDbEntity
  8
0
100
AcDbLine
 62
7
  6
CONTINUOUS
 10
157.374237327
 20
88.822542238
 11
154.3216013166
 21
86.8974893634
  0
LINE
  5
2EB
100
AcDbEntity
  8
ASSI
100
AcDbLine
 62
7
  6
CONTINUOUS
 10
157.374237327
 20
88.822542238
 11
154.3216013166
 21
86.8974893634
  0
LWPOLYLINE
  5
2EC
100
AcDbEntity
  8
0
100
AcDbPolyline
 62
7
  6
CONTINUOUS
 90
9
 70
0
 10
155.6085062719
 20
87.1793575479
 10
155.6345281151
 20
87.1951204991
 10
155.6640280715
 20
87.2143899874
 10
155.6935776368
 20
87.2351305213
 10
155.723195278
 20
87.2574065545
 10
155.7528137343
 20
87.2811213369
 10
155.7824105852
 20
87.3062426187
 10
155.8120082512
 20
87.3328026498
 10
155.8416067321
 20
87.3608014302
  0
LWPOLYLINE
  5
2ED
100
AcDbEntity
  8
ASSI
100
AcDbPolyline
 62
7
  6
CONTINUOUS
 90
9
 70
0
 10
155.6085062719
 20
87.1793575479
 10
155.6345281151
 20
87.1951204991
 10
155.6640280715
 20
87.2143899874
 10
155.6935776368
 20
87.2351305213
 10
155.723195278
 20
87.2574065545
 10
155.7528137343
 20
87.2811213369
 10
155.7824105852
 20
87.3062426187
 10
155.8120082512
 20
87.3328026498
 10
155.8416067321
 20
87.3608014302
  0
LINE
  5
2EE
100
AcDbEntity
  8
0
100
AcDbLine
 62
7
  6
CONTINUOUS
 10
154.5770274121
 20
86.7500095371
 11
157.3648864816
 21
88.3876515597
  0
LINE
  5
2EF
100
AcDbEntity
  8
ASSI
100
AcDbLine
 62
7
  6
CONTINUOUS
 10
154.5770274121
 20
86.7500095371
 11
157.3648864816
 21
88.3876515597
  0
LINE
  5
2F0
100
AcDbEntity
  8
0
100
AcDbLine
 62
7
  6
CONTINUOUS
 10
155.6084827784
 20
87.1793999707
 11
154.7231039798
 21
86.6656667577
  0
LINE
  5
2F1
100
AcDbEntity
  8
ASSI
100
AcDbLine
 62
7
  6
CONTINUOUS
 10
155.6084827784
 20
87.1793999707
 11
154.7231039798
 21
86.6656667577
  0
LINE
  5
2F2
100
AcDbEntity
  8
0
100
AcDbLine
 62
250
  6
CONTINUOUS
 10
155.8416067321
 20
87.3608014302
 11
154.6828708831
 21
86.6888968435
  0
LINE
  5
2F3
100
AcDbEntity
  8
ASSI
100
AcDbLine
 62
250
  6
CONTINUOUS
 10
155.8416067321
 20
87.3608014302
 11
154.6828708831
 21
86.6888968435
  0
LINE
  5
2F4
100
AcDbEntity
  8
RACCORDO
100
AcDbLine
 62
7
  6
CONTINUOUS
 10
171.9931151481
 20
75.2242955254
 11
171.9931151481
 21
110.1692233721
  0
LWPOLYLINE
  5
2F5
100
AcDbEntity
  8
RACCORDO
100
AcDbPolyline
 62
7
  6
CONTINUOUS
 90
13
 70
0
 10
171.9931151481
 20
75.2242955254
 10
171.9912339489
 20
75.1608513598
 10
171.9857992055
 20
75.1002751329
 10
171.9768109178
 20
75.0425668445
 10
171.9642003597
 20
74.9875045759
 10
171.9480362574
 20
74.9353102459
 10
171.9285247896
 20
74.8866496114
 10
171.9056230772
 20
74.8415679383
 10
171.8793739993
 20
74.8000199608
 10
171.8501123721
 20
74.7625356377
 10
171.8177996054
 20
74.7291670237
 10
171.7824742893
 20
74.6998620641
 10
171.7446160028
 20
74.6750112921
  0
LINE
  5
2F6
100
AcDbEntity
  8
0
100
AcDbLine
 62
250
  6
CONTINUOUS
 10
194.2926209425
 20
120.9311904223
 11
195.1426620755
 21
120.6853164739
  0
LINE
  5
2F7
100
AcDbEntity
  8
ASSI
100
AcDbLine
 62
250
  6
CONTINUOUS
 10
194.2926209425
 20
120.9311904223
 11
195.1426620755
 21
120.6853164739
  0
LINE
  5
2F8
100
AcDbEntity
  8
0
100
AcDbLine
 62
250
  6
CONTINUOUS
 10
171.3976110573
 20
77.9554649955
 11
171.4031586143
 21
77.9726284414
  0
LINE
  5
2F9
100
AcDbEntity
  8
ASSI
100
AcDbLine
 62
250
  6
CONTINUOUS
 10
171.3976110573
 20
77.9554649955
 11
171.4031586143
 21
77.9726284414
  0
LINE
  5
2FA
100
AcDbEntity
  8
0
100
AcDbLine
 62
7
  6
CONTINUOUS
 10
165.8942345935
 20
80.2155959485
 11
165.9119968299
 21
80.2463610443
  0
LINE
  5
2FB
100
AcDbEntity
  8
ASSI
100
AcDbLine
 62
7
  6
CONTINUOUS
 10
165.8942345935
 20
80.2155959485
 11
165.9119968299
 21
80.2463610443
  0
LINE
  5
2FC
100
AcDbEntity
  8
0
100
AcDbLine
 62
7
  6
CONTINUOUS
 10
166.1594842033
 20
80.2667866105
 11
166.2655502205
 21
80.450498341
  0
LINE
  5
2FD
100
AcDbEntity
  8
ASSI
100
AcDbLine
 62
7
  6
CONTINUOUS
 10
166.1594842033
 20
80.2667866105
 11
166.2655502205
 21
80.450498341
  0
LINE
  5
2FE
100
AcDbEntity
  8
0
100
AcDbLine
 62
7
  6
CONTINUOUS
 10
166.5130375939
 20
80.4709239072
 11
166.6191036111
 21
80.6546356377
  0
LINE
  5
2FF
100
AcDbEntity
  8
ASSI
100
AcDbLine
 62
7
  6
CONTINUOUS
 10
166.5130375939
 20
80.4709239072
 11
166.6191036111
 21
80.6546356377
  0
LINE
  5
300
100
AcDbEntity
  8
0
100
AcDbLine
 62
7
  6
CONTINUOUS
 10
166.8665909845
 20
80.6750612038
 11
166.9726570017
 21
80.8587729343
  0
LINE
  5
301
100
AcDbEntity
  8
ASSI
100
AcDbLine
 62
7
  6
CONTINUOUS
 10
166.8665909845
 20
80.6750612038
 11
166.9726570017
 21
80.8587729343
  0
LINE
  5
302
100
AcDbEntity
  8
0
100
AcDbLine
 62
7
  6
CONTINUOUS
 10
167.2201443751
 20
80.8791985005
 11
167.3262103922
 21
81.062910231
  0
LINE
  5
303
100
AcDbEntity
  8
ASSI
100
AcDbLine
 62
7
  6
CONTINUOUS
 10
167.2201443751
 20
80.8791985005
 11
167.3262103922
 21
81.062910231
  0
LINE
  5
304
100
AcDbEntity
  8
0
100
AcDbLine
 62
7
  6
CONTINUOUS
 10
167.5736977657
 20
81.0833357971
 11
167.6797637828
 21
81.2670475277
  0
LINE
  5
305
100
AcDbEntity
  8
ASSI
100
AcDbLine
 62
7
  6
CONTINUOUS
 10
167.5736977657
 20
81.0833357971
 11
167.6797637828
 21
81.2670475277
  0
LINE
  5
306
100
AcDbEntity
  8
SMUSSO
100
AcDbLine
 62
250
  6
CONTINUOUS
 10
190.4839574761
 20
117.9450710121
 11
191.1910642573
 21
119.1698158823
  0
LINE
  5
307
100
AcDbEntity
  8
0
100
AcDbLine
 62
7
  6
CONTINUOUS
 10
165.6964230408
 20
80.3298098599
 11
167.8547801417
 21
81.4519008888
  0
LINE
  5
308
100
AcDbEntity
  8
ASSI
100
AcDbLine
 62
7
  6
CONTINUOUS
 10
165.6964230408
 20
80.3298098599
 11
167.8547801417
 21
81.4519008888
  0
LINE
  5
309
100
AcDbEntity
  8
0
100
AcDbLine
 62
7
  6
CONTINUOUS
 10
167.9288272947
 20
81.4863446849
 11
169.2391815503
 21
82.0238070115
  0
LINE
  5
30A
100
AcDbEntity
  8
ASSI
100
AcDbLine
 62
7
  6
CONTINUOUS
 10
167.9288272947
 20
81.4863446849
 11
169.2391815503
 21
82.0238070115
  0
LINE
  5
30B
100
AcDbEntity
  8
SMUSSO
100
AcDbLine
 62
7
  6
CONTINUOUS
 10
190.4839574761
 20
117.9450710121
 11
105.6311437337
 21
166.9380222115
  0
LINE
  5
30C
100
AcDbEntity
  8
SMUSSO
100
AcDbLine
 62
7
  6
CONTINUOUS
 10
191.1910642573
 20
119.1698158823
 11
106.3382505149
 21
168.1627670816
  0
LINE
  5
30D
100
AcDbEntity
  8
0
100
AcDbLine
 62
7
  6
CONTINUOUS
 10
169.78332189
 20
77.9700856852
 11
169.8010841264
 21
78.000850781
  0
LINE
  5
30E
100
AcDbEntity
  8
ASSI
100
AcDbLine
 62
7
  6
CONTINUOUS
 10
169.78332189
 20
77.9700856852
 11
169.8010841264
 21
78.000850781
  0
LINE
  5
30F
100
AcDbEntity
  8
0
100
AcDbLine
 62
7
  6
CONTINUOUS
 10
170.0485714998
 20
78.0212763472
 11
170.154637517
 21
78.2049880777
  0
LINE
  5
310
100
AcDbEntity
  8
ASSI
100
AcDbLine
 62
7
  6
CONTINUOUS
 10
170.0485714998
 20
78.0212763472
 11
170.154637517
 21
78.2049880777
  0
LINE
  5
311
100
AcDbEntity
  8
0
100
AcDbLine
 62
7
  6
CONTINUOUS
 10
170.4021248904
 20
78.2254136439
 11
170.5081909076
 21
78.4091253744
  0
LINE
  5
312
100
AcDbEntity
  8
ASSI
100
AcDbLine
 62
7
  6
CONTINUOUS
 10
170.4021248904
 20
78.2254136439
 11
170.5081909076
 21
78.4091253744
  0
LINE
  5
313
100
AcDbEntity
  8
0
100
AcDbLine
 62
7
  6
CONTINUOUS
 10
170.755678281
 20
78.4295509405
 11
170.8617442982
 21
78.613262671
  0
LINE
  5
314
100
AcDbEntity
  8
ASSI
100
AcDbLine
 62
7
  6
CONTINUOUS
 10
170.755678281
 20
78.4295509405
 11
170.8617442982
 21
78.613262671
  0
LINE
  5
315
100
AcDbEntity
  8
0
100
AcDbLine
 62
7
  6
CONTINUOUS
 10
171.1092316716
 20
78.6336882372
 11
171.2152976888
 21
78.8173999677
  0
LINE
  5
316
100
AcDbEntity
  8
ASSI
100
AcDbLine
 62
7
  6
CONTINUOUS
 10
171.1092316716
 20
78.6336882372
 11
171.2152976888
 21
78.8173999677
  0
LINE
  5
317
100
AcDbEntity
  8
0
100
AcDbLine
 62
7
  6
CONTINUOUS
 10
171.4627850622
 20
78.8378255338
 11
171.5688510794
 21
79.0215372644
  0
LINE
  5
318
100
AcDbEntity
  8
ASSI
100
AcDbLine
 62
7
  6
CONTINUOUS
 10
171.4627850622
 20
78.8378255338
 11
171.5688510794
 21
79.0215372644
  0
LINE
  5
319
100
AcDbEntity
  8
0
100
AcDbLine
 62
250
  6
CONTINUOUS
 10
171.4031586143
 20
77.9726284414
 11
171.7391035792
 21
78.2993820312
  0
LINE
  5
31A
100
AcDbEntity
  8
ASSI
100
AcDbLine
 62
250
  6
CONTINUOUS
 10
171.4031586143
 20
77.9726284414
 11
171.7391035792
 21
78.2993820312
  0
LINE
  5
31B
100
AcDbEntity
  8
0
100
AcDbLine
 62
7
  6
CONTINUOUS
 10
171.407083509
 20
77.9390932768
 11
171.8360678525
 21
78.3563407097
  0
LINE
  5
31C
100
AcDbEntity
  8
ASSI
100
AcDbLine
 62
7
  6
CONTINUOUS
 10
171.407083509
 20
77.9390932768
 11
171.8360678525
 21
78.3563407097
  0
LWPOLYLINE
  5
31D
100
AcDbEntity
  8
0
100
AcDbPolyline
 62
250
  6
CONTINUOUS
 90
6
 70
0
 10
171.3484692197
 20
77.8946292868
 10
171.3607799918
 20
77.9030529841
 10
171.3720544225
 20
77.9135067912
 10
171.3820003529
 20
77.9257916709
 10
171.3905403328
 20
77.9398129923
 10
171.3976110573
 20
77.9554649955
  0
LWPOLYLINE
  5
31E
100
AcDbEntity
  8
ASSI
100
AcDbPolyline
 62
250
  6
CONTINUOUS
 90
6
 70
0
 10
171.3484692197
 20
77.8946292868
 10
171.3607799918
 20
77.9030529841
 10
171.3720544225
 20
77.9135067912
 10
171.3820003529
 20
77.9257916709
 10
171.3905403328
 20
77.9398129923
 10
171.3976110573
 20
77.9554649955
  0
LINE
  5
31F
100
AcDbEntity
  8
0
100
AcDbLine
 62
7
  6
CONTINUOUS
 10
171.9931151481
 20
78.9308621263
 11
170.1577239373
 21
77.7539106355
  0
LINE
  5
320
100
AcDbEntity
  8
ASSI
100
AcDbLine
 62
7
  6
CONTINUOUS
 10
171.9931151481
 20
78.9308621263
 11
170.1577239373
 21
77.7539106355
  0
LINE
  5
321
100
AcDbEntity
  8
0
100
AcDbLine
 62
7
  6
CONTINUOUS
 10
170.4869299888
 20
77.5638311873
 11
171.9931151481
 21
78.4485933108
  0
LINE
  5
322
100
AcDbEntity
  8
ASSI
100
AcDbLine
 62
7
  6
CONTINUOUS
 10
170.4869299888
 20
77.5638311873
 11
171.9931151481
 21
78.4485933108
  0
LINE
  5
323
100
AcDbEntity
  8
0
100
AcDbLine
 62
7
  6
CONTINUOUS
 10
171.3484691592
 20
77.8946292517
 11
170.6330065565
 21
77.4794884078
  0
LINE
  5
324
100
AcDbEntity
  8
ASSI
100
AcDbLine
 62
7
  6
CONTINUOUS
 10
171.3484691592
 20
77.8946292517
 11
170.6330065565
 21
77.4794884078
  0
LINE
  5
325
100
AcDbEntity
  8
0
100
AcDbLine
 62
250
  6
CONTINUOUS
 10
171.4031586143
 20
77.9726284414
 11
170.5927734598
 21
77.5027184937
  0
LINE
  5
326
100
AcDbEntity
  8
ASSI
100
AcDbLine
 62
250
  6
CONTINUOUS
 10
171.4031586143
 20
77.9726284414
 11
170.5927734598
 21
77.5027184937
  0
LINE
  5
327
100
AcDbEntity
  8
0
100
AcDbLine
 62
7
  6
CONTINUOUS
 10
165.9119968299
 20
80.2463610443
 11
166.0534181861
 21
80.328015963
  0
LINE
  5
328
100
AcDbEntity
  8
ASSI
100
AcDbLine
 62
7
  6
CONTINUOUS
 10
165.9119968299
 20
80.2463610443
 11
166.0534181861
 21
80.328015963
  0
LINE
  5
329
100
AcDbEntity
  8
0
100
AcDbLine
 62
7
  6
CONTINUOUS
 10
166.2655502205
 20
80.450498341
 11
166.4069715767
 21
80.5321532597
  0
LINE
  5
32A
100
AcDbEntity
  8
ASSI
100
AcDbLine
 62
7
  6
CONTINUOUS
 10
166.2655502205
 20
80.450498341
 11
166.4069715767
 21
80.5321532597
  0
LINE
  5
32B
100
AcDbEntity
  8
0
100
AcDbLine
 62
7
  6
CONTINUOUS
 10
166.6191036111
 20
80.6546356377
 11
166.7605249673
 21
80.7362905563
  0
LINE
  5
32C
100
AcDbEntity
  8
ASSI
100
AcDbLine
 62
7
  6
CONTINUOUS
 10
166.6191036111
 20
80.6546356377
 11
166.7605249673
 21
80.7362905563
  0
LINE
  5
32D
100
AcDbEntity
  8
0
100
AcDbLine
 62
7
  6
CONTINUOUS
 10
166.9726570017
 20
80.8587729343
 11
167.1140783579
 21
80.940427853
  0
LINE
  5
32E
100
AcDbEntity
  8
ASSI
100
AcDbLine
 62
7
  6
CONTINUOUS
 10
166.9726570017
 20
80.8587729343
 11
167.1140783579
 21
80.940427853
  0
LINE
  5
32F
100
AcDbEntity
  8
0
100
AcDbLine
 62
7
  6
CONTINUOUS
 10
167.3262103922
 20
81.062910231
 11
167.4676317485
 21
81.1445651497
  0
LINE
  5
330
100
AcDbEntity
  8
ASSI
100
AcDbLine
 62
7
  6
CONTINUOUS
 10
167.3262103922
 20
81.062910231
 11
167.4676317485
 21
81.1445651497
  0
LINE
  5
331
100
AcDbEntity
  8
0
100
AcDbLine
 62
7
  6
CONTINUOUS
 10
167.6797637828
 20
81.2670475277
 11
167.8211851391
 21
81.3487024463
  0
LINE
  5
332
100
AcDbEntity
  8
ASSI
100
AcDbLine
 62
7
  6
CONTINUOUS
 10
167.6797637828
 20
81.2670475277
 11
167.8211851391
 21
81.3487024463
  0
LINE
  5
333
100
AcDbEntity
  8
0
100
AcDbLine
 62
7
  6
CONTINUOUS
 10
169.8010841264
 20
78.000850781
 11
169.9425054826
 21
78.0825056997
  0
LINE
  5
334
100
AcDbEntity
  8
ASSI
100
AcDbLine
 62
7
  6
CONTINUOUS
 10
169.8010841264
 20
78.000850781
 11
169.9425054826
 21
78.0825056997
  0
LINE
  5
335
100
AcDbEntity
  8
0
100
AcDbLine
 62
7
  6
CONTINUOUS
 10
170.154637517
 20
78.2049880777
 11
170.2960588732
 21
78.2866429964
  0
LINE
  5
336
100
AcDbEntity
  8
ASSI
100
AcDbLine
 62
7
  6
CONTINUOUS
 10
170.154637517
 20
78.2049880777
 11
170.2960588732
 21
78.2866429964
  0
LINE
  5
337
100
AcDbEntity
  8
0
100
AcDbLine
 62
7
  6
CONTINUOUS
 10
170.5081909076
 20
78.4091253744
 11
170.6496122638
 21
78.490780293
  0
LINE
  5
338
100
AcDbEntity
  8
ASSI
100
AcDbLine
 62
7
  6
CONTINUOUS
 10
170.5081909076
 20
78.4091253744
 11
170.6496122638
 21
78.490780293
  0
LINE
  5
339
100
AcDbEntity
  8
0
100
AcDbLine
 62
7
  6
CONTINUOUS
 10
170.8617442982
 20
78.613262671
 11
171.0031656544
 21
78.6949175897
  0
LINE
  5
33A
100
AcDbEntity
  8
ASSI
100
AcDbLine
 62
7
  6
CONTINUOUS
 10
170.8617442982
 20
78.613262671
 11
171.0031656544
 21
78.6949175897
  0
LINE
  5
33B
100
AcDbEntity
  8
0
100
AcDbLine
 62
7
  6
CONTINUOUS
 10
171.2152976888
 20
78.8173999677
 11
171.356719045
 21
78.8990548864
  0
LINE
  5
33C
100
AcDbEntity
  8
ASSI
100
AcDbLine
 62
7
  6
CONTINUOUS
 10
171.2152976888
 20
78.8173999677
 11
171.356719045
 21
78.8990548864
  0
LINE
  5
33D
100
AcDbEntity
  8
0
100
AcDbLine
 62
7
  6
CONTINUOUS
 10
171.5688510794
 20
79.0215372644
 11
171.7102724356
 21
79.103192183
  0
LINE
  5
33E
100
AcDbEntity
  8
ASSI
100
AcDbLine
 62
7
  6
CONTINUOUS
 10
171.5688510794
 20
79.0215372644
 11
171.7102724356
 21
79.103192183
  0
LINE
  5
33F
100
AcDbEntity
  8
0
100
AcDbLine
 62
7
  6
CONTINUOUS
 10
171.8163384528
 20
79.0419628305
 11
169.8716171373
 21
77.919105116
  0
LINE
  5
340
100
AcDbEntity
  8
ASSI
100
AcDbLine
 62
7
  6
CONTINUOUS
 10
171.8163384528
 20
79.0419628305
 11
169.8716171373
 21
77.919105116
  0
LWPOLYLINE
  5
341
100
AcDbEntity
  8
SMUSSO
100
AcDbPolyline
 62
7
  6
CONTINUOUS
 90
15
 70
0
 10
106.3382505149
 20
168.1627670816
 10
106.2971419064
 20
168.1851282607
 10
106.2561700226
 20
168.204649729
 10
106.2154735118
 20
168.2212654392
 10
106.1751888161
 20
168.2349184403
 10
106.1354535038
 20
168.245563261
 10
106.0964058083
 20
168.2531660663
 10
106.0581797011
 20
168.2577021968
 10
106.0209026685
 20
168.2591552303
 10
105.9846990714
 20
168.2575192267
 10
105.9496906585
 20
168.2527992872
 10
105.915996642
 20
168.2450118182
 10
105.883731519
 20
168.2341834514
 10
105.8530046357
 20
168.2203509254
 10
105.8382265141
 20
168.2123083513
  0
LWPOLYLINE
  5
342
100
AcDbEntity
  8
0
100
AcDbPolyline
 62
7
  6
CONTINUOUS
 90
4
 70
0
 10
110.3796002383
 20
169.3815168997
 10
110.3314212038
 20
169.4077227727
 10
110.2834707089
 20
169.429437301
 10
110.2756166824
 20
169.4325741369
  0
LWPOLYLINE
  5
343
100
AcDbEntity
  8
ASSI
100
AcDbPolyline
 62
7
  6
CONTINUOUS
 90
4
 70
0
 10
110.3796002383
 20
169.3815168997
 10
110.3314212038
 20
169.4077227727
 10
110.2834707089
 20
169.429437301
 10
110.2756166824
 20
169.4325741369
  0
LINE
  5
344
100
AcDbEntity
  8
SMUSSO
100
AcDbLine
 62
7
  6
CONTINUOUS
 10
107.3989106867
 20
168.7751789716
 11
192.6052778197
 21
119.5781299305
  0
LINE
  5
345
100
AcDbEntity
  8
0
100
AcDbLine
 62
7
  6
CONTINUOUS
 10
110.4040068109
 20
169.367294551
 11
194.2670864512
 21
120.9458034179
  0
LINE
  5
346
100
AcDbEntity
  8
ASSI
100
AcDbLine
 62
7
  6
CONTINUOUS
 10
110.4040068109
 20
169.367294551
 11
194.2670864512
 21
120.9458034179
  0
LINE
  5
347
100
AcDbEntity
  8
0
100
AcDbLine
 62
7
  6
CONTINUOUS
 10
111.6497515303
 20
168.8930766108
 11
195.1426620755
 21
120.6853164739
  0
LINE
  5
348
100
AcDbEntity
  8
ASSI
100
AcDbLine
 62
7
  6
CONTINUOUS
 10
111.6497515303
 20
168.8930766108
 11
195.1426620755
 21
120.6853164739
  0
LWPOLYLINE
  5
349
100
AcDbEntity
  8
SMUSSO
100
AcDbPolyline
 62
7
  6
CONTINUOUS
 90
25
 70
0
 10
192.2517244291
 20
119.7822277723
 10
192.2979659357
 20
119.7537807958
 10
192.3440106927
 20
119.7219592971
 10
192.3896615423
 20
119.6868992528
 10
192.4347231205
 20
119.6487504058
 10
192.4790022892
 20
119.6076759645
 10
192.5223089892
 20
119.563851991
 10
192.5644577124
 20
119.5174660133
 10
192.6052678999
 20
119.4687165403
 10
192.6445643706
 20
119.4178126765
 10
192.6821787929
 20
119.3649723661
 10
192.717950028
 20
119.3104218605
 10
192.7517245367
 20
119.254395245
 10
192.7833576677
 20
119.1971324736
 10
192.8127139484
 20
119.1388787822
 10
192.8396674344
 20
119.0798841615
 10
192.8641027684
 20
119.0204012485
 10
192.8859153535
 20
118.960684827
 10
192.9050116642
 20
118.9009912446
 10
192.9213100627
 20
118.8415761831
 10
192.9347409356
 20
118.7826939864
 10
192.9452468691
 20
118.7245971662
 10
192.9527830928
 20
118.6675345469
 10
192.9573176
 20
118.6117502174
 10
192.9588312103
 20
118.5574829021
  0
LWPOLYLINE
  5
34A
100
AcDbEntity
  8
SMUSSO
100
AcDbPolyline
 62
7
  6
CONTINUOUS
 90
22
 70
0
 10
192.6052778197
 20
119.5781299305
 10
192.6319364552
 20
119.5615444323
 10
192.6581585425
 20
119.5429929532
 10
192.6839440818
 20
119.5224754932
 10
192.7094326863
 20
119.4998552009
 10
192.7344847427
 20
119.4752689278
 10
192.7586814108
 20
119.4491272281
 10
192.7820078065
 20
119.4214040503
 10
192.8044788139
 20
119.3921254459
 10
192.8257202454
 20
119.3617801242
 10
192.8457104109
 20
119.3303525149
 10
192.8644710005
 20
119.2978581883
 10
192.8816928969
 20
119.2648325644
 10
192.8973517637
 20
119.2312646738
 10
192.9114719372
 20
119.1971654859
 10
192.9238173095
 20
119.1631033285
 10
192.9343578922
 20
119.1290782804
 10
192.9431236736
 20
119.0950902629
 10
192.9499685104
 20
119.0617073665
 10
192.9548436883
 20
119.0291189549
 10
192.9577979215
 20
118.9971356646
 10
192.9588312103
 20
118.9657574955
  0
LINE
  5
34B
100
AcDbEntity
  8
0
100
AcDbLine
 62
250
  6
CONTINUOUS
 10
193.3350288137
 20
57.3563460301
 11
193.3291889037
 21
57.4003657856
  0
LWPOLYLINE
  5
34C
100
AcDbEntity
  8
0
100
AcDbPolyline
 62
250
  6
CONTINUOUS
 90
33
 70
0
 10
193.3291889037
 20
57.4003657856
 10
193.3237891368
 20
57.4432311077
 10
193.321278709
 20
57.4642259292
 10
193.3189062899
 20
57.4849315603
 10
193.3166750918
 20
57.5053726814
 10
193.3145870176
 20
57.5255793031
 10
193.31264397
 20
57.5455814361
 10
193.3108478519
 20
57.5654090912
 10
193.3088126405
 20
57.5899899018
 10
193.307016204
 20
57.6143788887
 10
193.3054647668
 20
57.6386099585
 10
193.3041645533
 20
57.6627170175
 10
193.3031223137
 20
57.6867360759
 10
193.3023469013
 20
57.7107115587
 10
193.3018476953
 20
57.7346899944
 10
193.3016340746
 20
57.7587179117
 10
193.3017162573
 20
57.7828368617
 10
193.3021078166
 20
57.8070684866
 10
193.3028231649
 20
57.8314294507
 10
193.3038767144
 20
57.8559364189
 10
193.3052831984
 20
57.8806040781
 10
193.3070586334
 20
57.9054392053
 10
193.3092193572
 20
57.9304465999
 10
193.3117817074
 20
57.9556310613
 10
193.3147611905
 20
57.9809964042
 10
193.3181699889
 20
58.006542505
 10
193.3220194537
 20
58.0322682557
 10
193.3263209362
 20
58.0581725479
 10
193.3301004166
 20
58.0790251077
 10
193.3342135472
 20
58.0999985825
 10
193.3386974222
 20
58.1211003301
 10
193.3435891356
 20
58.1423377081
 10
193.3489257816
 20
58.1637180741
  0
LINE
  5
34D
100
AcDbEntity
  8
SMUSSO
100
AcDbLine
 62
7
  6
CONTINUOUS
 10
190.4839574761
 20
46.0956866544
 11
190.4839574761
 21
117.9450710121
  0
LINE
  5
34E
100
AcDbEntity
  8
SMUSSO
100
AcDbLine
 62
7
  6
CONTINUOUS
 10
191.8981710385
 20
46.0956866544
 11
191.8981710385
 21
117.9450710121
  0
LINE
  5
34F
100
AcDbEntity
  8
0
100
AcDbLine
 62
250
  6
CONTINUOUS
 10
194.9741983285
 20
119.7506637616
 11
195.186217571
 21
120.6098761428
  0
LINE
  5
350
100
AcDbEntity
  8
ASSI
100
AcDbLine
 62
250
  6
CONTINUOUS
 10
194.9741983285
 20
119.7506637616
 11
195.186217571
 21
120.6098761428
  0
LINE
  5
351
100
AcDbEntity
  8
RACCORDO
100
AcDbLine
 62
250
  6
CONTINUOUS
 10
171.1445870107
 20
74.7344607053
 11
171.993074144
 21
75.224366542
  0
LWPOLYLINE
  5
352
100
AcDbEntity
  8
RACCORDO
100
AcDbPolyline
 62
7
  6
CONTINUOUS
 90
13
 70
0
 10
171.7446160028
 20
74.6750112921
 10
171.7041049511
 20
74.6546213361
 10
171.661060929
 20
74.6386855676
 10
171.6160039857
 20
74.6273905149
 10
171.5689083362
 20
74.6207956245
 10
171.5197997655
 20
74.6188414498
 10
171.4693046707
 20
74.621552917
 10
171.4174052906
 20
74.628989792
 10
171.3641193864
 20
74.6410923089
 10
171.3101266382
 20
74.6577060959
 10
171.2556536063
 20
74.6787796956
 10
171.2004737304
 20
74.7043645654
 10
171.1445870107
 20
74.7344607053
  0
LWPOLYLINE
  5
353
100
AcDbEntity
  8
0
100
AcDbPolyline
 62
250
  6
CONTINUOUS
 90
56
 70
0
 10
193.9068237153
 20
58.1950162878
 10
193.9065662428
 20
58.204394711
 10
193.9061608558
 20
58.2135050207
 10
193.9056095079
 20
58.222345495
 10
193.9049141528
 20
58.2309144119
 10
193.9040767442
 20
58.2392100496
 10
193.9030992357
 20
58.2472306862
 10
193.901983581
 20
58.2549745997
 10
193.9007317337
 20
58.2624400683
 10
193.8993445253
 20
58.2696266305
 10
193.8978182982
 20
58.2765388669
 10
193.896148273
 20
58.2831826186
 10
193.8943296697
 20
58.2895637266
 10
193.8923577088
 20
58.295688032
 10
193.8902276106
 20
58.3015613759
 10
193.8879345953
 20
58.3071895993
 10
193.8854738834
 20
58.3125785433
 10
193.8831413097
 20
58.3171704205
 10
193.8806653344
 20
58.3215691111
 10
193.8780388339
 20
58.3257658736
 10
193.875254684
 20
58.3297519664
 10
193.8723057611
 20
58.3335186481
 10
193.8691849413
 20
58.337057177
 10
193.8658851007
 20
58.3403588118
 10
193.8623991153
 20
58.3434148108
 10
193.8587198615
 20
58.3462164326
 10
193.8552390796
 20
58.3485142635
 10
193.8516008602
 20
58.3505991276
 10
193.8478100841
 20
58.3524711841
 10
193.8438716315
 20
58.3541305926
 10
193.839790383
 20
58.3555775123
 10
193.8355718425
 20
58.3568124586
 10
193.8312240081
 20
58.3578373712
 10
193.8267555011
 20
58.3586545458
 10
193.822174943
 20
58.3592662781
 10
193.8174909552
 20
58.3596748638
 10
193.8127100567
 20
58.3598822686
 10
193.8078303558
 20
58.3598891385
 10
193.8028478583
 20
58.3596957897
 10
193.79775857
 20
58.359302538
 10
193.7925584967
 20
58.3587096996
 10
193.787244751
 20
58.3579173503
 10
193.7818188727
 20
58.356924606
 10
193.7762835083
 20
58.3557303422
 10
193.7706413043
 20
58.3543334345
 10
193.7648949074
 20
58.3527327586
 10
193.7590464225
 20
58.3509258359
 10
193.7530957888
 20
58.348904771
 10
193.7470424043
 20
58.3466603145
 10
193.7408856665
 20
58.344183217
 10
193.7346249733
 20
58.3414642289
 10
193.7282597224
 20
58.3384941006
 10
193.7217893115
 20
58.3352635829
 10
193.7152131385
 20
58.3317634261
 10
193.7085306011
 20
58.3279843807
 10
193.701741097
 20
58.3239171973
  0
LWPOLYLINE
  5
354
100
AcDbEntity
  8
SMUSSO
100
AcDbPolyline
 62
7
  6
CONTINUOUS
 90
28
 70
0
 10
191.8981710385
 20
117.9450710121
 10
191.8969807201
 20
117.993238734
 10
191.8933994302
 20
118.0426235729
 10
191.8874392988
 20
118.0930584332
 10
191.8791192311
 20
118.1443719305
 10
191.8684686375
 20
118.1963911626
 10
191.8555273377
 20
118.2489422963
 10
191.8403409677
 20
118.3018485816
 10
191.8229590544
 20
118.3549299269
 10
191.80343864
 20
118.4080056983
 10
191.7818450227
 20
118.4608958696
 10
191.7582520229
 20
118.5134219127
 10
191.7327399594
 20
118.5654063777
 10
191.7053953282
 20
118.6166734643
 10
191.6763104808
 20
118.6670496006
 10
191.6455838011
 20
118.7163643122
 10
191.6133193331
 20
118.764450777
 10
191.5796261751
 20
118.8111462426
 10
191.5446180804
 20
118.8562925597
 10
191.5084129335
 20
118.8997366374
 10
191.4711338108
 20
118.9413318035
 10
191.4329083114
 20
118.9809381556
 10
191.3938674501
 20
119.0184226437
 10
191.3541416699
 20
119.0536574741
 10
191.3138618569
 20
119.0865213825
 10
191.27316313
 20
119.1169024893
 10
191.2321843808
 20
119.1446986758
 10
191.1910642573
 20
119.1698158823
  0
LWPOLYLINE
  5
355
100
AcDbEntity
  8
0
100
AcDbPolyline
 62
7
  6
CONTINUOUS
 90
22
 70
0
 10
194.9741983285
 20
119.7506637616
 10
194.9728032254
 20
119.8122410232
 10
194.967634905
 20
119.8753060355
 10
194.9587324275
 20
119.9395381403
 10
194.9461686726
 20
120.0045968818
 10
194.9300057454
 20
120.0701666271
 10
194.9102835856
 20
120.135959682
 10
194.8870862985
 20
120.2016706008
 10
194.8605451031
 20
120.2669390422
 10
194.8307902462
 20
120.3313961672
 10
194.7979752738
 20
120.3947008162
 10
194.7622698183
 20
120.4565444585
 10
194.723853702
 20
120.5166156342
 10
194.6829092972
 20
120.5746131823
 10
194.6396552935
 20
120.6302335343
 10
194.5943460224
 20
120.6831794406
 10
194.547227983
 20
120.7331570536
 10
194.498523618
 20
120.7799408564
 10
194.448462025
 20
120.8233524878
 10
194.3972854681
 20
120.8631803517
 10
194.3452523827
 20
120.8991910566
 10
194.2926209425
 20
120.9311904223
  0
LWPOLYLINE
  5
356
100
AcDbEntity
  8
ASSI
100
AcDbPolyline
 62
7
  6
CONTINUOUS
 90
22
 70
0
 10
194.9741983285
 20
119.7506637616
 10
194.9728032254
 20
119.8122410232
 10
194.967634905
 20
119.8753060355
 10
194.9587324275
 20
119.9395381403
 10
194.9461686726
 20
120.0045968818
 10
194.9300057454
 20
120.0701666271
 10
194.9102835856
 20
120.135959682
 10
194.8870862985
 20
120.2016706008
 10
194.8605451031
 20
120.2669390422
 10
194.8307902462
 20
120.3313961672
 10
194.7979752738
 20
120.3947008162
 10
194.7622698183
 20
120.4565444585
 10
194.723853702
 20
120.5166156342
 10
194.6829092972
 20
120.5746131823
 10
194.6396552935
 20
120.6302335343
 10
194.5943460224
 20
120.6831794406
 10
194.547227983
 20
120.7331570536
 10
194.498523618
 20
120.7799408564
 10
194.448462025
 20
120.8233524878
 10
194.3972854681
 20
120.8631803517
 10
194.3452523827
 20
120.8991910566
 10
194.2926209425
 20
120.9311904223
  0
LINE
  5
357
100
AcDbEntity
  8
SMUSSO
100
AcDbLine
 62
7
  6
CONTINUOUS
 10
192.9588312103
 20
118.9657574955
 11
192.9588312103
 21
46.7080985444
  0
LINE
  5
358
100
AcDbEntity
  8
0
100
AcDbLine
 62
250
  6
CONTINUOUS
 10
193.3195282487
 20
53.8541974597
 11
193.3195282487
 21
54.1779867103
  0
LINE
  5
359
100
AcDbEntity
  8
0
100
AcDbLine
 62
250
  6
CONTINUOUS
 10
193.3196074518
 20
56.7761086209
 11
193.3196074518
 21
56.4628812298
  0
LINE
  5
35A
100
AcDbEntity
  8
0
100
AcDbLine
 62
250
  6
CONTINUOUS
 10
193.3196074518
 20
55.7804410807
 11
193.3196074518
 21
55.4600826382
  0
LINE
  5
35B
100
AcDbEntity
  8
0
100
AcDbLine
 62
250
  6
CONTINUOUS
 10
193.3196074518
 20
54.8159235145
 11
193.3196074518
 21
54.4924020661
  0
LINE
  5
35C
100
AcDbEntity
  8
0
100
AcDbLine
 62
250
  6
CONTINUOUS
 10
193.3196074518
 20
53.7340857013
 11
193.3196074518
 21
53.4105177141
  0
LINE
  5
35D
100
AcDbEntity
  8
0
100
AcDbLine
 62
250
  6
CONTINUOUS
 10
193.3196074518
 20
52.8101238467
 11
193.3196074518
 21
52.4583884514
  0
LINE
  5
35E
100
AcDbEntity
  8
0
100
AcDbLine
 62
250
  6
CONTINUOUS
 10
193.9068237153
 20
58.0099737889
 11
193.9068237153
 21
58.1950162878
  0
LINE
  5
35F
100
AcDbEntity
  8
0
100
AcDbLine
 62
250
  6
CONTINUOUS
 10
194.1229987715
 20
58.3235699125
 11
194.1229987715
 21
58.1499617093
  0
LINE
  5
360
100
AcDbEntity
  8
0
100
AcDbLine
 62
250
  6
CONTINUOUS
 10
194.1721428582
 20
57.2719296002
 11
194.1721428582
 21
56.9619240008
  0
LINE
  5
361
100
AcDbEntity
  8
0
100
AcDbLine
 62
250
  6
CONTINUOUS
 10
194.376044336
 20
57.0176042627
 11
194.376044336
 21
57.4585520992
  0
LINE
  5
362
100
AcDbEntity
  8
0
100
AcDbLine
 62
250
  6
CONTINUOUS
 10
194.6395522358
 20
59.2660970435
 11
194.6395522358
 21
58.9546491615
  0
LINE
  5
363
100
AcDbEntity
  8
0
100
AcDbLine
 62
250
  6
CONTINUOUS
 10
194.6395522358
 20
58.458810175
 11
194.6395522358
 21
58.1363234866
  0
LINE
  5
364
100
AcDbEntity
  8
0
100
AcDbLine
 62
250
  6
CONTINUOUS
 10
194.6395524123
 20
54.9672320947
 11
194.6395524123
 21
54.6434428441
  0
LINE
  5
365
100
AcDbEntity
  8
0
100
AcDbLine
 62
250
  6
CONTINUOUS
 10
194.6395524123
 20
53.7393367302
 11
194.6395524123
 21
54.0246767625
  0
LINE
  5
366
100
AcDbEntity
  8
0
100
AcDbLine
 62
250
  6
CONTINUOUS
 10
194.6395524123
 20
55.1415387012
 11
194.6395524123
 21
55.4512993595
  0
LINE
  5
367
100
AcDbEntity
  8
0
100
AcDbLine
 62
250
  6
CONTINUOUS
 10
194.6395524123
 20
55.9010177197
 11
194.6395524123
 21
55.94642898
  0
LINE
  5
368
100
AcDbEntity
  8
0
100
AcDbLine
 62
250
  6
CONTINUOUS
 10
194.6395524123
 20
56.397938676
 11
194.6395524123
 21
56.7146907693
  0
LINE
  5
369
100
AcDbEntity
  8
0
100
AcDbLine
 62
250
  6
CONTINUOUS
 10
194.6395524123
 20
56.7655340064
 11
194.6395524123
 21
57.0858108019
  0
LINE
  5
36A
100
AcDbEntity
  8
0
100
AcDbLine
 62
250
  6
CONTINUOUS
 10
194.6395524123
 20
57.6999826053
 11
194.6395524123
 21
58.0412435033
  0
LINE
  5
36B
100
AcDbEntity
  8
0
100
AcDbLine
 62
7
  6
CONTINUOUS
 10
194.9740855366
 20
119.7212450824
 11
194.9740855366
 21
49.0146704074
  0
LINE
  5
36C
100
AcDbEntity
  8
ASSI
100
AcDbLine
 62
7
  6
CONTINUOUS
 10
194.9740855366
 20
119.7212450824
 11
194.9740855366
 21
49.0146704074
  0
LINE
  5
36D
100
AcDbEntity
  8
0
100
AcDbLine
 62
7
  6
CONTINUOUS
 10
195.186217571
 20
120.6098761428
 11
195.186217571
 21
50.330722151
  0
LINE
  5
36E
100
AcDbEntity
  8
ASSI
100
AcDbLine
 62
7
  6
CONTINUOUS
 10
195.186217571
 20
120.6098761428
 11
195.186217571
 21
50.330722151
  0
LWPOLYLINE
  5
36F
100
AcDbEntity
  8
SMUSSO
100
AcDbPolyline
 62
7
  6
CONTINUOUS
 90
13
 70
0
 10
192.9588312103
 20
46.7080985444
 10
192.9573176001
 20
46.6555791115
 10
192.9527830896
 20
46.6050310881
 10
192.9452468532
 20
46.5566710542
 10
192.9347408849
 20
46.5107061162
 10
192.9213099533
 20
46.467333435
 10
192.9050114991
 20
46.4267392995
 10
192.8859151681
 20
46.3890976962
 10
192.8641025918
 20
46.354569977
 10
192.8396672667
 20
46.3233044334
 10
192.81271377
 20
46.2954350502
 10
192.7833574706
 20
46.2710812757
 10
192.7517485892
 20
46.2503616832
  0
LWPOLYLINE
  5
370
100
AcDbEntity
  8
0
100
AcDbPolyline
 62
7
  6
CONTINUOUS
 90
10
 70
0
 10
110.2756166824
 20
169.4325741369
 10
110.2359996527
 20
169.4465617876
 10
110.1892805507
 20
169.4590238993
 10
110.1435291382
 20
169.4667719527
 10
110.0989067727
 20
169.4697607425
 10
110.0556237227
 20
169.4679689379
 10
110.0139287256
 20
169.4614043616
 10
109.9740315008
 20
169.4500922482
 10
109.9361346438
 20
169.434089649
 10
109.92676437
 20
169.4292409557
  0
LWPOLYLINE
  5
371
100
AcDbEntity
  8
ASSI
100
AcDbPolyline
 62
7
  6
CONTINUOUS
 90
10
 70
0
 10
110.2756166824
 20
169.4325741369
 10
110.2359996527
 20
169.4465617876
 10
110.1892805507
 20
169.4590238993
 10
110.1435291382
 20
169.4667719527
 10
110.0989067727
 20
169.4697607425
 10
110.0556237227
 20
169.4679689379
 10
110.0139287256
 20
169.4614043616
 10
109.9740315008
 20
169.4500922482
 10
109.9361346438
 20
169.434089649
 10
109.92676437
 20
169.4292409557
  0
LINE
  5
372
100
AcDbEntity
  8
0
100
AcDbLine
 62
250
  6
CONTINUOUS
 10
110.3796002383
 20
169.3815168997
 11
111.6497515303
 21
168.8930766108
  0
LINE
  5
373
100
AcDbEntity
  8
ASSI
100
AcDbLine
 62
250
  6
CONTINUOUS
 10
110.3796002383
 20
169.3815168997
 11
111.6497515303
 21
168.8930766108
  0
LINE
  5
374
100
AcDbEntity
  8
0
100
AcDbLine
 62
7
  6
CONTINUOUS
 10
111.642725757
 20
168.8964877317
 11
110.2756001129
 21
169.4325655645
  0
LINE
  5
375
100
AcDbEntity
  8
ASSI
100
AcDbLine
 62
7
  6
CONTINUOUS
 10
111.642725757
 20
168.8964877317
 11
110.2756001129
 21
169.4325655645
  0
LWPOLYLINE
  5
376
100
AcDbEntity
  8
0
100
AcDbPolyline
 62
250
  6
CONTINUOUS
 90
24
 70
0
 10
193.5367023044
 20
58.0423290576
 10
193.5355992679
 20
58.0297412487
 10
193.5346446905
 20
58.0172293308
 10
193.5338382325
 20
58.0047944389
 10
193.533179554
 20
57.9924377077
 10
193.5326683153
 20
57.9801602722
 10
193.5323041766
 20
57.9679632674
 10
193.532086798
 20
57.955847828
 10
193.5320167545
 20
57.9453141067
 10
193.5320588311
 20
57.934841384
 10
193.5322130448
 20
57.9244273408
 10
193.5324794126
 20
57.9140696583
 10
193.5328583916
 20
57.9037658615
 10
193.5333521997
 20
57.8935128521
 10
193.5339634949
 20
57.8833073757
 10
193.5346949354
 20
57.873146178
 10
193.5355478827
 20
57.8630268364
 10
193.536518513
 20
57.8529502554
 10
193.5376017059
 20
57.8429181713
 10
193.5387923411
 20
57.8329323204
 10
193.5400844584
 20
57.8229919016
 10
193.5414687379
 20
57.8130859637
 10
193.54293502
 20
57.8032010182
 10
193.5444731448
 20
57.7933235766
  0
LWPOLYLINE
  5
377
100
AcDbEntity
  8
0
100
AcDbPolyline
 62
7
  6
CONTINUOUS
 90
4
 70
0
 10
194.9664281178
 20
48.8709077669
 10
194.9676301163
 20
48.8792195305
 10
194.9728019485
 20
48.9315998803
 10
194.9741983285
 20
48.986423971
  0
LWPOLYLINE
  5
378
100
AcDbEntity
  8
ASSI
100
AcDbPolyline
 62
7
  6
CONTINUOUS
 90
4
 70
0
 10
194.9664281178
 20
48.8709077669
 10
194.9676301163
 20
48.8792195305
 10
194.9728019485
 20
48.9315998803
 10
194.9741983285
 20
48.986423971
  0
LINE
  5
379
100
AcDbEntity
  8
0
100
AcDbLine
 62
7
  6
CONTINUOUS
 10
195.185659147
 20
50.3229364195
 11
194.966412391
 21
48.8708976906
  0
LINE
  5
37A
100
AcDbEntity
  8
ASSI
100
AcDbLine
 62
7
  6
CONTINUOUS
 10
195.185659147
 20
50.3229364195
 11
194.966412391
 21
48.8708976906
  0
LINE
  5
37B
100
AcDbEntity
  8
0
100
AcDbLine
 62
250
  6
CONTINUOUS
 10
194.9741983285
 20
48.986423971
 11
195.186217571
 21
50.330722151
  0
LINE
  5
37C
100
AcDbEntity
  8
ASSI
100
AcDbLine
 62
250
  6
CONTINUOUS
 10
194.9741983285
 20
48.986423971
 11
195.186217571
 21
50.330722151
  0
LWPOLYLINE
  5
37D
100
AcDbEntity
  8
0
100
AcDbPolyline
 62
250
  6
CONTINUOUS
 90
81
 70
0
 10
193.3489257816
 20
58.1637180741
 10
193.3525647069
 20
58.1769335368
 10
193.3566889115
 20
58.190400733
 10
193.3613020715
 20
58.2041477966
 10
193.3664078631
 20
58.2182028617
 10
193.3720099623
 20
58.2325940623
 10
193.3781120453
 20
58.2473495323
 10
193.3847135121
 20
58.2624783367
 10
193.3917966578
 20
58.2779132641
 10
193.3993395012
 20
58.2935680342
 10
193.4073200612
 20
58.3093563664
 10
193.4157163568
 20
58.3251919804
 10
193.4245064069
 20
58.3409885958
 10
193.4336694639
 20
58.3566704075
 10
193.4431897148
 20
58.372203513
 10
193.45305258
 20
58.3875644848
 10
193.463241794
 20
58.4027274985
 10
193.473734348
 20
58.4176571407
 10
193.4845055471
 20
58.4323156004
 10
193.4955281278
 20
58.4466630729
 10
193.5067645521
 20
58.4606517773
 10
193.5181747132
 20
58.4742319389
 10
193.5297116051
 20
58.4873523587
 10
193.5413006253
 20
58.4999561424
 10
193.552860272
 20
58.5119849716
 10
193.564325156
 20
58.5233981485
 10
193.575694338
 20
58.5342254576
 10
193.5869829915
 20
58.5445143044
 10
193.5981971529
 20
58.5543043611
 10
193.6093063114
 20
58.5636043693
 10
193.6202708191
 20
58.5724153375
 10
193.6331927368
 20
58.5823504276
 10
193.6458483826
 20
58.5916207399
 10
193.6582368746
 20
58.6002642619
 10
193.6703573306
 20
58.6083189806
 10
193.6822088686
 20
58.6158228836
 10
193.6937914883
 20
58.6228103092
 10
193.7051087155
 20
58.6293010013
 10
193.7161649577
 20
58.6353110545
 10
193.7269646225
 20
58.6408565638
 10
193.7375121173
 20
58.6459536242
 10
193.7503467164
 20
58.6517184933
 10
193.7627915763
 20
58.6568371776
 10
193.7748440863
 20
58.6613390457
 10
193.7865016361
 20
58.6652534662
 10
193.7977638335
 20
58.6686102187
 10
193.8086391591
 20
58.6714407271
 10
193.819138312
 20
58.6737768264
 10
193.829271991
 20
58.6756503514
 10
193.8390502204
 20
58.6770918444
 10
193.8484803249
 20
58.6781266774
 10
193.8575689545
 20
58.6787789292
 10
193.8663227592
 20
58.6790726792
 10
193.8747482576
 20
58.6790310272
 10
193.8828514431
 20
58.6786731568
 10
193.8906381781
 20
58.6780172723
 10
193.8981143246
 20
58.6770815782
 10
193.9076102089
 20
58.6754279276
 10
193.916582419
 20
58.673338772
 10
193.9250490163
 20
58.6708436824
 10
193.933030115
 20
58.6679774684
 10
193.9405540416
 20
58.6647958951
 10
193.9476511751
 20
58.6613599661
 10
193.9543527434
 20
58.6577280183
 10
193.9606933677
 20
58.6539477217
 10
193.9667085175
 20
58.6500640796
 10
193.9710273801
 20
58.647109158
 10
193.9751966127
 20
58.6441317545
 10
193.9792274614
 20
58.6411428668
 10
193.9831221658
 20
58.6381561423
 10
193.9868848005
 20
58.6351849991
 10
193.9905357846
 20
58.6322392889
 10
193.9975641308
 20
58.6263537674
 10
194.0009243253
 20
58.623290841
 10
194.0040939699
 20
58.6200804146
 10
194.0069838666
 20
58.616683642
 10
194.0095375395
 20
58.6130681046
 10
194.0117096654
 20
58.609200672
 10
194.0134668115
 20
58.6050389377
 10
194.0147784783
 20
58.6005460193
 10
194.0156140103
 20
58.5957164053
  0
LWPOLYLINE
  5
37E
100
AcDbEntity
  8
0
100
AcDbPolyline
 62
250
  6
CONTINUOUS
 90
39
 70
0
 10
194.023413733
 20
58.6003798769
 10
194.0255894025
 20
58.6077587153
 10
194.0279462555
 20
58.6151189699
 10
194.0304823542
 20
58.6224645107
 10
194.033195761
 20
58.6297992078
 10
194.036084538
 20
58.637126931
 10
194.0391467477
 20
58.6444515505
 10
194.0423787697
 20
58.6517739927
 10
194.0457702532
 20
58.6590834112
 10
194.0493091645
 20
58.666366016
 10
194.0529834703
 20
58.6736080171
 10
194.0567811371
 20
58.6807956246
 10
194.0606901313
 20
58.6879150485
 10
194.0655129645
 20
58.696353544
 10
194.0704701737
 20
58.7046778001
 10
194.0755531515
 20
58.7128916194
 10
194.0807532906
 20
58.7209988041
 10
194.0860619836
 20
58.7290031569
 10
194.0914699791
 20
58.7369069358
 10
194.0969654493
 20
58.7447062219
 10
194.1025359221
 20
58.7523955517
 10
194.1081689256
 20
58.7599694619
 10
194.1138519879
 20
58.7674224893
 10
194.1210130415
 20
58.7765668907
 10
194.1282434509
 20
58.7855417965
 10
194.1355538426
 20
58.7943751271
 10
194.1429548429
 20
58.8030948029
 10
194.1504567381
 20
58.8117265695
 10
194.158068454
 20
58.8202874719
 10
194.1657985758
 20
58.8287923807
 10
194.1736556893
 20
58.837256166
 10
194.1816491478
 20
58.845693439
 10
194.1897913771
 20
58.8541177739
 10
194.1980955707
 20
58.8625424858
 10
194.2065749224
 20
58.8709808897
 10
194.2134937494
 20
58.8777517425
 10
194.2205420711
 20
58.8845546384
 10
194.2277288372
 20
58.891404336
 10
194.2350629973
 20
58.898315594
  0
LWPOLYLINE
  5
37F
100
AcDbEntity
  8
0
100
AcDbPolyline
 62
250
  6
CONTINUOUS
 90
48
 70
0
 10
194.2391632946
 20
58.5736094012
 10
194.234786918
 20
58.5689947942
 10
194.2305037331
 20
58.5643510081
 10
194.226304462
 20
58.5596703721
 10
194.2221798265
 20
58.5549452158
 10
194.2181205485
 20
58.5501678686
 10
194.2141173498
 20
58.54533066
 10
194.2093783684
 20
58.539439778
 10
194.2047141226
 20
58.5334599089
 10
194.2001319543
 20
58.5273993118
 10
194.1956392053
 20
58.5212662456
 10
194.1912432175
 20
58.5150689692
 10
194.1876583099
 20
58.5098603876
 10
194.1841451686
 20
58.5046111682
 10
194.1807032664
 20
58.4993195281
 10
194.1773332355
 20
58.4939855276
 10
194.1740403474
 20
58.4886166003
 10
194.1708310333
 20
58.4832220225
 10
194.1677107944
 20
58.477809322
 10
194.1646814123
 20
58.4723790298
 10
194.1617437385
 20
58.4669299279
 10
194.1588986245
 20
58.4614607986
 10
194.156146922
 20
58.4559704239
 10
194.1534894824
 20
58.4504575857
 10
194.1509278151
 20
58.444922256
 10
194.14846606
 20
58.4393691655
 10
194.146109015
 20
58.4338042344
 10
194.1438614778
 20
58.4282333834
 10
194.1417282461
 20
58.4226625328
 10
194.1397141176
 20
58.417097603
 10
194.1378228729
 20
58.4115446913
 10
194.1360542231
 20
58.4060106018
 10
194.134406862
 20
58.4005023155
 10
194.1328794835
 20
58.3950268135
 10
194.1314707815
 20
58.3895910767
 10
194.1301794498
 20
58.3842020861
 10
194.1290039128
 20
58.3788658307
 10
194.1279415168
 20
58.3735843318
 10
194.1269893386
 20
58.3683586185
 10
194.1261444549
 20
58.3631897202
 10
194.1254039427
 20
58.358078666
 10
194.1247648787
 20
58.3530264852
 10
194.1242248099
 20
58.3480321817
 10
194.1237831641
 20
58.3430866582
 10
194.1234398394
 20
58.3381787921
 10
194.1231947337
 20
58.3332974609
 10
194.1230477451
 20
58.3284315419
 10
194.1229987715
 20
58.3235699125
  0
LINE
  5
380
100
AcDbEntity
  8
0
100
AcDbLine
 62
250
  6
CONTINUOUS
 10
194.6395524123
 20
58.0412435033
 11
193.3196074518
 21
56.7761086209
  0
LWPOLYLINE
  5
381
100
AcDbEntity
  8
0
100
AcDbPolyline
 62
250
  6
CONTINUOUS
 90
7
 70
0
 10
194.3457142324
 20
58.6789413936
 10
194.3274268477
 20
58.6614698381
 10
194.3093413912
 20
58.6439934052
 10
194.2914664698
 20
58.6264920589
 10
194.2738106908
 20
58.6089457631
 10
194.2563826613
 20
58.591334482
 10
194.2391909884
 20
58.5736381795
  0
LINE
  5
382
100
AcDbEntity
  8
0
100
AcDbLine
 62
250
  6
CONTINUOUS
 10
194.3859882758
 20
58.7168792295
 11
194.3457142324
 21
58.6789413936
  0
LINE
  5
383
100
AcDbEntity
  8
0
100
AcDbLine
 62
250
  6
CONTINUOUS
 10
194.6395522358
 20
58.9546491615
 11
194.4753750111
 21
58.8002327133
  0
LINE
  5
384
100
AcDbEntity
  8
0
100
AcDbLine
 62
250
  6
CONTINUOUS
 10
194.4753750111
 20
58.8002327133
 11
194.3859882758
 21
58.7168792295
  0
LINE
  5
385
100
AcDbEntity
  8
0
100
AcDbLine
 62
250
  6
CONTINUOUS
 10
194.2350629973
 20
58.898315594
 11
194.2502066021
 21
58.9123812468
  0
LINE
  5
386
100
AcDbEntity
  8
0
100
AcDbLine
 62
250
  6
CONTINUOUS
 10
194.376044336
 20
57.4585520992
 11
194.6395524123
 21
57.6999826053
  0
LINE
  5
387
100
AcDbEntity
  8
0
100
AcDbLine
 62
250
  6
CONTINUOUS
 10
194.2502066021
 20
58.9123812468
 11
194.3739094471
 21
59.0254202102
  0
LINE
  5
388
100
AcDbEntity
  8
0
100
AcDbLine
 62
250
  6
CONTINUOUS
 10
194.5817819241
 20
59.2134680718
 11
194.6395522358
 21
59.2660970435
  0
LINE
  5
389
100
AcDbEntity
  8
0
100
AcDbLine
 62
250
  6
CONTINUOUS
 10
194.3739094471
 20
59.0254202102
 11
194.5817819241
 21
59.2134680718
  0
LINE
  5
38A
100
AcDbEntity
  8
0
100
AcDbLine
 62
250
  6
CONTINUOUS
 10
193.6822945053
 20
56.8302628015
 11
194.1721428582
 21
57.2719296002
  0
LINE
  5
38B
100
AcDbEntity
  8
0
100
AcDbLine
 62
250
  6
CONTINUOUS
 10
194.6395524123
 20
56.7146907693
 11
193.3196074518
 21
55.7804410807
  0
LWPOLYLINE
  5
38C
100
AcDbEntity
  8
0
100
AcDbPolyline
 62
250
  6
CONTINUOUS
 90
53
 70
0
 10
193.7017773281
 20
58.3239395185
 10
193.6970170299
 20
58.3209253226
 10
193.6923048777
 20
58.3177763569
 10
193.687629545
 20
58.3144883706
 10
193.6829797052
 20
58.3110571133
 10
193.6783440318
 20
58.3074783344
 10
193.6737139639
 20
58.3037491258
 10
193.6690920017
 20
58.2998719504
 10
193.6644834114
 20
58.2958506133
 10
193.6598934587
 20
58.2916889198
 10
193.6553274097
 20
58.2873906753
 10
193.6515438397
 20
58.2837066638
 10
193.6477800462
 20
58.2799292096
 10
193.6440355491
 20
58.2760570548
 10
193.6403110125
 20
58.2720901912
 10
193.6366116788
 20
58.2680336096
 10
193.6329439345
 20
58.2638935506
 10
193.6285915086
 20
58.2588217003
 10
193.6242938653
 20
58.2536351557
 10
193.6200511017
 20
58.2483304433
 10
193.6158633149
 20
58.2429040899
 10
193.6117306019
 20
58.2373526219
 10
193.6076547332
 20
58.231674415
 10
193.603644172
 20
58.2258752407
 10
193.5997090549
 20
58.2199627191
 10
193.5958595184
 20
58.2139444709
 10
193.5921056989
 20
58.2078281162
 10
193.5884566126
 20
58.201621707
 10
193.5849167926
 20
58.1953350207
 10
193.581489652
 20
58.1889782659
 10
193.5781786036
 20
58.1825616515
 10
193.5749870601
 20
58.1760953863
 10
193.5719175229
 20
58.169587875
 10
193.568968848
 20
58.1630403058
 10
193.5661389796
 20
58.156452063
 10
193.5634258622
 20
58.1498225309
 10
193.5608274402
 20
58.1431510935
 10
193.5587489402
 20
58.1375607495
 10
193.5567517942
 20
58.1319503746
 10
193.5548391341
 20
58.1263294665
 10
193.5530134372
 20
58.1207056992
 10
193.5512745633
 20
58.1150794523
 10
193.5496217178
 20
58.1094492816
 10
193.5477512389
 20
58.1026875939
 10
193.5460051065
 20
58.095926058
 10
193.5443849303
 20
58.0891725554
 10
193.5428923202
 20
58.0824349674
 10
193.541528886
 20
58.0757211756
 10
193.5402962104
 20
58.0690354136
 10
193.5391957675
 20
58.0623673249
 10
193.5382290042
 20
58.0557029055
 10
193.5373973675
 20
58.0490281511
 10
193.5367023043
 20
58.0423290576
  0
LINE
  5
38D
100
AcDbEntity
  8
0
100
AcDbLine
 62
250
  6
CONTINUOUS
 10
194.0156140103
 20
58.5957164053
 11
194.023413733
 21
58.6003798769
  0
LINE
  5
38E
100
AcDbEntity
  8
0
100
AcDbLine
 62
250
  6
CONTINUOUS
 10
194.1229987715
 20
58.1499617093
 11
194.6395522358
 21
58.458810175
  0
LINE
  5
38F
100
AcDbEntity
  8
0
100
AcDbLine
 62
250
  6
CONTINUOUS
 10
193.5444731448
 20
57.7933235766
 11
193.9068237153
 21
58.0099737889
  0
LINE
  5
390
100
AcDbEntity
  8
0
100
AcDbLine
 62
250
  6
CONTINUOUS
 10
194.6395522358
 20
58.1363234866
 11
193.3350288137
 21
57.3563460301
  0
LINE
  5
391
100
AcDbEntity
  8
0
100
AcDbLine
 62
250
  6
CONTINUOUS
 10
194.6395524123
 20
55.4512993595
 11
193.7776529741
 21
55.0058421105
  0
LINE
  5
392
100
AcDbEntity
  8
0
100
AcDbLine
 62
250
  6
CONTINUOUS
 10
193.3196074518
 20
54.4924020661
 11
194.6395524123
 21
55.1415387012
  0
LINE
  5
393
100
AcDbEntity
  8
0
100
AcDbLine
 62
250
  6
CONTINUOUS
 10
193.7776529741
 20
55.0058421105
 11
194.6395524123
 21
55.9010177197
  0
LINE
  5
394
100
AcDbEntity
  8
0
100
AcDbLine
 62
250
  6
CONTINUOUS
 10
194.0524447156
 20
55.5744584181
 11
193.3196074518
 21
54.8159235145
  0
LINE
  5
395
100
AcDbEntity
  8
0
100
AcDbLine
 62
250
  6
CONTINUOUS
 10
193.3196074518
 20
52.4583884514
 11
194.6395524123
 21
53.7393367302
  0
LINE
  5
396
100
AcDbEntity
  8
0
100
AcDbLine
 62
250
  6
CONTINUOUS
 10
194.2281665579
 20
53.6490339861
 11
193.3196074518
 21
52.8101238467
  0
LINE
  5
397
100
AcDbEntity
  8
0
100
AcDbLine
 62
250
  6
CONTINUOUS
 10
193.7812462945
 20
55.8182319898
 11
194.6395524123
 21
56.397938676
  0
LWPOLYLINE
  5
398
100
AcDbEntity
  8
0
100
AcDbPolyline
 62
7
  6
CONTINUOUS
 90
10
 70
0
 10
194.789136179
 20
48.5704616513
 10
194.7979733156
 20
48.5761216806
 10
194.8307827324
 20
48.6009359948
 10
194.8605302393
 20
48.629827931
 10
194.8870651264
 20
48.6626505882
 10
194.9102606829
 20
48.6992350116
 10
194.9299857568
 20
48.7393697543
 10
194.9461536538
 20
48.7828620562
 10
194.9587228128
 20
48.829549542
 10
194.9664281178
 20
48.8709077669
  0
LWPOLYLINE
  5
399
100
AcDbEntity
  8
ASSI
100
AcDbPolyline
 62
7
  6
CONTINUOUS
 90
10
 70
0
 10
194.789136179
 20
48.5704616513
 10
194.7979733156
 20
48.5761216806
 10
194.8307827324
 20
48.6009359948
 10
194.8605302393
 20
48.629827931
 10
194.8870651264
 20
48.6626505882
 10
194.9102606829
 20
48.6992350116
 10
194.9299857568
 20
48.7393697543
 10
194.9461536538
 20
48.7828620562
 10
194.9587228128
 20
48.829549542
 10
194.9664281178
 20
48.8709077669
  0
LINE
  5
39A
100
AcDbEntity
  8
0
100
AcDbLine
 62
250
  6
CONTINUOUS
 10
192.9592693961
 20
47.7686778832
 11
194.9740855366
 21
49.0146704074
  0
LINE
  5
39B
100
AcDbEntity
  8
ASSI
100
AcDbLine
 62
250
  6
CONTINUOUS
 10
192.9592693961
 20
47.7686778832
 11
194.9740855366
 21
49.0146704074
  0
LINE
  5
39C
100
AcDbEntity
  8
0
100
AcDbLine
 62
7
  6
CONTINUOUS
 10
192.9588312103
 20
47.4385736035
 11
194.789139672
 21
48.5704638114
  0
LINE
  5
39D
100
AcDbEntity
  8
ASSI
100
AcDbLine
 62
7
  6
CONTINUOUS
 10
192.9588312103
 20
47.4385736035
 11
194.789139672
 21
48.5704638114
  0
LWPOLYLINE
  5
39E
100
AcDbEntity
  8
SMUSSO
100
AcDbPolyline
 62
7
  6
CONTINUOUS
 90
15
 70
0
 10
191.6910885768
 20
45.6379498852
 10
191.7053951996
 20
45.6466972323
 10
191.7327395438
 20
45.6663878248
 10
191.7582511924
 20
45.6889125942
 10
191.7818437475
 20
45.7141952808
 10
191.8034371256
 20
45.7421501895
 10
191.8229576896
 20
45.7726823995
 10
191.840339958
 20
45.8056889284
 10
191.8555265731
 20
45.8410589349
 10
191.8684678203
 20
45.8786737035
 10
191.8791182514
 20
45.9184049998
 10
191.8874382946
 20
45.9601163449
 10
191.8933986225
 20
46.003665922
 10
191.8969802471
 20
46.0489070545
 10
191.8981710385
 20
46.0956866544
  0
LINE
  5
39F
100
AcDbEntity
  8
0
100
AcDbLine
 62
250
  6
CONTINUOUS
 10
193.3195282487
 20
54.1779867103
 11
194.6395524123
 21
54.9672320947
  0
LINE
  5
3A0
100
AcDbEntity
  8
0
100
AcDbLine
 62
250
  6
CONTINUOUS
 10
194.6395524123
 20
54.6434428441
 11
193.3195282487
 21
53.8541974597
  0
LINE
  5
3A1
100
AcDbEntity
  8
SMUSSO
100
AcDbLine
 62
250
  6
CONTINUOUS
 10
191.8981710385
 20
46.0956866544
 11
192.9588312103
 21
46.7080985444
  0
LINE
  5
3A2
100
AcDbEntity
  8
RACCORDO
100
AcDbLine
 62
7
  6
CONTINUOUS
 10
191.6910884174
 20
45.6379497932
 11
192.7517485892
 21
46.2503616832
  0
ARC
  5
3A3
100
AcDbEntity
  8
0
100
AcDbCircle
 62
7
  6
CONTINUOUS
 10
139.3779446035
 20
96.5266338973
 40
0.3
100
AcDbArc
 50
300.1089928496
 51
314.2001404346
  0
ARC
  5
3A4
100
AcDbEntity
  8
0
100
AcDbCircle
 62
7
  6
CONTINUOUS
 10
171.1977497569
 20
78.1542771976
 40
0.3
100
AcDbArc
 50
300.1089928496
 51
314.2001404346
  0
ARC
  5
3A5
100
AcDbEntity
  8
ASSI
100
AcDbCircle
 62
7
  6
CONTINUOUS
 10
139.3779446035
 20
96.5266338973
 40
0.3
100
AcDbArc
 50
300.1089929461
 51
314.2001404338
  0
ARC
  5
3A6
100
AcDbEntity
  8
ASSI
100
AcDbCircle
 62
7
  6
CONTINUOUS
 10
171.1977497569
 20
78.1542771976
 40
0.3
100
AcDbArc
 50
300.1089929461
 51
314.2001404338
  0
ELLIPSE
  5
3A7
100
AcDbEntity
  8
0
100
AcDbEllipse
 62
7
  6
CONTINUOUS
 10
195.1415937623
 20
50.3577209209
 30
0.0
 11
-0.0319307066
 21
0.0553022874
 31
0.0
 40
0.5636716562
 41
-2.5265818713
 42
-2.3682119497
  0
ELLIPSE
  5
3A8
100
AcDbEntity
  8
0
100
AcDbEllipse
 62
7
  6
CONTINUOUS
 10
195.1415937623
 20
120.6344078286
 30
0.0
 11
-0.0311754239
 21
0.0539936769
 31
0.0
 40
0.5913227191
 41
-2.3442738678
 42
-0.7974202594
  0
ELLIPSE
  5
3A9
100
AcDbEntity
  8
0
100
AcDbEllipse
 62
7
  6
CONTINUOUS
 10
111.6508198435
 20
168.8409343041
 30
0.0
 11
-0.0319307066
 21
0.0553022874
 31
0.0
 40
0.5636716562
 41
-0.7734729046
 42
-0.6150192183
  0
ELLIPSE
  5
3AA
100
AcDbEntity
  8
0
100
AcDbEllipse
 62
7
  6
CONTINUOUS
 10
141.3792039088
 20
97.5307517386
 30
0.0
 11
0.1999995634
 21
0.1164181051
 31
0.0
 40
0.0035896273
 41
-0.7351277754
 42
-0.6748017824
  0
ELLIPSE
  5
3AB
100
AcDbEntity
  8
0
100
AcDbEllipse
 62
7
  6
CONTINUOUS
 10
169.3730076716
 20
81.9388451249
 30
0.0
 11
0.1998333781
 21
-0.0157785196
 31
0.0
 40
0.5172961965
 41
0.8262203412
 42
2.3446567905
  0
ELLIPSE
  5
3AC
100
AcDbEntity
  8
0
100
AcDbEllipse
 62
7
  6
CONTINUOUS
 10
137.5532025182
 20
100.3112018247
 30
0.0
 11
0.1998333781
 21
-0.0157785196
 31
0.0
 40
0.5172961965
 41
0.8262203412
 42
2.3446567905
  0
ELLIPSE
  5
3AD
100
AcDbEntity
  8
0
100
AcDbEllipse
 62
7
  6
CONTINUOUS
 10
153.4594963448
 20
91.0701560248
 30
0.0
 11
0.2999972416
 21
-0.0022477848
 31
0.0
 40
0.5723275643
 41
0.7896864073
 42
2.3081228565
  0
ELLIPSE
  5
3AE
100
AcDbEntity
  8
0
100
AcDbEllipse
 62
7
  6
CONTINUOUS
 10
167.8547801417
 20
80.635430612
 30
0.0
 11
0.5413005334
 21
0.8416911418
 31
0.0
 40
0.6067084637
 41
0.7148472392
 42
0.8145158917
  0
ELLIPSE
  5
3AF
100
AcDbEntity
  8
0
100
AcDbEllipse
 62
7
  6
CONTINUOUS
 10
136.0349749883
 20
99.0077873118
 30
0.0
 11
0.5413005334
 21
0.8416911418
 31
0.0
 40
0.6067084637
 41
0.7148472392
 42
0.8145158917
  0
ELLIPSE
  5
3B0
100
AcDbEntity
  8
0
100
AcDbEllipse
 62
7
  6
CONTINUOUS
 10
157.3637170322
 20
88.7333694665
 30
0.0
 11
0.0858610644
 21
0.3627848639
 31
0.0
 40
0.5009985936
 41
-2.6944494219
 42
-2.6479073085
  0
ELLIPSE
  5
3B1
100
AcDbEntity
  8
0
100
AcDbEllipse
 62
7
  6
CONTINUOUS
 10
141.3792039088
 20
98.1021165728
 30
0.0
 11
0.1998333781
 21
-0.0157785196
 31
0.0
 40
0.5172961965
 41
-0.692216108
 42
0.8262203412
  0
ELLIPSE
  5
3B2
100
AcDbEntity
  8
0
100
AcDbEllipse
 62
7
  6
CONTINUOUS
 10
157.1512938793
 20
88.9385583975
 30
0.0
 11
0.2999972416
 21
-0.0022477848
 31
0.0
 40
0.5723275643
 41
-0.728750042
 42
0.7896864073
  0
ELLIPSE
  5
3B3
100
AcDbEntity
  8
0
100
AcDbEllipse
 62
7
  6
CONTINUOUS
 10
140.2813122466
 20
96.5560053979
 30
0.0
 11
0.4625183445
 21
0.8873459255
 31
0.0
 40
0.5463614449
 41
0.662201126
 42
0.7618697785
  0
ELLIPSE
  5
3B4
100
AcDbEntity
  8
0
100
AcDbEllipse
 62
7
  6
CONTINUOUS
 10
195.1548328552
 20
120.6420329255
 30
0.0
 11
0.1365023326
 21
1.2306519884
 31
0.0
 40
0.0962714138
 41
-3.8917430252
 42
-3.8564132784
  0
ELLIPSE
  5
3B5
100
AcDbEntity
  8
0
100
AcDbEllipse
 62
7
  6
CONTINUOUS
 10
195.1548328552
 20
49.9723848203
 30
0.0
 11
0.1387214801
 21
1.2585231556
 31
0.0
 40
0.0920685296
 41
-3.8374748546
 42
-3.8021451078
  0
ELLIPSE
  5
3B6
100
AcDbEntity
  8
0
100
AcDbEllipse
 62
7
  6
CONTINUOUS
 10
111.3237335927
 20
169.0450589893
 30
0.0
 11
1.1592455945
 21
-0.5090882972
 31
0.0
 40
0.0921189357
 41
-2.4809772198
 42
-2.4456474731
  0
ELLIPSE
  5
3B7
100
AcDbEntity
  8
0
100
AcDbEllipse
 62
7
  6
CONTINUOUS
 10
195.1548328552
 20
120.6420329255
 30
0.0
 11
1.1339988709
 21
-0.4970753424
 31
0.0
 40
0.0963242103
 41
-2.4267061945
 42
-2.3913764477
  0
ELLIPSE
  5
3B8
100
AcDbEntity
  8
ASSI
100
AcDbEllipse
 62
7
  6
CONTINUOUS
 10
195.1415937623
 20
50.3577209209
 30
0.0
 11
-0.0319307066
 21
0.0553022874
 31
0.0
 40
0.5636716562
 41
-2.5265818713
 42
-2.3682119497
  0
ELLIPSE
  5
3B9
100
AcDbEntity
  8
ASSI
100
AcDbEllipse
 62
7
  6
CONTINUOUS
 10
195.1415937623
 20
120.6344078286
 30
0.0
 11
-0.0311754239
 21
0.0539936769
 31
0.0
 40
0.5913227191
 41
-2.3442738678
 42
-0.7974202594
  0
ELLIPSE
  5
3BA
100
AcDbEntity
  8
ASSI
100
AcDbEllipse
 62
7
  6
CONTINUOUS
 10
111.6508198435
 20
168.8409343041
 30
0.0
 11
-0.0319307066
 21
0.0553022874
 31
0.0
 40
0.5636716562
 41
-0.7734729046
 42
-0.6150192183
  0
ELLIPSE
  5
3BB
100
AcDbEntity
  8
ASSI
100
AcDbEllipse
 62
7
  6
CONTINUOUS
 10
141.3792039088
 20
97.5307517386
 30
0.0
 11
0.1999995634
 21
0.1164181051
 31
0.0
 40
0.0035896273
 41
-0.7351277754
 42
-0.6748017824
  0
ELLIPSE
  5
3BC
100
AcDbEntity
  8
ASSI
100
AcDbEllipse
 62
7
  6
CONTINUOUS
 10
169.3730076716
 20
81.9388451249
 30
0.0
 11
0.1998333781
 21
-0.0157785196
 31
0.0
 40
0.5172961965
 41
0.8262203412
 42
2.3446567905
  0
ELLIPSE
  5
3BD
100
AcDbEntity
  8
ASSI
100
AcDbEllipse
 62
7
  6
CONTINUOUS
 10
137.5532025182
 20
100.3112018247
 30
0.0
 11
0.1998333781
 21
-0.0157785196
 31
0.0
 40
0.5172961965
 41
0.8262203412
 42
2.3446567905
  0
ELLIPSE
  5
3BE
100
AcDbEntity
  8
ASSI
100
AcDbEllipse
 62
7
  6
CONTINUOUS
 10
153.4594963448
 20
91.0701560248
 30
0.0
 11
0.2999972416
 21
-0.0022477848
 31
0.0
 40
0.5723275643
 41
0.7896864073
 42
2.3081228565
  0
ELLIPSE
  5
3BF
100
AcDbEntity
  8
ASSI
100
AcDbEllipse
 62
7
  6
CONTINUOUS
 10
167.8547801417
 20
80.635430612
 30
0.0
 11
0.5413005334
 21
0.8416911418
 31
0.0
 40
0.6067084637
 41
0.7148472392
 42
0.8145158917
  0
ELLIPSE
  5
3C0
100
AcDbEntity
  8
ASSI
100
AcDbEllipse
 62
7
  6
CONTINUOUS
 10
136.0349749883
 20
99.0077873118
 30
0.0
 11
0.5413005334
 21
0.8416911418
 31
0.0
 40
0.6067084637
 41
0.7148472392
 42
0.8145158917
  0
ELLIPSE
  5
3C1
100
AcDbEntity
  8
ASSI
100
AcDbEllipse
 62
7
  6
CONTINUOUS
 10
157.3637170322
 20
88.7333694665
 30
0.0
 11
0.0858610644
 21
0.3627848639
 31
0.0
 40
0.5009985936
 41
-2.6944494219
 42
-2.6479073085
  0
ELLIPSE
  5
3C2
100
AcDbEntity
  8
ASSI
100
AcDbEllipse
 62
7
  6
CONTINUOUS
 10
141.3792039088
 20
98.1021165728
 30
0.0
 11
0.1998333781
 21
-0.0157785196
 31
0.0
 40
0.5172961965
 41
-0.692216108
 42
0.8262203412
  0
ELLIPSE
  5
3C3
100
AcDbEntity
  8
ASSI
100
AcDbEllipse
 62
7
  6
CONTINUOUS
 10
157.1512938793
 20
88.9385583975
 30
0.0
 11
0.2999972416
 21
-0.0022477848
 31
0.0
 40
0.5723275643
 41
-0.728750042
 42
0.7896864073
  0
ELLIPSE
  5
3C4
100
AcDbEntity
  8
ASSI
100
AcDbEllipse
 62
7
  6
CONTINUOUS
 10
140.2813122466
 20
96.5560053979
 30
0.0
 11
0.4625183445
 21
0.8873459255
 31
0.0
 40
0.5463614449
 41
0.662201126
 42
0.7618697785
  0
ELLIPSE
  5
3C5
100
AcDbEntity
  8
ASSI
100
AcDbEllipse
 62
7
  6
CONTINUOUS
 10
195.1548328552
 20
120.6420329255
 30
0.0
 11
0.1365023326
 21
1.2306519884
 31
0.0
 40
0.0962714138
 41
-3.8917430252
 42
-3.8564132784
  0
ELLIPSE
  5
3C6
100
AcDbEntity
  8
ASSI
100
AcDbEllipse
 62
7
  6
CONTINUOUS
 10
195.1548328552
 20
49.9723848203
 30
0.0
 11
0.1387214801
 21
1.2585231556
 31
0.0
 40
0.0920685296
 41
-3.8374748546
 42
-3.8021451078
  0
ELLIPSE
  5
3C7
100
AcDbEntity
  8
ASSI
100
AcDbEllipse
 62
7
  6
CONTINUOUS
 10
111.3237335927
 20
169.0450589893
 30
0.0
 11
1.1592455945
 21
-0.5090882972
 31
0.0
 40
0.0921189357
 41
-2.4809772198
 42
-2.4456474731
  0
ELLIPSE
  5
3C8
100
AcDbEntity
  8
ASSI
100
AcDbEllipse
 62
7
  6
CONTINUOUS
 10
195.1548328552
 20
120.6420329255
 30
0.0
 11
1.1339988709
 21
-0.4970753424
 31
0.0
 40
0.0963242103
 41
-2.4267061945
 42
-2.3913764477
  0
ENDSEC
  0
SECTION
  2
OBJECTS
  0
DICTIONARY
  5
C
100
AcDbDictionary
280
0
281
1
  3
ACAD_GROUP
350
D
  3
ACAD_MLINESTYLE
350
17
  3
ACAD_LAYOUT
350
1A
  3
ACAD_PLOTSETTINGS
350
19
  3
ACAD_PLOTSTYLENAME
350
E
  0
DICTIONARY
  5
D
102
{ACAD_REACTORS
330
C
102
}
100
AcDbDictionary
280
0
281
1
  0
ACDBDICTIONARYWDFLT
  5
E
102
{ACAD_REACTORS
330
C
102
}
100
AcDbDictionary
281
1
  3
Normal
350
F
100
AcDbDictionaryWithDefault
340
F
  0
DICTIONARY
  5
17
102
{ACAD_REACTORS
330
C
102
}
100
AcDbDictionary
280
0
281
1
  3
Standard
350
18
  0
DICTIONARY
  5
19
102
{ACAD_REACTORS
330
C
102
}
100
AcDbDictionary
281
1
  0
DICTIONARY
  5
1A
102
{ACAD_REACTORS
330
C
102
}
100
AcDbDictionary
281
1
  3
Model
350
3C9
  3
Layout1
350
3CA
  0
ACDBPLACEHOLDER
  5
F
102
{ACAD_REACTORS
330
E
102
}
  0
MLINESTYLE
  5
18
102
{ACAD_REACTORS
330
17
102
}
100
AcDbMlineStyle
  2
STANDARD
 70
0
  3

 62
256
 51
90.0
 52
90.0
 71
2
 49
0.5
 62
256
  6
BYLAYER
 49
-0.5
 62
256
  6
BYLAYER
  0
LAYOUT
  5
3C9
102
{ACAD_REACTORS
330
1A
102
}
100
AcDbPlotSettings
  1

  2
none_device
  4
ISO_A4_(297.00_x_210.00_MM)
  6

 40
0.0
 41
0.0
 42
0.0
 43
0.0
 44
297.0
 45
210.0
 46
0.0
 47
0.0
 48
0.0
 49
0.0
140
0.0
141
0.0
142
1.0
143
1.0
 70
1024
 72
1
 73
0
 74
0
  7

 75
0
147
1.0
148
0.0
149
0.0
100
AcDbLayout
  1
Model
 70
0
 71
0
 10
0.0
 20
0.0
 11
297.0
 21
210.0
 12
0.0
 22
0.0
 32
0.0
 14
0.0
 24
0.0
 34
0.0
 15
0.0
 25
0.0
 35
0.0
146
0.0
 13
0.0
 23
0.0
 33
0.0
 16
1.0
 26
0.0
 36
0.0
 17
0.0
 27
1.0
 37
0.0
 76
0
330
21C
345
0
346
0
  0
LAYOUT
  5
3CA
102
{ACAD_REACTORS
330
1A
102
}
100
AcDbPlotSettings
  1

  2
none_device
  4
ISO_A4_(297.00_x_210.00_MM)
  6

 40
0.0
 41
0.0
 42
0.0
 43
0.0
 44
297.0
 45
210.0
 46
0.0
 47
0.0
 48
0.0
 49
0.0
140
0.0
141
0.0
142
1.0
143
1.0
 70
0
 72
1
 73
0
 74
0
  7

 75
0
147
1.0
148
0.0
149
0.0
100
AcDbLayout
  1
Layout1
 70
0
 71
1
 10
0.0
 20
0.0
 11
297.0
 21
210.0
 12
0.0
 22
0.0
 32
0.0
 14
0.0
 24
0.0
 34
0.0
 15
0.0
 25
0.0
 35
0.0
146
0.0
 13
0.0
 23
0.0
 33
0.0
 16
1.0
 26
0.0
 36
0.0
 17
0.0
 27
1.0
 37
0.0
 76
0
330
21D
345
0
346
0
  0
ENDSEC
  0
EOF
