  0
SECTION
  2
HEADER
  9
$ACADVER
  1
AC1024
  9
$DWGCODEPAGE
  3
ANSI_1252
  9
$EXTMAX
 10
297.0
 20
210.0
 30
0.0
  9
$EXTMIN
 10
0.0
 20
0.0
 30
0.0
  9
$LIMMIN
 10
0.0
 20
0.0
  9
$LIMMAX
 10
297.0
 20
210.0
  9
$VIEWCTR
 10
148.5
 20
105.0
  9
$VIEWSIZE
 40
210.0
  9
$CLAYER
  8
0
  9
$LTSCALE
 40
16.335
  9
$CELTYPE
  6
BYLAYER
  9
$DIMSCALE
 40
1.0
  9
$DIMASZ
 40
3.0
  9
$DIMEXO
 40
0.5
  9
$DIMDLI
 40
11.286
  9
$DIMEXE
 40
1.5
  9
$DIMCEN
 40
2.673
  9
$DIMLFAC
 40
1.0
  9
$DIMBLK
  1
_FILLED
  9
$DIMALT
 70
0
  9
$DIMALTF
 40
0.0393700787
  9
$DIMTXT
 40
3.0
  9
$DIMTOL
 70
1
  9
$DIMLIM
 70
0
  9
$DIMTFAC
 40
1.0
  9
$DIMTP
 40
0.01
  9
$DIMTM
 40
0.01
  9
$DIMGAP
 40
0.625
  9
$DIMDSEP
 70
44
  9
$AUNITS
 70
0
  9
$PDMODE
 70
3
  9
$PDSIZE
 40
3.0
  9
$HANDSEED
  5
2EE
  9
$TILEMODE
 70
1
  9
$MEASUREMENT
 70
1
  9
$INSUNITS
 70
4
  0
ENDSEC
  0
SECTION
  2
CLASSES
  0
CLASS
  1
ACDBDICTIONARYWDFLT
  2
AcDbDictionaryWithDefault
  3
AutoCAD 2000
 90
0
 91
1
280
0
281
0
  0
CLASS
  1
ACDBPLACEHOLDER
  2
AcDbPlaceHolder
  3
AutoCAD 2000
 90
0
 91
1
280
0
281
0
  0
CLASS
  1
LAYOUT
  2
AcDbLayout
  3
AutoCAD 2000
 90
0
 91
0
280
0
281
0
  0
ENDSEC
  0
SECTION
  2
TABLES
  0
TABLE
  2
VPORT
  5
8
100
AcDbSymbolTable
 70
2
  0
VPORT
  5
1F4
100
AcDbSymbolTableRecord
100
AcDbViewportTableRecord
  2
*ACTIVE
 70
0
 10
0.0
 20
0.0
 11
1.0
 21
1.0
 12
148.5
 22
105.0
 13
0.0
 23
0.0
 14
1.0
 24
1.0
 15
0.0
 25
0.0
 16
0.0
 26
0.0
 36
1.0
 17
0.0
 27
0.0
 37
0.0
 40
210.0
 41
1.4142857143
 42
50.0
 43
0.0
 44
0.0
 50
0.0
 51
0.0
 71
0
 72
100
 73
1
 74
1
 75
0
 76
0
 77
0
 78
0
  0
ENDTAB
  0
TABLE
  2
LTYPE
  5
5
100
AcDbSymbolTable
 70
6
  0
LTYPE
  5
14
100
AcDbSymbolTableRecord
100
AcDbLinetypeTableRecord
  2
BYBLOCK
 70
0
  3

 72
65
 73
0
 40
0.0
  0
LTYPE
  5
15
100
AcDbSymbolTableRecord
100
AcDbLinetypeTableRecord
  2
BYLAYER
 70
0
  3

 72
65
 73
0
 40
0.0
  0
LTYPE
  5
16
100
AcDbSymbolTableRecord
100
AcDbLinetypeTableRecord
  2
CONTINUOUS
 70
64
  3
Solid line
 72
65
 73
0
 40
0.0
  0
LTYPE
  5
1F5
100
AcDbSymbolTableRecord
100
AcDbLinetypeTableRecord
  2
CENTER
 70
64
  3
____ _ ____ _ ____ _ ____ _ ____ _ ____ _ ____
 72
65
 73
4
 40
0.6
 49
0.375
 74
0
 49
-0.075
 74
0
 49
0.075
 74
0
 49
-0.075
 74
0
  0
LTYPE
  5
1F6
100
AcDbSymbolTableRecord
100
AcDbLinetypeTableRecord
  2
HIDDEN
 70
64
  3
- - - - - - - - - - - - - - - - - - - -
 72
65
 73
2
 40
0.2
 49
0.1
 74
0
 49
-0.1
 74
0
  0
LTYPE
  5
1F7
100
AcDbSymbolTableRecord
100
AcDbLinetypeTableRecord
  2
PHANTOM
 70
64
  3
_____ _ _ _____ _ _ _____ _ _ _____
 72
65
 73
6
 40
0.8
 49
0.45
 74
0
 49
-0.05
 74
0
 49
0.1
 74
0
 49
-0.05
 74
0
 49
0.1
 74
0
 49
-0.05
 74
0
  0
LTYPE
  5
1F8
100
AcDbSymbolTableRecord
100
AcDbLinetypeTableRecord
  2
DOT
 70
64
  3
. . . . . . . . . . . . . . . . . . . .
 72
65
 73
2
 40
0.2
 49
0.1
 74
0
 49
-0.1
 74
0
  0
LTYPE
  5
1F9
100
AcDbSymbolTableRecord
100
AcDbLinetypeTableRecord
  2
DASHED
 70
64
  3
- - - - - - - - - - - - - - - - - - - -
 72
65
 73
2
 40
0.2
 49
0.1
 74
0
 49
-0.1
 74
0
  0
ENDTAB
  0
TABLE
  2
LAYER
  5
2
100
AcDbSymbolTable
 70
36
  0
LAYER
  5
10
100
AcDbSymbolTableRecord
100
AcDbLayerTableRecord
  2
0
 70
0
 62
7
  6
CONTINUOUS
370
-3
390
F
  0
LAYER
  5
1FA
100
AcDbSymbolTableRecord
100
AcDbLayerTableRecord
  2
DEFAULT_1
 70
0
 62
7
  6
CENTER
370
-3
390
F
  0
LAYER
  5
1FB
100
AcDbSymbolTableRecord
100
AcDbLayerTableRecord
  2
DEFAULT_2
 70
0
 62
7
  6
HIDDEN
370
-3
390
F
  0
LAYER
  5
1FC
100
AcDbSymbolTableRecord
100
AcDbLayerTableRecord
  2
DEFAULT_3
 70
0
 62
7
  6
PHANTOM
370
-3
390
F
  0
LAYER
  5
1FD
100
AcDbSymbolTableRecord
100
AcDbLayerTableRecord
  2
ASSI
 70
0
 62
7
  6
CONTINUOUS
370
-3
390
F
  0
LAYER
  5
1FE
100
AcDbSymbolTableRecord
100
AcDbLayerTableRecord
  2
COORDINATE
 70
0
 62
7
  6
CONTINUOUS
370
-3
390
F
  0
LAYER
  5
1FF
100
AcDbSymbolTableRecord
100
AcDbLayerTableRecord
  2
COORD_ORIGINE
 70
0
 62
7
  6
CONTINUOUS
370
-3
390
F
  0
LAYER
  5
200
100
AcDbSymbolTableRecord
100
AcDbLayerTableRecord
  2
COPY_PUBLISH
 70
0
 62
7
  6
CONTINUOUS
370
-3
390
F
  0
LAYER
  5
201
100
AcDbSymbolTableRecord
100
AcDbLayerTableRecord
  2
COSMETIC
 70
0
 62
7
  6
CONTINUOUS
370
-3
390
F
  0
LAYER
  5
202
100
AcDbSymbolTableRecord
100
AcDbLayerTableRecord
  2
COSMETICI
 70
0
 62
7
  6
CONTINUOUS
370
-3
390
F
  0
LAYER
  5
203
100
AcDbSymbolTableRecord
100
AcDbLayerTableRecord
  2
CURVA_TASSELLO
 70
0
 62
7
  6
CONTINUOUS
370
-3
390
F
  0
LAYER
  5
204
100
AcDbSymbolTableRecord
100
AcDbLayerTableRecord
  2
CURVE
 70
0
 62
7
  6
CONTINUOUS
370
-3
390
F
  0
LAYER
  5
205
100
AcDbSymbolTableRecord
100
AcDbLayerTableRecord
  2
DRAFT
 70
0
 62
7
  6
CONTINUOUS
370
-3
390
F
  0
LAYER
  5
206
100
AcDbSymbolTableRecord
100
AcDbLayerTableRecord
  2
IMPORT_IGES
 70
0
 62
7
  6
CONTINUOUS
370
-3
390
F
  0
LAYER
  5
207
100
AcDbSymbolTableRecord
100
AcDbLayerTableRecord
  2
INTFCLR_2
 70
0
 62
7
  6
CONTINUOUS
370
-3
390
F
  0
LAYER
  5
208
100
AcDbSymbolTableRecord
100
AcDbLayerTableRecord
  2
INTF_1
 70
0
 62
7
  6
CONTINUOUS
370
-3
390
F
  0
LAYER
  5
209
100
AcDbSymbolTableRecord
100
AcDbLayerTableRecord
  2
INTF_21
 70
0
 62
7
  6
CONTINUOUS
370
-3
390
F
  0
LAYER
  5
20A
100
AcDbSymbolTableRecord
100
AcDbLayerTableRecord
  2
INTF_7
 70
0
 62
7
  6
CONTINUOUS
370
-3
390
F
  0
LAYER
  5
20B
100
AcDbSymbolTableRecord
100
AcDbLayerTableRecord
  2
NOTE
 70
0
 62
7
  6
CONTINUOUS
370
-3
390
F
  0
LAYER
  5
20C
100
AcDbSymbolTableRecord
100
AcDbLayerTableRecord
  2
PIANI
 70
0
 62
7
  6
CONTINUOUS
370
-3
390
F
  0
LAYER
  5
20D
100
AcDbSymbolTableRecord
100
AcDbLayerTableRecord
  2
PIANI_ORIGINE
 70
0
 62
7
  6
CONTINUOUS
370
-3
390
F
  0
LAYER
  5
20E
100
AcDbSymbolTableRecord
100
AcDbLayerTableRecord
  2
PIANI_RIFERIMENTO
 70
0
 62
7
  6
CONTINUOUS
370
-3
390
F
  0
LAYER
  5
20F
100
AcDbSymbolTableRecord
100
AcDbLayerTableRecord
  2
PUNTI
 70
0
 62
7
  6
CONTINUOUS
370
-3
390
F
  0
LAYER
  5
210
100
AcDbSymbolTableRecord
100
AcDbLayerTableRecord
  2
RACCORDO
 70
0
 62
7
  6
CONTINUOUS
370
-3
390
F
  0
LAYER
  5
211
100
AcDbSymbolTableRecord
100
AcDbLayerTableRecord
  2
RGB__255__255__255__
 70
0
 62
7
  6
CONTINUOUS
370
-3
390
F
  0
LAYER
  5
212
100
AcDbSymbolTableRecord
100
AcDbLayerTableRecord
  2
RGB____0____0____0__
 70
0
 62
7
  6
CONTINUOUS
370
-3
390
F
  0
LAYER
  5
213
100
AcDbSymbolTableRecord
100
AcDbLayerTableRecord
  2
SIMBOLI
 70
0
 62
7
  6
CONTINUOUS
370
-3
390
F
  0
LAYER
  5
214
100
AcDbSymbolTableRecord
100
AcDbLayerTableRecord
  2
SMUSSO
 70
0
 62
7
  6
CONTINUOUS
370
-3
390
F
  0
LAYER
  5
215
100
AcDbSymbolTableRecord
100
AcDbLayerTableRecord
  2
SNAPLINE
 70
0
 62
7
  6
CONTINUOUS
370
-3
390
F
  0
LAYER
  5
216
100
AcDbSymbolTableRecord
100
AcDbLayerTableRecord
  2
SUPERFICI
 70
0
 62
7
  6
CONTINUOUS
370
-3
390
F
  0
LAYER
  5
217
100
AcDbSymbolTableRecord
100
AcDbLayerTableRecord
  2
TRASH
 70
0
 62
7
  6
CONTINUOUS
370
-3
390
F
  0
LAYER
  5
218
100
AcDbSymbolTableRecord
100
AcDbLayerTableRecord
  2
WHITE
 70
0
 62
7
  6
CONTINUOUS
370
-3
390
F
  0
LAYER
  5
219
100
AcDbSymbolTableRecord
100
AcDbLayerTableRecord
  2
XSEC_DATUMS
 70
0
 62
7
  6
CONTINUOUS
370
-3
390
F
  0
ENDTAB
  0
TABLE
  2
STYLE
  5
3
100
AcDbSymbolTable
 70
1
  0
STYLE
  5
11
100
AcDbSymbolTableRecord
100
AcDbTextStyleTableRecord
  2
STANDARD
 70
0
 40
0.0
 41
0.8
 50
0.0
 71
0
 42
0.2
  3
txt
  4

  0
STYLE
  5
21A
100
AcDbSymbolTableRecord
100
AcDbTextStyleTableRecord
  2
TEXTSTYLE_1
 70
0
 40
0.0
 41
0.8
 50
0.0
 71
0
 42
0.2
  3
gdt
  4

  0
ENDTAB
  0
TABLE
  2
VIEW
  5
6
100
AcDbSymbolTable
 70
0
  0
ENDTAB
  0
TABLE
  2
UCS
  5
7
100
AcDbSymbolTable
 70
0
  0
ENDTAB
  0
TABLE
  2
APPID
  5
9
100
AcDbSymbolTable
 70
1
  0
APPID
  5
21B
100
AcDbSymbolTableRecord
100
AcDbRegAppTableRecord
  2
ACAD
 70
0
  0
ENDTAB
  0
TABLE
  2
BLOCK_RECORD
  5
1
100
AcDbSymbolTable
 70
0
  0
BLOCK_RECORD
  5
21C
100
AcDbSymbolTableRecord
100
AcDbBlockTableRecord
  2
*Model_Space
  0
BLOCK_RECORD
  5
21D
100
AcDbSymbolTableRecord
100
AcDbBlockTableRecord
  2
*Paper_Space
  0
BLOCK_RECORD
  5
21E
100
AcDbSymbolTableRecord
100
AcDbBlockTableRecord
  2
_FILLED
  0
ENDTAB
  0
TABLE
  2
DIMSTYLE
  5
A
100
AcDbSymbolTable
 70
1
100
AcDbDimStyleTable
 71
0
  0
DIMSTYLE
105
21F
100
AcDbSymbolTableRecord
100
AcDbDimStyleTableRecord
  2
STANDARD
 70
0
  3

  4

 40
1.0
 41
3.0
 42
0.5
 43
0.38
 44
1.5
 45
0.0
 46
0.0
 47
0.01
 48
0.01
140
3.0
141
0.09
142
0.0
143
25.4
144
1.0
145
0.0
146
1.0
147
0.625
 71
1.0
 72
0.0
 73
0
 74
0
 75
0
 76
0
 77
1
 78
8
 79
2
170
0
171
1
172
0
173
0
174
0
175
0
176
0
177
0
178
0
270
2
179
2
271
2
272
2
273
2
274
2
275
0
280
0
281
0
282
0
283
1
284
8
285
0
286
0
287
3
288
0
340
11
278
44
341
21E
342
21E
343
21E
344
21E
  0
ENDTAB
  0
ENDSEC
  0
SECTION
  2
BLOCKS
  0
BLOCK
  5
20
100
AcDbEntity
  8
0
100
AcDbBlockBegin
  2
*Model_Space
 70
0
 10
0.0
 20
0.0
 30
0.0
  3
*Model_Space
  1

  0
ENDBLK
  5
21
100
AcDbEntity
  8
0
100
AcDbBlockEnd
  0
BLOCK
  5
1C
100
AcDbEntity
  8
0
100
AcDbBlockBegin
  2
*Paper_Space
 70
0
 10
0.0
 20
0.0
 30
0.0
  3
*Paper_Space
  1

  0
ENDBLK
  5
1D
100
AcDbEntity
  8
0
100
AcDbBlockEnd
  0
BLOCK
  5
220
100
AcDbEntity
  8
0
100
AcDbBlockBegin
  2
_FILLED
 70
64
 10
0.0
 20
0.0
  3
_FILLED
  1

  0
SOLID
  5
221
100
AcDbEntity
  8
0
  6
BYBLOCK
 62
0
100
AcDbTrace
 10
0.0
 20
0.0
 11
-1.0
 21
0.3166666667
 12
-1.0
 22
-0.3166666667
 13
-1.0
 23
-0.3166666667
  0
ENDBLK
  5
222
100
AcDbEntity
  8
0
  6
BYBLOCK
 62
0
100
AcDbBlockEnd
  0
ENDSEC
  0
SECTION
  2
ENTITIES
  0
LINE
  5
223
100
AcDbEntity
  8
SMUSSO
100
AcDbLine
 62
7
  6
CONTINUOUS
 10
104.2591769605
 20
167.4777260173
 11
106.7340506947
 21
168.906647639
  0
LINE
  5
224
100
AcDbEntity
  8
0
100
AcDbLine
 62
7
  6
CONTINUOUS
 10
109.2619079963
 20
169.5607115689
 11
107.3665509797
 21
168.5414499015
  0
LINE
  5
225
100
AcDbEntity
  8
0
100
AcDbLine
 62
250
  6
CONTINUOUS
 10
109.7391468189
 20
169.4987632184
 11
107.6527436286
 21
168.3767631013
  0
LINE
  5
226
100
AcDbEntity
  8
SMUSSO
100
AcDbLine
 62
7
  6
CONTINUOUS
 10
104.2591769605
 20
167.4777260173
 11
104.2591769605
 21
94.8118319278
  0
LINE
  5
227
100
AcDbEntity
  8
0
100
AcDbLine
 62
250
  6
CONTINUOUS
 10
123.1035726791
 20
137.7367447112
 11
123.9519846495
 21
138.2266071498
  0
LWPOLYLINE
  5
228
100
AcDbEntity
  8
0
100
AcDbPolyline
 62
7
  6
CONTINUOUS
 90
13
 70
0
 10
123.3520718244
 20
138.2860289446
 10
123.3926232403
 20
138.3064722151
 10
123.4355410527
 20
138.3223620521
 10
123.4806730257
 20
138.3336476219
 10
123.5278281022
 20
138.3402799848
 10
123.5768029791
 20
138.3422294314
 10
123.6273852068
 20
138.3394871164
 10
123.6793581687
 20
138.3320648022
 10
123.7324992167
 20
138.3199943035
 10
123.7865774587
 20
138.3033284834
 10
123.8413600444
 20
138.2821400306
 10
123.8966133711
 20
138.2565202136
 10
123.9521008166
 20
138.2265795313
  0
LINE
  5
229
100
AcDbEntity
  8
SMUSSO
100
AcDbLine
 62
7
  6
CONTINUOUS
 10
104.2591769605
 20
94.8118319278
 11
189.8190974841
 21
45.4106455901
  0
LINE
  5
22A
100
AcDbEntity
  8
0
100
AcDbLine
 62
7
  6
CONTINUOUS
 10
122.3964658979
 20
102.7918168645
 11
122.3964658979
 21
137.7367447112
  0
LINE
  5
22B
100
AcDbEntity
  8
0
100
AcDbLine
 62
7
  6
CONTINUOUS
 10
123.1035726791
 20
102.7918168645
 11
123.1035726791
 21
137.7367447112
  0
LWPOLYLINE
  5
22C
100
AcDbEntity
  8
0
100
AcDbPolyline
 62
7
  6
CONTINUOUS
 90
28
 70
0
 10
122.3964658979
 20
137.7367447112
 10
122.3985553875
 20
137.8166814986
 10
122.404641493
 20
137.8934999127
 10
122.4147242147
 20
137.9671999535
 10
122.4288643974
 20
138.0380100683
 10
122.4470011962
 20
138.1057018097
 10
122.4689520758
 20
138.1695898363
 10
122.4947558646
 20
138.2296352827
 10
122.5243737341
 20
138.2858770141
 10
122.5575066648
 20
138.3377462853
 10
122.5941903042
 20
138.385198561
 10
122.6343890046
 20
138.4282783764
 10
122.6776968032
 20
138.4665505915
 10
122.7241451212
 20
138.4999664053
 10
122.7737025372
 20
138.5285746188
 10
122.8258688245
 20
138.5520864947
 10
122.8806704836
 20
138.5704504278
 10
122.9380810139
 20
138.5837180234
 10
122.9975206864
 20
138.5917553604
 10
123.0590103177
 20
138.5945093139
 10
123.1225290912
 20
138.5920330088
 10
123.1874348284
 20
138.5843518995
 10
123.2537417549
 20
138.5714129111
 10
123.3214356451
 20
138.5532691186
 10
123.3898316429
 20
138.5301052006
 10
123.4587014629
 20
138.5019827168
 10
123.5282733906
 20
138.4688401077
 10
123.598547426
 20
138.4306773731
  0
LWPOLYLINE
  5
22D
100
AcDbEntity
  8
0
100
AcDbPolyline
 62
7
  6
CONTINUOUS
 90
13
 70
0
 10
123.1035726791
 20
137.7367447112
 10
123.1053888256
 20
137.7997648673
 10
123.1108299618
 20
137.8604218719
 10
123.1198734965
 20
137.9184555504
 10
123.1324817142
 20
137.9736180308
 10
123.1486011526
 20
138.0256712168
 10
123.1681620766
 20
138.0743885012
 10
123.1910806451
 20
138.1195611036
 10
123.2172587472
 20
138.1609956729
 10
123.2465825176
 20
138.1985127254
 10
123.2789245855
 20
138.2319510852
 10
123.3141470141
 20
138.2611697562
 10
123.3520718244
 20
138.2860289446
  0
LWPOLYLINE
  5
22E
100
AcDbEntity
  8
RACCORDO
100
AcDbPolyline
 62
7
  6
CONTINUOUS
 90
25
 70
0
 10
125.5784464133
 20
104.2207779411
 10
125.5803276125
 20
104.1551614139
 10
125.5857623559
 20
104.0883092814
 10
125.5947506435
 20
104.0202215438
 10
125.6073612016
 20
103.9505969188
 10
125.623525304
 20
103.8797366885
 10
125.6430367718
 20
103.8085447001
 10
125.6659384842
 20
103.7370167036
 10
125.6921875621
 20
103.6651569489
 10
125.7214491893
 20
103.5938820322
 10
125.753761956
 20
103.5231994451
 10
125.789087272
 20
103.453101696
 10
125.8269745507
 20
103.3844829061
 10
125.8674566102
 20
103.3173620206
 10
125.9105006324
 20
103.2517200943
 10
125.9555575757
 20
103.1883944128
 10
126.0026532252
 20
103.1274146469
 10
126.0517617958
 20
103.0687511258
 10
126.1022568906
 20
103.0131521232
 10
126.1541562707
 20
102.960656895
 10
126.207442175
 20
102.9112261854
 10
126.2614349231
 20
102.8654905001
 10
126.3159079551
 20
102.823660008
 10
126.371087831
 20
102.7855245402
 10
126.4269745507
 20
102.751084097
  0
LINE
  5
22F
100
AcDbEntity
  8
RACCORDO
100
AcDbLine
 62
7
  6
CONTINUOUS
 10
125.5784464133
 20
137.2875085118
 11
125.5784464133
 21
104.2207779411
  0
LINE
  5
230
100
AcDbEntity
  8
0
100
AcDbLine
 62
250
  6
CONTINUOUS
 10
126.1707821746
 20
102.9452338626
 11
126.1707821746
 21
136.9455012669
  0
LINE
  5
231
100
AcDbEntity
  8
0
100
AcDbLine
 62
7
  6
CONTINUOUS
 10
126.2549802345
 20
102.870958079
 11
126.2549802345
 21
136.8968863624
  0
LINE
  5
232
100
AcDbEntity
  8
0
100
AcDbLine
 62
250
  6
CONTINUOUS
 10
123.598547426
 20
100.7097505853
 11
123.9521008166
 21
101.3221230203
  0
LINE
  5
233
100
AcDbEntity
  8
0
100
AcDbLine
 62
7
  6
CONTINUOUS
 10
169.7726202374
 20
74.049419641
 11
123.598547426
 21
100.7097505853
  0
LINE
  5
234
100
AcDbEntity
  8
0
100
AcDbLine
 62
7
  6
CONTINUOUS
 10
170.126173628
 20
74.661792076
 11
123.9521008166
 21
101.3221230203
  0
LINE
  5
235
100
AcDbEntity
  8
RACCORDO
100
AcDbLine
 62
7
  6
CONTINUOUS
 10
126.4269745507
 20
102.751084097
 11
170.9747017655
 21
77.0297847173
  0
LINE
  5
236
100
AcDbEntity
  8
0
100
AcDbLine
 62
7
  6
CONTINUOUS
 10
169.1362241344
 20
78.1323194485
 11
165.2471368378
 21
80.3778297118
  0
LINE
  5
237
100
AcDbEntity
  8
0
100
AcDbLine
 62
7
  6
CONTINUOUS
 10
137.316418981
 20
96.5046761482
 11
133.4273316845
 21
98.7501864115
  0
LINE
  5
238
100
AcDbEntity
  8
0
100
AcDbLine
 62
7
  6
CONTINUOUS
 10
169.3837115078
 20
78.1527450146
 11
165.3885581941
 21
80.4594846304
  0
LINE
  5
239
100
AcDbEntity
  8
0
100
AcDbLine
 62
7
  6
CONTINUOUS
 10
133.5687530407
 20
98.8318413302
 11
137.5639063544
 21
96.5251017144
  0
LINE
  5
23A
100
AcDbEntity
  8
0
100
AcDbLine
 62
7
  6
CONTINUOUS
 10
169.489777525
 20
78.3364567451
 11
165.6006902284
 21
80.5819670084
  0
LINE
  5
23B
100
AcDbEntity
  8
0
100
AcDbLine
 62
7
  6
CONTINUOUS
 10
137.6699723716
 20
96.7088134449
 11
133.780885075
 21
98.9543237082
  0
LINE
  5
23C
100
AcDbEntity
  8
0
100
AcDbLine
 62
7
  6
CONTINUOUS
 10
169.7372648984
 20
78.3568823113
 11
165.7421115847
 21
80.6636219271
  0
LINE
  5
23D
100
AcDbEntity
  8
0
100
AcDbLine
 62
7
  6
CONTINUOUS
 10
133.9223064313
 20
99.0359786268
 11
137.917459745
 21
96.729239011
  0
LINE
  5
23E
100
AcDbEntity
  8
0
100
AcDbLine
 62
7
  6
CONTINUOUS
 10
169.8433309156
 20
78.5405940418
 11
165.954243619
 21
80.7861043051
  0
LINE
  5
23F
100
AcDbEntity
  8
0
100
AcDbLine
 62
7
  6
CONTINUOUS
 10
138.0235257622
 20
96.9129507415
 11
134.1344384656
 21
99.1584610048
  0
LINE
  5
240
100
AcDbEntity
  8
0
100
AcDbLine
 62
7
  6
CONTINUOUS
 10
170.090818289
 20
78.5610196079
 11
166.0956649753
 21
80.8677592238
  0
LINE
  5
241
100
AcDbEntity
  8
0
100
AcDbLine
 62
7
  6
CONTINUOUS
 10
134.2758598219
 20
99.2401159235
 11
138.2710131356
 21
96.9333763077
  0
LWPOLYLINE
  5
242
100
AcDbEntity
  8
0
100
AcDbPolyline
 62
7
  6
CONTINUOUS
 90
28
 70
0
 10
123.598547426
 20
100.7097505853
 10
123.5282730614
 20
100.7527387796
 10
123.4587008731
 20
100.7999362921
 10
123.3898308611
 20
100.8513431229
 10
123.3214347526
 20
100.9071613294
 10
123.2537408204
 20
100.9671888541
 10
123.1874338833
 20
101.0308195245
 10
123.1225281848
 20
101.0980899502
 10
123.0590094813
 20
101.1689635217
 10
122.9975198612
 20
101.242724238
 10
122.9380800686
 20
101.3194012828
 10
122.8806693594
 20
101.3989654725
 10
122.825867589
 20
101.4806132552
 10
122.7737013094
 20
101.5643655811
 10
122.7241439688
 20
101.6502015
 10
122.6776957664
 20
101.7372546093
 10
122.6343881437
 20
101.8255373546
 10
122.5941896593
 20
101.9150372902
 10
122.5575061884
 20
102.0048506773
 10
122.5243733309
 20
102.094980997
 10
122.4947554868
 20
102.185424768
 10
122.4689517319
 20
102.2752678079
 10
122.447000918
 20
102.3645041099
 10
122.4288641932
 20
102.4531396807
 10
122.4147240769
 20
102.5402783578
 10
122.4046414088
 20
102.6256214204
 10
122.3985553491
 20
102.7094675893
 10
122.3964658979
 20
102.7918168645
  0
LWPOLYLINE
  5
243
100
AcDbEntity
  8
0
100
AcDbPolyline
 62
7
  6
CONTINUOUS
 90
25
 70
0
 10
123.9521008166
 20
101.3221230203
 10
123.8966138411
 20
101.3562575423
 10
123.8413608108
 20
101.3944426299
 10
123.7865783474
 20
101.4365155757
 10
123.7324999809
 20
101.4822979935
 10
123.679358649
 20
101.5315936571
 10
123.6273854765
 20
101.5841885974
 10
123.5768032032
 20
101.6398573988
 10
123.5278283415
 20
101.6983617649
 10
123.480673272
 20
101.7594475937
 10
123.4355412731
 20
101.8228504444
 10
123.3926234301
 20
101.888300716
 10
123.3521009013
 20
101.9555216826
 10
123.3141471806
 20
102.0242255403
 10
123.2789247546
 20
102.0941181522
 10
123.2465826821
 20
102.1649042941
 10
123.2172588854
 20
102.2362837249
 10
123.1910807556
 20
102.3079481439
 10
123.1681621884
 20
102.3795864812
 10
123.1486013156
 20
102.4508919577
 10
123.1324819189
 20
102.5215591152
 10
123.1198736733
 20
102.5912811217
 10
123.1108300626
 20
102.6597582325
 10
123.1053888564
 20
102.7266989075
 10
123.1035726791
 20
102.7918168645
  0
LINE
  5
244
100
AcDbEntity
  8
0
100
AcDbLine
 62
7
  6
CONTINUOUS
 10
170.1968843062
 20
78.7447313385
 11
166.3077970096
 21
80.9902416018
  0
LINE
  5
245
100
AcDbEntity
  8
0
100
AcDbLine
 62
7
  6
CONTINUOUS
 10
138.3770791528
 20
97.1170880382
 11
134.4879918562
 21
99.3625983015
  0
LINE
  5
246
100
AcDbEntity
  8
0
100
AcDbLine
 62
7
  6
CONTINUOUS
 10
170.4443716796
 20
78.7651569046
 11
166.4492183659
 21
81.0718965204
  0
LINE
  5
247
100
AcDbEntity
  8
0
100
AcDbLine
 62
7
  6
CONTINUOUS
 10
134.6294132125
 20
99.4442532202
 11
138.6245665262
 21
97.1375136043
  0
LINE
  5
248
100
AcDbEntity
  8
0
100
AcDbLine
 62
7
  6
CONTINUOUS
 10
170.5504376967
 20
78.9488686351
 11
166.6613504002
 21
81.1943788984
  0
LINE
  5
249
100
AcDbEntity
  8
0
100
AcDbLine
 62
7
  6
CONTINUOUS
 10
138.7306325433
 20
97.3212253349
 11
134.8415452468
 21
99.5667355982
  0
LINE
  5
24A
100
AcDbEntity
  8
0
100
AcDbLine
 62
7
  6
CONTINUOUS
 10
170.7979250702
 20
78.9692942013
 11
166.8027717565
 21
81.2760338171
  0
LINE
  5
24B
100
AcDbEntity
  8
0
100
AcDbLine
 62
7
  6
CONTINUOUS
 10
134.9829666031
 20
99.6483905168
 11
138.9781199168
 21
97.341650901
  0
LINE
  5
24C
100
AcDbEntity
  8
0
100
AcDbLine
 62
7
  6
CONTINUOUS
 10
170.9039910873
 20
79.1530059318
 11
167.0149037908
 21
81.3985161951
  0
LINE
  5
24D
100
AcDbEntity
  8
0
100
AcDbLine
 62
7
  6
CONTINUOUS
 10
139.0841859339
 20
97.5253626315
 11
135.1950986374
 21
99.7708728948
  0
LINE
  5
24E
100
AcDbEntity
  8
0
100
AcDbLine
 62
7
  6
CONTINUOUS
 10
170.9747017655
 20
79.2754883098
 11
167.156325147
 21
81.4801711137
  0
LINE
  5
24F
100
AcDbEntity
  8
0
100
AcDbLine
 62
7
  6
CONTINUOUS
 10
135.3365199937
 20
99.8525278135
 11
139.3316733074
 21
97.5457881977
  0
LINE
  5
250
100
AcDbEntity
  8
0
100
AcDbLine
 62
250
  6
CONTINUOUS
 10
170.9747017655
 20
79.3980840857
 11
167.1899201497
 21
81.5833695562
  0
LINE
  5
251
100
AcDbEntity
  8
0
100
AcDbLine
 62
250
  6
CONTINUOUS
 10
139.6164522546
 20
97.5039443421
 11
135.3701149963
 21
99.955726256
  0
LINE
  5
252
100
AcDbEntity
  8
0
100
AcDbLine
 62
250
  6
CONTINUOUS
 10
170.9747017655
 20
79.4752817799
 11
167.2639673026
 21
81.6178133523
  0
LINE
  5
253
100
AcDbEntity
  8
0
100
AcDbLine
 62
250
  6
CONTINUOUS
 10
139.6831246106
 20
97.5426462535
 11
135.4441621492
 21
99.990170052
  0
LINE
  5
254
100
AcDbEntity
  8
0
100
AcDbLine
 62
7
  6
CONTINUOUS
 10
137.0297638824
 20
100.5079960052
 11
140.855765273
 21
98.2989107534
  0
LINE
  5
255
100
AcDbEntity
  8
0
100
AcDbLine
 62
7
  6
CONTINUOUS
 10
168.8495690358
 20
82.1356393055
 11
170.9747017655
 21
80.9086143015
  0
LINE
  5
256
100
AcDbEntity
  8
0
100
AcDbLine
 62
7
  6
CONTINUOUS
 10
153.0067683871
 20
91.3219695018
 11
156.6985659217
 21
89.1903718745
  0
LWPOLYLINE
  5
257
100
AcDbEntity
  8
0
100
AcDbPolyline
 62
250
  6
CONTINUOUS
 90
10
 70
0
 10
138.9184934688
 20
96.4764538085
 10
138.9207610902
 20
96.4711203648
 10
138.9226225058
 20
96.4660735743
 10
138.9240437181
 20
96.4613517719
 10
138.9249863276
 20
96.457013341
 10
138.9254258166
 20
96.4530746956
 10
138.925326645
 20
96.4495341615
 10
138.9246316336
 20
96.4464526708
 10
138.9232828232
 20
96.4439028929
 10
138.9224180035
 20
96.4429182938
  0
LINE
  5
258
100
AcDbEntity
  8
0
100
AcDbLine
 62
250
  6
CONTINUOUS
 10
140.8629728818
 20
98.1554611
 11
140.8629728818
 21
97.7480914621
  0
LINE
  5
259
100
AcDbEntity
  8
0
100
AcDbLine
 62
7
  6
CONTINUOUS
 10
140.9143439167
 20
98.2220386068
 11
140.9143439167
 21
97.7786367569
  0
LINE
  5
25A
100
AcDbEntity
  8
0
100
AcDbLine
 62
250
  6
CONTINUOUS
 10
138.9129459119
 20
96.4592903627
 11
138.9184934688
 21
96.4764538085
  0
LINE
  5
25B
100
AcDbEntity
  8
0
100
AcDbLine
 62
7
  6
CONTINUOUS
 10
133.4095694481
 20
98.7194213157
 11
133.4273316845
 21
98.7501864115
  0
LINE
  5
25C
100
AcDbEntity
  8
0
100
AcDbLine
 62
7
  6
CONTINUOUS
 10
133.6748190579
 20
98.7706119777
 11
133.780885075
 21
98.9543237082
  0
LINE
  5
25D
100
AcDbEntity
  8
0
100
AcDbLine
 62
7
  6
CONTINUOUS
 10
134.0283724485
 20
98.9747492743
 11
134.1344384656
 21
99.1584610048
  0
LINE
  5
25E
100
AcDbEntity
  8
0
100
AcDbLine
 62
7
  6
CONTINUOUS
 10
134.3819258391
 20
99.178886571
 11
134.4879918562
 21
99.3625983015
  0
LINE
  5
25F
100
AcDbEntity
  8
0
100
AcDbLine
 62
7
  6
CONTINUOUS
 10
134.7354792296
 20
99.3830238676
 11
134.8415452468
 21
99.5667355982
  0
LINE
  5
260
100
AcDbEntity
  8
0
100
AcDbLine
 62
7
  6
CONTINUOUS
 10
135.0890326202
 20
99.5871611643
 11
135.1950986374
 21
99.7708728948
  0
LINE
  5
261
100
AcDbEntity
  8
0
100
AcDbLine
 62
7
  6
CONTINUOUS
 10
137.2986567446
 20
96.4739110524
 11
137.316418981
 21
96.5046761482
  0
LINE
  5
262
100
AcDbEntity
  8
0
100
AcDbLine
 62
7
  6
CONTINUOUS
 10
137.5639063544
 20
96.5251017144
 11
137.6699723716
 21
96.7088134449
  0
LINE
  5
263
100
AcDbEntity
  8
0
100
AcDbLine
 62
7
  6
CONTINUOUS
 10
137.917459745
 20
96.729239011
 11
138.0235257622
 21
96.9129507415
  0
LINE
  5
264
100
AcDbEntity
  8
0
100
AcDbLine
 62
250
  6
CONTINUOUS
 10
123.1035726791
 20
102.7918168645
 11
125.5784464133
 21
104.2207779411
  0
LINE
  5
265
100
AcDbEntity
  8
0
100
AcDbLine
 62
250
  6
CONTINUOUS
 10
123.9521008166
 20
101.3221230203
 11
126.4269745507
 21
102.751084097
  0
LINE
  5
266
100
AcDbEntity
  8
0
100
AcDbLine
 62
250
  6
CONTINUOUS
 10
122.3964658979
 20
102.7918168645
 11
123.1035726791
 21
102.7918168645
  0
LINE
  5
267
100
AcDbEntity
  8
0
100
AcDbLine
 62
7
  6
CONTINUOUS
 10
138.2710131356
 20
96.9333763077
 11
138.3770791528
 21
97.1170880382
  0
LINE
  5
268
100
AcDbEntity
  8
0
100
AcDbLine
 62
7
  6
CONTINUOUS
 10
138.6245665262
 20
97.1375136043
 11
138.7306325433
 21
97.3212253349
  0
LINE
  5
269
100
AcDbEntity
  8
0
100
AcDbLine
 62
7
  6
CONTINUOUS
 10
138.9781199168
 20
97.341650901
 11
139.0841859339
 21
97.5253626315
  0
LINE
  5
26A
100
AcDbEntity
  8
0
100
AcDbLine
 62
250
  6
CONTINUOUS
 10
138.9184934688
 20
96.4764538085
 11
139.2544384338
 21
96.8032073983
  0
LINE
  5
26B
100
AcDbEntity
  8
0
100
AcDbLine
 62
7
  6
CONTINUOUS
 10
138.9224183635
 20
96.442918644
 11
139.3514027071
 21
96.8601660769
  0
LINE
  5
26C
100
AcDbEntity
  8
0
100
AcDbLine
 62
7
  6
CONTINUOUS
 10
133.4273316845
 20
98.7501864115
 11
133.5687530407
 21
98.8318413302
  0
LINE
  5
26D
100
AcDbEntity
  8
0
100
AcDbLine
 62
7
  6
CONTINUOUS
 10
133.780885075
 20
98.9543237082
 11
133.9223064313
 21
99.0359786268
  0
LINE
  5
26E
100
AcDbEntity
  8
0
100
AcDbLine
 62
7
  6
CONTINUOUS
 10
134.1344384656
 20
99.1584610048
 11
134.2758598219
 21
99.2401159235
  0
LINE
  5
26F
100
AcDbEntity
  8
0
100
AcDbLine
 62
7
  6
CONTINUOUS
 10
134.4879918562
 20
99.3625983015
 11
134.6294132125
 21
99.4442532202
  0
LINE
  5
270
100
AcDbEntity
  8
0
100
AcDbLine
 62
7
  6
CONTINUOUS
 10
134.8415452468
 20
99.5667355982
 11
134.9829666031
 21
99.6483905168
  0
LINE
  5
271
100
AcDbEntity
  8
0
100
AcDbLine
 62
7
  6
CONTINUOUS
 10
135.1950986374
 20
99.7708728948
 11
135.3365199937
 21
99.8525278135
  0
LINE
  5
272
100
AcDbEntity
  8
0
100
AcDbLine
 62
7
  6
CONTINUOUS
 10
133.2117578954
 20
98.8336352271
 11
135.3701149963
 21
99.955726256
  0
LWPOLYLINE
  5
273
100
AcDbEntity
  8
0
100
AcDbPolyline
 62
250
  6
CONTINUOUS
 90
6
 70
0
 10
138.8638040743
 20
96.398454654
 10
138.8761148463
 20
96.4068783512
 10
138.887389277
 20
96.4173321583
 10
138.8973352075
 20
96.4296170381
 10
138.9058751874
 20
96.4436383595
 10
138.9129459119
 20
96.4592903627
  0
LINE
  5
274
100
AcDbEntity
  8
0
100
AcDbLine
 62
7
  6
CONTINUOUS
 10
139.6164522546
 20
97.5039443421
 11
137.6730587919
 21
96.2577360026
  0
LINE
  5
275
100
AcDbEntity
  8
0
100
AcDbLine
 62
7
  6
CONTINUOUS
 10
138.0022648434
 20
96.0676565544
 11
140.8629728818
 21
97.7480914621
  0
LINE
  5
276
100
AcDbEntity
  8
0
100
AcDbLine
 62
7
  6
CONTINUOUS
 10
138.8638040137
 20
96.3984546189
 11
138.1483414111
 21
95.983313775
  0
LINE
  5
277
100
AcDbEntity
  8
0
100
AcDbLine
 62
250
  6
CONTINUOUS
 10
138.9184934688
 20
96.4764538085
 11
138.1081083143
 21
96.0065438608
  0
LINE
  5
278
100
AcDbEntity
  8
0
100
AcDbLine
 62
7
  6
CONTINUOUS
 10
137.316418981
 20
96.5046761482
 11
137.4578403372
 21
96.5863310669
  0
LINE
  5
279
100
AcDbEntity
  8
0
100
AcDbLine
 62
7
  6
CONTINUOUS
 10
137.6699723716
 20
96.7088134449
 11
137.8113937278
 21
96.7904683635
  0
LINE
  5
27A
100
AcDbEntity
  8
0
100
AcDbLine
 62
7
  6
CONTINUOUS
 10
138.0235257622
 20
96.9129507415
 11
138.1649471184
 21
96.9946056602
  0
LINE
  5
27B
100
AcDbEntity
  8
0
100
AcDbLine
 62
7
  6
CONTINUOUS
 10
138.3770791528
 20
97.1170880382
 11
138.518500509
 21
97.1987429569
  0
LINE
  5
27C
100
AcDbEntity
  8
0
100
AcDbLine
 62
7
  6
CONTINUOUS
 10
138.7306325433
 20
97.3212253349
 11
138.8720538996
 21
97.4028802535
  0
LINE
  5
27D
100
AcDbEntity
  8
0
100
AcDbLine
 62
7
  6
CONTINUOUS
 10
139.0841859339
 20
97.5253626315
 11
139.2256072902
 21
97.6070175502
  0
LINE
  5
27E
100
AcDbEntity
  8
0
100
AcDbLine
 62
7
  6
CONTINUOUS
 10
139.3316733074
 20
97.5457881977
 11
137.3869519919
 21
96.4229304832
  0
LINE
  5
27F
100
AcDbEntity
  8
0
100
AcDbLine
 62
7
  6
CONTINUOUS
 10
140.8629728818
 20
98.1554611
 11
139.6831246106
 21
97.5426462535
  0
LINE
  5
280
100
AcDbEntity
  8
0
100
AcDbLine
 62
7
  6
CONTINUOUS
 10
135.4441621492
 20
99.990170052
 11
136.7545164049
 21
100.5276323787
  0
LINE
  5
281
100
AcDbEntity
  8
0
100
AcDbLine
 62
250
  6
CONTINUOUS
 10
156.7093773349
 20
88.9540109054
 11
156.7093773349
 21
88.5249882114
  0
LINE
  5
282
100
AcDbEntity
  8
0
100
AcDbLine
 62
7
  6
CONTINUOUS
 10
156.7864338873
 20
89.0685155758
 11
156.7864338873
 21
88.670469791
  0
LINE
  5
283
100
AcDbEntity
  8
SMUSSO
100
AcDbLine
 62
7
  6
CONTINUOUS
 10
189.8190974841
 20
118.8930099564
 11
191.586864437
 21
119.9136964397
  0
LINE
  5
284
100
AcDbEntity
  8
0
100
AcDbLine
 62
250
  6
CONTINUOUS
 10
191.5874103186
 20
119.913938503
 11
193.6022264592
 21
121.0772720854
  0
LWPOLYLINE
  5
285
100
AcDbEntity
  8
0
100
AcDbPolyline
 62
250
  6
CONTINUOUS
 90
10
 70
0
 10
170.7382986222
 20
78.1040971088
 10
170.7405662436
 20
78.0987636651
 10
170.7424276592
 20
78.0937168746
 10
170.7438488715
 20
78.0889950721
 10
170.744791481
 20
78.0846566413
 10
170.74523097
 20
78.0807179958
 10
170.7451317984
 20
78.0771774617
 10
170.744436787
 20
78.0740959711
 10
170.7430879766
 20
78.0715461932
 10
170.7422231569
 20
78.0705615941
  0
LINE
  5
286
100
AcDbEntity
  8
SMUSSO
100
AcDbLine
 62
7
  6
CONTINUOUS
 10
189.8190974841
 20
118.0765002246
 11
189.1119907029
 21
117.6682650862
  0
LINE
  5
287
100
AcDbEntity
  8
0
100
AcDbLine
 62
250
  6
CONTINUOUS
 10
192.294409404
 20
118.6893801674
 11
194.3092255446
 21
119.8527137498
  0
LINE
  5
288
100
AcDbEntity
  8
SMUSSO
100
AcDbLine
 62
7
  6
CONTINUOUS
 10
190.5262042653
 20
117.6682650862
 11
192.2939712182
 21
118.6889515696
  0
LINE
  5
289
100
AcDbEntity
  8
0
100
AcDbLine
 62
7
  6
CONTINUOUS
 10
149.2036014145
 20
89.600145204
 11
152.5938971709
 21
91.3302375731
  0
LINE
  5
28A
100
AcDbEntity
  8
0
100
AcDbLine
 62
7
  6
CONTINUOUS
 10
123.598547426
 20
138.4306773731
 11
169.7726202374
 21
111.7703464288
  0
LWPOLYLINE
  5
28B
100
AcDbEntity
  8
0
100
AcDbPolyline
 62
7
  6
CONTINUOUS
 90
28
 70
0
 10
169.7726202374
 20
111.7703464288
 10
169.842894602
 20
111.7273582344
 10
169.9124667903
 20
111.6801607219
 10
169.9813368023
 20
111.6287538911
 10
170.0497329108
 20
111.5729356847
 10
170.117426843
 20
111.51290816
 10
170.1837337801
 20
111.4492774895
 10
170.2486394786
 20
111.3820070638
 10
170.3121581821
 20
111.3111334924
 10
170.3736478022
 20
111.237372776
 10
170.4330875947
 20
111.1606957312
 10
170.490498304
 20
111.0811315415
 10
170.5453000744
 20
110.9994837589
 10
170.597466354
 20
110.9157314329
 10
170.6470236946
 20
110.829895514
 10
170.693471897
 20
110.7428424047
 10
170.7367795197
 20
110.6545596595
 10
170.7769780041
 20
110.5650597238
 10
170.813661475
 20
110.4752463367
 10
170.8467943325
 20
110.3851160171
 10
170.8764121766
 20
110.294672246
 10
170.9022159315
 20
110.2048292062
 10
170.9241667454
 20
110.1155929041
 10
170.9423034702
 20
110.0269573333
 10
170.9564435865
 20
109.9398186562
 10
170.9665262546
 20
109.8544755936
 10
170.9726123143
 20
109.7706294247
 10
170.9747017655
 20
109.6882801496
  0
LWPOLYLINE
  5
28C
100
AcDbEntity
  8
0
100
AcDbPolyline
 62
7
  6
CONTINUOUS
 90
5
 70
0
 10
156.7385174294
 20
88.5491781128
 10
156.7614976345
 20
88.5787745948
 10
156.7774558873
 20
88.613138048
 10
156.7854741378
 20
88.6512806678
 10
156.7863559038
 20
88.6703898919
  0
LINE
  5
28D
100
AcDbEntity
  8
0
100
AcDbLine
 62
7
  6
CONTINUOUS
 10
155.5195274101
 20
87.8256723691
 11
155.1767467401
 21
87.4922700976
  0
LINE
  5
28E
100
AcDbEntity
  8
0
100
AcDbLine
 62
7
  6
CONTINUOUS
 10
156.7093773349
 20
88.5249882114
 11
156.7385174294
 21
88.5491781128
  0
LINE
  5
28F
100
AcDbEntity
  8
0
100
AcDbLine
 62
7
  6
CONTINUOUS
 10
156.7093773349
 20
88.9540109054
 11
153.6567413246
 21
87.0289580309
  0
LWPOLYLINE
  5
290
100
AcDbEntity
  8
0
100
AcDbPolyline
 62
7
  6
CONTINUOUS
 90
9
 70
0
 10
154.9436462799
 20
87.3108262153
 10
154.9696681231
 20
87.3265891665
 10
154.9991680795
 20
87.3458586548
 10
155.0287176448
 20
87.3665991887
 10
155.058335286
 20
87.3888752219
 10
155.0879537422
 20
87.4125900044
 10
155.1175505932
 20
87.4377112861
 10
155.1471482591
 20
87.4642713172
 10
155.1767467401
 20
87.4922700976
  0
LINE
  5
291
100
AcDbEntity
  8
0
100
AcDbLine
 62
7
  6
CONTINUOUS
 10
153.9121674201
 20
86.8814782046
 11
156.7000264895
 21
88.5191202271
  0
LINE
  5
292
100
AcDbEntity
  8
0
100
AcDbLine
 62
7
  6
CONTINUOUS
 10
154.9436227864
 20
87.3108686381
 11
154.0582439878
 21
86.7971354251
  0
LINE
  5
293
100
AcDbEntity
  8
0
100
AcDbLine
 62
250
  6
CONTINUOUS
 10
155.1767467401
 20
87.4922700976
 11
154.018010891
 21
86.8203655109
  0
LINE
  5
294
100
AcDbEntity
  8
0
100
AcDbLine
 62
7
  6
CONTINUOUS
 10
170.9747017655
 20
109.6882801496
 11
170.9747017655
 21
74.7433523028
  0
LWPOLYLINE
  5
295
100
AcDbEntity
  8
0
100
AcDbPolyline
 62
7
  6
CONTINUOUS
 90
28
 70
0
 10
170.9747017655
 20
74.7433523028
 10
170.9726122759
 20
74.6634155155
 10
170.9665261703
 20
74.5865971013
 10
170.9564434487
 20
74.5128970605
 10
170.942303266
 20
74.4420869458
 10
170.9241664672
 20
74.3743952043
 10
170.9022155876
 20
74.3105071777
 10
170.8764117988
 20
74.2504617314
 10
170.8467939293
 20
74.1942199999
 10
170.8136609986
 20
74.1423507288
 10
170.7769773592
 20
74.094898453
 10
170.7367786588
 20
74.0518186376
 10
170.6934708602
 20
74.0135464225
 10
170.6470225422
 20
73.9801306087
 10
170.5974651262
 20
73.9515223953
 10
170.5452988389
 20
73.9280105193
 10
170.4904971798
 20
73.9096465862
 10
170.4330866495
 20
73.8963789906
 10
170.373646977
 20
73.8883416536
 10
170.3121573457
 20
73.8855877002
 10
170.2486385722
 20
73.8880640053
 10
170.183732835
 20
73.8957451146
 10
170.1174259085
 20
73.9086841029
 10
170.0497320183
 20
73.9268278955
 10
169.9813360205
 20
73.9499918134
 10
169.9124662005
 20
73.9781142972
 10
169.8428942728
 20
74.0112569064
 10
169.7726202374
 20
74.049419641
  0
LWPOLYLINE
  5
296
100
AcDbEntity
  8
0
100
AcDbPolyline
 62
7
  6
CONTINUOUS
 90
7
 70
0
 10
170.9747017655
 20
75.1516268962
 10
170.9728856189
 20
75.0886067401
 10
170.9674444828
 20
75.0279497355
 10
170.9584009481
 20
74.969916057
 10
170.9457927304
 20
74.9147535766
 10
170.929673292
 20
74.8627003906
 10
170.910112368
 20
74.8139831061
  0
LINE
  5
297
100
AcDbEntity
  8
0
100
AcDbLine
 62
250
  6
CONTINUOUS
 10
193.6277609504
 20
121.0626590897
 11
194.4778020835
 21
120.8167851413
  0
LINE
  5
298
100
AcDbEntity
  8
0
100
AcDbLine
 62
250
  6
CONTINUOUS
 10
170.7327510653
 20
78.0869336629
 11
170.7382986222
 21
78.1040971088
  0
LINE
  5
299
100
AcDbEntity
  8
0
100
AcDbLine
 62
7
  6
CONTINUOUS
 10
165.2293746015
 20
80.3470646159
 11
165.2471368378
 21
80.3778297118
  0
LINE
  5
29A
100
AcDbEntity
  8
0
100
AcDbLine
 62
7
  6
CONTINUOUS
 10
165.4946242113
 20
80.3982552779
 11
165.6006902284
 21
80.5819670084
  0
LINE
  5
29B
100
AcDbEntity
  8
0
100
AcDbLine
 62
7
  6
CONTINUOUS
 10
165.8481776019
 20
80.6023925746
 11
165.954243619
 21
80.7861043051
  0
LINE
  5
29C
100
AcDbEntity
  8
0
100
AcDbLine
 62
7
  6
CONTINUOUS
 10
166.2017309924
 20
80.8065298712
 11
166.3077970096
 21
80.9902416018
  0
LINE
  5
29D
100
AcDbEntity
  8
0
100
AcDbLine
 62
7
  6
CONTINUOUS
 10
166.555284383
 20
81.0106671679
 11
166.6613504002
 21
81.1943788984
  0
LINE
  5
29E
100
AcDbEntity
  8
0
100
AcDbLine
 62
7
  6
CONTINUOUS
 10
166.9088377736
 20
81.2148044646
 11
167.0149037908
 21
81.3985161951
  0
LINE
  5
29F
100
AcDbEntity
  8
0
100
AcDbLine
 62
7
  6
CONTINUOUS
 10
165.0315630488
 20
80.4612785273
 11
167.1899201497
 21
81.5833695562
  0
LINE
  5
2A0
100
AcDbEntity
  8
0
100
AcDbLine
 62
7
  6
CONTINUOUS
 10
167.2639673026
 20
81.6178133523
 11
168.5743215583
 21
82.155275679
  0
LINE
  5
2A1
100
AcDbEntity
  8
0
100
AcDbLine
 62
250
  6
CONTINUOUS
 10
122.3964658979
 20
137.7367447112
 11
123.1035726791
 21
137.7367447112
  0
LINE
  5
2A2
100
AcDbEntity
  8
SMUSSO
100
AcDbLine
 62
7
  6
CONTINUOUS
 10
189.1119907029
 20
117.6682650862
 11
104.2591769605
 21
166.6612162856
  0
LINE
  5
2A3
100
AcDbEntity
  8
SMUSSO
100
AcDbLine
 62
7
  6
CONTINUOUS
 10
189.8190974841
 20
118.0765002246
 11
190.5262042653
 21
117.6682650862
  0
LINE
  5
2A4
100
AcDbEntity
  8
SMUSSO
100
AcDbLine
 62
7
  6
CONTINUOUS
 10
189.8190974841
 20
118.8930099564
 11
104.9662837417
 21
167.8859611557
  0
LWPOLYLINE
  5
2A5
100
AcDbEntity
  8
0
100
AcDbPolyline
 62
7
  6
CONTINUOUS
 90
7
 70
0
 10
170.910112368
 20
74.8139831061
 10
170.8871937995
 20
74.7688105037
 10
170.8610156974
 20
74.7273759345
 10
170.831691927
 20
74.689858882
 10
170.7993498591
 20
74.6564205221
 10
170.7641274305
 20
74.6272018511
 10
170.7262026202
 20
74.6023426628
  0
LINE
  5
2A6
100
AcDbEntity
  8
0
100
AcDbLine
 62
7
  6
CONTINUOUS
 10
169.118461898
 20
78.1015543526
 11
169.1362241344
 21
78.1323194485
  0
LINE
  5
2A7
100
AcDbEntity
  8
0
100
AcDbLine
 62
7
  6
CONTINUOUS
 10
169.3837115078
 20
78.1527450146
 11
169.489777525
 21
78.3364567451
  0
LINE
  5
2A8
100
AcDbEntity
  8
0
100
AcDbLine
 62
7
  6
CONTINUOUS
 10
169.7372648984
 20
78.3568823113
 11
169.8433309156
 21
78.5405940418
  0
LINE
  5
2A9
100
AcDbEntity
  8
0
100
AcDbLine
 62
7
  6
CONTINUOUS
 10
170.090818289
 20
78.5610196079
 11
170.1968843062
 21
78.7447313385
  0
LINE
  5
2AA
100
AcDbEntity
  8
0
100
AcDbLine
 62
7
  6
CONTINUOUS
 10
170.4443716796
 20
78.7651569046
 11
170.5504376967
 21
78.9488686351
  0
LINE
  5
2AB
100
AcDbEntity
  8
0
100
AcDbLine
 62
7
  6
CONTINUOUS
 10
170.7979250702
 20
78.9692942013
 11
170.9039910873
 21
79.1530059318
  0
LINE
  5
2AC
100
AcDbEntity
  8
0
100
AcDbLine
 62
250
  6
CONTINUOUS
 10
169.7726202374
 20
74.049419641
 11
170.126173628
 21
74.661792076
  0
LINE
  5
2AD
100
AcDbEntity
  8
0
100
AcDbLine
 62
250
  6
CONTINUOUS
 10
170.7382986222
 20
78.1040971088
 11
170.9747017655
 21
78.3340323176
  0
LINE
  5
2AE
100
AcDbEntity
  8
0
100
AcDbLine
 62
7
  6
CONTINUOUS
 10
170.7422235169
 20
78.0705619443
 11
170.9747017655
 21
78.2966796426
  0
LWPOLYLINE
  5
2AF
100
AcDbEntity
  8
0
100
AcDbPolyline
 62
250
  6
CONTINUOUS
 90
6
 70
0
 10
170.6836092277
 20
78.0260979543
 10
170.6959199997
 20
78.0345216515
 10
170.7071944304
 20
78.0449754586
 10
170.7171403609
 20
78.0572603383
 10
170.7256803408
 20
78.0712816597
 10
170.7327510653
 20
78.0869336629
  0
LINE
  5
2B0
100
AcDbEntity
  8
0
100
AcDbLine
 62
7
  6
CONTINUOUS
 10
170.9747017655
 20
78.8356133573
 11
169.4928639453
 21
77.8853793029
  0
LINE
  5
2B1
100
AcDbEntity
  8
0
100
AcDbLine
 62
7
  6
CONTINUOUS
 10
169.8220699968
 20
77.6952998547
 11
170.9747017655
 21
78.3723779185
  0
LINE
  5
2B2
100
AcDbEntity
  8
0
100
AcDbLine
 62
7
  6
CONTINUOUS
 10
170.6836091671
 20
78.0260979191
 11
169.9681465645
 21
77.6109570752
  0
LINE
  5
2B3
100
AcDbEntity
  8
0
100
AcDbLine
 62
250
  6
CONTINUOUS
 10
170.7382986222
 20
78.1040971088
 11
169.9279134677
 21
77.6341871611
  0
LINE
  5
2B4
100
AcDbEntity
  8
0
100
AcDbLine
 62
7
  6
CONTINUOUS
 10
165.2471368378
 20
80.3778297118
 11
165.3885581941
 21
80.4594846304
  0
LINE
  5
2B5
100
AcDbEntity
  8
0
100
AcDbLine
 62
7
  6
CONTINUOUS
 10
165.6006902284
 20
80.5819670084
 11
165.7421115847
 21
80.6636219271
  0
LINE
  5
2B6
100
AcDbEntity
  8
0
100
AcDbLine
 62
7
  6
CONTINUOUS
 10
165.954243619
 20
80.7861043051
 11
166.0956649753
 21
80.8677592238
  0
LINE
  5
2B7
100
AcDbEntity
  8
0
100
AcDbLine
 62
7
  6
CONTINUOUS
 10
166.3077970096
 20
80.9902416018
 11
166.4492183659
 21
81.0718965204
  0
LINE
  5
2B8
100
AcDbEntity
  8
0
100
AcDbLine
 62
7
  6
CONTINUOUS
 10
166.6613504002
 20
81.1943788984
 11
166.8027717565
 21
81.2760338171
  0
LINE
  5
2B9
100
AcDbEntity
  8
0
100
AcDbLine
 62
7
  6
CONTINUOUS
 10
167.0149037908
 20
81.3985161951
 11
167.156325147
 21
81.4801711137
  0
LINE
  5
2BA
100
AcDbEntity
  8
0
100
AcDbLine
 62
7
  6
CONTINUOUS
 10
169.1362241344
 20
78.1323194485
 11
169.2776454906
 21
78.2139743671
  0
LINE
  5
2BB
100
AcDbEntity
  8
0
100
AcDbLine
 62
7
  6
CONTINUOUS
 10
169.489777525
 20
78.3364567451
 11
169.6311988812
 21
78.4181116638
  0
LINE
  5
2BC
100
AcDbEntity
  8
0
100
AcDbLine
 62
7
  6
CONTINUOUS
 10
169.8433309156
 20
78.5405940418
 11
169.9847522718
 21
78.6222489605
  0
LINE
  5
2BD
100
AcDbEntity
  8
0
100
AcDbLine
 62
7
  6
CONTINUOUS
 10
170.1968843062
 20
78.7447313385
 11
170.3383056624
 21
78.8263862571
  0
LINE
  5
2BE
100
AcDbEntity
  8
0
100
AcDbLine
 62
7
  6
CONTINUOUS
 10
170.5504376967
 20
78.9488686351
 11
170.691859053
 21
79.0305235538
  0
LINE
  5
2BF
100
AcDbEntity
  8
0
100
AcDbLine
 62
7
  6
CONTINUOUS
 10
170.9039910873
 20
79.1530059318
 11
170.9747017655
 21
79.1938333911
  0
LINE
  5
2C0
100
AcDbEntity
  8
0
100
AcDbLine
 62
7
  6
CONTINUOUS
 10
170.9747017655
 20
79.0713628496
 11
169.2067571453
 21
78.0505737835
  0
LWPOLYLINE
  5
2C1
100
AcDbEntity
  8
0
100
AcDbPolyline
 62
7
  6
CONTINUOUS
 90
4
 70
0
 10
109.7147402463
 20
169.5129855672
 10
109.6665612118
 20
169.5391914402
 10
109.6186107169
 20
169.5609059684
 10
109.6107566904
 20
169.5640428043
  0
LINE
  5
2C2
100
AcDbEntity
  8
SMUSSO
100
AcDbLine
 62
7
  6
CONTINUOUS
 10
106.7340506947
 20
168.906647639
 11
192.2939712182
 21
119.5054613013
  0
LINE
  5
2C3
100
AcDbEntity
  8
0
100
AcDbLine
 62
7
  6
CONTINUOUS
 10
109.7391468189
 20
169.4987632184
 11
193.6022264592
 21
121.0772720854
  0
LINE
  5
2C4
100
AcDbEntity
  8
0
100
AcDbLine
 62
7
  6
CONTINUOUS
 10
110.9848915382
 20
169.0245452782
 11
194.4778020835
 21
120.8167851413
  0
LINE
  5
2C5
100
AcDbEntity
  8
SMUSSO
100
AcDbLine
 62
7
  6
CONTINUOUS
 10
189.1119907029
 20
45.8188807285
 11
189.1119907029
 21
117.6682650862
  0
LINE
  5
2C6
100
AcDbEntity
  8
SMUSSO
100
AcDbLine
 62
7
  6
CONTINUOUS
 10
189.8190974841
 20
118.8930099564
 11
189.8190974841
 21
118.0765002246
  0
LINE
  5
2C7
100
AcDbEntity
  8
SMUSSO
100
AcDbLine
 62
7
  6
CONTINUOUS
 10
190.5262042653
 20
45.8188807285
 11
190.5262042653
 21
117.6682650862
  0
LINE
  5
2C8
100
AcDbEntity
  8
0
100
AcDbLine
 62
250
  6
CONTINUOUS
 10
194.3093383365
 20
119.882132429
 11
194.521357579
 21
120.7413448102
  0
LINE
  5
2C9
100
AcDbEntity
  8
0
100
AcDbLine
 62
250
  6
CONTINUOUS
 10
170.126173628
 20
74.661792076
 11
170.9747017655
 21
75.151721588
  0
LWPOLYLINE
  5
2CA
100
AcDbEntity
  8
0
100
AcDbPolyline
 62
7
  6
CONTINUOUS
 90
13
 70
0
 10
170.7262026202
 20
74.6023426628
 10
170.6856512043
 20
74.5818993923
 10
170.6427333918
 20
74.5660095553
 10
170.5976014189
 20
74.5547239855
 10
170.5504463424
 20
74.5480916226
 10
170.5014714654
 20
74.546142176
 10
170.4508892378
 20
74.5488844909
 10
170.3989162759
 20
74.5563068051
 10
170.3457752279
 20
74.5683773039
 10
170.2916969859
 20
74.585043124
 10
170.2369144001
 20
74.6062315768
 10
170.1816610735
 20
74.6318513938
 10
170.126173628
 20
74.661792076
  0
LWPOLYLINE
  5
2CB
100
AcDbEntity
  8
0
100
AcDbPolyline
 62
7
  6
CONTINUOUS
 90
22
 70
0
 10
194.3093383365
 20
119.882132429
 10
194.3079432334
 20
119.9437096906
 10
194.302774913
 20
120.006774703
 10
194.2938724355
 20
120.0710068077
 10
194.2813086806
 20
120.1360655492
 10
194.2651457533
 20
120.2016352945
 10
194.2454235936
 20
120.2674283495
 10
194.2222263065
 20
120.3331392683
 10
194.195685111
 20
120.3984077096
 10
194.1659302541
 20
120.4628648347
 10
194.1331152818
 20
120.5261694836
 10
194.0974098263
 20
120.5880131259
 10
194.05899371
 20
120.6480843016
 10
194.0180493051
 20
120.7060818497
 10
193.9747953015
 20
120.7617022018
 10
193.9294860303
 20
120.814648108
 10
193.882367991
 20
120.864625721
 10
193.833663626
 20
120.9114095238
 10
193.783602033
 20
120.9548211552
 10
193.7324254761
 20
120.9946490191
 10
193.6803923907
 20
121.030659724
 10
193.6277609504
 20
121.0626590897
  0
LINE
  5
2CC
100
AcDbEntity
  8
SMUSSO
100
AcDbLine
 62
7
  6
CONTINUOUS
 10
192.2939712182
 20
46.8395672118
 11
192.2939712182
 21
119.5054613013
  0
LINE
  5
2CD
100
AcDbEntity
  8
0
100
AcDbLine
 62
7
  6
CONTINUOUS
 10
194.3092255446
 20
119.8527137498
 11
194.3092255446
 21
49.1461390748
  0
LINE
  5
2CE
100
AcDbEntity
  8
0
100
AcDbLine
 62
7
  6
CONTINUOUS
 10
194.521357579
 20
120.7413448102
 11
194.521357579
 21
50.4621908184
  0
LWPOLYLINE
  5
2CF
100
AcDbEntity
  8
0
100
AcDbPolyline
 62
7
  6
CONTINUOUS
 90
10
 70
0
 10
109.6107566904
 20
169.5640428043
 10
109.5711396606
 20
169.578030455
 10
109.5244205587
 20
169.5904925667
 10
109.4786691461
 20
169.5982406201
 10
109.4340467807
 20
169.6012294099
 10
109.3907637306
 20
169.5994376053
 10
109.3490687336
 20
169.592873029
 10
109.3091715088
 20
169.5815609156
 10
109.2712746518
 20
169.5655583164
 10
109.2619043779
 20
169.5607096231
  0
LINE
  5
2D0
100
AcDbEntity
  8
0
100
AcDbLine
 62
250
  6
CONTINUOUS
 10
109.7147402463
 20
169.5129855672
 11
110.9848915382
 21
169.0245452782
  0
LINE
  5
2D1
100
AcDbEntity
  8
0
100
AcDbLine
 62
7
  6
CONTINUOUS
 10
110.9778657649
 20
169.0279563991
 11
109.6107401209
 21
169.5640342319
  0
LWPOLYLINE
  5
2D2
100
AcDbEntity
  8
0
100
AcDbPolyline
 62
7
  6
CONTINUOUS
 90
4
 70
0
 10
194.3015681258
 20
49.0023764343
 10
194.3027701243
 20
49.0106881979
 10
194.3079419565
 20
49.0630685478
 10
194.3093383365
 20
49.1178926385
  0
LINE
  5
2D3
100
AcDbEntity
  8
0
100
AcDbLine
 62
7
  6
CONTINUOUS
 10
194.520799155
 20
50.4544050869
 11
194.301552399
 21
49.002366358
  0
LINE
  5
2D4
100
AcDbEntity
  8
0
100
AcDbLine
 62
250
  6
CONTINUOUS
 10
194.3093383365
 20
49.1178926385
 11
194.521357579
 21
50.4621908184
  0
LWPOLYLINE
  5
2D5
100
AcDbEntity
  8
0
100
AcDbPolyline
 62
7
  6
CONTINUOUS
 90
10
 70
0
 10
194.124276187
 20
48.7019303187
 10
194.1331133235
 20
48.7075903481
 10
194.1659227404
 20
48.7324046623
 10
194.1956702472
 20
48.7612965984
 10
194.2222051344
 20
48.7941192556
 10
194.2454006908
 20
48.830703679
 10
194.2651257648
 20
48.8708384217
 10
194.2812936617
 20
48.9143307236
 10
194.2938628208
 20
48.9610182094
 10
194.3015681258
 20
49.0023764343
  0
LINE
  5
2D6
100
AcDbEntity
  8
0
100
AcDbLine
 62
250
  6
CONTINUOUS
 10
192.294409404
 20
47.9001465506
 11
194.3092255446
 21
49.1461390748
  0
LINE
  5
2D7
100
AcDbEntity
  8
0
100
AcDbLine
 62
7
  6
CONTINUOUS
 10
192.2939712182
 20
47.5700422709
 11
194.12427968
 21
48.7019324788
  0
LINE
  5
2D8
100
AcDbEntity
  8
SMUSSO
100
AcDbLine
 62
7
  6
CONTINUOUS
 10
189.8190974841
 20
45.4106455901
 11
192.2939712182
 21
46.8395672118
  0
ARC
  5
2D9
100
AcDbEntity
  8
0
100
AcDbCircle
 62
7
  6
CONTINUOUS
 10
138.7130846115
 20
96.6581025647
 40
0.3
100
AcDbArc
 50
300.1089928496
 51
314.2001404346
  0
ARC
  5
2DA
100
AcDbEntity
  8
0
100
AcDbCircle
 62
7
  6
CONTINUOUS
 10
170.5328897649
 20
78.285745865
 40
0.3
100
AcDbArc
 50
300.1089928496
 51
314.2001404346
  0
ELLIPSE
  5
2DB
100
AcDbEntity
  8
0
100
AcDbEllipse
 62
7
  6
CONTINUOUS
 10
194.4767337703
 20
50.4891895884
 30
0.0
 11
-0.0319307066
 21
0.0553022874
 31
0.0
 40
0.5636716562
 41
-2.5265818713
 42
-2.3682119497
  0
ELLIPSE
  5
2DC
100
AcDbEntity
  8
0
100
AcDbEllipse
 62
7
  6
CONTINUOUS
 10
194.4767337703
 20
120.765876496
 30
0.0
 11
-0.0311754239
 21
0.0539936769
 31
0.0
 40
0.5913227191
 41
-2.3442738678
 42
-0.7974202594
  0
ELLIPSE
  5
2DD
100
AcDbEntity
  8
0
100
AcDbEllipse
 62
7
  6
CONTINUOUS
 10
110.9859598514
 20
168.9724029716
 30
0.0
 11
-0.0319307066
 21
0.0553022874
 31
0.0
 40
0.5636716562
 41
-0.7734729046
 42
-0.6150192183
  0
ELLIPSE
  5
2DE
100
AcDbEntity
  8
0
100
AcDbEllipse
 62
7
  6
CONTINUOUS
 10
140.7143439167
 20
97.662220406
 30
0.0
 11
0.1999995634
 21
0.1164181051
 31
0.0
 40
0.0035896273
 41
-0.7351277754
 42
-0.6748017824
  0
ELLIPSE
  5
2DF
100
AcDbEntity
  8
0
100
AcDbEllipse
 62
7
  6
CONTINUOUS
 10
168.7081476796
 20
82.0703137923
 30
0.0
 11
0.1998333781
 21
-0.0157785196
 31
0.0
 40
0.5172961965
 41
0.8262203412
 42
2.3446567905
  0
ELLIPSE
  5
2E0
100
AcDbEntity
  8
0
100
AcDbEllipse
 62
7
  6
CONTINUOUS
 10
136.8883425262
 20
100.4426704921
 30
0.0
 11
0.1998333781
 21
-0.0157785196
 31
0.0
 40
0.5172961965
 41
0.8262203412
 42
2.3446567905
  0
ELLIPSE
  5
2E1
100
AcDbEntity
  8
0
100
AcDbEllipse
 62
7
  6
CONTINUOUS
 10
152.7946363528
 20
91.2016246922
 30
0.0
 11
0.2999972416
 21
-0.0022477848
 31
0.0
 40
0.5723275643
 41
0.7896864073
 42
2.3081228565
  0
ELLIPSE
  5
2E2
100
AcDbEntity
  8
0
100
AcDbEllipse
 62
7
  6
CONTINUOUS
 10
167.1899201497
 20
80.7668992794
 30
0.0
 11
0.5413005334
 21
0.8416911418
 31
0.0
 40
0.6067084637
 41
0.7148472392
 42
0.8145158917
  0
ELLIPSE
  5
2E3
100
AcDbEntity
  8
0
100
AcDbEllipse
 62
7
  6
CONTINUOUS
 10
135.3701149963
 20
99.1392559792
 30
0.0
 11
0.5413005334
 21
0.8416911418
 31
0.0
 40
0.6067084637
 41
0.7148472392
 42
0.8145158917
  0
ELLIPSE
  5
2E4
100
AcDbEntity
  8
0
100
AcDbEllipse
 62
7
  6
CONTINUOUS
 10
156.6988570402
 20
88.864838134
 30
0.0
 11
0.0858610644
 21
0.3627848639
 31
0.0
 40
0.5009985936
 41
-2.6944494219
 42
-2.6479073085
  0
ELLIPSE
  5
2E5
100
AcDbEntity
  8
0
100
AcDbEllipse
 62
7
  6
CONTINUOUS
 10
140.7143439167
 20
98.2335852402
 30
0.0
 11
0.1998333781
 21
-0.0157785196
 31
0.0
 40
0.5172961965
 41
-0.692216108
 42
0.8262203412
  0
ELLIPSE
  5
2E6
100
AcDbEntity
  8
0
100
AcDbEllipse
 62
7
  6
CONTINUOUS
 10
156.4864338873
 20
89.0700270649
 30
0.0
 11
0.2999972416
 21
-0.0022477848
 31
0.0
 40
0.5723275643
 41
-0.728750042
 42
0.7896864073
  0
ELLIPSE
  5
2E7
100
AcDbEntity
  8
0
100
AcDbEllipse
 62
7
  6
CONTINUOUS
 10
139.6164522546
 20
96.6874740654
 30
0.0
 11
0.4625183445
 21
0.8873459255
 31
0.0
 40
0.5463614449
 41
0.662201126
 42
0.7618697785
  0
ELLIPSE
  5
2E8
100
AcDbEntity
  8
0
100
AcDbEllipse
 62
7
  6
CONTINUOUS
 10
194.4899728632
 20
120.773501593
 30
0.0
 11
0.1365023326
 21
1.2306519884
 31
0.0
 40
0.0962714138
 41
-3.8917430252
 42
-3.8564132784
  0
ELLIPSE
  5
2E9
100
AcDbEntity
  8
0
100
AcDbEllipse
 62
7
  6
CONTINUOUS
 10
194.4899728632
 20
50.1038534877
 30
0.0
 11
0.1387214801
 21
1.2585231556
 31
0.0
 40
0.0920685296
 41
-3.8374748546
 42
-3.8021451078
  0
ELLIPSE
  5
2EA
100
AcDbEntity
  8
0
100
AcDbEllipse
 62
7
  6
CONTINUOUS
 10
110.6588736007
 20
169.1765276567
 30
0.0
 11
1.1592455945
 21
-0.5090882972
 31
0.0
 40
0.0921189357
 41
-2.4809772198
 42
-2.4456474731
  0
ELLIPSE
  5
2EB
100
AcDbEntity
  8
0
100
AcDbEllipse
 62
7
  6
CONTINUOUS
 10
194.4899728632
 20
120.773501593
 30
0.0
 11
1.1339988709
 21
-0.4970753424
 31
0.0
 40
0.0963242103
 41
-2.4267061945
 42
-2.3913764477
  0
ENDSEC
  0
SECTION
  2
OBJECTS
  0
DICTIONARY
  5
C
100
AcDbDictionary
280
0
281
1
  3
ACAD_GROUP
350
D
  3
ACAD_MLINESTYLE
350
17
  3
ACAD_LAYOUT
350
1A
  3
ACAD_PLOTSETTINGS
350
19
  3
ACAD_PLOTSTYLENAME
350
E
  0
DICTIONARY
  5
D
102
{ACAD_REACTORS
330
C
102
}
100
AcDbDictionary
280
0
281
1
  0
ACDBDICTIONARYWDFLT
  5
E
102
{ACAD_REACTORS
330
C
102
}
100
AcDbDictionary
281
1
  3
Normal
350
F
100
AcDbDictionaryWithDefault
340
F
  0
DICTIONARY
  5
17
102
{ACAD_REACTORS
330
C
102
}
100
AcDbDictionary
280
0
281
1
  3
Standard
350
18
  0
DICTIONARY
  5
19
102
{ACAD_REACTORS
330
C
102
}
100
AcDbDictionary
281
1
  0
DICTIONARY
  5
1A
102
{ACAD_REACTORS
330
C
102
}
100
AcDbDictionary
281
1
  3
Model
350
2EC
  3
Layout1
350
2ED
  0
ACDBPLACEHOLDER
  5
F
102
{ACAD_REACTORS
330
E
102
}
  0
MLINESTYLE
  5
18
102
{ACAD_REACTORS
330
17
102
}
100
AcDbMlineStyle
  2
STANDARD
 70
0
  3

 62
256
 51
90.0
 52
90.0
 71
2
 49
0.5
 62
256
  6
BYLAYER
 49
-0.5
 62
256
  6
BYLAYER
  0
LAYOUT
  5
2EC
102
{ACAD_REACTORS
330
1A
102
}
100
AcDbPlotSettings
  1

  2
none_device
  4
ISO_A4_(297.00_x_210.00_MM)
  6

 40
0.0
 41
0.0
 42
0.0
 43
0.0
 44
297.0
 45
210.0
 46
0.0
 47
0.0
 48
0.0
 49
0.0
140
0.0
141
0.0
142
1.0
143
1.0
 70
1024
 72
1
 73
0
 74
0
  7

 75
0
147
1.0
148
0.0
149
0.0
100
AcDbLayout
  1
Model
 70
0
 71
0
 10
0.0
 20
0.0
 11
297.0
 21
210.0
 12
0.0
 22
0.0
 32
0.0
 14
0.0
 24
0.0
 34
0.0
 15
0.0
 25
0.0
 35
0.0
146
0.0
 13
0.0
 23
0.0
 33
0.0
 16
1.0
 26
0.0
 36
0.0
 17
0.0
 27
1.0
 37
0.0
 76
0
330
21C
345
0
346
0
  0
LAYOUT
  5
2ED
102
{ACAD_REACTORS
330
1A
102
}
100
AcDbPlotSettings
  1

  2
none_device
  4
ISO_A4_(297.00_x_210.00_MM)
  6

 40
0.0
 41
0.0
 42
0.0
 43
0.0
 44
297.0
 45
210.0
 46
0.0
 47
0.0
 48
0.0
 49
0.0
140
0.0
141
0.0
142
1.0
143
1.0
 70
0
 72
1
 73
0
 74
0
  7

 75
0
147
1.0
148
0.0
149
0.0
100
AcDbLayout
  1
Layout1
 70
0
 71
1
 10
0.0
 20
0.0
 11
297.0
 21
210.0
 12
0.0
 22
0.0
 32
0.0
 14
0.0
 24
0.0
 34
0.0
 15
0.0
 25
0.0
 35
0.0
146
0.0
 13
0.0
 23
0.0
 33
0.0
 16
1.0
 26
0.0
 36
0.0
 17
0.0
 27
1.0
 37
0.0
 76
0
330
21D
345
0
346
0
  0
ENDSEC
  0
EOF
