  0
SECTION
  2
HEADER
  9
$ACADVER
  1
AC1024
  9
$DWGCODEPAGE
  3
ANSI_1252
  9
$EXTMAX
 10
297.0
 20
210.0
 30
0.0
  9
$EXTMIN
 10
0.0
 20
0.0
 30
0.0
  9
$LIMMIN
 10
0.0
 20
0.0
  9
$LIMMAX
 10
297.0
 20
210.0
  9
$VIEWCTR
 10
148.5
 20
105.0
  9
$VIEWSIZE
 40
210.0
  9
$CLAYER
  8
0
  9
$LTSCALE
 40
16.335
  9
$CELTYPE
  6
BYLAYER
  9
$DIMSCALE
 40
1.0
  9
$DIMASZ
 40
3.0
  9
$DIMEXO
 40
0.5
  9
$DIMDLI
 40
11.286
  9
$DIMEXE
 40
1.5
  9
$DIMCEN
 40
2.673
  9
$DIMLFAC
 40
1.0
  9
$DIMBLK
  1
_FILLED
  9
$DIMALT
 70
0
  9
$DIMALTF
 40
0.0393700787
  9
$DIMTXT
 40
3.0
  9
$DIMTOL
 70
1
  9
$DIMLIM
 70
0
  9
$DIMTFAC
 40
1.0
  9
$DIMTP
 40
0.01
  9
$DIMTM
 40
0.01
  9
$DIMGAP
 40
0.625
  9
$DIMDSEP
 70
44
  9
$AUNITS
 70
0
  9
$PDMODE
 70
3
  9
$PDSIZE
 40
3.0
  9
$HANDSEED
  5
403
  9
$TILEMODE
 70
1
  9
$MEASUREMENT
 70
1
  9
$INSUNITS
 70
4
  0
ENDSEC
  0
SECTION
  2
CLASSES
  0
CLASS
  1
ACDBDICTIONARYWDFLT
  2
AcDbDictionaryWithDefault
  3
AutoCAD 2000
 90
0
 91
1
280
0
281
0
  0
CLASS
  1
ACDBPLACEHOLDER
  2
AcDbPlaceHolder
  3
AutoCAD 2000
 90
0
 91
1
280
0
281
0
  0
CLASS
  1
LAYOUT
  2
AcDbLayout
  3
AutoCAD 2000
 90
0
 91
0
280
0
281
0
  0
ENDSEC
  0
SECTION
  2
TABLES
  0
TABLE
  2
VPORT
  5
8
100
AcDbSymbolTable
 70
2
  0
VPORT
  5
1F4
100
AcDbSymbolTableRecord
100
AcDbViewportTableRecord
  2
*ACTIVE
 70
0
 10
0.0
 20
0.0
 11
1.0
 21
1.0
 12
148.5
 22
105.0
 13
0.0
 23
0.0
 14
1.0
 24
1.0
 15
0.0
 25
0.0
 16
0.0
 26
0.0
 36
1.0
 17
0.0
 27
0.0
 37
0.0
 40
210.0
 41
1.4142857143
 42
50.0
 43
0.0
 44
0.0
 50
0.0
 51
0.0
 71
0
 72
100
 73
1
 74
1
 75
0
 76
0
 77
0
 78
0
  0
ENDTAB
  0
TABLE
  2
LTYPE
  5
5
100
AcDbSymbolTable
 70
6
  0
LTYPE
  5
14
100
AcDbSymbolTableRecord
100
AcDbLinetypeTableRecord
  2
BYBLOCK
 70
0
  3

 72
65
 73
0
 40
0.0
  0
LTYPE
  5
15
100
AcDbSymbolTableRecord
100
AcDbLinetypeTableRecord
  2
BYLAYER
 70
0
  3

 72
65
 73
0
 40
0.0
  0
LTYPE
  5
16
100
AcDbSymbolTableRecord
100
AcDbLinetypeTableRecord
  2
CONTINUOUS
 70
64
  3
Solid line
 72
65
 73
0
 40
0.0
  0
LTYPE
  5
1F5
100
AcDbSymbolTableRecord
100
AcDbLinetypeTableRecord
  2
CENTER
 70
64
  3
____ _ ____ _ ____ _ ____ _ ____ _ ____ _ ____
 72
65
 73
4
 40
0.6
 49
0.375
 74
0
 49
-0.075
 74
0
 49
0.075
 74
0
 49
-0.075
 74
0
  0
LTYPE
  5
1F6
100
AcDbSymbolTableRecord
100
AcDbLinetypeTableRecord
  2
HIDDEN
 70
64
  3
- - - - - - - - - - - - - - - - - - - -
 72
65
 73
2
 40
0.2
 49
0.1
 74
0
 49
-0.1
 74
0
  0
LTYPE
  5
1F7
100
AcDbSymbolTableRecord
100
AcDbLinetypeTableRecord
  2
PHANTOM
 70
64
  3
_____ _ _ _____ _ _ _____ _ _ _____
 72
65
 73
6
 40
0.8
 49
0.45
 74
0
 49
-0.05
 74
0
 49
0.1
 74
0
 49
-0.05
 74
0
 49
0.1
 74
0
 49
-0.05
 74
0
  0
LTYPE
  5
1F8
100
AcDbSymbolTableRecord
100
AcDbLinetypeTableRecord
  2
DOT
 70
64
  3
. . . . . . . . . . . . . . . . . . . .
 72
65
 73
2
 40
0.2
 49
0.1
 74
0
 49
-0.1
 74
0
  0
LTYPE
  5
1F9
100
AcDbSymbolTableRecord
100
AcDbLinetypeTableRecord
  2
DASHED
 70
64
  3
- - - - - - - - - - - - - - - - - - - -
 72
65
 73
2
 40
0.2
 49
0.1
 74
0
 49
-0.1
 74
0
  0
ENDTAB
  0
TABLE
  2
LAYER
  5
2
100
AcDbSymbolTable
 70
36
  0
LAYER
  5
10
100
AcDbSymbolTableRecord
100
AcDbLayerTableRecord
  2
0
 70
0
 62
7
  6
CONTINUOUS
370
-3
390
F
  0
LAYER
  5
1FA
100
AcDbSymbolTableRecord
100
AcDbLayerTableRecord
  2
DEFAULT_1
 70
0
 62
7
  6
CENTER
370
-3
390
F
  0
LAYER
  5
1FB
100
AcDbSymbolTableRecord
100
AcDbLayerTableRecord
  2
DEFAULT_2
 70
0
 62
7
  6
HIDDEN
370
-3
390
F
  0
LAYER
  5
1FC
100
AcDbSymbolTableRecord
100
AcDbLayerTableRecord
  2
DEFAULT_3
 70
0
 62
7
  6
PHANTOM
370
-3
390
F
  0
LAYER
  5
1FD
100
AcDbSymbolTableRecord
100
AcDbLayerTableRecord
  2
ASSI
 70
0
 62
7
  6
CONTINUOUS
370
-3
390
F
  0
LAYER
  5
1FE
100
AcDbSymbolTableRecord
100
AcDbLayerTableRecord
  2
COORDINATE
 70
0
 62
7
  6
CONTINUOUS
370
-3
390
F
  0
LAYER
  5
1FF
100
AcDbSymbolTableRecord
100
AcDbLayerTableRecord
  2
COORD_ORIGINE
 70
0
 62
7
  6
CONTINUOUS
370
-3
390
F
  0
LAYER
  5
200
100
AcDbSymbolTableRecord
100
AcDbLayerTableRecord
  2
COPY_PUBLISH
 70
0
 62
7
  6
CONTINUOUS
370
-3
390
F
  0
LAYER
  5
201
100
AcDbSymbolTableRecord
100
AcDbLayerTableRecord
  2
COSMETIC
 70
0
 62
7
  6
CONTINUOUS
370
-3
390
F
  0
LAYER
  5
202
100
AcDbSymbolTableRecord
100
AcDbLayerTableRecord
  2
COSMETICI
 70
0
 62
7
  6
CONTINUOUS
370
-3
390
F
  0
LAYER
  5
203
100
AcDbSymbolTableRecord
100
AcDbLayerTableRecord
  2
CURVA_TASSELLO
 70
0
 62
7
  6
CONTINUOUS
370
-3
390
F
  0
LAYER
  5
204
100
AcDbSymbolTableRecord
100
AcDbLayerTableRecord
  2
CURVE
 70
0
 62
7
  6
CONTINUOUS
370
-3
390
F
  0
LAYER
  5
205
100
AcDbSymbolTableRecord
100
AcDbLayerTableRecord
  2
DRAFT
 70
0
 62
7
  6
CONTINUOUS
370
-3
390
F
  0
LAYER
  5
206
100
AcDbSymbolTableRecord
100
AcDbLayerTableRecord
  2
IMPORT_IGES
 70
0
 62
7
  6
CONTINUOUS
370
-3
390
F
  0
LAYER
  5
207
100
AcDbSymbolTableRecord
100
AcDbLayerTableRecord
  2
INTFCLR_2
 70
0
 62
7
  6
CONTINUOUS
370
-3
390
F
  0
LAYER
  5
208
100
AcDbSymbolTableRecord
100
AcDbLayerTableRecord
  2
INTF_1
 70
0
 62
7
  6
CONTINUOUS
370
-3
390
F
  0
LAYER
  5
209
100
AcDbSymbolTableRecord
100
AcDbLayerTableRecord
  2
INTF_7
 70
0
 62
7
  6
CONTINUOUS
370
-3
390
F
  0
LAYER
  5
20A
100
AcDbSymbolTableRecord
100
AcDbLayerTableRecord
  2
LINEA_CHIUSURA
 70
0
 62
7
  6
CONTINUOUS
370
-3
390
F
  0
LAYER
  5
20B
100
AcDbSymbolTableRecord
100
AcDbLayerTableRecord
  2
NOTE
 70
0
 62
7
  6
CONTINUOUS
370
-3
390
F
  0
LAYER
  5
20C
100
AcDbSymbolTableRecord
100
AcDbLayerTableRecord
  2
PIANI
 70
0
 62
7
  6
CONTINUOUS
370
-3
390
F
  0
LAYER
  5
20D
100
AcDbSymbolTableRecord
100
AcDbLayerTableRecord
  2
PIANI_ORIGINE
 70
0
 62
7
  6
CONTINUOUS
370
-3
390
F
  0
LAYER
  5
20E
100
AcDbSymbolTableRecord
100
AcDbLayerTableRecord
  2
PIANI_RIFERIMENTO
 70
0
 62
7
  6
CONTINUOUS
370
-3
390
F
  0
LAYER
  5
20F
100
AcDbSymbolTableRecord
100
AcDbLayerTableRecord
  2
PUNTI
 70
0
 62
7
  6
CONTINUOUS
370
-3
390
F
  0
LAYER
  5
210
100
AcDbSymbolTableRecord
100
AcDbLayerTableRecord
  2
RACCORDO
 70
0
 62
7
  6
CONTINUOUS
370
-3
390
F
  0
LAYER
  5
211
100
AcDbSymbolTableRecord
100
AcDbLayerTableRecord
  2
RGB__255__255__255__
 70
0
 62
7
  6
CONTINUOUS
370
-3
390
F
  0
LAYER
  5
212
100
AcDbSymbolTableRecord
100
AcDbLayerTableRecord
  2
RGB____0____0____0__
 70
0
 62
7
  6
CONTINUOUS
370
-3
390
F
  0
LAYER
  5
213
100
AcDbSymbolTableRecord
100
AcDbLayerTableRecord
  2
SIMBOLI
 70
0
 62
7
  6
CONTINUOUS
370
-3
390
F
  0
LAYER
  5
214
100
AcDbSymbolTableRecord
100
AcDbLayerTableRecord
  2
SMUSSO
 70
0
 62
7
  6
CONTINUOUS
370
-3
390
F
  0
LAYER
  5
215
100
AcDbSymbolTableRecord
100
AcDbLayerTableRecord
  2
SNAPLINE
 70
0
 62
7
  6
CONTINUOUS
370
-3
390
F
  0
LAYER
  5
216
100
AcDbSymbolTableRecord
100
AcDbLayerTableRecord
  2
SUPERFICI
 70
0
 62
7
  6
CONTINUOUS
370
-3
390
F
  0
LAYER
  5
217
100
AcDbSymbolTableRecord
100
AcDbLayerTableRecord
  2
TRASH
 70
0
 62
7
  6
CONTINUOUS
370
-3
390
F
  0
LAYER
  5
218
100
AcDbSymbolTableRecord
100
AcDbLayerTableRecord
  2
XSEC_DATUMS
 70
0
 62
7
  6
CONTINUOUS
370
-3
390
F
  0
ENDTAB
  0
TABLE
  2
STYLE
  5
3
100
AcDbSymbolTable
 70
1
  0
STYLE
  5
11
100
AcDbSymbolTableRecord
100
AcDbTextStyleTableRecord
  2
STANDARD
 70
0
 40
0.0
 41
0.8
 50
0.0
 71
0
 42
0.2
  3
txt
  4

  0
STYLE
  5
219
100
AcDbSymbolTableRecord
100
AcDbTextStyleTableRecord
  2
TEXTSTYLE_1
 70
0
 40
0.0
 41
0.8
 50
0.0
 71
0
 42
0.2
  3
gdt
  4

  0
ENDTAB
  0
TABLE
  2
VIEW
  5
6
100
AcDbSymbolTable
 70
0
  0
ENDTAB
  0
TABLE
  2
UCS
  5
7
100
AcDbSymbolTable
 70
0
  0
ENDTAB
  0
TABLE
  2
APPID
  5
9
100
AcDbSymbolTable
 70
1
  0
APPID
  5
21A
100
AcDbSymbolTableRecord
100
AcDbRegAppTableRecord
  2
ACAD
 70
0
  0
ENDTAB
  0
TABLE
  2
BLOCK_RECORD
  5
1
100
AcDbSymbolTable
 70
0
  0
BLOCK_RECORD
  5
21B
100
AcDbSymbolTableRecord
100
AcDbBlockTableRecord
  2
*Model_Space
  0
BLOCK_RECORD
  5
21C
100
AcDbSymbolTableRecord
100
AcDbBlockTableRecord
  2
*Paper_Space
  0
BLOCK_RECORD
  5
21D
100
AcDbSymbolTableRecord
100
AcDbBlockTableRecord
  2
_FILLED
  0
ENDTAB
  0
TABLE
  2
DIMSTYLE
  5
A
100
AcDbSymbolTable
 70
1
100
AcDbDimStyleTable
 71
0
  0
DIMSTYLE
105
21E
100
AcDbSymbolTableRecord
100
AcDbDimStyleTableRecord
  2
STANDARD
 70
0
  3

  4

 40
1.0
 41
3.0
 42
0.5
 43
0.38
 44
1.5
 45
0.0
 46
0.0
 47
0.01
 48
0.01
140
3.0
141
0.09
142
0.0
143
25.4
144
1.0
145
0.0
146
1.0
147
0.625
 71
1
 72
0
 73
0
 74
0
 75
0
 76
0
 77
1
 78
8
 79
2
170
0
171
1
172
0
173
0
174
0
175
0
176
0
177
0
178
0
270
2
179
2
271
2
272
2
273
2
274
2
275
0
280
0
281
0
282
0
283
1
284
8
285
0
286
0
287
3
288
0
340
11
278
44
341
21D
342
21D
343
21D
344
21D
  0
ENDTAB
  0
ENDSEC
  0
SECTION
  2
BLOCKS
  0
BLOCK
  5
20
100
AcDbEntity
  8
0
100
AcDbBlockBegin
  2
*Model_Space
 70
0
 10
0.0
 20
0.0
 30
0.0
  3
*Model_Space
  1

  0
ENDBLK
  5
21
100
AcDbEntity
  8
0
100
AcDbBlockEnd
  0
BLOCK
  5
1C
100
AcDbEntity
  8
0
100
AcDbBlockBegin
  2
*Paper_Space
 70
0
 10
0.0
 20
0.0
 30
0.0
  3
*Paper_Space
  1

  0
ENDBLK
  5
1D
100
AcDbEntity
  8
0
100
AcDbBlockEnd
  0
BLOCK
  5
21F
100
AcDbEntity
  8
0
100
AcDbBlockBegin
  2
_FILLED
 70
64
 10
0.0
 20
0.0
  3
_FILLED
  1

  0
SOLID
  5
220
100
AcDbEntity
  8
0
  6
BYBLOCK
 62
0
100
AcDbTrace
 10
0.0
 20
0.0
 11
-1.0
 21
0.3166666667
 12
-1.0
 22
-0.3166666667
 13
-1.0
 23
-0.3166666667
  0
ENDBLK
  5
221
100
AcDbEntity
  8
0
  6
BYBLOCK
 62
0
100
AcDbBlockEnd
  0
ENDSEC
  0
SECTION
  2
ENTITIES
  0
LINE
  5
222
100
AcDbEntity
  8
0
100
AcDbLine
 62
7
  6
CONTINUOUS
 10
-52.9823718343
 20
63.9328568438
 11
-49.1945580472
 21
66.4364237351
  0
LINE
  5
223
100
AcDbEntity
  8
ASSI
100
AcDbLine
 62
7
  6
CONTINUOUS
 10
-52.9823718343
 20
63.9328568438
 11
-49.1945580472
 21
66.4364237351
  0
LINE
  5
224
100
AcDbEntity
  8
0
100
AcDbLine
 62
7
  6
CONTINUOUS
 10
-52.274834565
 20
64.3413010376
 11
-48.4870207779
 21
66.844867929
  0
LINE
  5
225
100
AcDbEntity
  8
ASSI
100
AcDbLine
 62
7
  6
CONTINUOUS
 10
-52.274834565
 20
64.3413010376
 11
-48.4870207779
 21
66.844867929
  0
LINE
  5
226
100
AcDbEntity
  8
0
100
AcDbLine
 62
7
  6
CONTINUOUS
 10
-52.2955981792
 20
64.3284616867
 11
-52.274834565
 21
64.3413010376
  0
LINE
  5
227
100
AcDbEntity
  8
ASSI
100
AcDbLine
 62
7
  6
CONTINUOUS
 10
-52.2955981792
 20
64.3284616867
 11
-52.274834565
 21
64.3413010376
  0
LINE
  5
228
100
AcDbEntity
  8
0
100
AcDbLine
 62
7
  6
CONTINUOUS
 10
-49.1945580472
 20
66.4364237351
 11
-48.4870207779
 21
66.844867929
  0
LINE
  5
229
100
AcDbEntity
  8
ASSI
100
AcDbLine
 62
7
  6
CONTINUOUS
 10
-49.1945580472
 20
66.4364237351
 11
-48.4870207779
 21
66.844867929
  0
LINE
  5
22A
100
AcDbEntity
  8
0
100
AcDbLine
 62
7
  6
CONTINUOUS
 10
-52.2955981792
 20
64.3284616867
 11
-52.9819965268
 21
63.9322204822
  0
LINE
  5
22B
100
AcDbEntity
  8
ASSI
100
AcDbLine
 62
7
  6
CONTINUOUS
 10
-52.2955981792
 20
64.3284616867
 11
-52.9819965268
 21
63.9322204822
  0
LINE
  5
22C
100
AcDbEntity
  8
0
100
AcDbLine
 62
7
  6
CONTINUOUS
 10
-52.678287479
 20
62.9132332483
 11
-52.9572634132
 21
62.7521871727
  0
LINE
  5
22D
100
AcDbEntity
  8
ASSI
100
AcDbLine
 62
7
  6
CONTINUOUS
 10
-52.678287479
 20
62.9132332483
 11
-52.9572634132
 21
62.7521871727
  0
LINE
  5
22E
100
AcDbEntity
  8
CURVE
100
AcDbLine
 62
250
  6
CONTINUOUS
 10
51.309792016
 20
-59.9718585674
 11
50.0513911947
 21
-60.2484813673
  0
LINE
  5
22F
100
AcDbEntity
  8
CURVE
100
AcDbLine
 62
250
  6
CONTINUOUS
 10
50.0513911947
 20
-59.8227443721
 11
51.8795823714
 21
-59.4944511796
  0
LINE
  5
230
100
AcDbEntity
  8
0
100
AcDbLine
 62
7
  6
CONTINUOUS
 10
-52.678287479
 20
62.9132332483
 11
-52.2955981792
 21
64.3284616867
  0
LINE
  5
231
100
AcDbEntity
  8
ASSI
100
AcDbLine
 62
7
  6
CONTINUOUS
 10
-52.678287479
 20
62.9132332483
 11
-52.2955981792
 21
64.3284616867
  0
LINE
  5
232
100
AcDbEntity
  8
CURVE
100
AcDbLine
 62
250
  6
CONTINUOUS
 10
50.5537317236
 20
-55.7637797996
 11
51.232196851
 21
-55.6106052197
  0
LINE
  5
233
100
AcDbEntity
  8
CURVE
100
AcDbLine
 62
250
  6
CONTINUOUS
 10
51.5146105455
 20
-55.5456932806
 11
51.8795823714
 21
-55.4667420689
  0
LINE
  5
234
100
AcDbEntity
  8
CURVE
100
AcDbLine
 62
250
  6
CONTINUOUS
 10
51.8795823714
 20
-55.8881476894
 11
50.0513911947
 21
-56.2323122475
  0
LINE
  5
235
100
AcDbEntity
  8
CURVE
100
AcDbLine
 62
250
  6
CONTINUOUS
 10
51.0664084744
 20
-57.4312713859
 11
50.0513911947
 21
-57.551751076
  0
LINE
  5
236
100
AcDbEntity
  8
CURVE
100
AcDbLine
 62
250
  6
CONTINUOUS
 10
50.6907844819
 20
-57.0994193229
 11
51.8795823714
 21
-56.9658909041
  0
LINE
  5
237
100
AcDbEntity
  8
0
100
AcDbLine
 62
7
  6
CONTINUOUS
 10
-52.9572634132
 20
-8.0794464266
 11
-52.9819965268
 21
-7.6232108491
  0
LINE
  5
238
100
AcDbEntity
  8
ASSI
100
AcDbLine
 62
7
  6
CONTINUOUS
 10
-52.9572634132
 20
-8.0794464266
 11
-52.9819965268
 21
-7.6232108491
  0
LINE
  5
239
100
AcDbEntity
  8
0
100
AcDbLine
 62
7
  6
CONTINUOUS
 10
-52.9572634132
 20
62.7521871727
 11
-52.9819965268
 21
63.9322204822
  0
LINE
  5
23A
100
AcDbEntity
  8
ASSI
100
AcDbLine
 62
7
  6
CONTINUOUS
 10
-52.9572634132
 20
62.7521871727
 11
-52.9819965268
 21
63.9322204822
  0
LINE
  5
23B
100
AcDbEntity
  8
0
100
AcDbLine
 62
7
  6
CONTINUOUS
 10
-52.9819965268
 20
-7.6232108491
 11
-52.9823718343
 21
-7.5990179884
  0
LINE
  5
23C
100
AcDbEntity
  8
ASSI
100
AcDbLine
 62
7
  6
CONTINUOUS
 10
-52.9819965268
 20
-7.6232108491
 11
-52.9823718343
 21
-7.5990179884
  0
LINE
  5
23D
100
AcDbEntity
  8
0
100
AcDbLine
 62
7
  6
CONTINUOUS
 10
-52.9823718343
 20
63.9328568438
 11
-52.9823718343
 21
-7.5990179884
  0
LINE
  5
23E
100
AcDbEntity
  8
ASSI
100
AcDbLine
 62
7
  6
CONTINUOUS
 10
-52.9823718343
 20
63.9328568438
 11
-52.9823718343
 21
-7.5990179884
  0
LINE
  5
23F
100
AcDbEntity
  8
0
100
AcDbLine
 62
7
  6
CONTINUOUS
 10
-52.9572634132
 20
62.7521871727
 11
-52.9572634132
 21
-8.0794464266
  0
LINE
  5
240
100
AcDbEntity
  8
ASSI
100
AcDbLine
 62
7
  6
CONTINUOUS
 10
-52.9572634132
 20
62.7521871727
 11
-52.9572634132
 21
-8.0794464266
  0
LINE
  5
241
100
AcDbEntity
  8
0
100
AcDbLine
 62
7
  6
CONTINUOUS
 10
47.4819783668
 20
-66.071805831
 11
48.8989374977
 21
-66.4479852869
  0
LINE
  5
242
100
AcDbEntity
  8
ASSI
100
AcDbLine
 62
7
  6
CONTINUOUS
 10
47.4819783668
 20
-66.071805831
 11
48.8989374977
 21
-66.4479852869
  0
LWPOLYLINE
  5
243
100
AcDbEntity
  8
0
100
AcDbPolyline
 62
7
  6
CONTINUOUS
 90
13
 70
0
 10
-34.4501030881
 20
35.2308561864
 10
-34.4494536742
 20
35.231135662
 10
-34.4443523254
 20
35.2328715889
 10
-34.4373900747
 20
35.2342870291
 10
-34.4283461011
 20
35.2350465054
 10
-34.4171238389
 20
35.2348102801
 10
-34.4037499643
 20
35.233252966
 10
-34.3882539233
 20
35.2300795396
 10
-34.3709715612
 20
35.2251022812
 10
-34.3524801444
 20
35.2183227553
 10
-34.3331363015
 20
35.2097960243
 10
-34.3130970725
 20
35.199539296
 10
-34.304056661
 20
35.1944601712
  0
LWPOLYLINE
  5
244
100
AcDbEntity
  8
ASSI
100
AcDbPolyline
 62
7
  6
CONTINUOUS
 90
13
 70
0
 10
-34.4501030881
 20
35.2308561864
 10
-34.4494536742
 20
35.231135662
 10
-34.4443523254
 20
35.2328715889
 10
-34.4373900747
 20
35.2342870291
 10
-34.4283461011
 20
35.2350465054
 10
-34.4171238389
 20
35.2348102801
 10
-34.4037499643
 20
35.233252966
 10
-34.3882539233
 20
35.2300795396
 10
-34.3709715612
 20
35.2251022812
 10
-34.3524801444
 20
35.2183227553
 10
-34.3331363015
 20
35.2097960243
 10
-34.3130970725
 20
35.199539296
 10
-34.304056661
 20
35.1944601712
  0
LINE
  5
245
100
AcDbEntity
  8
0
100
AcDbLine
 62
250
  6
CONTINUOUS
 10
-34.5665158975
 20
34.9954156765
 11
-34.2172711708
 21
35.1443512166
  0
LINE
  5
246
100
AcDbEntity
  8
ASSI
100
AcDbLine
 62
250
  6
CONTINUOUS
 10
-34.5665158975
 20
34.9954156765
 11
-34.2172711708
 21
35.1443512166
  0
LINE
  5
247
100
AcDbEntity
  8
0
100
AcDbLine
 62
7
  6
CONTINUOUS
 10
-52.9572634132
 20
-8.0794464266
 11
-52.678287479
 21
-8.5626469181
  0
LINE
  5
248
100
AcDbEntity
  8
ASSI
100
AcDbLine
 62
7
  6
CONTINUOUS
 10
-52.9572634132
 20
-8.0794464266
 11
-52.678287479
 21
-8.5626469181
  0
LINE
  5
249
100
AcDbEntity
  8
0
100
AcDbLine
 62
250
  6
CONTINUOUS
 10
-34.8391490596
 20
-1.2505162913
 11
-34.8391490596
 21
35.0009127284
  0
LINE
  5
24A
100
AcDbEntity
  8
ASSI
100
AcDbLine
 62
250
  6
CONTINUOUS
 10
-34.8391490596
 20
-1.2505162913
 11
-34.8391490596
 21
35.0009127284
  0
LINE
  5
24B
100
AcDbEntity
  8
0
100
AcDbLine
 62
250
  6
CONTINUOUS
 10
-34.5665158975
 20
-1.2560133432
 11
-34.5665158975
 21
34.9954156765
  0
LINE
  5
24C
100
AcDbEntity
  8
ASSI
100
AcDbLine
 62
250
  6
CONTINUOUS
 10
-34.5665158975
 20
-1.2560133432
 11
-34.5665158975
 21
34.9954156765
  0
LINE
  5
24D
100
AcDbEntity
  8
0
100
AcDbLine
 62
7
  6
CONTINUOUS
 10
-33.4967875048
 20
34.7283529776
 11
-33.4967875048
 21
-0.6383733781
  0
LINE
  5
24E
100
AcDbEntity
  8
ASSI
100
AcDbLine
 62
7
  6
CONTINUOUS
 10
-33.4967875048
 20
34.7283529776
 11
-33.4967875048
 21
-0.6383733781
  0
LINE
  5
24F
100
AcDbEntity
  8
0
100
AcDbLine
 62
7
  6
CONTINUOUS
 10
-32.3741216576
 20
20.8308592588
 11
-33.0725234361
 21
20.4276094289
  0
LINE
  5
250
100
AcDbEntity
  8
0
100
AcDbLine
 62
250
  6
CONTINUOUS
 10
-29.9424146964
 20
22.2348638932
 11
-32.3740887949
 21
20.8308409239
  0
LINE
  5
251
100
AcDbEntity
  8
0
100
AcDbLine
 62
250
  6
CONTINUOUS
 10
-29.7303149708
 20
21.8674963925
 11
-32.8603914018
 21
20.060223285
  0
LINE
  5
252
100
AcDbEntity
  8
0
100
AcDbLine
 62
7
  6
CONTINUOUS
 10
-30.5073868117
 20
22.4940708217
 11
-32.2899235977
 21
21.5354802233
  0
LINE
  5
253
100
AcDbEntity
  8
0
100
AcDbLine
 62
250
  6
CONTINUOUS
 10
-30.361596802
 20
22.4768943874
 11
-32.2899235977
 21
21.4399026397
  0
LINE
  5
254
100
AcDbEntity
  8
0
100
AcDbLine
 62
7
  6
CONTINUOUS
 10
-52.274834565
 20
-8.8245084858
 11
48.2129015803
 21
-66.844867929
  0
LINE
  5
255
100
AcDbEntity
  8
ASSI
100
AcDbLine
 62
7
  6
CONTINUOUS
 10
-52.274834565
 20
-8.8245084858
 11
48.2129015803
 21
-66.844867929
  0
LINE
  5
256
100
AcDbEntity
  8
0
100
AcDbLine
 62
7
  6
CONTINUOUS
 10
-52.678287479
 20
-8.5626469181
 11
47.2030024326
 21
-66.2328519066
  0
LINE
  5
257
100
AcDbEntity
  8
ASSI
100
AcDbLine
 62
7
  6
CONTINUOUS
 10
-52.678287479
 20
-8.5626469181
 11
47.2030024326
 21
-66.2328519066
  0
LINE
  5
258
100
AcDbEntity
  8
0
100
AcDbLine
 62
7
  6
CONTINUOUS
 10
-52.274834565
 20
-8.8245084858
 11
-52.2955981792
 21
-8.8120876602
  0
LINE
  5
259
100
AcDbEntity
  8
ASSI
100
AcDbLine
 62
7
  6
CONTINUOUS
 10
-52.274834565
 20
-8.8245084858
 11
-52.2955981792
 21
-8.8120876602
  0
LINE
  5
25A
100
AcDbEntity
  8
0
100
AcDbLine
 62
7
  6
CONTINUOUS
 10
-52.678287479
 20
-8.5626469181
 11
-52.2955981792
 21
-8.8120876602
  0
LINE
  5
25B
100
AcDbEntity
  8
ASSI
100
AcDbLine
 62
7
  6
CONTINUOUS
 10
-52.678287479
 20
-8.5626469181
 11
-52.2955981792
 21
-8.8120876602
  0
LINE
  5
25C
100
AcDbEntity
  8
0
100
AcDbLine
 62
250
  6
CONTINUOUS
 10
-33.2864402737
 20
34.6069011227
 11
-33.2864402737
 21
-0.5169027898
  0
LINE
  5
25D
100
AcDbEntity
  8
ASSI
100
AcDbLine
 62
250
  6
CONTINUOUS
 10
-33.2864402737
 20
34.6069011227
 11
-33.2864402737
 21
-0.5169027898
  0
LINE
  5
25E
100
AcDbEntity
  8
0
100
AcDbLine
 62
7
  6
CONTINUOUS
 10
-33.1637950639
 20
34.5360873156
 11
-33.1637950639
 21
-0.32750266
  0
LINE
  5
25F
100
AcDbEntity
  8
ASSI
100
AcDbLine
 62
7
  6
CONTINUOUS
 10
-33.1637950639
 20
34.5360873156
 11
-33.1637950639
 21
-0.32750266
  0
LINE
  5
260
100
AcDbEntity
  8
0
100
AcDbLine
 62
7
  6
CONTINUOUS
 10
-33.0725234361
 20
-0.6805114542
 11
-33.0725234361
 21
15.5287828686
  0
LINE
  5
261
100
AcDbEntity
  8
0
100
AcDbLine
 62
7
  6
CONTINUOUS
 10
-33.0725234361
 20
20.4276143513
 11
-33.0725234361
 21
34.4833882216
  0
LINE
  5
262
100
AcDbEntity
  8
0
100
AcDbLine
 62
7
  6
CONTINUOUS
 10
-32.8603914018
 20
20.060223285
 11
-32.8603914018
 21
15.6512091789
  0
LINE
  5
263
100
AcDbEntity
  8
0
100
AcDbLine
 62
250
  6
CONTINUOUS
 10
-32.3741216576
 20
-1.309265748
 11
-32.3741216576
 21
15.8529756931
  0
LINE
  5
264
100
AcDbEntity
  8
0
100
AcDbLine
 62
250
  6
CONTINUOUS
 10
-32.3741216576
 20
20.8308592588
 11
-32.3741216576
 21
34.0801397877
  0
LINE
  5
265
100
AcDbEntity
  8
0
100
AcDbLine
 62
7
  6
CONTINUOUS
 10
-32.2899235977
 20
-1.3578806526
 11
-32.2899235977
 21
15.9050450364
  0
LINE
  5
266
100
AcDbEntity
  8
0
100
AcDbLine
 62
7
  6
CONTINUOUS
 10
-32.2899235977
 20
20.9482367784
 11
-32.2899235977
 21
34.0315248832
  0
LINE
  5
267
100
AcDbEntity
  8
0
100
AcDbLine
 62
250
  6
CONTINUOUS
 10
-29.7303149708
 20
21.8674963925
 11
-29.7303149708
 21
17.5868953959
  0
LINE
  5
268
100
AcDbEntity
  8
0
100
AcDbLine
 62
7
  6
CONTINUOUS
 10
-29.6461169109
 20
21.9878225036
 11
-29.6461169109
 21
17.707221507
  0
LINE
  5
269
100
AcDbEntity
  8
0
100
AcDbLine
 62
250
  6
CONTINUOUS
 10
-29.7303149708
 20
17.5868953959
 11
-32.8603914018
 21
15.6512091789
  0
LINE
  5
26A
100
AcDbEntity
  8
0
100
AcDbLine
 62
7
  6
CONTINUOUS
 10
-29.7883272373
 20
17.4520697504
 11
-32.9199088378
 21
15.5154527139
  0
LINE
  5
26B
100
AcDbEntity
  8
0
100
AcDbLine
 62
7
  6
CONTINUOUS
 10
47.2030024326
 20
-66.2328519066
 11
48.21253915
 21
-66.8442264913
  0
LINE
  5
26C
100
AcDbEntity
  8
ASSI
100
AcDbLine
 62
7
  6
CONTINUOUS
 10
47.2030024326
 20
-66.2328519066
 11
48.21253915
 21
-66.8442264913
  0
LINE
  5
26D
100
AcDbEntity
  8
0
100
AcDbLine
 62
250
  6
CONTINUOUS
 10
-17.5051542551
 20
-5.7228919919
 11
-17.5051542551
 21
-6.1302616298
  0
LINE
  5
26E
100
AcDbEntity
  8
0
100
AcDbLine
 62
7
  6
CONTINUOUS
 10
-17.4537832202
 20
-5.656314485
 11
-17.4537832202
 21
-6.099716335
  0
LINE
  5
26F
100
AcDbEntity
  8
0
100
AcDbLine
 62
7
  6
CONTINUOUS
 10
-25.3223789768
 20
-5.3808535928
 11
-25.2943488431
 21
-5.332303977
  0
LINE
  5
270
100
AcDbEntity
  8
0
100
AcDbLine
 62
7
  6
CONTINUOUS
 10
-25.0468614696
 20
-5.3118784109
 11
-24.9407954525
 21
-5.1281666804
  0
LINE
  5
271
100
AcDbEntity
  8
0
100
AcDbLine
 62
7
  6
CONTINUOUS
 10
-24.693308079
 20
-5.1077411142
 11
-24.5872420619
 21
-4.9240293837
  0
LINE
  5
272
100
AcDbEntity
  8
0
100
AcDbLine
 62
7
  6
CONTINUOUS
 10
-24.3397546885
 20
-4.9036038176
 11
-24.2336886713
 21
-4.7198920871
  0
LINE
  5
273
100
AcDbEntity
  8
0
100
AcDbLine
 62
7
  6
CONTINUOUS
 10
-23.9862012979
 20
-4.6994665209
 11
-23.8801352807
 21
-4.5157547904
  0
LINE
  5
274
100
AcDbEntity
  8
0
100
AcDbLine
 62
7
  6
CONTINUOUS
 10
-23.6326479073
 20
-4.4953292242
 11
-23.5265818901
 21
-4.3116174937
  0
LINE
  5
275
100
AcDbEntity
  8
0
100
AcDbLine
 62
7
  6
CONTINUOUS
 10
-23.2790945167
 20
-4.2911919276
 11
-23.1730284995
 21
-4.1074801971
  0
LINE
  5
276
100
AcDbEntity
  8
0
100
AcDbLine
 62
250
  6
CONTINUOUS
 10
28.8700949999
 20
-38.6055723242
 11
-34.3453800463
 21
-2.1057493085
  0
LINE
  5
277
100
AcDbEntity
  8
ASSI
100
AcDbLine
 62
250
  6
CONTINUOUS
 10
28.8700949999
 20
-38.6055723242
 11
-34.3453800463
 21
-2.1057493085
  0
LINE
  5
278
100
AcDbEntity
  8
0
100
AcDbLine
 62
250
  6
CONTINUOUS
 10
29.0016513011
 20
-38.3667170855
 11
-34.2138237452
 21
-1.8668940698
  0
LINE
  5
279
100
AcDbEntity
  8
ASSI
100
AcDbLine
 62
250
  6
CONTINUOUS
 10
29.0016513011
 20
-38.3667170855
 11
-34.2138237452
 21
-1.8668940698
  0
LINE
  5
27A
100
AcDbEntity
  8
0
100
AcDbLine
 62
7
  6
CONTINUOUS
 10
-33.1440953525
 20
-1.2492541047
 11
29.3052853694
 21
-37.306743859
  0
LINE
  5
27B
100
AcDbEntity
  8
ASSI
100
AcDbLine
 62
7
  6
CONTINUOUS
 10
-33.1440953525
 20
-1.2492541047
 11
29.3052853694
 21
-37.306743859
  0
LINE
  5
27C
100
AcDbEntity
  8
0
100
AcDbLine
 62
250
  6
CONTINUOUS
 10
-32.9337481214
 20
-1.1277835164
 11
29.3052853694
 21
-37.0638214157
  0
LINE
  5
27D
100
AcDbEntity
  8
ASSI
100
AcDbLine
 62
250
  6
CONTINUOUS
 10
-32.9337481214
 20
-1.1277835164
 11
29.3052853694
 21
-37.0638214157
  0
LINE
  5
27E
100
AcDbEntity
  8
0
100
AcDbLine
 62
7
  6
CONTINUOUS
 10
-32.7083986792
 20
-1.1162583853
 11
29.3052853694
 21
-36.9221823409
  0
LINE
  5
27F
100
AcDbEntity
  8
ASSI
100
AcDbLine
 62
7
  6
CONTINUOUS
 10
-32.7083986792
 20
-1.1162583853
 11
29.3052853694
 21
-36.9221823409
  0
LINE
  5
280
100
AcDbEntity
  8
0
100
AcDbLine
 62
7
  6
CONTINUOUS
 10
26.3244461836
 20
-35.13634929
 11
22.435358887
 21
-32.8908390267
  0
LINE
  5
281
100
AcDbEntity
  8
0
100
AcDbLine
 62
7
  6
CONTINUOUS
 10
-21.4052615465
 20
-7.5778142403
 11
-25.2943488431
 21
-5.332303977
  0
LINE
  5
282
100
AcDbEntity
  8
0
100
AcDbLine
 62
7
  6
CONTINUOUS
 10
26.571933557
 20
-35.1159237238
 11
22.5767802433
 21
-32.809184108
  0
LINE
  5
283
100
AcDbEntity
  8
0
100
AcDbLine
 62
7
  6
CONTINUOUS
 10
-25.1529274868
 20
-5.2506490584
 11
-21.1577741731
 21
-7.5573886742
  0
LINE
  5
284
100
AcDbEntity
  8
0
100
AcDbLine
 62
7
  6
CONTINUOUS
 10
26.6779995742
 20
-34.9322119933
 11
22.7889122776
 21
-32.68670173
  0
LINE
  5
285
100
AcDbEntity
  8
0
100
AcDbLine
 62
7
  6
CONTINUOUS
 10
-21.0517081559
 20
-7.3736769437
 11
-24.9407954525
 21
-5.1281666804
  0
LINE
  5
286
100
AcDbEntity
  8
0
100
AcDbLine
 62
7
  6
CONTINUOUS
 10
26.9254869476
 20
-34.9117864272
 11
22.9303336339
 21
-32.6050468113
  0
LINE
  5
287
100
AcDbEntity
  8
0
100
AcDbLine
 62
7
  6
CONTINUOUS
 10
-24.7993740962
 20
-5.0465117617
 11
-20.8042207825
 21
-7.3532513775
  0
LINE
  5
288
100
AcDbEntity
  8
0
100
AcDbLine
 62
7
  6
CONTINUOUS
 10
27.0315529648
 20
-34.7280746966
 11
23.1424656682
 21
-32.4825644333
  0
LINE
  5
289
100
AcDbEntity
  8
0
100
AcDbLine
 62
7
  6
CONTINUOUS
 10
-20.6981547653
 20
-7.169539647
 11
-24.5872420619
 21
-4.9240293837
  0
LINE
  5
28A
100
AcDbEntity
  8
0
100
AcDbLine
 62
7
  6
CONTINUOUS
 10
27.2790403382
 20
-34.7076491305
 11
23.2838870245
 21
-32.4009095147
  0
LINE
  5
28B
100
AcDbEntity
  8
0
100
AcDbLine
 62
7
  6
CONTINUOUS
 10
-24.4458207056
 20
-4.842374465
 11
-20.4506673919
 21
-7.1491140809
  0
LWPOLYLINE
  5
28C
100
AcDbEntity
  8
0
100
AcDbPolyline
 62
7
  6
CONTINUOUS
 90
30
 70
0
 10
-32.7084110574
 20
-1.1162512389
 10
-32.7214764163
 20
-1.1084171943
 10
-32.740423086
 20
-1.0960707779
 10
-32.7609148454
 20
-1.081467371
 10
-32.7825961472
 20
-1.064652023
 10
-32.8052754356
 20
-1.04559011
 10
-32.828773015
 20
-1.0242536866
 10
-32.8527502865
 20
-1.000790392
 10
-32.8770101391
 20
-0.9752570706
 10
-32.901366087
 20
-0.9477202526
 10
-32.9255152546
 20
-0.9184086855
 10
-32.9492707614
 20
-0.887460052
 10
-32.9724598308
 20
-0.8550226124
 10
-32.99483297
 20
-0.8213856656
 10
-33.0162339203
 20
-0.7867484944
 10
-33.0365311191
 20
-0.7513054765
 10
-33.0555488565
 20
-0.7153670368
 10
-33.0731881799
 20
-0.67914647
 10
-33.08935913
 20
-0.6428791573
 10
-33.1039427907
 20
-0.6069257621
 10
-33.1169026414
 20
-0.5715088802
 10
-33.1282179407
 20
-0.5368571341
 10
-33.1378485947
 20
-0.5033444151
 10
-33.1458356419
 20
-0.4711631857
 10
-33.1522336885
 20
-0.4405089352
 10
-33.1570908005
 20
-0.4117442649
 10
-33.1605258353
 20
-0.3850049348
 10
-33.1626692275
 20
-0.3604356224
 10
-33.1636660225
 20
-0.3383628815
 10
-33.1637950642
 20
-0.327512721
  0
LWPOLYLINE
  5
28D
100
AcDbEntity
  8
ASSI
100
AcDbPolyline
 62
7
  6
CONTINUOUS
 90
30
 70
0
 10
-32.7084110574
 20
-1.1162512389
 10
-32.7214764163
 20
-1.1084171943
 10
-32.740423086
 20
-1.0960707779
 10
-32.7609148454
 20
-1.081467371
 10
-32.7825961472
 20
-1.064652023
 10
-32.8052754356
 20
-1.04559011
 10
-32.828773015
 20
-1.0242536866
 10
-32.8527502865
 20
-1.000790392
 10
-32.8770101391
 20
-0.9752570706
 10
-32.901366087
 20
-0.9477202526
 10
-32.9255152546
 20
-0.9184086855
 10
-32.9492707614
 20
-0.887460052
 10
-32.9724598308
 20
-0.8550226124
 10
-32.99483297
 20
-0.8213856656
 10
-33.0162339203
 20
-0.7867484944
 10
-33.0365311191
 20
-0.7513054765
 10
-33.0555488565
 20
-0.7153670368
 10
-33.0731881799
 20
-0.67914647
 10
-33.08935913
 20
-0.6428791573
 10
-33.1039427907
 20
-0.6069257621
 10
-33.1169026414
 20
-0.5715088802
 10
-33.1282179407
 20
-0.5368571341
 10
-33.1378485947
 20
-0.5033444151
 10
-33.1458356419
 20
-0.4711631857
 10
-33.1522336885
 20
-0.4405089352
 10
-33.1570908005
 20
-0.4117442649
 10
-33.1605258353
 20
-0.3850049348
 10
-33.1626692275
 20
-0.3604356224
 10
-33.1636660225
 20
-0.3383628815
 10
-33.1637950642
 20
-0.327512721
  0
LINE
  5
28E
100
AcDbEntity
  8
0
100
AcDbLine
 62
7
  6
CONTINUOUS
 10
-21.4332916803
 20
-7.6263638561
 11
-21.4052615465
 21
-7.5778142403
  0
LINE
  5
28F
100
AcDbEntity
  8
0
100
AcDbLine
 62
7
  6
CONTINUOUS
 10
-21.1577741731
 20
-7.5573886742
 11
-21.0517081559
 21
-7.3736769437
  0
LINE
  5
290
100
AcDbEntity
  8
0
100
AcDbLine
 62
7
  6
CONTINUOUS
 10
-20.8042207825
 20
-7.3532513775
 11
-20.6981547653
 21
-7.169539647
  0
LINE
  5
291
100
AcDbEntity
  8
0
100
AcDbLine
 62
7
  6
CONTINUOUS
 10
-20.4506673919
 20
-7.1491140809
 11
-20.3446013747
 21
-6.9654023504
  0
LINE
  5
292
100
AcDbEntity
  8
0
100
AcDbLine
 62
7
  6
CONTINUOUS
 10
-20.0971140013
 20
-6.9449767842
 11
-19.9910479842
 21
-6.7612650537
  0
LINE
  5
293
100
AcDbEntity
  8
0
100
AcDbLine
 62
7
  6
CONTINUOUS
 10
-19.7435606107
 20
-6.7408394875
 11
-19.6374945936
 21
-6.557127757
  0
LINE
  5
294
100
AcDbEntity
  8
0
100
AcDbLine
 62
7
  6
CONTINUOUS
 10
-19.3900072201
 20
-6.5367021909
 11
-19.283941203
 21
-6.3529904604
  0
LINE
  5
295
100
AcDbEntity
  8
0
100
AcDbLine
 62
250
  6
CONTINUOUS
 10
-34.5665158975
 20
-1.2560133432
 11
-33.2864402737
 21
-0.5169027898
  0
LINE
  5
296
100
AcDbEntity
  8
ASSI
100
AcDbLine
 62
250
  6
CONTINUOUS
 10
-34.5665158975
 20
-1.2560133432
 11
-33.2864402737
 21
-0.5169027898
  0
LINE
  5
297
100
AcDbEntity
  8
0
100
AcDbLine
 62
250
  6
CONTINUOUS
 10
-34.2138237452
 20
-1.8668940698
 11
-32.9337481214
 21
-1.1277835164
  0
LINE
  5
298
100
AcDbEntity
  8
ASSI
100
AcDbLine
 62
250
  6
CONTINUOUS
 10
-34.2138237452
 20
-1.8668940698
 11
-32.9337481214
 21
-1.1277835164
  0
LINE
  5
299
100
AcDbEntity
  8
0
100
AcDbLine
 62
7
  6
CONTINUOUS
 10
27.3851063553
 20
-34.5239374
 11
23.4960190588
 21
-32.2784271367
  0
LINE
  5
29A
100
AcDbEntity
  8
0
100
AcDbLine
 62
7
  6
CONTINUOUS
 10
-20.3446013747
 20
-6.9654023504
 11
-24.2336886713
 21
-4.7198920871
  0
LINE
  5
29B
100
AcDbEntity
  8
0
100
AcDbLine
 62
7
  6
CONTINUOUS
 10
27.6325937288
 20
-34.5035118338
 11
23.6374404151
 21
-32.196772218
  0
LINE
  5
29C
100
AcDbEntity
  8
0
100
AcDbLine
 62
7
  6
CONTINUOUS
 10
-24.092267315
 20
-4.6382371684
 11
-20.0971140013
 21
-6.9449767842
  0
LINE
  5
29D
100
AcDbEntity
  8
0
100
AcDbLine
 62
7
  6
CONTINUOUS
 10
27.7386597459
 20
-34.3198001033
 11
23.8495724494
 21
-32.07428984
  0
LINE
  5
29E
100
AcDbEntity
  8
0
100
AcDbLine
 62
7
  6
CONTINUOUS
 10
-19.9910479842
 20
-6.7612650537
 11
-23.8801352807
 21
-4.5157547904
  0
LINE
  5
29F
100
AcDbEntity
  8
0
100
AcDbLine
 62
7
  6
CONTINUOUS
 10
27.9861471194
 20
-34.2993745372
 11
23.9909938056
 21
-31.9926349213
  0
LINE
  5
2A0
100
AcDbEntity
  8
0
100
AcDbLine
 62
7
  6
CONTINUOUS
 10
-23.7387139244
 20
-4.4340998717
 11
-19.7435606107
 21
-6.7408394875
  0
LINE
  5
2A1
100
AcDbEntity
  8
0
100
AcDbLine
 62
7
  6
CONTINUOUS
 10
28.0922131365
 20
-34.1156628066
 11
24.20312584
 21
-31.8701525433
  0
LINE
  5
2A2
100
AcDbEntity
  8
0
100
AcDbLine
 62
7
  6
CONTINUOUS
 10
-19.6374945936
 20
-6.557127757
 11
-23.5265818901
 21
-4.3116174937
  0
LINE
  5
2A3
100
AcDbEntity
  8
0
100
AcDbLine
 62
7
  6
CONTINUOUS
 10
28.3397005099
 20
-34.0952372405
 11
24.3445471962
 21
-31.7884976247
  0
LINE
  5
2A4
100
AcDbEntity
  8
0
100
AcDbLine
 62
7
  6
CONTINUOUS
 10
-23.3851605339
 20
-4.2299625751
 11
-19.3900072201
 21
-6.5367021909
  0
LINE
  5
2A5
100
AcDbEntity
  8
0
100
AcDbLine
 62
7
  6
CONTINUOUS
 10
28.4457665271
 20
-33.91152551
 11
24.5566792306
 21
-31.6660152467
  0
LINE
  5
2A6
100
AcDbEntity
  8
0
100
AcDbLine
 62
7
  6
CONTINUOUS
 10
-19.283941203
 20
-6.3529904604
 11
-23.1730284995
 21
-4.1074801971
  0
LINE
  5
2A7
100
AcDbEntity
  8
0
100
AcDbLine
 62
7
  6
CONTINUOUS
 10
28.6932539005
 20
-33.8910999438
 11
24.6981005868
 21
-31.584360328
  0
LINE
  5
2A8
100
AcDbEntity
  8
0
100
AcDbLine
 62
7
  6
CONTINUOUS
 10
-23.0316071433
 20
-4.0258252784
 11
-19.0364538296
 21
-6.3325648942
  0
LINE
  5
2A9
100
AcDbEntity
  8
0
100
AcDbLine
 62
250
  6
CONTINUOUS
 10
28.9780328477
 20
-33.9329437994
 11
24.7316955895
 21
-31.4811618855
  0
LINE
  5
2AA
100
AcDbEntity
  8
0
100
AcDbLine
 62
250
  6
CONTINUOUS
 10
-18.7516748823
 20
-6.3744087497
 11
-22.9980121406
 21
-3.9226268359
  0
LINE
  5
2AB
100
AcDbEntity
  8
0
100
AcDbLine
 62
250
  6
CONTINUOUS
 10
29.0447052037
 20
-33.894241888
 11
24.8057427424
 21
-31.4467180895
  0
LINE
  5
2AC
100
AcDbEntity
  8
0
100
AcDbLine
 62
250
  6
CONTINUOUS
 10
-18.6850025264
 20
-6.3357068383
 11
-22.9239649877
 21
-3.8881830398
  0
LINE
  5
2AD
100
AcDbEntity
  8
0
100
AcDbLine
 62
7
  6
CONTINUOUS
 10
-21.3383632545
 20
-3.3703570867
 11
-17.5123618639
 21
-5.5794423385
  0
LINE
  5
2AE
100
AcDbEntity
  8
0
100
AcDbLine
 62
7
  6
CONTINUOUS
 10
26.3913444756
 20
-30.9288921363
 11
29.3052853694
 21
-32.6113650881
  0
LINE
  5
2AF
100
AcDbEntity
  8
0
100
AcDbLine
 62
7
  6
CONTINUOUS
 10
-5.3613587498
 20
-12.5563835901
 11
-1.6695612153
 21
-14.6879812174
  0
LINE
  5
2B0
100
AcDbEntity
  8
0
100
AcDbLine
 62
7
  6
CONTINUOUS
 10
10.5485438269
 20
-21.74256194
 11
14.2403413614
 21
-23.8741595673
  0
LINE
  5
2B1
100
AcDbEntity
  8
0
100
AcDbLine
 62
7
  6
CONTINUOUS
 10
-52.9823718343
 20
63.9328568438
 11
-52.9819965268
 21
63.9322204822
  0
LINE
  5
2B2
100
AcDbEntity
  8
ASSI
100
AcDbLine
 62
7
  6
CONTINUOUS
 10
-52.9823718343
 20
63.9328568438
 11
-52.9819965268
 21
63.9322204822
  0
LINE
  5
2B3
100
AcDbEntity
  8
0
100
AcDbLine
 62
250
  6
CONTINUOUS
 10
-19.4496336681
 20
-7.4018992833
 11
-19.1136887031
 21
-7.0751456936
  0
LINE
  5
2B4
100
AcDbEntity
  8
0
100
AcDbLine
 62
7
  6
CONTINUOUS
 10
-19.4457088106
 20
-7.435434484
 11
-19.0167244298
 21
-7.018187015
  0
LINE
  5
2B5
100
AcDbEntity
  8
0
100
AcDbLine
 62
7
  6
CONTINUOUS
 10
-25.2943488431
 20
-5.332303977
 11
-25.1529274868
 21
-5.2506490584
  0
LINE
  5
2B6
100
AcDbEntity
  8
0
100
AcDbLine
 62
7
  6
CONTINUOUS
 10
-24.9407954525
 20
-5.1281666804
 11
-24.7993740962
 21
-5.0465117617
  0
LINE
  5
2B7
100
AcDbEntity
  8
0
100
AcDbLine
 62
7
  6
CONTINUOUS
 10
-24.5872420619
 20
-4.9240293837
 11
-24.4458207056
 21
-4.842374465
  0
LINE
  5
2B8
100
AcDbEntity
  8
0
100
AcDbLine
 62
7
  6
CONTINUOUS
 10
-24.2336886713
 20
-4.7198920871
 11
-24.092267315
 21
-4.6382371684
  0
LINE
  5
2B9
100
AcDbEntity
  8
0
100
AcDbLine
 62
7
  6
CONTINUOUS
 10
-23.8801352807
 20
-4.5157547904
 11
-23.7387139244
 21
-4.4340998717
  0
LINE
  5
2BA
100
AcDbEntity
  8
0
100
AcDbLine
 62
7
  6
CONTINUOUS
 10
-23.5265818901
 20
-4.3116174937
 11
-23.3851605339
 21
-4.2299625751
  0
LINE
  5
2BB
100
AcDbEntity
  8
0
100
AcDbLine
 62
7
  6
CONTINUOUS
 10
-23.1730284995
 20
-4.1074801971
 11
-23.0316071433
 21
-4.0258252784
  0
LINE
  5
2BC
100
AcDbEntity
  8
0
100
AcDbLine
 62
7
  6
CONTINUOUS
 10
-25.5500625661
 20
-5.2493919419
 11
-22.9980121406
 21
-3.9226268359
  0
LINE
  5
2BD
100
AcDbEntity
  8
0
100
AcDbLine
 62
7
  6
CONTINUOUS
 10
-22.9239649877
 20
-3.8881830398
 11
-21.613610732
 21
-3.3507207132
  0
LINE
  5
2BE
100
AcDbEntity
  8
0
100
AcDbLine
 62
7
  6
CONTINUOUS
 10
47.4819783668
 20
4.7598277683
 11
48.8989374977
 21
5.1074460445
  0
LINE
  5
2BF
100
AcDbEntity
  8
ASSI
100
AcDbLine
 62
7
  6
CONTINUOUS
 10
47.4819783668
 20
4.7598277683
 11
48.8989374977
 21
5.1074460445
  0
LINE
  5
2C0
100
AcDbEntity
  8
0
100
AcDbLine
 62
250
  6
CONTINUOUS
 10
-1.658749802
 20
-14.9243421864
 11
-1.658749802
 21
-15.3533648805
  0
LINE
  5
2C1
100
AcDbEntity
  8
0
100
AcDbLine
 62
7
  6
CONTINUOUS
 10
-1.5816932496
 20
-14.8116188232
 11
-1.5816932496
 21
-15.2078833009
  0
LINE
  5
2C2
100
AcDbEntity
  8
0
100
AcDbLine
 62
7
  6
CONTINUOUS
 10
-18.7516748823
 20
-6.3744087497
 11
-21.0495514067
 21
-7.8479306807
  0
LINE
  5
2C3
100
AcDbEntity
  8
0
100
AcDbLine
 62
7
  6
CONTINUOUS
 10
-20.736728696
 20
-8.0285505933
 11
-17.5051542551
 21
-6.1302616298
  0
LINE
  5
2C4
100
AcDbEntity
  8
0
100
AcDbLine
 62
7
  6
CONTINUOUS
 10
-19.5043231562
 20
-7.4798984922
 11
-20.5929517498
 21
-8.1115656001
  0
LINE
  5
2C5
100
AcDbEntity
  8
0
100
AcDbLine
 62
250
  6
CONTINUOUS
 10
-19.4496336681
 20
-7.4018992833
 11
-20.6333077476
 21
-8.0882645527
  0
LINE
  5
2C6
100
AcDbEntity
  8
0
100
AcDbLine
 62
7
  6
CONTINUOUS
 10
-21.4052615465
 20
-7.5778142403
 11
-21.2638401903
 21
-7.4961593217
  0
LINE
  5
2C7
100
AcDbEntity
  8
0
100
AcDbLine
 62
7
  6
CONTINUOUS
 10
-21.0517081559
 20
-7.3736769437
 11
-20.9102867997
 21
-7.292022025
  0
LINE
  5
2C8
100
AcDbEntity
  8
0
100
AcDbLine
 62
7
  6
CONTINUOUS
 10
-20.6981547653
 20
-7.169539647
 11
-20.5567334091
 21
-7.0878847284
  0
LINE
  5
2C9
100
AcDbEntity
  8
0
100
AcDbLine
 62
7
  6
CONTINUOUS
 10
-20.3446013747
 20
-6.9654023504
 11
-20.2031800185
 21
-6.8837474317
  0
LINE
  5
2CA
100
AcDbEntity
  8
0
100
AcDbLine
 62
7
  6
CONTINUOUS
 10
-19.9910479842
 20
-6.7612650537
 11
-19.8496266279
 21
-6.679610135
  0
LINE
  5
2CB
100
AcDbEntity
  8
0
100
AcDbLine
 62
7
  6
CONTINUOUS
 10
-19.6374945936
 20
-6.557127757
 11
-19.4960732373
 21
-6.4754728384
  0
LINE
  5
2CC
100
AcDbEntity
  8
0
100
AcDbLine
 62
7
  6
CONTINUOUS
 10
-19.283941203
 20
-6.3529904604
 11
-19.1425198467
 21
-6.2713355417
  0
LINE
  5
2CD
100
AcDbEntity
  8
0
100
AcDbLine
 62
7
  6
CONTINUOUS
 10
-19.0364538296
 20
-6.3325648942
 11
-21.3552633381
 21
-7.671416443
  0
LINE
  5
2CE
100
AcDbEntity
  8
0
100
AcDbLine
 62
7
  6
CONTINUOUS
 10
-17.5051542551
 20
-5.7228919919
 11
-18.6850025264
 21
-6.3357068383
  0
LINE
  5
2CF
100
AcDbEntity
  8
0
100
AcDbLine
 62
250
  6
CONTINUOUS
 10
-30.361596802
 20
22.4768943874
 11
-29.9424146964
 21
22.2348638932
  0
LINE
  5
2D0
100
AcDbEntity
  8
0
100
AcDbLine
 62
7
  6
CONTINUOUS
 10
-30.2152917685
 20
22.4896564341
 11
-29.7961096629
 21
22.24762594
  0
LINE
  5
2D1
100
AcDbEntity
  8
0
100
AcDbLine
 62
7
  6
CONTINUOUS
 10
-2.8485997268
 20
-16.0526807228
 11
-3.1913803968
 21
-16.3860829943
  0
LINE
  5
2D2
100
AcDbEntity
  8
0
100
AcDbLine
 62
7
  6
CONTINUOUS
 10
-1.6587632639
 20
-14.9261311306
 11
-5.0675154536
 21
-17.0757579381
  0
LINE
  5
2D3
100
AcDbEntity
  8
0
100
AcDbLine
 62
7
  6
CONTINUOUS
 10
-9.5600462698
 20
-14.4818269495
 11
-5.774243428
 21
-12.549904463
  0
LINE
  5
2D4
100
AcDbEntity
  8
0
100
AcDbLine
 62
7
  6
CONTINUOUS
 10
48.21253915
 20
-66.8442264913
 11
48.2129015803
 21
-66.844867929
  0
LINE
  5
2D5
100
AcDbEntity
  8
ASSI
100
AcDbLine
 62
7
  6
CONTINUOUS
 10
48.21253915
 20
-66.8442264913
 11
48.2129015803
 21
-66.844867929
  0
LINE
  5
2D6
100
AcDbEntity
  8
0
100
AcDbLine
 62
250
  6
CONTINUOUS
 10
14.2511527747
 20
-24.1105205363
 11
14.2511527747
 21
-24.5395432304
  0
LINE
  5
2D7
100
AcDbEntity
  8
0
100
AcDbLine
 62
7
  6
CONTINUOUS
 10
14.3282093271
 20
-23.997797173
 11
14.3282093271
 21
-24.3940616508
  0
LINE
  5
2D8
100
AcDbEntity
  8
0
100
AcDbLine
 62
7
  6
CONTINUOUS
 10
-4.8268261193
 20
-17.2147289432
 11
-1.6681006474
 21
-15.3592328648
  0
LINE
  5
2D9
100
AcDbEntity
  8
0
100
AcDbLine
 62
7
  6
CONTINUOUS
 10
-3.4245043505
 20
-16.5674844538
 11
-4.6830491731
 21
-17.2977439499
  0
LINE
  5
2DA
100
AcDbEntity
  8
0
100
AcDbLine
 62
250
  6
CONTINUOUS
 10
-3.1913803968
 20
-16.3860829943
 11
-4.7234051709
 21
-17.2744429026
  0
LINE
  5
2DB
100
AcDbEntity
  8
0
100
AcDbLine
 62
7
  6
CONTINUOUS
 10
-34.3039635221
 20
35.1944062937
 11
28.9115115243
 21
-1.3054167221
  0
LINE
  5
2DC
100
AcDbEntity
  8
ASSI
100
AcDbLine
 62
7
  6
CONTINUOUS
 10
-34.3039635221
 20
35.1944062937
 11
28.9115115243
 21
-1.3054167221
  0
LINE
  5
2DD
100
AcDbEntity
  8
0
100
AcDbLine
 62
250
  6
CONTINUOUS
 10
-34.3453800463
 20
35.2859536659
 11
28.8700949999
 21
-1.2138693498
  0
LINE
  5
2DE
100
AcDbEntity
  8
ASSI
100
AcDbLine
 62
250
  6
CONTINUOUS
 10
-34.3453800463
 20
35.2859536659
 11
28.8700949999
 21
-1.2138693498
  0
LWPOLYLINE
  5
2DF
100
AcDbEntity
  8
0
100
AcDbPolyline
 62
7
  6
CONTINUOUS
 90
24
 70
0
 10
28.911556751
 20
-1.3054428118
 10
28.9299654067
 20
-1.3166355947
 10
28.9540019667
 20
-1.3329052864
 10
28.9789070744
 20
-1.3517150172
 10
29.004288668
 20
-1.3729431977
 10
29.0299194099
 20
-1.3965400344
 10
29.0555881502
 20
-1.4224452303
 10
29.0809659571
 20
-1.4504422692
 10
29.1058357763
 20
-1.4803811415
 10
29.1299938547
 20
-1.5121005217
 10
29.1531665156
 20
-1.5453046715
 10
29.1751752839
 20
-1.5797751376
 10
29.1958554982
 20
-1.6152836793
 10
29.2150016396
 20
-1.6514801683
 10
29.2324942342
 20
-1.6881100281
 10
29.2482278584
 20
-1.724909015
 10
29.262076039
 20
-1.7614901565
 10
29.2739962012
 20
-1.7975959852
 10
29.2839617568
 20
-1.8329624471
 10
29.2919423741
 20
-1.8671925724
 10
29.2979859766
 20
-1.9000687356
 10
29.3021578281
 20
-1.9313679422
 10
29.3045415332
 20
-1.9606900713
 10
29.305285397
 20
-1.9873867945
  0
LWPOLYLINE
  5
2E0
100
AcDbEntity
  8
ASSI
100
AcDbPolyline
 62
7
  6
CONTINUOUS
 90
24
 70
0
 10
28.911556751
 20
-1.3054428118
 10
28.9299654067
 20
-1.3166355947
 10
28.9540019667
 20
-1.3329052864
 10
28.9789070744
 20
-1.3517150172
 10
29.004288668
 20
-1.3729431977
 10
29.0299194099
 20
-1.3965400344
 10
29.0555881502
 20
-1.4224452303
 10
29.0809659571
 20
-1.4504422692
 10
29.1058357763
 20
-1.4803811415
 10
29.1299938547
 20
-1.5121005217
 10
29.1531665156
 20
-1.5453046715
 10
29.1751752839
 20
-1.5797751376
 10
29.1958554982
 20
-1.6152836793
 10
29.2150016396
 20
-1.6514801683
 10
29.2324942342
 20
-1.6881100281
 10
29.2482278584
 20
-1.724909015
 10
29.262076039
 20
-1.7614901565
 10
29.2739962012
 20
-1.7975959852
 10
29.2839617568
 20
-1.8329624471
 10
29.2919423741
 20
-1.8671925724
 10
29.2979859766
 20
-1.9000687356
 10
29.3021578281
 20
-1.9313679422
 10
29.3045415332
 20
-1.9606900713
 10
29.305285397
 20
-1.9873867945
  0
LINE
  5
2E1
100
AcDbEntity
  8
0
100
AcDbLine
 62
7
  6
CONTINUOUS
 10
48.2129015803
 20
6.3209415945
 11
52.274834565
 21
8.6662354967
  0
LINE
  5
2E2
100
AcDbEntity
  8
ASSI
100
AcDbLine
 62
7
  6
CONTINUOUS
 10
48.2129015803
 20
6.3209415945
 11
52.274834565
 21
8.6662354967
  0
LINE
  5
2E3
100
AcDbEntity
  8
0
100
AcDbLine
 62
7
  6
CONTINUOUS
 10
48.9204388496
 20
5.0954510971
 11
52.9823718343
 21
7.4407449993
  0
LINE
  5
2E4
100
AcDbEntity
  8
ASSI
100
AcDbLine
 62
7
  6
CONTINUOUS
 10
48.9204388496
 20
5.0954510971
 11
52.9823718343
 21
7.4407449993
  0
LINE
  5
2E5
100
AcDbEntity
  8
0
100
AcDbLine
 62
7
  6
CONTINUOUS
 10
13.0613028499
 20
-25.2388590726
 11
12.7185221799
 21
-25.5722613442
  0
LINE
  5
2E6
100
AcDbEntity
  8
0
100
AcDbLine
 62
7
  6
CONTINUOUS
 10
14.2511393128
 20
-24.1123094805
 11
10.8423871231
 21
-26.261936288
  0
LINE
  5
2E7
100
AcDbEntity
  8
0
100
AcDbLine
 62
7
  6
CONTINUOUS
 10
11.0830764574
 20
-26.400907293
 11
14.2418019293
 21
-24.5454112147
  0
LINE
  5
2E8
100
AcDbEntity
  8
0
100
AcDbLine
 62
7
  6
CONTINUOUS
 10
12.4853982262
 20
-25.7536628037
 11
11.2268534036
 21
-26.4839222998
  0
LINE
  5
2E9
100
AcDbEntity
  8
0
100
AcDbLine
 62
250
  6
CONTINUOUS
 10
12.7185221799
 20
-25.5722613442
 11
11.1864974058
 21
-26.4606212524
  0
LINE
  5
2EA
100
AcDbEntity
  8
0
100
AcDbLine
 62
7
  6
CONTINUOUS
 10
6.3498563069
 20
-23.6680052993
 11
10.1356591487
 21
-21.7360828128
  0
LINE
  5
2EB
100
AcDbEntity
  8
0
100
AcDbLine
 62
7
  6
CONTINUOUS
 10
48.8989374977
 20
5.1074460445
 11
48.9204388496
 21
5.0954510971
  0
LINE
  5
2EC
100
AcDbEntity
  8
ASSI
100
AcDbLine
 62
7
  6
CONTINUOUS
 10
48.8989374977
 20
5.1074460445
 11
48.9204388496
 21
5.0954510971
  0
LINE
  5
2ED
100
AcDbEntity
  8
0
100
AcDbLine
 62
7
  6
CONTINUOUS
 10
47.2030024326
 20
5.2430282598
 11
-52.678287479
 21
62.9132332483
  0
LINE
  5
2EE
100
AcDbEntity
  8
ASSI
100
AcDbLine
 62
7
  6
CONTINUOUS
 10
47.2030024326
 20
5.2430282598
 11
-52.678287479
 21
62.9132332483
  0
LINE
  5
2EF
100
AcDbEntity
  8
0
100
AcDbLine
 62
7
  6
CONTINUOUS
 10
29.3052853694
 20
-1.9874474484
 11
29.3052853694
 21
-38.2388764682
  0
LINE
  5
2F0
100
AcDbEntity
  8
ASSI
100
AcDbLine
 62
7
  6
CONTINUOUS
 10
29.3052853694
 20
-1.9874474484
 11
29.3052853694
 21
-38.2388764682
  0
LINE
  5
2F1
100
AcDbEntity
  8
0
100
AcDbLine
 62
250
  6
CONTINUOUS
 10
29.3638640132
 20
-2.069102367
 11
29.3638640132
 21
-38.3205313867
  0
LINE
  5
2F2
100
AcDbEntity
  8
ASSI
100
AcDbLine
 62
250
  6
CONTINUOUS
 10
29.3638640132
 20
-2.069102367
 11
29.3638640132
 21
-38.3205313867
  0
LWPOLYLINE
  5
2F3
100
AcDbEntity
  8
0
100
AcDbPolyline
 62
7
  6
CONTINUOUS
 90
12
 70
0
 10
29.3052854678
 20
-38.2389910008
 10
29.3051872094
 20
-38.2482943092
 10
29.3040966274
 20
-38.2709295593
 10
29.3018428938
 20
-38.2920943267
 10
29.2984888255
 20
-38.3116429051
 10
29.2941649258
 20
-38.3292364889
 10
29.2891595464
 20
-38.3443663388
 10
29.2838050204
 20
-38.35683059
 10
29.2783752539
 20
-38.3667507639
 10
29.273170559
 20
-38.3742634983
 10
29.2684412153
 20
-38.379622627
 10
29.2643709198
 20
-38.3831927428
  0
LWPOLYLINE
  5
2F4
100
AcDbEntity
  8
ASSI
100
AcDbPolyline
 62
7
  6
CONTINUOUS
 90
12
 70
0
 10
29.3052854678
 20
-38.2389910008
 10
29.3051872094
 20
-38.2482943092
 10
29.3040966274
 20
-38.2709295593
 10
29.3018428938
 20
-38.2920943267
 10
29.2984888255
 20
-38.3116429051
 10
29.2941649258
 20
-38.3292364889
 10
29.2891595464
 20
-38.3443663388
 10
29.2838050204
 20
-38.35683059
 10
29.2783752539
 20
-38.3667507639
 10
29.273170559
 20
-38.3742634983
 10
29.2684412153
 20
-38.379622627
 10
29.2643709198
 20
-38.3831927428
  0
LINE
  5
2F5
100
AcDbEntity
  8
0
100
AcDbLine
 62
7
  6
CONTINUOUS
 10
47.2030024326
 20
5.2430282598
 11
48.21253915
 21
6.2963228556
  0
LINE
  5
2F6
100
AcDbEntity
  8
ASSI
100
AcDbLine
 62
7
  6
CONTINUOUS
 10
47.2030024326
 20
5.2430282598
 11
48.21253915
 21
6.2963228556
  0
LINE
  5
2F7
100
AcDbEntity
  8
0
100
AcDbLine
 62
7
  6
CONTINUOUS
 10
48.2129015803
 20
6.3209415945
 11
-52.274834565
 21
64.3413010376
  0
LINE
  5
2F8
100
AcDbEntity
  8
ASSI
100
AcDbLine
 62
7
  6
CONTINUOUS
 10
48.2129015803
 20
6.3209415945
 11
-52.274834565
 21
64.3413010376
  0
LINE
  5
2F9
100
AcDbEntity
  8
0
100
AcDbLine
 62
7
  6
CONTINUOUS
 10
52.274834565
 20
8.6662354967
 11
-48.4870207779
 21
66.844867929
  0
LINE
  5
2FA
100
AcDbEntity
  8
ASSI
100
AcDbLine
 62
7
  6
CONTINUOUS
 10
52.274834565
 20
8.6662354967
 11
-48.4870207779
 21
66.844867929
  0
LINE
  5
2FB
100
AcDbEntity
  8
0
100
AcDbLine
 62
7
  6
CONTINUOUS
 10
22.4073287533
 20
-32.9393886424
 11
22.435358887
 21
-32.8908390267
  0
LINE
  5
2FC
100
AcDbEntity
  8
0
100
AcDbLine
 62
7
  6
CONTINUOUS
 10
22.6828462605
 20
-32.8704134605
 11
22.7889122776
 21
-32.68670173
  0
LINE
  5
2FD
100
AcDbEntity
  8
0
100
AcDbLine
 62
7
  6
CONTINUOUS
 10
23.036399651
 20
-32.6662761639
 11
23.1424656682
 21
-32.4825644333
  0
LINE
  5
2FE
100
AcDbEntity
  8
0
100
AcDbLine
 62
7
  6
CONTINUOUS
 10
23.3899530416
 20
-32.4621388672
 11
23.4960190588
 21
-32.2784271367
  0
LINE
  5
2FF
100
AcDbEntity
  8
0
100
AcDbLine
 62
7
  6
CONTINUOUS
 10
23.7435064322
 20
-32.2580015705
 11
23.8495724494
 21
-32.07428984
  0
LINE
  5
300
100
AcDbEntity
  8
0
100
AcDbLine
 62
7
  6
CONTINUOUS
 10
24.0970598228
 20
-32.0538642739
 11
24.20312584
 21
-31.8701525433
  0
LINE
  5
301
100
AcDbEntity
  8
0
100
AcDbLine
 62
7
  6
CONTINUOUS
 10
24.4506132134
 20
-31.8497269772
 11
24.5566792306
 21
-31.6660152467
  0
LINE
  5
302
100
AcDbEntity
  8
0
100
AcDbLine
 62
7
  6
CONTINUOUS
 10
26.2964160498
 20
-35.1848989058
 11
26.3244461836
 21
-35.13634929
  0
LINE
  5
303
100
AcDbEntity
  8
0
100
AcDbLine
 62
7
  6
CONTINUOUS
 10
22.435358887
 20
-32.8908390267
 11
22.5767802433
 21
-32.809184108
  0
LINE
  5
304
100
AcDbEntity
  8
0
100
AcDbLine
 62
7
  6
CONTINUOUS
 10
22.7889122776
 20
-32.68670173
 11
22.9303336339
 21
-32.6050468113
  0
LINE
  5
305
100
AcDbEntity
  8
0
100
AcDbLine
 62
7
  6
CONTINUOUS
 10
23.1424656682
 20
-32.4825644333
 11
23.2838870245
 21
-32.4009095147
  0
LINE
  5
306
100
AcDbEntity
  8
0
100
AcDbLine
 62
7
  6
CONTINUOUS
 10
23.4960190588
 20
-32.2784271367
 11
23.6374404151
 21
-32.196772218
  0
LINE
  5
307
100
AcDbEntity
  8
0
100
AcDbLine
 62
7
  6
CONTINUOUS
 10
23.8495724494
 20
-32.07428984
 11
23.9909938056
 21
-31.9926349213
  0
LINE
  5
308
100
AcDbEntity
  8
0
100
AcDbLine
 62
7
  6
CONTINUOUS
 10
24.20312584
 20
-31.8701525433
 11
24.3445471962
 21
-31.7884976247
  0
LINE
  5
309
100
AcDbEntity
  8
0
100
AcDbLine
 62
7
  6
CONTINUOUS
 10
24.5566792306
 20
-31.6660152467
 11
24.6981005868
 21
-31.584360328
  0
LINE
  5
30A
100
AcDbEntity
  8
0
100
AcDbLine
 62
7
  6
CONTINUOUS
 10
22.179645164
 20
-32.8079269915
 11
24.7316955895
 21
-31.4811618855
  0
LINE
  5
30B
100
AcDbEntity
  8
0
100
AcDbLine
 62
7
  6
CONTINUOUS
 10
24.8057427424
 20
-31.4467180895
 11
26.1160969981
 21
-30.9092557628
  0
LINE
  5
30C
100
AcDbEntity
  8
0
100
AcDbLine
 62
7
  6
CONTINUOUS
 10
26.571933557
 20
-35.1159237238
 11
26.6779995742
 21
-34.9322119933
  0
LINE
  5
30D
100
AcDbEntity
  8
0
100
AcDbLine
 62
7
  6
CONTINUOUS
 10
26.9254869476
 20
-34.9117864272
 11
27.0315529648
 21
-34.7280746966
  0
LINE
  5
30E
100
AcDbEntity
  8
0
100
AcDbLine
 62
7
  6
CONTINUOUS
 10
27.2790403382
 20
-34.7076491305
 11
27.3851063553
 21
-34.5239374
  0
LINE
  5
30F
100
AcDbEntity
  8
0
100
AcDbLine
 62
7
  6
CONTINUOUS
 10
27.6325937288
 20
-34.5035118338
 11
27.7386597459
 21
-34.3198001033
  0
LINE
  5
310
100
AcDbEntity
  8
0
100
AcDbLine
 62
7
  6
CONTINUOUS
 10
27.9861471194
 20
-34.2993745372
 11
28.0922131365
 21
-34.1156628066
  0
LINE
  5
311
100
AcDbEntity
  8
0
100
AcDbLine
 62
7
  6
CONTINUOUS
 10
28.3397005099
 20
-34.0952372405
 11
28.4457665271
 21
-33.91152551
  0
LINE
  5
312
100
AcDbEntity
  8
0
100
AcDbLine
 62
250
  6
CONTINUOUS
 10
28.280074062
 20
-34.960434333
 11
28.616019027
 21
-34.6336807432
  0
LINE
  5
313
100
AcDbEntity
  8
0
100
AcDbLine
 62
7
  6
CONTINUOUS
 10
28.2839989195
 20
-34.9939695337
 11
28.7129833003
 21
-34.5767220646
  0
LINE
  5
314
100
AcDbEntity
  8
0
100
AcDbLine
 62
7
  6
CONTINUOUS
 10
28.9780328477
 20
-33.9329437994
 11
26.6801563234
 21
-35.4064657303
  0
LINE
  5
315
100
AcDbEntity
  8
0
100
AcDbLine
 62
7
  6
CONTINUOUS
 10
26.9929790341
 20
-35.5870856429
 11
29.3052853694
 21
-34.2287924404
  0
LINE
  5
316
100
AcDbEntity
  8
0
100
AcDbLine
 62
7
  6
CONTINUOUS
 10
28.2253845739
 20
-35.0384335418
 11
27.1367559803
 21
-35.6701006497
  0
LINE
  5
317
100
AcDbEntity
  8
0
100
AcDbLine
 62
250
  6
CONTINUOUS
 10
28.280074062
 20
-34.960434333
 11
27.0963999825
 21
-35.6467996023
  0
LINE
  5
318
100
AcDbEntity
  8
0
100
AcDbLine
 62
7
  6
CONTINUOUS
 10
26.3244461836
 20
-35.13634929
 11
26.4658675398
 21
-35.0546943713
  0
LINE
  5
319
100
AcDbEntity
  8
0
100
AcDbLine
 62
7
  6
CONTINUOUS
 10
26.6779995742
 20
-34.9322119933
 11
26.8194209304
 21
-34.8505570746
  0
LINE
  5
31A
100
AcDbEntity
  8
0
100
AcDbLine
 62
7
  6
CONTINUOUS
 10
27.0315529648
 20
-34.7280746966
 11
27.172974321
 21
-34.646419778
  0
LINE
  5
31B
100
AcDbEntity
  8
0
100
AcDbLine
 62
7
  6
CONTINUOUS
 10
27.3851063553
 20
-34.5239374
 11
27.5265277116
 21
-34.4422824813
  0
LINE
  5
31C
100
AcDbEntity
  8
0
100
AcDbLine
 62
7
  6
CONTINUOUS
 10
27.7386597459
 20
-34.3198001033
 11
27.8800811022
 21
-34.2381451846
  0
LINE
  5
31D
100
AcDbEntity
  8
0
100
AcDbLine
 62
7
  6
CONTINUOUS
 10
28.0922131365
 20
-34.1156628066
 11
28.2336344928
 21
-34.034007888
  0
LINE
  5
31E
100
AcDbEntity
  8
0
100
AcDbLine
 62
7
  6
CONTINUOUS
 10
28.4457665271
 20
-33.91152551
 11
28.5871878834
 21
-33.8298705913
  0
LINE
  5
31F
100
AcDbEntity
  8
0
100
AcDbLine
 62
7
  6
CONTINUOUS
 10
28.6932539005
 20
-33.8910999438
 11
26.374444392
 21
-35.2299514926
  0
LINE
  5
320
100
AcDbEntity
  8
0
100
AcDbLine
 62
7
  6
CONTINUOUS
 10
29.3052853694
 20
-33.7588961845
 11
29.0447052037
 21
-33.894241888
  0
LINE
  5
321
100
AcDbEntity
  8
0
100
AcDbLine
 62
7
  6
CONTINUOUS
 10
47.4819783668
 20
4.7598277683
 11
47.2030024326
 21
5.2430282598
  0
LINE
  5
322
100
AcDbEntity
  8
ASSI
100
AcDbLine
 62
7
  6
CONTINUOUS
 10
47.4819783668
 20
4.7598277683
 11
47.2030024326
 21
5.2430282598
  0
LINE
  5
323
100
AcDbEntity
  8
0
100
AcDbLine
 62
7
  6
CONTINUOUS
 10
48.8989374977
 20
5.1074460445
 11
48.21253915
 21
6.2963228556
  0
LINE
  5
324
100
AcDbEntity
  8
ASSI
100
AcDbLine
 62
7
  6
CONTINUOUS
 10
48.8989374977
 20
5.1074460445
 11
48.21253915
 21
6.2963228556
  0
LINE
  5
325
100
AcDbEntity
  8
0
100
AcDbLine
 62
7
  6
CONTINUOUS
 10
47.4819783668
 20
-66.071805831
 11
47.4819783668
 21
4.7598277683
  0
LINE
  5
326
100
AcDbEntity
  8
ASSI
100
AcDbLine
 62
7
  6
CONTINUOUS
 10
47.4819783668
 20
-66.071805831
 11
47.4819783668
 21
4.7598277683
  0
LINE
  5
327
100
AcDbEntity
  8
0
100
AcDbLine
 62
7
  6
CONTINUOUS
 10
48.9204388496
 20
-66.4364237351
 11
48.9204388496
 21
5.0954510971
  0
LINE
  5
328
100
AcDbEntity
  8
ASSI
100
AcDbLine
 62
7
  6
CONTINUOUS
 10
48.9204388496
 20
-66.4364237351
 11
48.9204388496
 21
5.0954510971
  0
LINE
  5
329
100
AcDbEntity
  8
CURVE
100
AcDbLine
 62
250
  6
CONTINUOUS
 10
50.051282223
 20
-59.2386740818
 11
50.051282223
 21
-59.664702557
  0
LINE
  5
32A
100
AcDbEntity
  8
CURVE
100
AcDbLine
 62
250
  6
CONTINUOUS
 10
50.0513911947
 20
-61.5012521318
 11
50.0513911947
 21
-61.0384539178
  0
LINE
  5
32B
100
AcDbEntity
  8
CURVE
100
AcDbLine
 62
250
  6
CONTINUOUS
 10
50.0513911947
 20
-60.2484813673
 11
50.0513911947
 21
-59.8227443721
  0
LINE
  5
32C
100
AcDbEntity
  8
CURVE
100
AcDbLine
 62
250
  6
CONTINUOUS
 10
50.0513911947
 20
-58.8249842186
 11
50.0513911947
 21
-58.3993084586
  0
LINE
  5
32D
100
AcDbEntity
  8
CURVE
100
AcDbLine
 62
250
  6
CONTINUOUS
 10
50.0513911947
 20
-57.551751076
 11
50.0513911947
 21
-57.1302376815
  0
LINE
  5
32E
100
AcDbEntity
  8
CURVE
100
AcDbLine
 62
250
  6
CONTINUOUS
 10
50.0513911947
 20
-56.2323122475
 11
50.0513911947
 21
-55.820180913
  0
LINE
  5
32F
100
AcDbEntity
  8
CURVE
100
AcDbLine
 62
250
  6
CONTINUOUS
 10
50.8647159796
 20
-53.9772899144
 11
50.8647159796
 21
-54.2207609056
  0
LINE
  5
330
100
AcDbEntity
  8
CURVE
100
AcDbLine
 62
250
  6
CONTINUOUS
 10
51.1641294674
 20
-54.04542348
 11
51.1641294674
 21
-53.8169972452
  0
LINE
  5
331
100
AcDbEntity
  8
CURVE
100
AcDbLine
 62
250
  6
CONTINUOUS
 10
51.232196851
 20
-55.6106052197
 11
51.232196851
 21
-55.2027129988
  0
LINE
  5
332
100
AcDbEntity
  8
CURVE
100
AcDbLine
 62
250
  6
CONTINUOUS
 10
51.5146105455
 20
-54.9655135842
 11
51.5146105455
 21
-55.5456932806
  0
LINE
  5
333
100
AcDbEntity
  8
CURVE
100
AcDbLine
 62
250
  6
CONTINUOUS
 10
51.8795823714
 20
-58.6803045772
 11
51.8795823714
 21
-58.2542761021
  0
LINE
  5
334
100
AcDbEntity
  8
CURVE
100
AcDbLine
 62
250
  6
CONTINUOUS
 10
51.8795823834
 20
-54.0845216818
 11
51.8795823834
 21
-53.6602075154
  0
LINE
  5
335
100
AcDbEntity
  8
CURVE
100
AcDbLine
 62
250
  6
CONTINUOUS
 10
51.8795823834
 20
-53.0078038228
 11
51.8795823834
 21
-52.5980140448
  0
LINE
  5
336
100
AcDbEntity
  8
CURVE
100
AcDbLine
 62
250
  6
CONTINUOUS
 10
51.8795823714
 20
-54.2096244167
 11
51.8795823714
 21
-54.6586406125
  0
LINE
  5
337
100
AcDbEntity
  8
CURVE
100
AcDbLine
 62
250
  6
CONTINUOUS
 10
51.8795823714
 20
-55.4667420689
 11
51.8795823714
 21
-55.8881476894
  0
LINE
  5
338
100
AcDbEntity
  8
CURVE
100
AcDbLine
 62
250
  6
CONTINUOUS
 10
51.8795823714
 20
-55.955045998
 11
51.8795823714
 21
-56.3718148837
  0
LINE
  5
339
100
AcDbEntity
  8
CURVE
100
AcDbLine
 62
250
  6
CONTINUOUS
 10
51.8795823714
 20
-56.9658909041
 11
51.8795823714
 21
-57.0256418319
  0
LINE
  5
33A
100
AcDbEntity
  8
CURVE
100
AcDbLine
 62
250
  6
CONTINUOUS
 10
51.8795823714
 20
-57.6173615192
 11
51.8795823714
 21
-58.0249320507
  0
LINE
  5
33B
100
AcDbEntity
  8
CURVE
100
AcDbLine
 62
250
  6
CONTINUOUS
 10
51.8795823714
 20
-59.4944511796
 11
51.8795823714
 21
-59.869888707
  0
LINE
  5
33C
100
AcDbEntity
  8
0
100
AcDbLine
 62
7
  6
CONTINUOUS
 10
48.2129015803
 20
6.3209415945
 11
48.21253915
 21
6.2963228556
  0
LINE
  5
33D
100
AcDbEntity
  8
ASSI
100
AcDbLine
 62
7
  6
CONTINUOUS
 10
48.2129015803
 20
6.3209415945
 11
48.21253915
 21
6.2963228556
  0
LINE
  5
33E
100
AcDbEntity
  8
0
100
AcDbLine
 62
250
  6
CONTINUOUS
 10
29.0016513011
 20
-38.3667170855
 11
29.3052853694
 21
-38.1386816015
  0
LINE
  5
33F
100
AcDbEntity
  8
ASSI
100
AcDbLine
 62
250
  6
CONTINUOUS
 10
29.0016513011
 20
-38.3667170855
 11
29.3052853694
 21
-38.1386816015
  0
LINE
  5
340
100
AcDbEntity
  8
0
100
AcDbLine
 62
7
  6
CONTINUOUS
 10
29.2641683845
 20
-38.3833447139
 11
29.2638028625
 21
-38.3836184595
  0
LINE
  5
341
100
AcDbEntity
  8
ASSI
100
AcDbLine
 62
7
  6
CONTINUOUS
 10
29.2641683845
 20
-38.3833447139
 11
29.2638028625
 21
-38.3836184595
  0
LINE
  5
342
100
AcDbEntity
  8
0
100
AcDbLine
 62
7
  6
CONTINUOUS
 10
52.274834565
 20
8.6662354967
 11
52.9823718343
 21
7.4407449993
  0
LINE
  5
343
100
AcDbEntity
  8
ASSI
100
AcDbLine
 62
7
  6
CONTINUOUS
 10
52.274834565
 20
8.6662354967
 11
52.9823718343
 21
7.4407449993
  0
LINE
  5
344
100
AcDbEntity
  8
0
100
AcDbLine
 62
7
  6
CONTINUOUS
 10
52.9823718343
 20
-64.4076452208
 11
52.9823718343
 21
7.4407449993
  0
LINE
  5
345
100
AcDbEntity
  8
ASSI
100
AcDbLine
 62
7
  6
CONTINUOUS
 10
52.9823718343
 20
-64.4076452208
 11
52.9823718343
 21
7.4407449993
  0
LINE
  5
346
100
AcDbEntity
  8
CURVE
100
AcDbLine
 62
7
  6
CONTINUOUS
 10
50.1509554435
 20
-53.8485956981
 11
50.6152597632
 21
-53.3842913785
  0
LINE
  5
347
100
AcDbEntity
  8
CURVE
100
AcDbLine
 62
7
  6
CONTINUOUS
 10
50.058327569
 20
-54.1512342867
 11
50.8643747039
 21
-53.3451871518
  0
LINE
  5
348
100
AcDbEntity
  8
CURVE
100
AcDbLine
 62
7
  6
CONTINUOUS
 10
50.0343605034
 20
-54.3852120663
 11
50.3838577683
 21
-54.0357148014
  0
LINE
  5
349
100
AcDbEntity
  8
CURVE
100
AcDbLine
 62
7
  6
CONTINUOUS
 10
50.6505170768
 20
-53.7690554929
 11
50.9983532428
 21
-53.4212193269
  0
LINE
  5
34A
100
AcDbEntity
  8
CURVE
100
AcDbLine
 62
7
  6
CONTINUOUS
 10
51.069034308
 20
-53.3505382617
 11
51.5350370367
 21
-52.884535533
  0
LINE
  5
34B
100
AcDbEntity
  8
CURVE
100
AcDbLine
 62
7
  6
CONTINUOUS
 10
50.0311272919
 20
-54.5984559918
 11
50.3458515452
 21
-54.2837317385
  0
LINE
  5
34C
100
AcDbEntity
  8
CURVE
100
AcDbLine
 62
7
  6
CONTINUOUS
 10
50.8248893302
 20
-53.8046939535
 11
51.8795823834
 21
-52.7500009003
  0
LINE
  5
34D
100
AcDbEntity
  8
CURVE
100
AcDbLine
 62
7
  6
CONTINUOUS
 10
50.0426189931
 20
-54.7969750046
 11
50.3609405909
 21
-54.4786534068
  0
LINE
  5
34E
100
AcDbEntity
  8
CURVE
100
AcDbLine
 62
7
  6
CONTINUOUS
 10
50.8646246299
 20
-53.9749693679
 11
51.229989927
 21
-53.6096040707
  0
LINE
  5
34F
100
AcDbEntity
  8
CURVE
100
AcDbLine
 62
7
  6
CONTINUOUS
 10
51.5343055223
 20
-53.3052884754
 11
51.8795823834
 21
-52.9600116143
  0
LINE
  5
350
100
AcDbEntity
  8
CURVE
100
AcDbLine
 62
7
  6
CONTINUOUS
 10
50.0633410093
 20
-54.9862637024
 11
50.7869995067
 21
-54.2626052051
  0
LINE
  5
351
100
AcDbEntity
  8
CURVE
100
AcDbLine
 62
7
  6
CONTINUOUS
 10
50.8647159796
 20
-54.1848887322
 11
51.1641294674
 21
-53.8854752444
  0
LINE
  5
352
100
AcDbEntity
  8
CURVE
100
AcDbLine
 62
7
  6
CONTINUOUS
 10
50.3533193496
 20
-54.9062960762
 11
51.2725890023
 21
-53.9870264235
  0
LINE
  5
353
100
AcDbEntity
  8
CURVE
100
AcDbLine
 62
7
  6
CONTINUOUS
 10
50.8083041024
 20
-54.6613220374
 11
51.7275737551
 21
-53.7420523847
  0
LINE
  5
354
100
AcDbEntity
  8
CURVE
100
AcDbLine
 62
250
  6
CONTINUOUS
 10
51.0261991056
 20
-53.4487044033
 11
51.0153960915
 21
-53.4545209894
  0
LINE
  5
355
100
AcDbEntity
  8
CURVE
100
AcDbLine
 62
250
  6
CONTINUOUS
 10
51.8795823834
 20
-53.6602075154
 11
51.1641294674
 21
-54.04542348
  0
LINE
  5
356
100
AcDbEntity
  8
CURVE
100
AcDbLine
 62
250
  6
CONTINUOUS
 10
50.8647159796
 20
-54.2207609056
 11
50.3628419429
 21
-54.490981191
  0
LINE
  5
357
100
AcDbEntity
  8
CURVE
100
AcDbLine
 62
250
  6
CONTINUOUS
 10
50.0727508531
 20
-55.0573604741
 11
51.8795823834
 21
-54.0845216818
  0
LINE
  5
358
100
AcDbEntity
  8
CURVE
100
AcDbLine
 62
250
  6
CONTINUOUS
 10
50.6858083513
 20
-58.168179337
 11
51.8795823714
 21
-57.6173615192
  0
LINE
  5
359
100
AcDbEntity
  8
CURVE
100
AcDbLine
 62
250
  6
CONTINUOUS
 10
51.8795823714
 20
-58.0249320507
 11
50.0513911947
 21
-58.8249842186
  0
LINE
  5
35A
100
AcDbEntity
  8
CURVE
100
AcDbLine
 62
7
  6
CONTINUOUS
 10
51.2632888552
 20
-54.4163479986
 11
51.8795823834
 21
-53.8000544703
  0
LINE
  5
35B
100
AcDbEntity
  8
CURVE
100
AcDbLine
 62
7
  6
CONTINUOUS
 10
50.0513911947
 20
-55.8382563731
 11
50.2032300312
 21
-55.6864175365
  0
LINE
  5
35C
100
AcDbEntity
  8
CURVE
100
AcDbLine
 62
7
  6
CONTINUOUS
 10
51.718273608
 20
-54.1713739598
 11
51.8795823834
 21
-54.0100651843
  0
LINE
  5
35D
100
AcDbEntity
  8
CURVE
100
AcDbLine
 62
7
  6
CONTINUOUS
 10
50.0513911947
 20
-56.0482670871
 11
51.8795823714
 21
-54.2200759104
  0
LINE
  5
35E
100
AcDbEntity
  8
CURVE
100
AcDbLine
 62
7
  6
CONTINUOUS
 10
50.0833784888
 20
-56.226290507
 11
51.8795823714
 21
-54.4300866244
  0
LINE
  5
35F
100
AcDbEntity
  8
CURVE
100
AcDbLine
 62
7
  6
CONTINUOUS
 10
50.3420933458
 20
-56.177586364
 11
50.8148520981
 21
-55.7048276117
  0
LINE
  5
360
100
AcDbEntity
  8
CURVE
100
AcDbLine
 62
7
  6
CONTINUOUS
 10
51.232196851
 20
-55.2874828589
 11
51.5146105455
 21
-55.0050691643
  0
LINE
  5
361
100
AcDbEntity
  8
CURVE
100
AcDbLine
 62
7
  6
CONTINUOUS
 10
51.7630951758
 20
-54.756584534
 11
51.8795823714
 21
-54.6400973384
  0
LINE
  5
362
100
AcDbEntity
  8
CURVE
100
AcDbLine
 62
7
  6
CONTINUOUS
 10
50.6008082028
 20
-56.128882221
 11
51.0861018789
 21
-55.643588545
  0
LINE
  5
363
100
AcDbEntity
  8
CURVE
100
AcDbLine
 62
7
  6
CONTINUOUS
 10
51.232196851
 20
-55.4974935729
 11
51.5146105455
 21
-55.2150798783
  0
LINE
  5
364
100
AcDbEntity
  8
CURVE
100
AcDbLine
 62
7
  6
CONTINUOUS
 10
50.8595230598
 20
-56.0801780781
 11
51.5146105455
 21
-55.4250905923
  0
LINE
  5
365
100
AcDbEntity
  8
CURVE
100
AcDbLine
 62
7
  6
CONTINUOUS
 10
51.1182379168
 20
-56.0314739351
 11
51.6286981629
 21
-55.5210136889
  0
LINE
  5
366
100
AcDbEntity
  8
CURVE
100
AcDbLine
 62
7
  6
CONTINUOUS
 10
50.0513911947
 20
-57.3083313712
 11
50.5499969601
 21
-56.8097256058
  0
LINE
  5
367
100
AcDbEntity
  8
CURVE
100
AcDbLine
 62
7
  6
CONTINUOUS
 10
51.3769527737
 20
-55.9827697921
 11
51.8795823714
 21
-55.4801401945
  0
LINE
  5
368
100
AcDbEntity
  8
CURVE
100
AcDbLine
 62
7
  6
CONTINUOUS
 10
50.0513911947
 20
-57.5183420852
 11
51.1379602562
 21
-56.4317730236
  0
LINE
  5
369
100
AcDbEntity
  8
CURVE
100
AcDbLine
 62
7
  6
CONTINUOUS
 10
51.6356676307
 20
-55.9340656491
 11
51.8795823714
 21
-55.6901509085
  0
LINE
  5
36A
100
AcDbEntity
  8
CURVE
100
AcDbLine
 62
7
  6
CONTINUOUS
 10
50.2517783028
 20
-57.5279656911
 11
51.7259235524
 21
-56.0538204415
  0
LINE
  5
36B
100
AcDbEntity
  8
CURVE
100
AcDbLine
 62
7
  6
CONTINUOUS
 10
50.4900740504
 20
-57.4996806575
 11
50.9155855389
 21
-57.074169169
  0
LINE
  5
36C
100
AcDbEntity
  8
CURVE
100
AcDbLine
 62
7
  6
CONTINUOUS
 10
51.205157989
 20
-56.7845967189
 11
51.8795823714
 21
-56.1101723365
  0
LINE
  5
36D
100
AcDbEntity
  8
CURVE
100
AcDbLine
 62
7
  6
CONTINUOUS
 10
50.7283697979
 20
-57.471395624
 11
51.152169938
 21
-57.0475954839
  0
LINE
  5
36E
100
AcDbEntity
  8
CURVE
100
AcDbLine
 62
7
  6
CONTINUOUS
 10
51.7464932864
 20
-56.4532721355
 11
51.8795823714
 21
-56.3201830505
  0
LINE
  5
36F
100
AcDbEntity
  8
CURVE
100
AcDbLine
 62
7
  6
CONTINUOUS
 10
50.9666655455
 20
-57.4431105904
 11
51.3887543371
 21
-57.0210217989
  0
LINE
  5
370
100
AcDbEntity
  8
CURVE
100
AcDbLine
 62
7
  6
CONTINUOUS
 10
50.0513911947
 20
-58.5683956552
 11
51.6253387361
 21
-56.9944481138
  0
LINE
  5
371
100
AcDbEntity
  8
CURVE
100
AcDbLine
 62
7
  6
CONTINUOUS
 10
50.0513911947
 20
-58.7784063692
 11
51.8619231352
 21
-56.9678744288
  0
LINE
  5
372
100
AcDbEntity
  8
CURVE
100
AcDbLine
 62
7
  6
CONTINUOUS
 10
50.3420002647
 20
-58.6978080132
 11
51.0308206422
 21
-58.0089876357
  0
LINE
  5
373
100
AcDbEntity
  8
CURVE
100
AcDbLine
 62
7
  6
CONTINUOUS
 10
50.7154320002
 20
-58.5343869918
 11
51.4207466333
 21
-57.8290723587
  0
LINE
  5
374
100
AcDbEntity
  8
CURVE
100
AcDbLine
 62
7
  6
CONTINUOUS
 10
50.051282223
 20
-59.408547483
 11
50.4193101486
 21
-59.0405195574
  0
LINE
  5
375
100
AcDbEntity
  8
CURVE
100
AcDbLine
 62
7
  6
CONTINUOUS
 10
51.0888637356
 20
-58.3709659704
 11
51.8106726243
 21
-57.6491570817
  0
LINE
  5
376
100
AcDbEntity
  8
CURVE
100
AcDbLine
 62
7
  6
CONTINUOUS
 10
50.051282223
 20
-59.618558197
 11
50.8742949014
 21
-58.7955455186
  0
LINE
  5
377
100
AcDbEntity
  8
CURVE
100
AcDbLine
 62
7
  6
CONTINUOUS
 10
51.4622954711
 20
-58.2075449489
 11
51.8795823714
 21
-57.7902580486
  0
LINE
  5
378
100
AcDbEntity
  8
CURVE
100
AcDbLine
 62
7
  6
CONTINUOUS
 10
50.0513911947
 20
-59.8284599393
 11
50.0583577682
 21
-59.8214933658
  0
LINE
  5
379
100
AcDbEntity
  8
CURVE
100
AcDbLine
 62
7
  6
CONTINUOUS
 10
50.40629598
 20
-59.473555154
 11
51.3292796542
 21
-58.5505714798
  0
LINE
  5
37A
100
AcDbEntity
  8
CURVE
100
AcDbLine
 62
7
  6
CONTINUOUS
 10
51.8357272065
 20
-58.0441239275
 11
51.8795823714
 21
-58.0002687626
  0
LINE
  5
37B
100
AcDbEntity
  8
CURVE
100
AcDbLine
 62
7
  6
CONTINUOUS
 10
50.0513911947
 20
-60.0384706533
 11
50.3143350003
 21
-59.7755268477
  0
LINE
  5
37C
100
AcDbEntity
  8
CURVE
100
AcDbLine
 62
7
  6
CONTINUOUS
 10
50.8612807328
 20
-59.2285811152
 11
51.784264407
 21
-58.305597441
  0
LINE
  5
37D
100
AcDbEntity
  8
CURVE
100
AcDbLine
 62
7
  6
CONTINUOUS
 10
50.0513911947
 20
-60.2484813673
 11
50.5703122323
 21
-59.7295603297
  0
LINE
  5
37E
100
AcDbEntity
  8
CURVE
100
AcDbLine
 62
7
  6
CONTINUOUS
 10
51.3162654856
 20
-58.9836070764
 11
51.8795823714
 21
-58.4202901907
  0
LINE
  5
37F
100
AcDbEntity
  8
CURVE
100
AcDbLine
 62
7
  6
CONTINUOUS
 10
50.3205738911
 20
-60.189309385
 11
50.8262894644
 21
-59.6835938117
  0
LINE
  5
380
100
AcDbEntity
  8
CURVE
100
AcDbLine
 62
7
  6
CONTINUOUS
 10
51.7712502384
 20
-58.7386330376
 11
51.8795823714
 21
-58.6303009047
  0
LINE
  5
381
100
AcDbEntity
  8
CURVE
100
AcDbLine
 62
7
  6
CONTINUOUS
 10
50.5897565874
 20
-60.1301374027
 11
51.0822666965
 21
-59.6376272936
  0
LINE
  5
382
100
AcDbEntity
  8
CURVE
100
AcDbLine
 62
7
  6
CONTINUOUS
 10
50.8589392838
 20
-60.0709654203
 11
51.3382439285
 21
-59.5916607756
  0
LINE
  5
383
100
AcDbEntity
  8
CURVE
100
AcDbLine
 62
7
  6
CONTINUOUS
 10
50.0513911947
 20
-61.0885242234
 11
50.3798933664
 21
-60.7600220517
  0
LINE
  5
384
100
AcDbEntity
  8
CURVE
100
AcDbLine
 62
7
  6
CONTINUOUS
 10
51.1281219801
 20
-60.011793438
 11
51.5942211606
 21
-59.5456942575
  0
LINE
  5
385
100
AcDbEntity
  8
CURVE
100
AcDbLine
 62
7
  6
CONTINUOUS
 10
50.0513911947
 20
-61.2985349374
 11
51.8501983926
 21
-59.4997277395
  0
LINE
  5
386
100
AcDbEntity
  8
CURVE
100
AcDbLine
 62
7
  6
CONTINUOUS
 10
50.1191354434
 20
-61.4408014028
 11
51.8795823714
 21
-59.6803544747
  0
LINE
  5
387
100
AcDbEntity
  8
CURVE
100
AcDbLine
 62
250
  6
CONTINUOUS
 10
51.8795823714
 20
-57.0256418319
 11
50.6858083513
 21
-58.168179337
  0
LINE
  5
388
100
AcDbEntity
  8
CURVE
100
AcDbLine
 62
250
  6
CONTINUOUS
 10
50.0513911947
 20
-58.3993084586
 11
51.0664084744
 21
-57.4312713859
  0
LINE
  5
389
100
AcDbEntity
  8
CURVE
100
AcDbLine
 62
250
  6
CONTINUOUS
 10
51.8795823714
 20
-59.869888707
 11
50.0513911947
 21
-61.5012521318
  0
LINE
  5
38A
100
AcDbEntity
  8
CURVE
100
AcDbLine
 62
250
  6
CONTINUOUS
 10
50.0513911947
 20
-55.820180913
 11
51.8795823714
 21
-54.2096244167
  0
LINE
  5
38B
100
AcDbEntity
  8
CURVE
100
AcDbLine
 62
250
  6
CONTINUOUS
 10
50.0513911947
 20
-61.0384539178
 11
51.309792016
 21
-59.9718585674
  0
LINE
  5
38C
100
AcDbEntity
  8
CURVE
100
AcDbLine
 62
250
  6
CONTINUOUS
 10
51.8795823714
 20
-54.6586406125
 11
51.5146105455
 21
-54.9655135842
  0
LINE
  5
38D
100
AcDbEntity
  8
CURVE
100
AcDbLine
 62
250
  6
CONTINUOUS
 10
51.232196851
 20
-55.2027129988
 11
50.5537317236
 21
-55.7637797996
  0
LINE
  5
38E
100
AcDbEntity
  8
CURVE
100
AcDbLine
 62
250
  6
CONTINUOUS
 10
50.0513911947
 20
-57.1302376815
 11
51.8795823714
 21
-55.955045998
  0
LINE
  5
38F
100
AcDbEntity
  8
CURVE
100
AcDbLine
 62
250
  6
CONTINUOUS
 10
51.8795823714
 20
-56.3718148837
 11
50.6907844819
 21
-57.0994193229
  0
LINE
  5
390
100
AcDbEntity
  8
0
100
AcDbLine
 62
7
  6
CONTINUOUS
 10
47.2030024326
 20
-66.2328519066
 11
47.4819783668
 21
-66.071805831
  0
LINE
  5
391
100
AcDbEntity
  8
ASSI
100
AcDbLine
 62
7
  6
CONTINUOUS
 10
47.2030024326
 20
-66.2328519066
 11
47.4819783668
 21
-66.071805831
  0
LINE
  5
392
100
AcDbEntity
  8
0
100
AcDbLine
 62
7
  6
CONTINUOUS
 10
48.21253915
 20
-66.8442264913
 11
48.8989374977
 21
-66.4479852869
  0
LINE
  5
393
100
AcDbEntity
  8
ASSI
100
AcDbLine
 62
7
  6
CONTINUOUS
 10
48.21253915
 20
-66.8442264913
 11
48.8989374977
 21
-66.4479852869
  0
LINE
  5
394
100
AcDbEntity
  8
0
100
AcDbLine
 62
7
  6
CONTINUOUS
 10
52.9823718343
 20
-64.4076452208
 11
52.274834565
 21
-64.8160894147
  0
LINE
  5
395
100
AcDbEntity
  8
ASSI
100
AcDbLine
 62
7
  6
CONTINUOUS
 10
52.9823718343
 20
-64.4076452208
 11
52.274834565
 21
-64.8160894147
  0
LINE
  5
396
100
AcDbEntity
  8
CURVE
100
AcDbLine
 62
250
  6
CONTINUOUS
 10
51.8795823714
 20
-58.2542761021
 11
50.051282223
 21
-59.2386740818
  0
LINE
  5
397
100
AcDbEntity
  8
CURVE
100
AcDbLine
 62
250
  6
CONTINUOUS
 10
50.051282223
 20
-59.664702557
 11
51.8795823714
 21
-58.6803045772
  0
LINE
  5
398
100
AcDbEntity
  8
0
100
AcDbLine
 62
7
  6
CONTINUOUS
 10
48.9204388496
 20
-66.4364237351
 11
48.8989374977
 21
-66.4479852869
  0
LINE
  5
399
100
AcDbEntity
  8
ASSI
100
AcDbLine
 62
7
  6
CONTINUOUS
 10
48.9204388496
 20
-66.4364237351
 11
48.8989374977
 21
-66.4479852869
  0
LINE
  5
39A
100
AcDbEntity
  8
0
100
AcDbLine
 62
7
  6
CONTINUOUS
 10
48.9204388496
 20
-66.4364237351
 11
52.9823718343
 21
-64.4076452208
  0
LINE
  5
39B
100
AcDbEntity
  8
ASSI
100
AcDbLine
 62
7
  6
CONTINUOUS
 10
48.9204388496
 20
-66.4364237351
 11
52.9823718343
 21
-64.4076452208
  0
LINE
  5
39C
100
AcDbEntity
  8
0
100
AcDbLine
 62
7
  6
CONTINUOUS
 10
48.2129015803
 20
-66.844867929
 11
52.274834565
 21
-64.8160894147
  0
LINE
  5
39D
100
AcDbEntity
  8
ASSI
100
AcDbLine
 62
7
  6
CONTINUOUS
 10
48.2129015803
 20
-66.844867929
 11
52.274834565
 21
-64.8160894147
  0
ARC
  5
39E
100
AcDbEntity
  8
0
100
AcDbCircle
 62
7
  6
CONTINUOUS
 10
-29.9461169109
 20
21.9878225036
 40
0.3
100
AcDbArc
 50
0.0007993011
 51
59.9992007504
  0
ARC
  5
39F
100
AcDbEntity
  8
0
100
AcDbCircle
 62
7
  6
CONTINUOUS
 10
-30.3652990165
 20
22.2298529978
 40
0.3
100
AcDbArc
 50
60.0005489507
 51
118.2699256376
  0
ARC
  5
3A0
100
AcDbEntity
  8
0
100
AcDbCircle
 62
7
  6
CONTINUOUS
 10
-29.9461169109
 20
17.707221507
 40
0.3
100
AcDbArc
 50
301.7332683128
 51
359.9978457589
  0
ARC
  5
3A1
100
AcDbEntity
  8
0
100
AcDbCircle
 62
7
  6
CONTINUOUS
 10
28.0746651715
 20
-34.7787856161
 40
0.3
100
AcDbArc
 50
300.1089913819
 51
314.200140549
  0
ARC
  5
3A2
100
AcDbEntity
  8
0
100
AcDbCircle
 62
7
  6
CONTINUOUS
 10
-19.6550425586
 20
-7.2202505665
 40
0.3
100
AcDbArc
 50
300.1089913819
 51
314.200140549
  0
ARC
  5
3A3
100
AcDbEntity
  8
0
100
AcDbCircle
 62
7
  6
CONTINUOUS
 10
14.1523744737
 20
-24.3915116719
 40
0.1779620607
100
AcDbArc
 50
303.7143364849
 51
315.9708985531
  0
ARC
  5
3A4
100
AcDbEntity
  8
0
100
AcDbCircle
 62
7
  6
CONTINUOUS
 10
-1.757528103
 20
-15.205333322
 40
0.1779620607
100
AcDbArc
 50
303.7143364849
 51
315.9708985531
  0
ARC
  5
3A5
100
AcDbEntity
  8
0
100
AcDbCircle
 62
250
  6
CONTINUOUS
 10
-19.6142479029
 20
-7.3580706478
 40
0.1703490405
100
AcDbArc
 50
339.0197808321
 51
345.0908423741
  0
ARC
  5
3A6
100
AcDbEntity
  8
0
100
AcDbCircle
 62
250
  6
CONTINUOUS
 10
28.1154598272
 20
-34.9166056974
 40
0.1703490405
100
AcDbArc
 50
339.019780832
 51
345.090842374
  0
ARC
  5
3A7
100
AcDbEntity
  8
0
100
AcDbCircle
 62
250
  6
CONTINUOUS
 10
-19.5544016789
 20
-7.3935636787
 40
0.0998076453
100
AcDbArc
 50
300.1159510185
 51
302.5099552789
  0
ARC
  5
3A8
100
AcDbEntity
  8
0
100
AcDbCircle
 62
250
  6
CONTINUOUS
 10
28.1753060512
 20
-34.9520987284
 40
0.0998076453
100
AcDbArc
 50
300.1159510184
 51
302.5099552778
  0
SPLINE
  5
3A9
100
AcDbEntity
  8
0
100
AcDbSpline
 62
7
  6
CONTINUOUS
 70
0
 71
3
 72
11
 73
7
 74
0
 42
0.0000001
 43
0.0000001
 44
0.0000000001
 40
0.0
 40
0.0
 40
0.0
 40
0.0
 40
0.2902707218
 40
0.5494825361
 40
0.7821401989
 40
1.0
 40
1.0
 40
1.0
 40
1.0
 10
-33.0725234361
 20
15.5287828686
 30
0.0
 10
-33.0590818254
 20
15.521021851
 30
0.0
 10
-33.0323481659
 20
15.5083518814
 30
0.0
 10
-32.9912425409
 20
15.4987272767
 30
0.0
 10
-32.9527671125
 20
15.5003006895
 30
0.0
 10
-32.9298157924
 20
15.5093241413
 30
0.0
 10
-32.919908978
 20
15.5154529497
 30
0.0
  0
SPLINE
  5
3AA
100
AcDbEntity
  8
0
100
AcDbSpline
 62
7
  6
CONTINUOUS
 70
0
 71
3
 72
11
 73
7
 74
0
 42
0.0000001
 43
0.0000001
 44
0.0000000001
 40
0.0
 40
0.0
 40
0.0
 40
0.0
 40
0.216830844
 40
0.4504166446
 40
0.7108655613
 40
1.0
 40
1.0
 40
1.0
 40
1.0
 10
-1.5816719028
 20
-14.811619545
 30
0.0
 10
-1.5816728764
 20
-14.8002840752
 30
0.0
 10
-1.5858925485
 20
-14.7765668334
 30
0.0
 10
-1.6041589144
 20
-14.7436081876
 30
0.0
 10
-1.632710108
 20
-14.7137925277
 30
0.0
 10
-1.6564846085
 20
-14.6973282032
 30
0.0
 10
-1.6695746772
 20
-14.6897701616
 30
0.0
  0
SPLINE
  5
3AB
100
AcDbEntity
  8
0
100
AcDbSpline
 62
7
  6
CONTINUOUS
 70
0
 71
3
 72
9
 73
5
 74
0
 42
0.0000001
 43
0.0000001
 44
0.0000000001
 40
0.0
 40
0.0
 40
0.0
 40
0.0
 40
0.5018288403
 40
1.0
 40
1.0
 40
1.0
 40
1.0
 10
-3.4244987655
 20
-16.5674944083
 30
0.0
 10
-3.38167937
 20
-16.5426602458
 30
0.0
 10
-3.3005919876
 20
-16.4858071022
 30
0.0
 10
-3.2266055012
 20
-16.4203443481
 30
0.0
 10
-3.1913803968
 20
-16.3860829943
 30
0.0
  0
SPLINE
  5
3AC
100
AcDbEntity
  8
0
100
AcDbSpline
 62
7
  6
CONTINUOUS
 70
0
 71
3
 72
11
 73
7
 74
0
 42
0.0000001
 43
0.0000001
 44
0.0000000001
 40
0.0
 40
0.0
 40
0.0
 40
0.0
 40
0.216830844
 40
0.4504166446
 40
0.7108655613
 40
1.0
 40
1.0
 40
1.0
 40
1.0
 10
14.3282306739
 20
-23.9977978949
 30
0.0
 10
14.3282297003
 20
-23.9864624251
 30
0.0
 10
14.3240100282
 20
-23.9627451833
 30
0.0
 10
14.3057436623
 20
-23.9297865375
 30
0.0
 10
14.2771924687
 20
-23.8999708776
 30
0.0
 10
14.2534179682
 20
-23.8835065531
 30
0.0
 10
14.2403278995
 20
-23.8759485115
 30
0.0
  0
SPLINE
  5
3AD
100
AcDbEntity
  8
0
100
AcDbSpline
 62
7
  6
CONTINUOUS
 70
0
 71
3
 72
9
 73
5
 74
0
 42
0.0000001
 43
0.0000001
 44
0.0000000001
 40
0.0
 40
0.0
 40
0.0
 40
0.0
 40
0.5018288403
 40
1.0
 40
1.0
 40
1.0
 40
1.0
 10
12.4854038112
 20
-25.7536727582
 30
0.0
 10
12.5282232067
 20
-25.7288385957
 30
0.0
 10
12.6093105891
 20
-25.6719854521
 30
0.0
 10
12.6832970755
 20
-25.606522698
 30
0.0
 10
12.7185221799
 20
-25.5722613442
 30
0.0
  0
SPLINE
  5
3AE
100
AcDbEntity
  8
0
100
AcDbSpline
 62
7
  6
CONTINUOUS
 70
0
 71
3
 72
11
 73
7
 74
0
 42
0.0000001
 43
0.0000001
 44
0.0000000001
 40
0.0
 40
0.0
 40
0.0
 40
0.0
 40
0.2357767577
 40
0.4972955567
 40
0.7602859458
 40
1.0
 40
1.0
 40
1.0
 40
1.0
 10
-5.3613722117
 20
-12.5581725343
 30
0.0
 10
-5.3904123882
 20
-12.5414051003
 30
0.0
 10
-5.4577645676
 20
-12.5165623429
 30
0.0
 10
-5.5657843852
 20
-12.5029148834
 30
0.0
 10
-5.6748188575
 20
-12.5123460224
 30
0.0
 10
-5.7438757485
 20
-12.5344076172
 30
0.0
 10
-5.774243428
 20
-12.549904463
 30
0.0
  0
SPLINE
  5
3AF
100
AcDbEntity
  8
0
100
AcDbSpline
 62
7
  6
CONTINUOUS
 70
0
 71
3
 72
11
 73
7
 74
0
 42
0.0000001
 43
0.0000001
 44
0.0000000001
 40
0.0
 40
0.0
 40
0.0
 40
0.0
 40
0.2357767577
 40
0.4972955567
 40
0.7602859458
 40
1.0
 40
1.0
 40
1.0
 40
1.0
 10
10.548530365
 20
-21.7443508841
 30
0.0
 10
10.5194901885
 20
-21.7275834502
 30
0.0
 10
10.4521380091
 20
-21.7027406928
 30
0.0
 10
10.3441181915
 20
-21.6890932332
 30
0.0
 10
10.2350837192
 20
-21.6985243723
 30
0.0
 10
10.1660268282
 20
-21.7205859671
 30
0.0
 10
10.1356591487
 20
-21.7360828128
 30
0.0
  0
SPLINE
  5
3B0
100
AcDbEntity
  8
0
100
AcDbSpline
 62
7
  6
CONTINUOUS
 70
0
 71
3
 72
9
 73
5
 74
0
 42
0.0000001
 43
0.0000001
 44
0.0000000001
 40
0.0
 40
0.0
 40
0.0
 40
0.0
 40
0.4988041848
 40
1.0
 40
1.0
 40
1.0
 40
1.0
 10
14.2803268604
 20
-24.5151995121
 30
0.0
 10
14.2956600622
 20
-24.499308715
 30
0.0
 10
14.3206292425
 20
-24.46110639
 30
0.0
 10
14.3282751804
 20
-24.4162595702
 30
0.0
 10
14.3282627324
 20
-24.3940714739
 30
0.0
  0
SPLINE
  5
3B1
100
AcDbEntity
  8
0
100
AcDbSpline
 62
7
  6
CONTINUOUS
 70
0
 71
3
 72
9
 73
5
 74
0
 42
0.0000001
 43
0.0000001
 44
0.0000000001
 40
0.0
 40
0.0
 40
0.0
 40
0.0
 40
0.4988041848
 40
1.0
 40
1.0
 40
1.0
 40
1.0
 10
-1.6295757163
 20
-15.3290211622
 30
0.0
 10
-1.6142425145
 20
-15.3131303652
 30
0.0
 10
-1.5892733342
 20
-15.2749280402
 30
0.0
 10
-1.5816273963
 20
-15.2300812203
 30
0.0
 10
-1.5816398443
 20
-15.207893124
 30
0.0
  0
SPLINE
  5
3B2
100
AcDbEntity
  8
0
100
AcDbSpline
 62
7
  6
CONTINUOUS
 70
0
 71
3
 72
11
 73
7
 74
0
 42
0.0000001
 43
0.0000001
 44
0.0000000001
 40
0.0
 40
0.0
 40
0.0
 40
0.0
 40
0.2372348155
 40
0.5000006517
 40
0.7627642473
 40
1.0
 40
1.0
 40
1.0
 40
1.0
 10
-32.8603914018
 20
20.060223285
 30
0.0
 10
-32.8603914018
 20
20.0949963409
 30
0.0
 10
-32.8734328425
 20
20.1683321982
 30
0.0
 10
-32.9188939251
 20
20.2713816208
 30
0.0
 10
-32.985415323
 20
20.3622715643
 30
0.0
 10
-33.0424094524
 20
20.4102269145
 30
0.0
 10
-33.0725234361
 20
20.4276143513
 30
0.0
  0
SPLINE
  5
3B3
100
AcDbEntity
  8
0
100
AcDbSpline
 62
7
  6
CONTINUOUS
 70
0
 71
3
 72
11
 73
7
 74
0
 42
0.0000001
 43
0.0000001
 44
0.0000000001
 40
0.0
 40
0.0
 40
0.0
 40
0.0
 40
0.2856887416
 40
0.5446286071
 40
0.7796177889
 40
1.0
 40
1.0
 40
1.0
 40
1.0
 10
14.2511393128
 20
-24.1123094805
 30
0.0
 10
14.2627133251
 20
-24.1050106785
 30
0.0
 10
14.2837042671
 20
-24.0892386232
 30
0.0
 10
14.3086924868
 20
-24.061094011
 30
0.0
 10
14.3246051323
 20
-24.0303123876
 30
0.0
 10
14.3282315806
 20
-24.0083532158
 30
0.0
 10
14.3282306739
 20
-23.9977978949
 30
0.0
  0
SPLINE
  5
3B4
100
AcDbEntity
  8
0
100
AcDbSpline
 62
250
  6
CONTINUOUS
 70
0
 71
3
 72
9
 73
5
 74
0
 42
0.0000001
 43
0.0000001
 44
0.0000000001
 40
0.0
 40
0.0
 40
0.0
 40
0.0
 40
0.4797908186
 40
1.0
 40
1.0
 40
1.0
 40
1.0
 10
-19.5007604451
 20
-7.477731274
 30
0.0
 10
-19.4906106098
 20
-7.4712628123
 30
0.0
 10
-19.4718427711
 20
-7.4537467259
 30
0.0
 10
-19.4598802865
 20
-7.4312419438
 30
0.0
 10
-19.4551923063
 20
-7.4190633753
 30
0.0
  0
SPLINE
  5
3B5
100
AcDbEntity
  8
0
100
AcDbSpline
 62
250
  6
CONTINUOUS
 70
0
 71
3
 72
9
 73
5
 74
0
 42
0.0000001
 43
0.0000001
 44
0.0000000001
 40
0.0
 40
0.0
 40
0.0
 40
0.0
 40
0.4797908186
 40
1.0
 40
1.0
 40
1.0
 40
1.0
 10
28.228947285
 20
-35.0362663236
 30
0.0
 10
28.2390971203
 20
-35.0297978619
 30
0.0
 10
28.257864959
 20
-35.0122817755
 30
0.0
 10
28.2698274436
 20
-34.9897769934
 30
0.0
 10
28.2745154237
 20
-34.9775984249
 30
0.0
  0
SPLINE
  5
3B6
100
AcDbEntity
  8
0
100
AcDbSpline
 62
250
  6
CONTINUOUS
 70
0
 71
3
 72
11
 73
7
 74
0
 42
0.0000001
 43
0.0000001
 44
0.0000000001
 40
0.0
 40
0.0
 40
0.0
 40
0.0
 40
0.2187603581
 40
0.4523095269
 40
0.7113215761
 40
1.0
 40
1.0
 40
1.0
 40
1.0
 10
-29.6461169571
 20
21.9878225036
 30
0.0
 10
-29.6461177752
 20
21.9766526376
 30
0.0
 10
-29.650138186
 20
21.9534079482
 30
0.0
 10
-29.6673875707
 20
21.9208988972
 30
0.0
 10
-29.6947246122
 20
21.8913716352
 30
0.0
 10
-29.7176639429
 20
21.8750604702
 30
0.0
 10
-29.7303149708
 20
21.8674963925
 30
0.0
  0
SPLINE
  5
3B7
100
AcDbEntity
  8
0
100
AcDbSpline
 62
250
  6
CONTINUOUS
 70
0
 71
3
 72
11
 73
7
 74
0
 42
0.0000001
 43
0.0000001
 44
0.0000000001
 40
0.0
 40
0.0
 40
0.0
 40
0.0
 40
0.2187556894
 40
0.4523030936
 40
0.7113134247
 40
1.0
 40
1.0
 40
1.0
 40
1.0
 10
-29.7961133074
 20
22.2476279966
 30
0.0
 10
-29.8057868326
 20
22.253211928
 30
0.0
 10
-29.8279275125
 20
22.2613510884
 30
0.0
 10
-29.864705049
 20
22.262664747
 30
0.0
 10
-29.9039440448
 20
22.2537510659
 30
0.0
 10
-29.9295387115
 20
22.2420388136
 30
0.0
 10
-29.9424146964
 20
22.2348638932
 30
0.0
  0
SPLINE
  5
3B8
100
AcDbEntity
  8
0
100
AcDbSpline
 62
250
  6
CONTINUOUS
 70
0
 71
3
 72
11
 73
7
 74
0
 42
0.0000001
 43
0.0000001
 44
0.0000000001
 40
0.0
 40
0.0
 40
0.0
 40
0.0
 40
0.2187504078
 40
0.4522967227
 40
0.7113126141
 40
1.0
 40
1.0
 40
1.0
 40
1.0
 10
-30.2153015291
 20
22.4896620155
 30
0.0
 10
-30.2249747949
 20
22.495244841
 30
0.0
 10
-30.2471144309
 20
22.5033825027
 30
0.0
 10
-30.2838902843
 20
22.5046947207
 30
0.0
 10
-30.3231275358
 20
22.495780755
 30
0.0
 10
-30.3487213664
 20
22.4840690017
 30
0.0
 10
-30.361596802
 20
22.4768943874
 30
0.0
  0
SPLINE
  5
3B9
100
AcDbEntity
  8
0
100
AcDbSpline
 62
250
  6
CONTINUOUS
 70
0
 71
3
 72
11
 73
7
 74
0
 42
0.0000001
 43
0.0000001
 44
0.0000000001
 40
0.0
 40
0.0
 40
0.0
 40
0.0
 40
0.2187601249
 40
0.4523110155
 40
0.711323703
 40
1.0
 40
1.0
 40
1.0
 40
1.0
 10
-29.6461169586
 20
17.7072102274
 30
0.0
 10
-29.6461190432
 20
17.6960411869
 30
0.0
 10
-29.6501414424
 20
17.6727986161
 30
0.0
 10
-29.667391483
 20
17.6402929645
 30
0.0
 10
-29.6947272877
 20
17.6107686425
 30
0.0
 10
-29.7176649574
 20
17.5944588671
 30
0.0
 10
-29.7303149708
 20
17.5868953959
 30
0.0
  0
SPLINE
  5
3BA
100
AcDbEntity
  8
0
100
AcDbSpline
 62
250
  6
CONTINUOUS
 70
0
 71
3
 72
11
 73
7
 74
0
 42
0.0000001
 43
0.0000001
 44
0.0000000001
 40
0.0
 40
0.0
 40
0.0
 40
0.0
 40
0.2187326889
 40
0.4522634147
 40
0.7112958554
 40
1.0
 40
1.0
 40
1.0
 40
1.0
 10
-30.5073866863
 20
22.4940705883
 30
0.0
 10
-30.4975535044
 20
22.4993564738
 30
0.0
 10
-30.4751889552
 20
22.506821953
 30
0.0
 10
-30.4384034124
 20
22.5070223952
 30
0.0
 10
-30.3994669285
 20
22.4969281893
 30
0.0
 10
-30.3742457971
 20
22.4844526416
 30
0.0
 10
-30.361596802
 20
22.4768943874
 30
0.0
  0
SPLINE
  5
3BB
100
AcDbEntity
  8
0
100
AcDbSpline
 62
7
  6
CONTINUOUS
 70
0
 71
3
 72
11
 73
7
 74
0
 42
0.0000001
 43
0.0000001
 44
0.0000000001
 40
0.0
 40
0.0
 40
0.0
 40
0.0
 40
0.2177615105
 40
0.4513621975
 40
0.7109010312
 40
1.0
 40
1.0
 40
1.0
 40
1.0
 10
-32.919908978
 20
15.5154529497
 30
0.0
 10
-32.9103790509
 20
15.5213485984
 30
0.0
 10
-32.8926319922
 20
15.5370831221
 30
0.0
 10
-32.8737992415
 20
15.5689904818
 30
0.0
 10
-32.8626031348
 20
15.6080078466
 30
0.0
 10
-32.8603914018
 20
15.6363319336
 30
0.0
 10
-32.8603914018
 20
15.6512091789
 30
0.0
  0
SPLINE
  5
3BC
100
AcDbEntity
  8
0
100
AcDbSpline
 62
7
  6
CONTINUOUS
 70
0
 71
3
 72
11
 73
7
 74
0
 42
0.0000001
 43
0.0000001
 44
0.0000000001
 40
0.0
 40
0.0
 40
0.0
 40
0.0
 40
0.2856887416
 40
0.5446286071
 40
0.7796177889
 40
1.0
 40
1.0
 40
1.0
 40
1.0
 10
-1.6587632639
 20
-14.9261311306
 30
0.0
 10
-1.6471892516
 20
-14.9188323287
 30
0.0
 10
-1.6261983096
 20
-14.9030602733
 30
0.0
 10
-1.6012100899
 20
-14.8749156611
 30
0.0
 10
-1.5852974444
 20
-14.8441340377
 30
0.0
 10
-1.5816709961
 20
-14.8221748659
 30
0.0
 10
-1.5816719028
 20
-14.811619545
 30
0.0
  0
SPLINE
  5
3BD
100
AcDbEntity
  8
0
100
AcDbSpline
 62
250
  6
CONTINUOUS
 70
0
 71
3
 72
10
 73
6
 74
0
 42
0.0000001
 43
0.0000001
 44
0.0000000001
 40
0.0
 40
0.0
 40
0.0
 40
0.0
 40
0.3605948303
 40
0.6415347935
 40
1.0
 40
1.0
 40
1.0
 40
1.0
 10
-19.4496336681
 20
-7.4018992833
 30
0.0
 10
-19.4479187409
 20
-7.4057365771
 30
0.0
 10
-19.44512178
 20
-7.4127823901
 30
0.0
 10
-19.4421718183
 20
-7.4237288248
 30
0.0
 10
-19.4427154257
 20
-7.4325210675
 30
0.0
 10
-19.4457098058
 20
-7.4354350748
 30
0.0
  0
SPLINE
  5
3BE
100
AcDbEntity
  8
0
100
AcDbSpline
 62
250
  6
CONTINUOUS
 70
0
 71
3
 72
10
 73
6
 74
0
 42
0.0000001
 43
0.0000001
 44
0.0000000001
 40
0.0
 40
0.0
 40
0.0
 40
0.0
 40
0.3605948303
 40
0.6415347935
 40
1.0
 40
1.0
 40
1.0
 40
1.0
 10
28.280074062
 20
-34.960434333
 30
0.0
 10
28.2817889892
 20
-34.9642716267
 30
0.0
 10
28.28458595
 20
-34.9713174397
 30
0.0
 10
28.2875359118
 20
-34.9822638744
 30
0.0
 10
28.2869923044
 20
-34.9910561171
 30
0.0
 10
28.2839979243
 20
-34.9939701245
 30
0.0
  0
SPLINE
  5
3BF
100
AcDbEntity
  8
0
100
AcDbSpline
 62
250
  6
CONTINUOUS
 70
0
 71
3
 72
11
 73
7
 74
0
 42
0.0000001
 43
0.0000001
 44
0.0000000001
 40
0.0
 40
0.0
 40
0.0
 40
0.0
 40
0.2377546637
 40
0.5000059648
 40
0.7622540093
 40
1.0
 40
1.0
 40
1.0
 40
1.0
 10
-29.9424146964
 20
22.2348638932
 30
0.0
 10
-29.9119121066
 20
22.2178456385
 30
0.0
 10
-29.8541783978
 20
22.1704184674
 30
0.0
 10
-29.7871703423
 20
22.0795799441
 30
0.0
 10
-29.7420062464
 20
21.9761312463
 30
0.0
 10
-29.729800963
 20
21.9024202493
 30
0.0
 10
-29.7303149708
 20
21.8674963925
 30
0.0
  0
SPLINE
  5
3C0
100
AcDbEntity
  8
0
100
AcDbSpline
 62
250
  6
CONTINUOUS
 70
0
 71
3
 72
11
 73
7
 74
0
 42
0.0000001
 43
0.0000001
 44
0.0000000001
 40
0.0
 40
0.0
 40
0.0
 40
0.0
 40
0.288698727
 40
0.5477292811
 40
0.7812621937
 40
1.0
 40
1.0
 40
1.0
 40
1.0
 10
-29.7303149708
 20
17.5868953959
 30
0.0
 10
-29.7300942774
 20
17.5721644629
 30
0.0
 10
-29.7319011345
 20
17.5440893166
 30
0.0
 10
-29.7426265071
 20
17.5053286993
 30
0.0
 10
-29.7611901223
 20
17.4735764504
 30
0.0
 10
-29.7788346516
 20
17.4579425873
 30
0.0
 10
-29.7883273781
 20
17.4520699781
 30
0.0
  0
SPLINE
  5
3C1
100
AcDbEntity
  8
0
100
AcDbSpline
 62
7
  6
CONTINUOUS
 70
0
 71
3
 72
11
 73
7
 74
0
 42
0.0000001
 43
0.0000001
 44
0.0000000001
 40
0.0
 40
0.0
 40
0.0
 40
0.0
 40
0.2899762508
 40
0.5490287071
 40
0.7820006739
 40
1.0
 40
1.0
 40
1.0
 40
1.0
 10
-32.3740887949
 20
20.8308409239
 30
0.0
 10
-32.3614614389
 20
20.8381318261
 30
0.0
 10
-32.3385950728
 20
20.8539209848
 30
0.0
 10
-32.3112300688
 20
20.8826406346
 30
0.0
 10
-32.2939439734
 20
20.9144437671
 30
0.0
 10
-32.2899240156
 20
20.9372749847
 30
0.0
 10
-32.289924263
 20
20.9482367849
 30
0.0
  0
SPLINE
  5
3C2
100
AcDbEntity
  8
0
100
AcDbSpline
 62
250
  6
CONTINUOUS
 70
0
 71
3
 72
9
 73
5
 74
0
 42
0.0000001
 43
0.0000001
 44
0.0000000001
 40
0.0
 40
0.0
 40
0.0
 40
0.0
 40
0.2393392584
 40
1.0
 40
1.0
 40
1.0
 40
1.0
 10
28.8700949999
 20
-1.2138693498
 30
0.0
 10
28.8809837092
 20
-1.220156876
 30
0.0
 10
28.925722654
 20
-1.2477292236
 30
0.0
 10
28.9674444639
 20
-1.280081445
 30
0.0
 10
28.9973772799
 20
-1.3065564593
 30
0.0
  0
SPLINE
  5
3C3
100
AcDbEntity
  8
0
100
AcDbSpline
 62
250
  6
CONTINUOUS
 70
0
 71
3
 72
10
 73
6
 74
0
 42
0.0000001
 43
0.0000001
 44
0.0000000001
 40
0.0
 40
0.0
 40
0.0
 40
0.0
 40
0.2444527989
 40
0.5004241699
 40
1.0
 40
1.0
 40
1.0
 40
1.0
 10
28.9973772799
 20
-1.3065564593
 30
0.0
 10
29.0403409693
 20
-1.3445570366
 30
0.0
 10
29.1212556701
 20
-1.4306376137
 30
0.0
 10
29.2538939513
 20
-1.6246271843
 30
0.0
 10
29.3221287647
 20
-1.792529452
 30
0.0
 10
29.346151213
 20
-1.907260849
 30
0.0
  0
SPLINE
  5
3C4
100
AcDbEntity
  8
0
100
AcDbSpline
 62
250
  6
CONTINUOUS
 70
0
 71
3
 72
9
 73
5
 74
0
 42
0.0000001
 43
0.0000001
 44
0.0000000001
 40
0.0
 40
0.0
 40
0.0
 40
0.0
 40
0.2606576609
 40
1.0
 40
1.0
 40
1.0
 40
1.0
 10
29.346151213
 20
-1.907260849
 30
0.0
 10
29.3490529689
 20
-1.9211196576
 30
0.0
 10
29.3589611284
 20
-1.9745273026
 30
0.0
 10
29.3638624092
 20
-2.0289401262
 30
0.0
 10
29.3638640132
 20
-2.069102367
 30
0.0
  0
SPLINE
  5
3C5
100
AcDbEntity
  8
0
100
AcDbSpline
 62
250
  6
CONTINUOUS
 70
0
 71
3
 72
15
 73
11
 74
0
 42
0.0000001
 43
0.0000001
 44
0.0000000001
 40
0.0
 40
0.0
 40
0.0
 40
0.0
 40
0.1448878866
 40
0.274530937
 40
0.3911232859
 40
0.4999825527
 40
0.6088426317
 40
0.725433994
 40
0.8550908067
 40
1.0
 40
1.0
 40
1.0
 40
1.0
 10
-34.8391490596
 20
35.0009127284
 30
0.0
 10
-34.8391474993
 20
35.036318642
 30
0.0
 10
-34.8338222214
 20
35.1036380119
 30
0.0
 10
-34.8066353389
 20
35.1961338314
 30
0.0
 10
-34.7607821445
 20
35.2712717868
 30
0.0
 10
-34.697054515
 20
35.3249261267
 30
0.0
 10
-34.6187230183
 20
35.3532826354
 30
0.0
 10
-34.5307218127
 20
35.3554207273
 30
0.0
 10
-34.4370175229
 20
35.3327110459
 30
0.0
 10
-34.3760471892
 20
35.303658857
 30
0.0
 10
-34.3453800463
 20
35.2859536659
 30
0.0
  0
SPLINE
  5
3C6
100
AcDbEntity
  8
0
100
AcDbSpline
 62
250
  6
CONTINUOUS
 70
0
 71
3
 72
11
 73
7
 74
0
 42
0.0000001
 43
0.0000001
 44
0.0000000001
 40
0.0
 40
0.0
 40
0.0
 40
0.0
 40
0.2372050274
 40
0.499998172
 40
0.7627830099
 40
1.0
 40
1.0
 40
1.0
 40
1.0
 10
-34.3453800463
 20
-2.1057493085
 30
0.0
 10
-34.4154739191
 20
-2.0652738667
 30
0.0
 10
-34.5482138631
 20
-1.9537191895
 30
0.0
 10
-34.7031337211
 20
-1.7421483314
 30
0.0
 10
-34.8089056146
 20
-1.5021966973
 30
0.0
 10
-34.8391450983
 20
-1.3314611687
 30
0.0
 10
-34.8391490596
 20
-1.2505162913
 30
0.0
  0
SPLINE
  5
3C7
100
AcDbEntity
  8
0
100
AcDbSpline
 62
250
  6
CONTINUOUS
 70
0
 71
3
 72
9
 73
5
 74
0
 42
0.0000001
 43
0.0000001
 44
0.0000000001
 40
0.0
 40
0.0
 40
0.0
 40
0.0
 40
0.2597456009
 40
1.0
 40
1.0
 40
1.0
 40
1.0
 10
29.3638640132
 20
-38.3205313867
 30
0.0
 10
29.3638636837
 20
-38.3296950055
 30
0.0
 10
29.3631247519
 20
-38.3649654017
 30
0.0
 10
29.3593585787
 20
-38.4002102843
 30
0.0
 10
29.3544966095
 20
-38.4258693022
 30
0.0
  0
SPLINE
  5
3C8
100
AcDbEntity
  8
0
100
AcDbSpline
 62
250
  6
CONTINUOUS
 70
0
 71
3
 72
15
 73
11
 74
0
 42
0.0000001
 43
0.0000001
 44
0.0000000001
 40
0.0
 40
0.0
 40
0.0
 40
0.0
 40
0.1336111249
 40
0.2550917336
 40
0.3681606115
 40
0.4784590564
 40
0.5923825024
 40
0.715349018
 40
0.8508168978
 40
1.0
 40
1.0
 40
1.0
 40
1.0
 10
29.3544966095
 20
-38.4258693022
 30
0.0
 10
29.3492911828
 20
-38.4533409146
 30
0.0
 10
29.3347569146
 20
-38.5051401695
 30
0.0
 10
29.2976858463
 20
-38.5735387951
 30
0.0
 10
29.2469642233
 20
-38.6262831943
 30
0.0
 10
29.1841399846
 20
-38.66080584
 30
0.0
 10
29.1120169805
 20
-38.6756389805
 30
0.0
 10
29.0334905483
 20
-38.670900506
 30
0.0
 10
28.9509403505
 20
-38.6474176071
 30
0.0
 10
28.8971318973
 20
-38.6211813258
 30
0.0
 10
28.8700949999
 20
-38.6055723242
 30
0.0
  0
SPLINE
  5
3C9
100
AcDbEntity
  8
0
100
AcDbSpline
 62
250
  6
CONTINUOUS
 70
0
 71
3
 72
11
 73
7
 74
0
 42
0.0000001
 43
0.0000001
 44
0.0000000001
 40
0.0
 40
0.0
 40
0.0
 40
0.0
 40
0.2204056708
 40
0.4516412301
 40
0.709096567
 40
1.0
 40
1.0
 40
1.0
 40
1.0
 10
29.2638013011
 20
-38.3836178279
 30
0.0
 10
29.2474182505
 20
-38.395854876
 30
0.0
 10
29.2087181182
 20
-38.414787685
 30
0.0
 10
29.1418883411
 20
-38.4201390048
 30
0.0
 10
29.0705688407
 20
-38.4037095684
 30
0.0
 10
29.0246675252
 20
-38.3808123657
 30
0.0
 10
29.0016513011
 20
-38.3667170855
 30
0.0
  0
SPLINE
  5
3CA
100
AcDbEntity
  8
0
100
AcDbSpline
 62
250
  6
CONTINUOUS
 70
0
 71
3
 72
10
 73
6
 74
0
 42
0.0000001
 43
0.0000001
 44
0.0000000001
 40
0.0
 40
0.0
 40
0.0
 40
0.0
 40
0.54771517
 40
0.7815783243
 40
1.0
 40
1.0
 40
1.0
 40
1.0
 10
-34.3453800463
 20
35.2859536659
 30
0.0
 10
-34.3453800463
 20
35.2668743681
 30
0.0
 10
-34.3413239173
 20
35.2387795845
 30
0.0
 10
-34.3229638857
 20
35.2086553438
 30
0.0
 10
-34.3106348521
 20
35.1982835223
 30
0.0
 10
-34.3040530828
 20
35.1944663593
 30
0.0
  0
SPLINE
  5
3CB
100
AcDbEntity
  8
0
100
AcDbSpline
 62
250
  6
CONTINUOUS
 70
0
 71
3
 72
11
 73
7
 74
0
 42
0.0000001
 43
0.0000001
 44
0.0000000001
 40
0.0
 40
0.0
 40
0.0
 40
0.0
 40
0.2352688974
 40
0.4957698671
 40
0.7585534388
 40
1.0
 40
1.0
 40
1.0
 40
1.0
 10
-34.8391490596
 20
35.0009127284
 30
0.0
 10
-34.820017909
 20
34.989866642
 30
0.0
 10
-34.7757139635
 20
34.9734245448
 30
0.0
 10
-34.7045425743
 20
34.9646005357
 30
0.0
 10
-34.6325001524
 20
34.9706705319
 30
0.0
 10
-34.5867780629
 20
34.9852457866
 30
0.0
 10
-34.5665158975
 20
34.9954156765
 30
0.0
  0
SPLINE
  5
3CC
100
AcDbEntity
  8
0
100
AcDbSpline
 62
250
  6
CONTINUOUS
 70
0
 71
3
 72
11
 73
7
 74
0
 42
0.0000001
 43
0.0000001
 44
0.0000000001
 40
0.0
 40
0.0
 40
0.0
 40
0.0
 40
0.2352688722
 40
0.4957698352
 40
0.7585534177
 40
1.0
 40
1.0
 40
1.0
 40
1.0
 10
-34.8391490596
 20
-1.2505162913
 30
0.0
 10
-34.8200179111
 20
-1.2615623766
 30
0.0
 10
-34.7757139688
 20
-1.2780044733
 30
0.0
 10
-34.7045425818
 20
-1.286828484
 30
0.0
 10
-34.6325001572
 20
-1.2807584895
 30
0.0
 10
-34.5867780646
 20
-1.2661832342
 30
0.0
 10
-34.5665158975
 20
-1.2560133432
 30
0.0
  0
SPLINE
  5
3CD
100
AcDbEntity
  8
0
100
AcDbSpline
 62
250
  6
CONTINUOUS
 70
0
 71
3
 72
11
 73
7
 74
0
 42
0.0000001
 43
0.0000001
 44
0.0000000001
 40
0.0
 40
0.0
 40
0.0
 40
0.0
 40
0.2352630336
 40
0.4957635413
 40
0.7585500477
 40
1.0
 40
1.0
 40
1.0
 40
1.0
 10
-34.3453800463
 20
-2.1057493085
 30
0.0
 10
-34.3453800464
 20
-2.0836589083
 30
0.0
 10
-34.3374661754
 20
-2.0370707058
 30
0.0
 10
-34.3095218205
 20
-1.9710236778
 30
0.0
 10
-34.2682443113
 20
-1.9116678477
 30
0.0
 10
-34.2327617217
 20
-1.8793577085
 30
0.0
 10
-34.2138237452
 20
-1.8668940698
 30
0.0
  0
SPLINE
  5
3CE
100
AcDbEntity
  8
0
100
AcDbSpline
 62
250
  6
CONTINUOUS
 70
0
 71
3
 72
11
 73
7
 74
0
 42
0.0000001
 43
0.0000001
 44
0.0000000001
 40
0.0
 40
0.0
 40
0.0
 40
0.0
 40
0.2352630083
 40
0.4957635095
 40
0.7585500269
 40
1.0
 40
1.0
 40
1.0
 40
1.0
 10
28.8700949999
 20
-38.6055723242
 30
0.0
 10
28.8700949999
 20
-38.5834819265
 30
0.0
 10
28.87800887
 20
-38.536893727
 30
0.0
 10
28.9059532222
 20
-38.4708467001
 30
0.0
 10
28.9472307316
 20
-38.4114908672
 30
0.0
 10
28.9827133231
 20
-38.3791807255
 30
0.0
 10
29.0016513011
 20
-38.3667170855
 30
0.0
  0
SPLINE
  5
3CF
100
AcDbEntity
  8
0
100
AcDbSpline
 62
250
  6
CONTINUOUS
 70
0
 71
3
 72
10
 73
6
 74
0
 42
0.0000001
 43
0.0000001
 44
0.0000000001
 40
0.0
 40
0.0
 40
0.0
 40
0.0
 40
0.5477070453
 40
0.7815740703
 40
1.0
 40
1.0
 40
1.0
 40
1.0
 10
29.3638640132
 20
-38.3205313867
 30
0.0
 10
29.347340198
 20
-38.310990743
 30
0.0
 10
29.3250367235
 20
-38.293428855
 30
0.0
 10
29.3081269381
 20
-38.2624645688
 30
0.0
 10
29.3053080686
 20
-38.2466002426
 30
0.0
 10
29.3052926165
 20
-38.238990996
 30
0.0
  0
SPLINE
  5
3D0
100
AcDbEntity
  8
0
100
AcDbSpline
 62
250
  6
CONTINUOUS
 70
0
 71
3
 72
10
 73
6
 74
0
 42
0.0000001
 43
0.0000001
 44
0.0000000001
 40
0.0
 40
0.0
 40
0.0
 40
0.0
 40
0.5477265046
 40
0.7815686222
 40
1.0
 40
1.0
 40
1.0
 40
1.0
 10
29.3638640132
 20
-2.069102367
 30
0.0
 10
29.3473219208
 20
-2.0595511702
 30
0.0
 10
29.3249942221
 20
-2.0419651344
 30
0.0
 10
29.3080929554
 20
-2.0109510273
 30
0.0
 10
29.3052949296
 20
-1.9950650456
 30
0.0
 10
29.3052924817
 20
-1.9874474476
 30
0.0
  0
SPLINE
  5
3D1
100
AcDbEntity
  8
0
100
AcDbSpline
 62
250
  6
CONTINUOUS
 70
0
 71
3
 72
10
 73
6
 74
0
 42
0.0000001
 43
0.0000001
 44
0.0000000001
 40
0.0
 40
0.0
 40
0.0
 40
0.0
 40
0.5477334951
 40
0.7815732312
 40
1.0
 40
1.0
 40
1.0
 40
1.0
 10
28.8700949999
 20
-1.2138693498
 30
0.0
 10
28.870095
 20
-1.2329684768
 30
0.0
 10
28.8741593952
 20
-1.2610943146
 30
0.0
 10
28.8925639662
 20
-1.2912350257
 30
0.0
 10
28.9049204101
 20
-1.3016000579
 30
0.0
 10
28.9115150822
 20
-1.3054105615
 30
0.0
  0
SPLINE
  5
3D2
100
AcDbEntity
  8
0
100
AcDbSpline
 62
250
  6
CONTINUOUS
 70
0
 71
3
 72
11
 73
7
 74
0
 42
0.0000001
 43
0.0000001
 44
0.0000000001
 40
0.0
 40
0.0
 40
0.0
 40
0.0
 40
0.2349168231
 40
0.4999651097
 40
0.7650326092
 40
1.0
 40
1.0
 40
1.0
 40
1.0
 10
-33.2864402737
 20
-0.5169027898
 30
0.0
 10
-33.2831868932
 20
-0.5735909475
 30
0.0
 10
-33.2564514266
 20
-0.69308061
 30
0.0
 10
-33.1790902609
 20
-0.8621537976
 30
0.0
 10
-33.0713469357
 20
-1.0137000199
 30
0.0
 10
-32.9812247534
 20
-1.096614793
 30
0.0
 10
-32.9337481214
 20
-1.1277835164
 30
0.0
  0
SPLINE
  5
3D3
100
AcDbEntity
  8
0
100
AcDbSpline
 62
250
  6
CONTINUOUS
 70
0
 71
3
 72
11
 73
7
 74
0
 42
0.0000001
 43
0.0000001
 44
0.0000000001
 40
0.0
 40
0.0
 40
0.0
 40
0.0
 40
0.2216878682
 40
0.4565276316
 40
0.7144738204
 40
1.0
 40
1.0
 40
1.0
 40
1.0
 10
-33.1637964604
 20
-0.3275127208
 30
0.0
 10
-33.163801576
 20
-0.3448414148
 30
0.0
 10
-33.1695494626
 20
-0.3807352554
 30
0.0
 10
-33.1944461165
 20
-0.4314738542
 30
0.0
 10
-33.2341985308
 20
-0.4781884053
 30
0.0
 10
-33.2678488842
 20
-0.5045542347
 30
0.0
 10
-33.2864402737
 20
-0.5169027898
 30
0.0
  0
SPLINE
  5
3D4
100
AcDbEntity
  8
0
100
AcDbSpline
 62
250
  6
CONTINUOUS
 70
0
 71
3
 72
11
 73
7
 74
0
 42
0.0000001
 43
0.0000001
 44
0.0000000001
 40
0.0
 40
0.0
 40
0.0
 40
0.0
 40
0.2379301876
 40
0.4999979751
 40
0.7620574598
 40
1.0
 40
1.0
 40
1.0
 40
1.0
 10
-34.2138237452
 20
-1.8668940698
 30
0.0
 10
-34.2649723827
 20
-1.8390569716
 30
0.0
 10
-34.36194531
 20
-1.7609256652
 30
0.0
 10
-34.4740842449
 20
-1.6099056123
 30
0.0
 10
-34.5488067065
 20
-1.4372791682
 30
0.0
 10
-34.5679838571
 20
-1.3142309037
 30
0.0
 10
-34.5665158975
 20
-1.2560133432
 30
0.0
  0
SPLINE
  5
3D5
100
AcDbEntity
  8
0
100
AcDbSpline
 62
250
  6
CONTINUOUS
 70
0
 71
3
 72
11
 73
7
 74
0
 42
0.0000001
 43
0.0000001
 44
0.0000000001
 40
0.0
 40
0.0
 40
0.0
 40
0.0
 40
0.2908760361
 40
0.5483286102
 40
0.7795827917
 40
1.0
 40
1.0
 40
1.0
 40
1.0
 10
-34.5665158975
 20
34.9954156765
 30
0.0
 10
-34.5672139427
 20
35.0223892594
 30
0.0
 10
-34.5640924956
 20
35.0735787899
 30
0.0
 10
-34.5426643738
 20
35.1435457393
 30
0.0
 10
-34.5046219049
 20
35.1987415714
 30
0.0
 10
-34.4688799553
 20
35.2227898341
 30
0.0
 10
-34.4500934606
 20
35.2308602723
 30
0.0
  0
SPLINE
  5
3D6
100
AcDbEntity
  8
0
100
AcDbSpline
 62
250
  6
CONTINUOUS
 70
0
 71
3
 72
11
 73
7
 74
0
 42
0.0000001
 43
0.0000001
 44
0.0000000001
 40
0.0
 40
0.0
 40
0.0
 40
0.0
 40
0.2216785456
 40
0.4565141807
 40
0.7144634677
 40
1.0
 40
1.0
 40
1.0
 40
1.0
 10
-32.7084117543
 20
-1.1162524463
 30
0.0
 10
-32.7234207168
 20
-1.1075928731
 30
0.0
 10
-32.7573790258
 20
-1.0946248767
 30
0.0
 10
-32.8137676537
 20
-1.0908199453
 30
0.0
 10
-32.8740997101
 20
-1.1018934833
 30
0.0
 10
-32.9137581925
 20
-1.1178556073
 30
0.0
 10
-32.9337481214
 20
-1.1277835164
 30
0.0
  0
SPLINE
  5
3D7
100
AcDbEntity
  8
ASSI
100
AcDbSpline
 62
250
  6
CONTINUOUS
 70
0
 71
3
 72
11
 73
7
 74
0
 42
0.0000001
 43
0.0000001
 44
0.0000000001
 40
0.0
 40
0.0
 40
0.0
 40
0.0
 40
0.2216878682
 40
0.4565276316
 40
0.7144738204
 40
1.0
 40
1.0
 40
1.0
 40
1.0
 10
-33.1637964604
 20
-0.3275127208
 30
0.0
 10
-33.163801576
 20
-0.3448414148
 30
0.0
 10
-33.1695494626
 20
-0.3807352554
 30
0.0
 10
-33.1944461165
 20
-0.4314738542
 30
0.0
 10
-33.2341985308
 20
-0.4781884053
 30
0.0
 10
-33.2678488842
 20
-0.5045542347
 30
0.0
 10
-33.2864402737
 20
-0.5169027898
 30
0.0
  0
SPLINE
  5
3D8
100
AcDbEntity
  8
ASSI
100
AcDbSpline
 62
250
  6
CONTINUOUS
 70
0
 71
3
 72
11
 73
7
 74
0
 42
0.0000001
 43
0.0000001
 44
0.0000000001
 40
0.0
 40
0.0
 40
0.0
 40
0.0
 40
0.2216785456
 40
0.4565141807
 40
0.7144634677
 40
1.0
 40
1.0
 40
1.0
 40
1.0
 10
-32.7084117543
 20
-1.1162524463
 30
0.0
 10
-32.7234207168
 20
-1.1075928731
 30
0.0
 10
-32.7573790258
 20
-1.0946248767
 30
0.0
 10
-32.8137676537
 20
-1.0908199453
 30
0.0
 10
-32.8740997101
 20
-1.1018934833
 30
0.0
 10
-32.9137581925
 20
-1.1178556073
 30
0.0
 10
-32.9337481214
 20
-1.1277835164
 30
0.0
  0
SPLINE
  5
3D9
100
AcDbEntity
  8
ASSI
100
AcDbSpline
 62
250
  6
CONTINUOUS
 70
0
 71
3
 72
9
 73
5
 74
0
 42
0.0000001
 43
0.0000001
 44
0.0000000001
 40
0.0
 40
0.0
 40
0.0
 40
0.0
 40
0.2393392584
 40
1.0
 40
1.0
 40
1.0
 40
1.0
 10
28.8700949999
 20
-1.2138693498
 30
0.0
 10
28.8809837092
 20
-1.220156876
 30
0.0
 10
28.925722654
 20
-1.2477292236
 30
0.0
 10
28.9674444639
 20
-1.280081445
 30
0.0
 10
28.9973772799
 20
-1.3065564593
 30
0.0
  0
SPLINE
  5
3DA
100
AcDbEntity
  8
ASSI
100
AcDbSpline
 62
250
  6
CONTINUOUS
 70
0
 71
3
 72
10
 73
6
 74
0
 42
0.0000001
 43
0.0000001
 44
0.0000000001
 40
0.0
 40
0.0
 40
0.0
 40
0.0
 40
0.2444527989
 40
0.5004241699
 40
1.0
 40
1.0
 40
1.0
 40
1.0
 10
28.9973772799
 20
-1.3065564593
 30
0.0
 10
29.0403409693
 20
-1.3445570366
 30
0.0
 10
29.1212556701
 20
-1.4306376137
 30
0.0
 10
29.2538939513
 20
-1.6246271843
 30
0.0
 10
29.3221287647
 20
-1.792529452
 30
0.0
 10
29.346151213
 20
-1.907260849
 30
0.0
  0
SPLINE
  5
3DB
100
AcDbEntity
  8
ASSI
100
AcDbSpline
 62
250
  6
CONTINUOUS
 70
0
 71
3
 72
9
 73
5
 74
0
 42
0.0000001
 43
0.0000001
 44
0.0000000001
 40
0.0
 40
0.0
 40
0.0
 40
0.0
 40
0.2606576609
 40
1.0
 40
1.0
 40
1.0
 40
1.0
 10
29.346151213
 20
-1.907260849
 30
0.0
 10
29.3490529689
 20
-1.9211196576
 30
0.0
 10
29.3589611284
 20
-1.9745273026
 30
0.0
 10
29.3638624092
 20
-2.0289401262
 30
0.0
 10
29.3638640132
 20
-2.069102367
 30
0.0
  0
SPLINE
  5
3DC
100
AcDbEntity
  8
ASSI
100
AcDbSpline
 62
250
  6
CONTINUOUS
 70
0
 71
3
 72
15
 73
11
 74
0
 42
0.0000001
 43
0.0000001
 44
0.0000000001
 40
0.0
 40
0.0
 40
0.0
 40
0.0
 40
0.1448878866
 40
0.274530937
 40
0.3911232859
 40
0.4999825527
 40
0.6088426317
 40
0.725433994
 40
0.8550908067
 40
1.0
 40
1.0
 40
1.0
 40
1.0
 10
-34.8391490596
 20
35.0009127284
 30
0.0
 10
-34.8391474993
 20
35.036318642
 30
0.0
 10
-34.8338222214
 20
35.1036380119
 30
0.0
 10
-34.8066353389
 20
35.1961338314
 30
0.0
 10
-34.7607821445
 20
35.2712717868
 30
0.0
 10
-34.697054515
 20
35.3249261267
 30
0.0
 10
-34.6187230183
 20
35.3532826354
 30
0.0
 10
-34.5307218127
 20
35.3554207273
 30
0.0
 10
-34.4370175229
 20
35.3327110459
 30
0.0
 10
-34.3760471892
 20
35.303658857
 30
0.0
 10
-34.3453800463
 20
35.2859536659
 30
0.0
  0
SPLINE
  5
3DD
100
AcDbEntity
  8
ASSI
100
AcDbSpline
 62
250
  6
CONTINUOUS
 70
0
 71
3
 72
11
 73
7
 74
0
 42
0.0000001
 43
0.0000001
 44
0.0000000001
 40
0.0
 40
0.0
 40
0.0
 40
0.0
 40
0.2372050274
 40
0.499998172
 40
0.7627830099
 40
1.0
 40
1.0
 40
1.0
 40
1.0
 10
-34.3453800463
 20
-2.1057493085
 30
0.0
 10
-34.4154739191
 20
-2.0652738667
 30
0.0
 10
-34.5482138631
 20
-1.9537191895
 30
0.0
 10
-34.7031337211
 20
-1.7421483314
 30
0.0
 10
-34.8089056146
 20
-1.5021966973
 30
0.0
 10
-34.8391450983
 20
-1.3314611687
 30
0.0
 10
-34.8391490596
 20
-1.2505162913
 30
0.0
  0
SPLINE
  5
3DE
100
AcDbEntity
  8
ASSI
100
AcDbSpline
 62
250
  6
CONTINUOUS
 70
0
 71
3
 72
9
 73
5
 74
0
 42
0.0000001
 43
0.0000001
 44
0.0000000001
 40
0.0
 40
0.0
 40
0.0
 40
0.0
 40
0.2597456009
 40
1.0
 40
1.0
 40
1.0
 40
1.0
 10
29.3638640132
 20
-38.3205313867
 30
0.0
 10
29.3638636837
 20
-38.3296950055
 30
0.0
 10
29.3631247519
 20
-38.3649654017
 30
0.0
 10
29.3593585787
 20
-38.4002102843
 30
0.0
 10
29.3544966095
 20
-38.4258693022
 30
0.0
  0
SPLINE
  5
3DF
100
AcDbEntity
  8
ASSI
100
AcDbSpline
 62
250
  6
CONTINUOUS
 70
0
 71
3
 72
15
 73
11
 74
0
 42
0.0000001
 43
0.0000001
 44
0.0000000001
 40
0.0
 40
0.0
 40
0.0
 40
0.0
 40
0.1336111249
 40
0.2550917336
 40
0.3681606115
 40
0.4784590564
 40
0.5923825024
 40
0.715349018
 40
0.8508168978
 40
1.0
 40
1.0
 40
1.0
 40
1.0
 10
29.3544966095
 20
-38.4258693022
 30
0.0
 10
29.3492911828
 20
-38.4533409146
 30
0.0
 10
29.3347569146
 20
-38.5051401695
 30
0.0
 10
29.2976858463
 20
-38.5735387951
 30
0.0
 10
29.2469642233
 20
-38.6262831943
 30
0.0
 10
29.1841399846
 20
-38.66080584
 30
0.0
 10
29.1120169805
 20
-38.6756389805
 30
0.0
 10
29.0334905483
 20
-38.670900506
 30
0.0
 10
28.9509403505
 20
-38.6474176071
 30
0.0
 10
28.8971318973
 20
-38.6211813258
 30
0.0
 10
28.8700949999
 20
-38.6055723242
 30
0.0
  0
SPLINE
  5
3E0
100
AcDbEntity
  8
ASSI
100
AcDbSpline
 62
250
  6
CONTINUOUS
 70
0
 71
3
 72
11
 73
7
 74
0
 42
0.0000001
 43
0.0000001
 44
0.0000000001
 40
0.0
 40
0.0
 40
0.0
 40
0.0
 40
0.2204056708
 40
0.4516412301
 40
0.709096567
 40
1.0
 40
1.0
 40
1.0
 40
1.0
 10
29.2638013011
 20
-38.3836178279
 30
0.0
 10
29.2474182505
 20
-38.395854876
 30
0.0
 10
29.2087181182
 20
-38.414787685
 30
0.0
 10
29.1418883411
 20
-38.4201390048
 30
0.0
 10
29.0705688407
 20
-38.4037095684
 30
0.0
 10
29.0246675252
 20
-38.3808123657
 30
0.0
 10
29.0016513011
 20
-38.3667170855
 30
0.0
  0
SPLINE
  5
3E1
100
AcDbEntity
  8
ASSI
100
AcDbSpline
 62
250
  6
CONTINUOUS
 70
0
 71
3
 72
11
 73
7
 74
0
 42
0.0000001
 43
0.0000001
 44
0.0000000001
 40
0.0
 40
0.0
 40
0.0
 40
0.0
 40
0.2908760361
 40
0.5483286102
 40
0.7795827917
 40
1.0
 40
1.0
 40
1.0
 40
1.0
 10
-34.5665158975
 20
34.9954156765
 30
0.0
 10
-34.5672139427
 20
35.0223892594
 30
0.0
 10
-34.5640924956
 20
35.0735787899
 30
0.0
 10
-34.5426643738
 20
35.1435457393
 30
0.0
 10
-34.5046219049
 20
35.1987415714
 30
0.0
 10
-34.4688799553
 20
35.2227898341
 30
0.0
 10
-34.4500934606
 20
35.2308602723
 30
0.0
  0
SPLINE
  5
3E2
100
AcDbEntity
  8
ASSI
100
AcDbSpline
 62
250
  6
CONTINUOUS
 70
0
 71
3
 72
11
 73
7
 74
0
 42
0.0000001
 43
0.0000001
 44
0.0000000001
 40
0.0
 40
0.0
 40
0.0
 40
0.0
 40
0.2379301876
 40
0.4999979751
 40
0.7620574598
 40
1.0
 40
1.0
 40
1.0
 40
1.0
 10
-34.2138237452
 20
-1.8668940698
 30
0.0
 10
-34.2649723827
 20
-1.8390569716
 30
0.0
 10
-34.36194531
 20
-1.7609256652
 30
0.0
 10
-34.4740842449
 20
-1.6099056123
 30
0.0
 10
-34.5488067065
 20
-1.4372791682
 30
0.0
 10
-34.5679838571
 20
-1.3142309037
 30
0.0
 10
-34.5665158975
 20
-1.2560133432
 30
0.0
  0
SPLINE
  5
3E3
100
AcDbEntity
  8
ASSI
100
AcDbSpline
 62
250
  6
CONTINUOUS
 70
0
 71
3
 72
11
 73
7
 74
0
 42
0.0000001
 43
0.0000001
 44
0.0000000001
 40
0.0
 40
0.0
 40
0.0
 40
0.0
 40
0.2349168231
 40
0.4999651097
 40
0.7650326092
 40
1.0
 40
1.0
 40
1.0
 40
1.0
 10
-33.2864402737
 20
-0.5169027898
 30
0.0
 10
-33.2831868932
 20
-0.5735909475
 30
0.0
 10
-33.2564514266
 20
-0.69308061
 30
0.0
 10
-33.1790902609
 20
-0.8621537976
 30
0.0
 10
-33.0713469357
 20
-1.0137000199
 30
0.0
 10
-32.9812247534
 20
-1.096614793
 30
0.0
 10
-32.9337481214
 20
-1.1277835164
 30
0.0
  0
SPLINE
  5
3E4
100
AcDbEntity
  8
ASSI
100
AcDbSpline
 62
250
  6
CONTINUOUS
 70
0
 71
3
 72
10
 73
6
 74
0
 42
0.0000001
 43
0.0000001
 44
0.0000000001
 40
0.0
 40
0.0
 40
0.0
 40
0.0
 40
0.5477334951
 40
0.7815732312
 40
1.0
 40
1.0
 40
1.0
 40
1.0
 10
28.8700949999
 20
-1.2138693498
 30
0.0
 10
28.870095
 20
-1.2329684768
 30
0.0
 10
28.8741593952
 20
-1.2610943146
 30
0.0
 10
28.8925639662
 20
-1.2912350257
 30
0.0
 10
28.9049204101
 20
-1.3016000579
 30
0.0
 10
28.9115150822
 20
-1.3054105615
 30
0.0
  0
SPLINE
  5
3E5
100
AcDbEntity
  8
ASSI
100
AcDbSpline
 62
250
  6
CONTINUOUS
 70
0
 71
3
 72
10
 73
6
 74
0
 42
0.0000001
 43
0.0000001
 44
0.0000000001
 40
0.0
 40
0.0
 40
0.0
 40
0.0
 40
0.5477265046
 40
0.7815686222
 40
1.0
 40
1.0
 40
1.0
 40
1.0
 10
29.3638640132
 20
-2.069102367
 30
0.0
 10
29.3473219208
 20
-2.0595511702
 30
0.0
 10
29.3249942221
 20
-2.0419651344
 30
0.0
 10
29.3080929554
 20
-2.0109510273
 30
0.0
 10
29.3052949296
 20
-1.9950650456
 30
0.0
 10
29.3052924817
 20
-1.9874474476
 30
0.0
  0
SPLINE
  5
3E6
100
AcDbEntity
  8
ASSI
100
AcDbSpline
 62
250
  6
CONTINUOUS
 70
0
 71
3
 72
10
 73
6
 74
0
 42
0.0000001
 43
0.0000001
 44
0.0000000001
 40
0.0
 40
0.0
 40
0.0
 40
0.0
 40
0.5477070453
 40
0.7815740703
 40
1.0
 40
1.0
 40
1.0
 40
1.0
 10
29.3638640132
 20
-38.3205313867
 30
0.0
 10
29.347340198
 20
-38.310990743
 30
0.0
 10
29.3250367235
 20
-38.293428855
 30
0.0
 10
29.3081269381
 20
-38.2624645688
 30
0.0
 10
29.3053080686
 20
-38.2466002426
 30
0.0
 10
29.3052926165
 20
-38.238990996
 30
0.0
  0
SPLINE
  5
3E7
100
AcDbEntity
  8
ASSI
100
AcDbSpline
 62
250
  6
CONTINUOUS
 70
0
 71
3
 72
11
 73
7
 74
0
 42
0.0000001
 43
0.0000001
 44
0.0000000001
 40
0.0
 40
0.0
 40
0.0
 40
0.0
 40
0.2352630083
 40
0.4957635095
 40
0.7585500269
 40
1.0
 40
1.0
 40
1.0
 40
1.0
 10
28.8700949999
 20
-38.6055723242
 30
0.0
 10
28.8700949999
 20
-38.5834819265
 30
0.0
 10
28.87800887
 20
-38.536893727
 30
0.0
 10
28.9059532222
 20
-38.4708467001
 30
0.0
 10
28.9472307316
 20
-38.4114908672
 30
0.0
 10
28.9827133231
 20
-38.3791807255
 30
0.0
 10
29.0016513011
 20
-38.3667170855
 30
0.0
  0
SPLINE
  5
3E8
100
AcDbEntity
  8
ASSI
100
AcDbSpline
 62
250
  6
CONTINUOUS
 70
0
 71
3
 72
11
 73
7
 74
0
 42
0.0000001
 43
0.0000001
 44
0.0000000001
 40
0.0
 40
0.0
 40
0.0
 40
0.0
 40
0.2352630336
 40
0.4957635413
 40
0.7585500477
 40
1.0
 40
1.0
 40
1.0
 40
1.0
 10
-34.3453800463
 20
-2.1057493085
 30
0.0
 10
-34.3453800464
 20
-2.0836589083
 30
0.0
 10
-34.3374661754
 20
-2.0370707058
 30
0.0
 10
-34.3095218205
 20
-1.9710236778
 30
0.0
 10
-34.2682443113
 20
-1.9116678477
 30
0.0
 10
-34.2327617217
 20
-1.8793577085
 30
0.0
 10
-34.2138237452
 20
-1.8668940698
 30
0.0
  0
SPLINE
  5
3E9
100
AcDbEntity
  8
ASSI
100
AcDbSpline
 62
250
  6
CONTINUOUS
 70
0
 71
3
 72
11
 73
7
 74
0
 42
0.0000001
 43
0.0000001
 44
0.0000000001
 40
0.0
 40
0.0
 40
0.0
 40
0.0
 40
0.2352688722
 40
0.4957698352
 40
0.7585534177
 40
1.0
 40
1.0
 40
1.0
 40
1.0
 10
-34.8391490596
 20
-1.2505162913
 30
0.0
 10
-34.8200179111
 20
-1.2615623766
 30
0.0
 10
-34.7757139688
 20
-1.2780044733
 30
0.0
 10
-34.7045425818
 20
-1.286828484
 30
0.0
 10
-34.6325001572
 20
-1.2807584895
 30
0.0
 10
-34.5867780646
 20
-1.2661832342
 30
0.0
 10
-34.5665158975
 20
-1.2560133432
 30
0.0
  0
SPLINE
  5
3EA
100
AcDbEntity
  8
ASSI
100
AcDbSpline
 62
250
  6
CONTINUOUS
 70
0
 71
3
 72
11
 73
7
 74
0
 42
0.0000001
 43
0.0000001
 44
0.0000000001
 40
0.0
 40
0.0
 40
0.0
 40
0.0
 40
0.2352688974
 40
0.4957698671
 40
0.7585534388
 40
1.0
 40
1.0
 40
1.0
 40
1.0
 10
-34.8391490596
 20
35.0009127284
 30
0.0
 10
-34.820017909
 20
34.989866642
 30
0.0
 10
-34.7757139635
 20
34.9734245448
 30
0.0
 10
-34.7045425743
 20
34.9646005357
 30
0.0
 10
-34.6325001524
 20
34.9706705319
 30
0.0
 10
-34.5867780629
 20
34.9852457866
 30
0.0
 10
-34.5665158975
 20
34.9954156765
 30
0.0
  0
SPLINE
  5
3EB
100
AcDbEntity
  8
ASSI
100
AcDbSpline
 62
250
  6
CONTINUOUS
 70
0
 71
3
 72
10
 73
6
 74
0
 42
0.0000001
 43
0.0000001
 44
0.0000000001
 40
0.0
 40
0.0
 40
0.0
 40
0.0
 40
0.54771517
 40
0.7815783243
 40
1.0
 40
1.0
 40
1.0
 40
1.0
 10
-34.3453800463
 20
35.2859536659
 30
0.0
 10
-34.3453800463
 20
35.2668743681
 30
0.0
 10
-34.3413239173
 20
35.2387795845
 30
0.0
 10
-34.3229638857
 20
35.2086553438
 30
0.0
 10
-34.3106348521
 20
35.1982835223
 30
0.0
 10
-34.3040530828
 20
35.1944663593
 30
0.0
  0
SPLINE
  5
3EC
100
AcDbEntity
  8
CURVE
100
AcDbSpline
 62
250
  6
CONTINUOUS
 70
0
 71
3
 72
9
 73
5
 74
0
 42
0.0000001
 43
0.0000001
 44
0.0000000001
 40
0.0
 40
0.0
 40
0.0
 40
0.0
 40
0.5206208722
 40
1.0
 40
1.0
 40
1.0
 40
1.0
 10
50.5806159014
 20
-53.7993170701
 30
0.0
 10
50.6596496391
 20
-53.7554020811
 30
0.0
 10
50.8322980616
 20
-53.7247758084
 30
0.0
 10
50.8630907542
 20
-53.896933117
 30
0.0
 10
50.8647159796
 20
-53.9772899144
 30
0.0
  0
SPLINE
  5
3ED
100
AcDbEntity
  8
CURVE
100
AcDbSpline
 62
250
  6
CONTINUOUS
 70
0
 71
3
 72
9
 73
5
 74
0
 42
0.0000001
 43
0.0000001
 44
0.0000000001
 40
0.0
 40
0.0
 40
0.0
 40
0.0
 40
0.5013510385
 40
1.0
 40
1.0
 40
1.0
 40
1.0
 10
50.352080057
 20
-54.1630207984
 30
0.0
 10
50.3585735259
 20
-54.0970852277
 30
0.0
 10
50.4078280827
 20
-53.9442746042
 30
0.0
 10
50.5246204575
 20
-53.8304440016
 30
0.0
 10
50.5806159014
 20
-53.7993170701
 30
0.0
  0
SPLINE
  5
3EE
100
AcDbEntity
  8
CURVE
100
AcDbSpline
 62
250
  6
CONTINUOUS
 70
0
 71
3
 72
9
 73
5
 74
0
 42
0.0000001
 43
0.0000001
 44
0.0000000001
 40
0.0
 40
0.0
 40
0.0
 40
0.0
 40
0.2703953699
 40
1.0
 40
1.0
 40
1.0
 40
1.0
 10
50.3628419429
 20
-54.490981191
 30
0.0
 10
50.3582970789
 20
-54.463693305
 30
0.0
 10
50.3433493835
 20
-54.3614290331
 30
0.0
 10
50.343673881
 20
-54.2483971608
 30
0.0
 10
50.352080057
 20
-54.1630207984
 30
0.0
  0
SPLINE
  5
3EF
100
AcDbEntity
  8
CURVE
100
AcDbSpline
 62
250
  6
CONTINUOUS
 70
0
 71
3
 72
9
 73
5
 74
0
 42
0.0000001
 43
0.0000001
 44
0.0000000001
 40
0.0
 40
0.0
 40
0.0
 40
0.0
 40
0.2957417834
 40
1.0
 40
1.0
 40
1.0
 40
1.0
 10
50.091998863
 20
-53.9956240342
 30
0.0
 10
50.0602383583
 20
-54.1108677204
 30
0.0
 10
50.0084668427
 20
-54.4915077569
 30
0.0
 10
50.04035281
 20
-54.8289551375
 30
0.0
 10
50.0727508531
 20
-55.0573604741
 30
0.0
  0
SPLINE
  5
3F0
100
AcDbEntity
  8
CURVE
100
AcDbSpline
 62
250
  6
CONTINUOUS
 70
0
 71
3
 72
17
 73
13
 74
0
 42
0.0000001
 43
0.0000001
 44
0.0000000001
 40
0.0
 40
0.0
 40
0.0
 40
0.0
 40
0.0559780952
 40
0.1687540387
 40
0.321006234
 40
0.4122750837
 40
0.516613223
 40
0.6013931059
 40
0.6776022439
 40
0.8103422694
 40
0.9200404832
 40
1.0
 40
1.0
 40
1.0
 40
1.0
 10
51.0153960915
 20
-53.4545209894
 30
0.0
 10
51.012676352
 20
-53.4324542753
 30
0.0
 10
50.9704797627
 20
-53.3953608989
 30
0.0
 10
50.8900412917
 20
-53.339477936
 30
0.0
 10
50.7662187542
 20
-53.3331092019
 30
0.0
 10
50.6370438205
 20
-53.3701233287
 30
0.0
 10
50.529831322
 20
-53.4247922075
 30
0.0
 10
50.429695718
 20
-53.4948168599
 30
0.0
 10
50.3232938273
 20
-53.5911496595
 30
0.0
 10
50.2190176548
 20
-53.7206262174
 30
0.0
 10
50.1374709486
 20
-53.8680717628
 30
0.0
 10
50.1023006011
 20
-53.958197749
 30
0.0
 10
50.091998863
 20
-53.9956240342
 30
0.0
  0
SPLINE
  5
3F1
100
AcDbEntity
  8
CURVE
100
AcDbSpline
 62
250
  6
CONTINUOUS
 70
0
 71
3
 72
9
 73
5
 74
0
 42
0.0000001
 43
0.0000001
 44
0.0000000001
 40
0.0
 40
0.0
 40
0.0
 40
0.0
 40
0.2426586216
 40
1.0
 40
1.0
 40
1.0
 40
1.0
 10
51.3847686923
 20
-53.0100746935
 30
0.0
 10
51.3515473898
 20
-53.0380655898
 30
0.0
 10
51.2173916743
 20
-53.1488930007
 30
0.0
 10
51.0660022652
 20
-53.3158363946
 30
0.0
 10
51.0261991056
 20
-53.4487044033
 30
0.0
  0
SPLINE
  5
3F2
100
AcDbEntity
  8
CURVE
100
AcDbSpline
 62
250
  6
CONTINUOUS
 70
0
 71
3
 72
9
 73
5
 74
0
 42
0.0000001
 43
0.0000001
 44
0.0000000001
 40
0.0
 40
0.0
 40
0.0
 40
0.0
 40
0.1980141723
 40
1.0
 40
1.0
 40
1.0
 40
1.0
 10
51.8795823834
 20
-52.5980140448
 30
0.0
 10
51.8469870713
 20
-52.6254471974
 30
0.0
 10
51.6820060631
 20
-52.7626500461
 30
0.0
 10
51.5167560501
 20
-52.8988654512
 30
0.0
 10
51.3847686923
 20
-53.0100746935
 30
0.0
  0
SPLINE
  5
3F3
100
AcDbEntity
  8
CURVE
100
AcDbSpline
 62
250
  6
CONTINUOUS
 70
0
 71
3
 72
9
 73
5
 74
0
 42
0.0000001
 43
0.0000001
 44
0.0000000001
 40
0.0
 40
0.0
 40
0.0
 40
0.0
 40
0.5586214172
 40
1.0
 40
1.0
 40
1.0
 40
1.0
 10
51.3252150205
 20
-53.4925794314
 30
0.0
 10
51.4261339054
 20
-53.3959161078
 30
0.0
 10
51.6130071934
 20
-53.239636443
 30
0.0
 10
51.7977189718
 20
-53.0781561662
 30
0.0
 10
51.8795823834
 20
-53.0078038228
 30
0.0
  0
SPLINE
  5
3F4
100
AcDbEntity
  8
CURVE
100
AcDbSpline
 62
250
  6
CONTINUOUS
 70
0
 71
3
 72
9
 73
5
 74
0
 42
0.0000001
 43
0.0000001
 44
0.0000000001
 40
0.0
 40
0.0
 40
0.0
 40
0.0
 40
0.3559141631
 40
1.0
 40
1.0
 40
1.0
 40
1.0
 10
51.1641294674
 20
-53.8169972452
 30
0.0
 10
51.1641294674
 20
-53.7798719462
 30
0.0
 10
51.1842664291
 20
-53.6622302233
 30
0.0
 10
51.2688716315
 20
-53.5465218724
 30
0.0
 10
51.3252150205
 20
-53.4925794314
 30
0.0
  0
ELLIPSE
  5
3F5
100
AcDbEntity
  8
0
100
AcDbEllipse
 62
7
  6
CONTINUOUS
 10
-17.6537832202
 20
-6.2161326859
 30
0.0
 11
0.1999995634
 21
0.1164181051
 31
0.0
 40
0.0035896273
 41
-0.7351277754
 42
-0.6748017824
  0
ELLIPSE
  5
3F6
100
AcDbEntity
  8
0
100
AcDbEllipse
 62
7
  6
CONTINUOUS
 10
26.2499231194
 20
-30.9942176494
 30
0.0
 11
0.1998333781
 21
-0.0157785196
 31
0.0
 40
0.5172961965
 41
0.8262203412
 42
2.3446567905
  0
ELLIPSE
  5
3F7
100
AcDbEntity
  8
0
100
AcDbEllipse
 62
7
  6
CONTINUOUS
 10
-21.4797846107
 20
-3.4356825998
 30
0.0
 11
0.1998333781
 21
-0.0157785196
 31
0.0
 40
0.5172961965
 41
0.8262203412
 42
2.3446567905
  0
ELLIPSE
  5
3F8
100
AcDbEntity
  8
0
100
AcDbEllipse
 62
7
  6
CONTINUOUS
 10
24.7316955895
 20
-32.2976321623
 30
0.0
 11
0.5413005334
 21
0.8416911418
 31
0.0
 40
0.6067084637
 41
0.7148472392
 42
0.8145158917
  0
ELLIPSE
  5
3F9
100
AcDbEntity
  8
0
100
AcDbEllipse
 62
7
  6
CONTINUOUS
 10
-22.9980121406
 20
-4.7390971127
 30
0.0
 11
0.5413005334
 21
0.8416911418
 31
0.0
 40
0.6067084637
 41
0.7148472392
 42
0.8145158917
  0
ELLIPSE
  5
3FA
100
AcDbEntity
  8
0
100
AcDbEllipse
 62
7
  6
CONTINUOUS
 10
14.24063248
 20
-24.1996933078
 30
0.0
 11
0.0858610644
 21
0.3627848639
 31
0.0
 40
0.5009985936
 41
-2.6944494219
 42
-2.6479073085
  0
ELLIPSE
  5
3FB
100
AcDbEntity
  8
0
100
AcDbEllipse
 62
7
  6
CONTINUOUS
 10
-1.6692700967
 20
-15.0135149579
 30
0.0
 11
0.0858610644
 21
0.3627848639
 31
0.0
 40
0.5009985936
 41
-2.6944494219
 42
-2.6479073085
  0
ELLIPSE
  5
3FC
100
AcDbEntity
  8
0
100
AcDbEllipse
 62
7
  6
CONTINUOUS
 10
-17.6537832202
 20
-5.6447678517
 30
0.0
 11
0.1998333781
 21
-0.0157785196
 31
0.0
 40
0.5172961965
 41
-0.692216108
 42
0.8262203412
  0
ELLIPSE
  5
3FD
100
AcDbEntity
  8
0
100
AcDbEllipse
 62
7
  6
CONTINUOUS
 10
28.9780328477
 20
-34.7494140762
 30
0.0
 11
0.4625183445
 21
0.8873459255
 31
0.0
 40
0.5463614449
 41
0.662201126
 42
0.7618697785
  0
ELLIPSE
  5
3FE
100
AcDbEntity
  8
0
100
AcDbEllipse
 62
7
  6
CONTINUOUS
 10
-18.7516748823
 20
-7.1908790265
 30
0.0
 11
0.4625183445
 21
0.8873459255
 31
0.0
 40
0.5463614449
 41
0.662201126
 42
0.7618697785
  0
ELLIPSE
  5
3FF
100
AcDbEntity
  8
0
100
AcDbEllipse
 62
7
  6
CONTINUOUS
 10
-33.1423707729
 20
-0.8410178484
 30
0.0
 11
-0.2500122581
 21
0.4330056244
 31
0.0
 40
0.5801478137
 41
0.7877823601
 42
2.353712702
  0
ELLIPSE
  5
400
100
AcDbEntity
  8
ASSI
100
AcDbEllipse
 62
7
  6
CONTINUOUS
 10
-33.1423707729
 20
-0.8410178484
 30
0.0
 11
-0.2500122581
 21
0.4330056244
 31
0.0
 40
0.5801478137
 41
0.7877823601
 42
2.353712702
  0
ENDSEC
  0
SECTION
  2
OBJECTS
  0
DICTIONARY
  5
C
100
AcDbDictionary
280
0
281
1
  3
ACAD_GROUP
350
D
  3
ACAD_MLINESTYLE
350
17
  3
ACAD_LAYOUT
350
1A
  3
ACAD_PLOTSETTINGS
350
19
  3
ACAD_PLOTSTYLENAME
350
E
  0
DICTIONARY
  5
D
102
{ACAD_REACTORS
330
C
102
}
100
AcDbDictionary
280
0
281
1
  0
ACDBDICTIONARYWDFLT
  5
E
102
{ACAD_REACTORS
330
C
102
}
100
AcDbDictionary
281
1
  3
Normal
350
F
100
AcDbDictionaryWithDefault
340
F
  0
DICTIONARY
  5
17
102
{ACAD_REACTORS
330
C
102
}
100
AcDbDictionary
280
0
281
1
  3
Standard
350
18
  0
DICTIONARY
  5
19
102
{ACAD_REACTORS
330
C
102
}
100
AcDbDictionary
281
1
  0
DICTIONARY
  5
1A
102
{ACAD_REACTORS
330
C
102
}
100
AcDbDictionary
281
1
  3
Model
350
401
  3
Layout1
350
402
  0
ACDBPLACEHOLDER
  5
F
102
{ACAD_REACTORS
330
E
102
}
  0
MLINESTYLE
  5
18
102
{ACAD_REACTORS
330
17
102
}
100
AcDbMlineStyle
  2
STANDARD
 70
0
  3

 62
256
 51
90.0
 52
90.0
 71
2
 49
0.5
 62
256
  6
BYLAYER
 49
-0.5
 62
256
  6
BYLAYER
  0
LAYOUT
  5
401
102
{ACAD_REACTORS
330
1A
102
}
100
AcDbPlotSettings
  1

  2
none_device
  4
ISO_A4_(297.00_x_210.00_MM)
  6

 40
0.0
 41
0.0
 42
0.0
 43
0.0
 44
297.0
 45
210.0
 46
0.0
 47
0.0
 48
0.0
 49
0.0
140
0.0
141
0.0
142
1.0
143
1.0
 70
1024
 72
1
 73
0
 74
0
  7

 75
0
147
1.0
148
0.0
149
0.0
100
AcDbLayout
  1
Model
 70
0
 71
0
 10
0.0
 20
0.0
 11
297.0
 21
210.0
 12
0.0
 22
0.0
 32
0.0
 14
0.0
 24
0.0
 34
0.0
 15
0.0
 25
0.0
 35
0.0
146
0.0
 13
0.0
 23
0.0
 33
0.0
 16
1.0
 26
0.0
 36
0.0
 17
0.0
 27
1.0
 37
0.0
 76
0
330
21B
345
0
346
0
  0
LAYOUT
  5
402
102
{ACAD_REACTORS
330
1A
102
}
100
AcDbPlotSettings
  1

  2
none_device
  4
ISO_A4_(297.00_x_210.00_MM)
  6

 40
0.0
 41
0.0
 42
0.0
 43
0.0
 44
297.0
 45
210.0
 46
0.0
 47
0.0
 48
0.0
 49
0.0
140
0.0
141
0.0
142
1.0
143
1.0
 70
0
 72
1
 73
0
 74
0
  7

 75
0
147
1.0
148
0.0
149
0.0
100
AcDbLayout
  1
Layout1
 70
0
 71
1
 10
0.0
 20
0.0
 11
297.0
 21
210.0
 12
0.0
 22
0.0
 32
0.0
 14
0.0
 24
0.0
 34
0.0
 15
0.0
 25
0.0
 35
0.0
146
0.0
 13
0.0
 23
0.0
 33
0.0
 16
1.0
 26
0.0
 36
0.0
 17
0.0
 27
1.0
 37
0.0
 76
0
330
21C
345
0
346
0
  0
ENDSEC
  0
EOF
