  0
SECTION
  2
HEADER
  9
$ACADVER
  1
AC1024
  9
$DWGCODEPAGE
  3
ANSI_1252
  9
$EXTMAX
 10
297.0
 20
210.0
 30
0.0
  9
$EXTMIN
 10
0.0
 20
0.0
 30
0.0
  9
$LIMMIN
 10
0.0
 20
0.0
  9
$LIMMAX
 10
297.0
 20
210.0
  9
$VIEWCTR
 10
148.5
 20
105.0
  9
$VIEWSIZE
 40
210.0
  9
$CLAYER
  8
0
  9
$LTSCALE
 40
16.335
  9
$CELTYPE
  6
BYLAYER
  9
$DIMSCALE
 40
1.0
  9
$DIMASZ
 40
3.0
  9
$DIMEXO
 40
0.5
  9
$DIMDLI
 40
11.286
  9
$DIMEXE
 40
1.5
  9
$DIMCEN
 40
2.673
  9
$DIMLFAC
 40
1.0
  9
$DIMBLK
  1
_FILLED
  9
$DIMALT
 70
0
  9
$DIMALTF
 40
0.0393700787
  9
$DIMTXT
 40
3.0
  9
$DIMTOL
 70
1
  9
$DIMLIM
 70
0
  9
$DIMTFAC
 40
1.0
  9
$DIMTP
 40
0.01
  9
$DIMTM
 40
0.01
  9
$DIMGAP
 40
0.625
  9
$DIMDSEP
 70
44
  9
$AUNITS
 70
0
  9
$PDMODE
 70
3
  9
$PDSIZE
 40
3.0
  9
$HANDSEED
  5
3EB
  9
$TILEMODE
 70
1
  9
$MEASUREMENT
 70
1
  9
$INSUNITS
 70
4
  0
ENDSEC
  0
SECTION
  2
CLASSES
  0
CLASS
  1
ACDBDICTIONARYWDFLT
  2
AcDbDictionaryWithDefault
  3
AutoCAD 2000
 90
0
 91
1
280
0
281
0
  0
CLASS
  1
ACDBPLACEHOLDER
  2
AcDbPlaceHolder
  3
AutoCAD 2000
 90
0
 91
1
280
0
281
0
  0
CLASS
  1
LAYOUT
  2
AcDbLayout
  3
AutoCAD 2000
 90
0
 91
0
280
0
281
0
  0
ENDSEC
  0
SECTION
  2
TABLES
  0
TABLE
  2
VPORT
  5
8
100
AcDbSymbolTable
 70
2
  0
VPORT
  5
1F4
100
AcDbSymbolTableRecord
100
AcDbViewportTableRecord
  2
*ACTIVE
 70
0
 10
0.0
 20
0.0
 11
1.0
 21
1.0
 12
148.5
 22
105.0
 13
0.0
 23
0.0
 14
1.0
 24
1.0
 15
0.0
 25
0.0
 16
0.0
 26
0.0
 36
1.0
 17
0.0
 27
0.0
 37
0.0
 40
210.0
 41
1.4142857143
 42
50.0
 43
0.0
 44
0.0
 50
0.0
 51
0.0
 71
0
 72
100
 73
1
 74
1
 75
0
 76
0
 77
0
 78
0
  0
ENDTAB
  0
TABLE
  2
LTYPE
  5
5
100
AcDbSymbolTable
 70
6
  0
LTYPE
  5
14
100
AcDbSymbolTableRecord
100
AcDbLinetypeTableRecord
  2
BYBLOCK
 70
0
  3

 72
65
 73
0
 40
0.0
  0
LTYPE
  5
15
100
AcDbSymbolTableRecord
100
AcDbLinetypeTableRecord
  2
BYLAYER
 70
0
  3

 72
65
 73
0
 40
0.0
  0
LTYPE
  5
16
100
AcDbSymbolTableRecord
100
AcDbLinetypeTableRecord
  2
CONTINUOUS
 70
64
  3
Solid line
 72
65
 73
0
 40
0.0
  0
LTYPE
  5
1F5
100
AcDbSymbolTableRecord
100
AcDbLinetypeTableRecord
  2
CENTER
 70
64
  3
____ _ ____ _ ____ _ ____ _ ____ _ ____ _ ____
 72
65
 73
4
 40
0.6
 49
0.375
 74
0
 49
-0.075
 74
0
 49
0.075
 74
0
 49
-0.075
 74
0
  0
LTYPE
  5
1F6
100
AcDbSymbolTableRecord
100
AcDbLinetypeTableRecord
  2
HIDDEN
 70
64
  3
- - - - - - - - - - - - - - - - - - - -
 72
65
 73
2
 40
0.2
 49
0.1
 74
0
 49
-0.1
 74
0
  0
LTYPE
  5
1F7
100
AcDbSymbolTableRecord
100
AcDbLinetypeTableRecord
  2
PHANTOM
 70
64
  3
_____ _ _ _____ _ _ _____ _ _ _____
 72
65
 73
6
 40
0.8
 49
0.45
 74
0
 49
-0.05
 74
0
 49
0.1
 74
0
 49
-0.05
 74
0
 49
0.1
 74
0
 49
-0.05
 74
0
  0
LTYPE
  5
1F8
100
AcDbSymbolTableRecord
100
AcDbLinetypeTableRecord
  2
DOT
 70
64
  3
. . . . . . . . . . . . . . . . . . . .
 72
65
 73
2
 40
0.2
 49
0.1
 74
0
 49
-0.1
 74
0
  0
LTYPE
  5
1F9
100
AcDbSymbolTableRecord
100
AcDbLinetypeTableRecord
  2
DASHED
 70
64
  3
- - - - - - - - - - - - - - - - - - - -
 72
65
 73
2
 40
0.2
 49
0.1
 74
0
 49
-0.1
 74
0
  0
ENDTAB
  0
TABLE
  2
LAYER
  5
2
100
AcDbSymbolTable
 70
36
  0
LAYER
  5
10
100
AcDbSymbolTableRecord
100
AcDbLayerTableRecord
  2
0
 70
0
 62
7
  6
CONTINUOUS
370
-3
390
F
  0
LAYER
  5
1FA
100
AcDbSymbolTableRecord
100
AcDbLayerTableRecord
  2
DEFAULT_1
 70
0
 62
7
  6
CENTER
370
-3
390
F
  0
LAYER
  5
1FB
100
AcDbSymbolTableRecord
100
AcDbLayerTableRecord
  2
DEFAULT_2
 70
0
 62
7
  6
HIDDEN
370
-3
390
F
  0
LAYER
  5
1FC
100
AcDbSymbolTableRecord
100
AcDbLayerTableRecord
  2
DEFAULT_3
 70
0
 62
7
  6
PHANTOM
370
-3
390
F
  0
LAYER
  5
1FD
100
AcDbSymbolTableRecord
100
AcDbLayerTableRecord
  2
ASSI
 70
0
 62
7
  6
CONTINUOUS
370
-3
390
F
  0
LAYER
  5
1FE
100
AcDbSymbolTableRecord
100
AcDbLayerTableRecord
  2
COORDINATE
 70
0
 62
7
  6
CONTINUOUS
370
-3
390
F
  0
LAYER
  5
1FF
100
AcDbSymbolTableRecord
100
AcDbLayerTableRecord
  2
COORD_ORIGINE
 70
0
 62
7
  6
CONTINUOUS
370
-3
390
F
  0
LAYER
  5
200
100
AcDbSymbolTableRecord
100
AcDbLayerTableRecord
  2
COPY_PUBLISH
 70
0
 62
7
  6
CONTINUOUS
370
-3
390
F
  0
LAYER
  5
201
100
AcDbSymbolTableRecord
100
AcDbLayerTableRecord
  2
COSMETIC
 70
0
 62
7
  6
CONTINUOUS
370
-3
390
F
  0
LAYER
  5
202
100
AcDbSymbolTableRecord
100
AcDbLayerTableRecord
  2
COSMETICI
 70
0
 62
7
  6
CONTINUOUS
370
-3
390
F
  0
LAYER
  5
203
100
AcDbSymbolTableRecord
100
AcDbLayerTableRecord
  2
CURVA_TASSELLO
 70
0
 62
7
  6
CONTINUOUS
370
-3
390
F
  0
LAYER
  5
204
100
AcDbSymbolTableRecord
100
AcDbLayerTableRecord
  2
CURVE
 70
0
 62
7
  6
CONTINUOUS
370
-3
390
F
  0
LAYER
  5
205
100
AcDbSymbolTableRecord
100
AcDbLayerTableRecord
  2
DRAFT
 70
0
 62
7
  6
CONTINUOUS
370
-3
390
F
  0
LAYER
  5
206
100
AcDbSymbolTableRecord
100
AcDbLayerTableRecord
  2
IMPORT_IGES
 70
0
 62
7
  6
CONTINUOUS
370
-3
390
F
  0
LAYER
  5
207
100
AcDbSymbolTableRecord
100
AcDbLayerTableRecord
  2
INTFCLR_2
 70
0
 62
7
  6
CONTINUOUS
370
-3
390
F
  0
LAYER
  5
208
100
AcDbSymbolTableRecord
100
AcDbLayerTableRecord
  2
INTF_1
 70
0
 62
7
  6
CONTINUOUS
370
-3
390
F
  0
LAYER
  5
209
100
AcDbSymbolTableRecord
100
AcDbLayerTableRecord
  2
INTF_7
 70
0
 62
7
  6
CONTINUOUS
370
-3
390
F
  0
LAYER
  5
20A
100
AcDbSymbolTableRecord
100
AcDbLayerTableRecord
  2
LINEA_CHIUSURA
 70
0
 62
7
  6
CONTINUOUS
370
-3
390
F
  0
LAYER
  5
20B
100
AcDbSymbolTableRecord
100
AcDbLayerTableRecord
  2
NOTE
 70
0
 62
7
  6
CONTINUOUS
370
-3
390
F
  0
LAYER
  5
20C
100
AcDbSymbolTableRecord
100
AcDbLayerTableRecord
  2
PIANI
 70
0
 62
7
  6
CONTINUOUS
370
-3
390
F
  0
LAYER
  5
20D
100
AcDbSymbolTableRecord
100
AcDbLayerTableRecord
  2
PIANI_ORIGINE
 70
0
 62
7
  6
CONTINUOUS
370
-3
390
F
  0
LAYER
  5
20E
100
AcDbSymbolTableRecord
100
AcDbLayerTableRecord
  2
PIANI_RIFERIMENTO
 70
0
 62
7
  6
CONTINUOUS
370
-3
390
F
  0
LAYER
  5
20F
100
AcDbSymbolTableRecord
100
AcDbLayerTableRecord
  2
PUNTI
 70
0
 62
7
  6
CONTINUOUS
370
-3
390
F
  0
LAYER
  5
210
100
AcDbSymbolTableRecord
100
AcDbLayerTableRecord
  2
RACCORDO
 70
0
 62
7
  6
CONTINUOUS
370
-3
390
F
  0
LAYER
  5
211
100
AcDbSymbolTableRecord
100
AcDbLayerTableRecord
  2
RGB__255__255__255__
 70
0
 62
7
  6
CONTINUOUS
370
-3
390
F
  0
LAYER
  5
212
100
AcDbSymbolTableRecord
100
AcDbLayerTableRecord
  2
RGB____0____0____0__
 70
0
 62
7
  6
CONTINUOUS
370
-3
390
F
  0
LAYER
  5
213
100
AcDbSymbolTableRecord
100
AcDbLayerTableRecord
  2
SIMBOLI
 70
0
 62
7
  6
CONTINUOUS
370
-3
390
F
  0
LAYER
  5
214
100
AcDbSymbolTableRecord
100
AcDbLayerTableRecord
  2
SMUSSO
 70
0
 62
7
  6
CONTINUOUS
370
-3
390
F
  0
LAYER
  5
215
100
AcDbSymbolTableRecord
100
AcDbLayerTableRecord
  2
SNAPLINE
 70
0
 62
7
  6
CONTINUOUS
370
-3
390
F
  0
LAYER
  5
216
100
AcDbSymbolTableRecord
100
AcDbLayerTableRecord
  2
SUPERFICI
 70
0
 62
7
  6
CONTINUOUS
370
-3
390
F
  0
LAYER
  5
217
100
AcDbSymbolTableRecord
100
AcDbLayerTableRecord
  2
TRASH
 70
0
 62
7
  6
CONTINUOUS
370
-3
390
F
  0
LAYER
  5
218
100
AcDbSymbolTableRecord
100
AcDbLayerTableRecord
  2
WHITE
 70
0
 62
7
  6
CONTINUOUS
370
-3
390
F
  0
LAYER
  5
219
100
AcDbSymbolTableRecord
100
AcDbLayerTableRecord
  2
XSEC_DATUMS
 70
0
 62
7
  6
CONTINUOUS
370
-3
390
F
  0
ENDTAB
  0
TABLE
  2
STYLE
  5
3
100
AcDbSymbolTable
 70
1
  0
STYLE
  5
11
100
AcDbSymbolTableRecord
100
AcDbTextStyleTableRecord
  2
STANDARD
 70
0
 40
0.0
 41
0.8
 50
0.0
 71
0
 42
0.2
  3
txt
  4

  0
STYLE
  5
21A
100
AcDbSymbolTableRecord
100
AcDbTextStyleTableRecord
  2
TEXTSTYLE_1
 70
0
 40
0.0
 41
0.8
 50
0.0
 71
0
 42
0.2
  3
gdt
  4

  0
ENDTAB
  0
TABLE
  2
VIEW
  5
6
100
AcDbSymbolTable
 70
0
  0
ENDTAB
  0
TABLE
  2
UCS
  5
7
100
AcDbSymbolTable
 70
0
  0
ENDTAB
  0
TABLE
  2
APPID
  5
9
100
AcDbSymbolTable
 70
1
  0
APPID
  5
21B
100
AcDbSymbolTableRecord
100
AcDbRegAppTableRecord
  2
ACAD
 70
0
  0
ENDTAB
  0
TABLE
  2
BLOCK_RECORD
  5
1
100
AcDbSymbolTable
 70
0
  0
BLOCK_RECORD
  5
21C
100
AcDbSymbolTableRecord
100
AcDbBlockTableRecord
  2
*Model_Space
  0
BLOCK_RECORD
  5
21D
100
AcDbSymbolTableRecord
100
AcDbBlockTableRecord
  2
*Paper_Space
  0
BLOCK_RECORD
  5
21E
100
AcDbSymbolTableRecord
100
AcDbBlockTableRecord
  2
_FILLED
  0
ENDTAB
  0
TABLE
  2
DIMSTYLE
  5
A
100
AcDbSymbolTable
 70
1
100
AcDbDimStyleTable
 71
0
  0
DIMSTYLE
105
21F
100
AcDbSymbolTableRecord
100
AcDbDimStyleTableRecord
  2
STANDARD
 70
0
  3

  4

 40
1.0
 41
3.0
 42
0.5
 43
0.38
 44
1.5
 45
0.0
 46
0.0
 47
0.01
 48
0.01
140
3.0
141
0.09
142
0.0
143
25.4
144
1.0
145
0.0
146
1.0
147
0.625
 71
1
 72
0
 73
0
 74
0
 75
0
 76
0
 77
1
 78
8
 79
2
170
0
171
1
172
0
173
0
174
0
175
0
176
0
177
0
178
0
270
2
179
2
271
2
272
2
273
2
274
2
275
0
280
0
281
0
282
0
283
1
284
8
285
0
286
0
287
3
288
0
340
11
278
44
341
21E
342
21E
343
21E
344
21E
  0
ENDTAB
  0
ENDSEC
  0
SECTION
  2
BLOCKS
  0
BLOCK
  5
20
100
AcDbEntity
  8
0
100
AcDbBlockBegin
  2
*Model_Space
 70
0
 10
0.0
 20
0.0
 30
0.0
  3
*Model_Space
  1

  0
ENDBLK
  5
21
100
AcDbEntity
  8
0
100
AcDbBlockEnd
  0
BLOCK
  5
1C
100
AcDbEntity
  8
0
100
AcDbBlockBegin
  2
*Paper_Space
 70
0
 10
0.0
 20
0.0
 30
0.0
  3
*Paper_Space
  1

  0
ENDBLK
  5
1D
100
AcDbEntity
  8
0
100
AcDbBlockEnd
  0
BLOCK
  5
220
100
AcDbEntity
  8
0
100
AcDbBlockBegin
  2
_FILLED
 70
64
 10
0.0
 20
0.0
  3
_FILLED
  1

  0
SOLID
  5
221
100
AcDbEntity
  8
0
  6
BYBLOCK
 62
0
100
AcDbTrace
 10
0.0
 20
0.0
 11
-1.0
 21
0.3166666667
 12
-1.0
 22
-0.3166666667
 13
-1.0
 23
-0.3166666667
  0
ENDBLK
  5
222
100
AcDbEntity
  8
0
  6
BYBLOCK
 62
0
100
AcDbBlockEnd
  0
ENDSEC
  0
SECTION
  2
ENTITIES
  0
LINE
  5
223
100
AcDbEntity
  8
SMUSSO
100
AcDbLine
 62
7
  6
CONTINUOUS
 10
-53.0860415976
 20
64.5657767796
 11
-50.6111678634
 21
65.9946984013
  0
LINE
  5
224
100
AcDbEntity
  8
0
100
AcDbLine
 62
7
  6
CONTINUOUS
 10
-48.0833105618
 20
66.6487623312
 11
-49.9786321977
 21
65.6295196904
  0
LINE
  5
225
100
AcDbEntity
  8
ASSI
100
AcDbLine
 62
7
  6
CONTINUOUS
 10
-48.0833105618
 20
66.6487623312
 11
-49.9786321977
 21
65.6295196904
  0
LINE
  5
226
100
AcDbEntity
  8
0
100
AcDbLine
 62
250
  6
CONTINUOUS
 10
-47.6060717392
 20
66.5868139808
 11
-49.6924749295
 21
65.4648138637
  0
LINE
  5
227
100
AcDbEntity
  8
ASSI
100
AcDbLine
 62
250
  6
CONTINUOUS
 10
-47.6060717392
 20
66.5868139808
 11
-49.6924749295
 21
65.4648138637
  0
LINE
  5
228
100
AcDbEntity
  8
0
100
AcDbLine
 62
250
  6
CONTINUOUS
 10
51.2194314784
 20
-58.556141206
 11
52.1279905845
 21
-58.317624934
  0
LINE
  5
229
100
AcDbEntity
  8
0
100
AcDbLine
 62
250
  6
CONTINUOUS
 10
52.5393764389
 20
-57.9419821576
 11
51.2194314784
 21
-58.2325732189
  0
LINE
  5
22A
100
AcDbEntity
  8
0
100
AcDbLine
 62
250
  6
CONTINUOUS
 10
52.0719668848
 20
-55.0047349193
 11
51.5821185319
 21
-55.1363961186
  0
LINE
  5
22B
100
AcDbEntity
  8
0
100
AcDbLine
 62
250
  6
CONTINUOUS
 10
52.5393764389
 20
-54.8808481182
 11
52.2758683626
 21
-54.9490546574
  0
LINE
  5
22C
100
AcDbEntity
  8
0
100
AcDbLine
 62
250
  6
CONTINUOUS
 10
51.2194314784
 20
-55.5037776903
 11
52.5393764389
 21
-55.2011249137
  0
LINE
  5
22D
100
AcDbEntity
  8
0
100
AcDbLine
 62
250
  6
CONTINUOUS
 10
51.2194314784
 20
-56.5065762819
 11
51.9522687422
 21
-56.392200502
  0
LINE
  5
22E
100
AcDbEntity
  8
0
100
AcDbLine
 62
250
  6
CONTINUOUS
 10
52.5393764389
 20
-56.0202299401
 11
51.6810703211
 21
-56.1484269303
  0
LINE
  5
22F
100
AcDbEntity
  8
SMUSSO
100
AcDbLine
 62
7
  6
CONTINUOUS
 10
-53.0860415976
 20
64.5657767796
 11
-53.0860415976
 21
-8.1001173099
  0
LINE
  5
230
100
AcDbEntity
  8
0
100
AcDbLine
 62
250
  6
CONTINUOUS
 10
-34.241645879
 20
34.8247954735
 11
-33.3931587456
 21
35.3147013103
  0
LINE
  5
231
100
AcDbEntity
  8
0
100
AcDbLine
 62
7
  6
CONTINUOUS
 10
-34.9487526601
 20
-0.1201323732
 11
-34.9487526601
 21
34.8247954735
  0
LINE
  5
232
100
AcDbEntity
  8
0
100
AcDbLine
 62
7
  6
CONTINUOUS
 10
-34.241645879
 20
-0.1201323732
 11
-34.241645879
 21
34.8247954735
  0
LINE
  5
233
100
AcDbEntity
  8
SMUSSO
100
AcDbLine
 62
7
  6
CONTINUOUS
 10
-53.0860415976
 20
-8.1001173099
 11
48.3837815027
 21
-66.6874819975
  0
LINE
  5
234
100
AcDbEntity
  8
RACCORDO
100
AcDbLine
 62
7
  6
CONTINUOUS
 10
-31.7667721448
 20
34.3755592741
 11
-31.7667721448
 21
1.3088287034
  0
LINE
  5
235
100
AcDbEntity
  8
0
100
AcDbLine
 62
250
  6
CONTINUOUS
 10
-31.1744363835
 20
34.0335520292
 11
-31.1744363835
 21
0.033284625
  0
LINE
  5
236
100
AcDbEntity
  8
ASSI
100
AcDbLine
 62
250
  6
CONTINUOUS
 10
-31.1744363835
 20
34.0335520292
 11
-31.1744363835
 21
0.033284625
  0
LINE
  5
237
100
AcDbEntity
  8
0
100
AcDbLine
 62
7
  6
CONTINUOUS
 10
-31.0902383236
 20
33.9849371247
 11
-31.0902383236
 21
-0.0409911587
  0
LINE
  5
238
100
AcDbEntity
  8
ASSI
100
AcDbLine
 62
7
  6
CONTINUOUS
 10
-31.0902383236
 20
33.9849371247
 11
-31.0902383236
 21
-0.0409911587
  0
LINE
  5
239
100
AcDbEntity
  8
0
100
AcDbLine
 62
250
  6
CONTINUOUS
 10
-33.7466711321
 20
-2.2021986524
 11
-33.3931177415
 21
-1.5898262174
  0
LINE
  5
23A
100
AcDbEntity
  8
0
100
AcDbLine
 62
250
  6
CONTINUOUS
 10
-16.4822456762
 20
-4.7564881377
 11
-16.4822456762
 21
-5.1638577756
  0
LINE
  5
23B
100
AcDbEntity
  8
ASSI
100
AcDbLine
 62
250
  6
CONTINUOUS
 10
-16.4822456762
 20
-4.7564881377
 11
-16.4822456762
 21
-5.1638577756
  0
LINE
  5
23C
100
AcDbEntity
  8
0
100
AcDbLine
 62
7
  6
CONTINUOUS
 10
-16.4308746413
 20
-4.6899106308
 11
-16.4308746413
 21
-5.1333124808
  0
LINE
  5
23D
100
AcDbEntity
  8
ASSI
100
AcDbLine
 62
7
  6
CONTINUOUS
 10
-16.4308746413
 20
-4.6899106308
 11
-16.4308746413
 21
-5.1333124808
  0
LINE
  5
23E
100
AcDbEntity
  8
0
100
AcDbLine
 62
7
  6
CONTINUOUS
 10
-23.93564911
 20
-4.192527922
 11
-23.9178868736
 21
-4.1617628262
  0
LINE
  5
23F
100
AcDbEntity
  8
ASSI
100
AcDbLine
 62
7
  6
CONTINUOUS
 10
-23.93564911
 20
-4.192527922
 11
-23.9178868736
 21
-4.1617628262
  0
LINE
  5
240
100
AcDbEntity
  8
0
100
AcDbLine
 62
7
  6
CONTINUOUS
 10
-23.6703995002
 20
-4.14133726
 11
-23.564333483
 21
-3.9576255295
  0
LINE
  5
241
100
AcDbEntity
  8
ASSI
100
AcDbLine
 62
7
  6
CONTINUOUS
 10
-23.6703995002
 20
-4.14133726
 11
-23.564333483
 21
-3.9576255295
  0
LINE
  5
242
100
AcDbEntity
  8
0
100
AcDbLine
 62
7
  6
CONTINUOUS
 10
-23.3168461096
 20
-3.9371999634
 11
-23.2107800924
 21
-3.7534882328
  0
LINE
  5
243
100
AcDbEntity
  8
ASSI
100
AcDbLine
 62
7
  6
CONTINUOUS
 10
-23.3168461096
 20
-3.9371999634
 11
-23.2107800924
 21
-3.7534882328
  0
LINE
  5
244
100
AcDbEntity
  8
0
100
AcDbLine
 62
7
  6
CONTINUOUS
 10
-22.963292719
 20
-3.7330626667
 11
-22.8572267019
 21
-3.5493509362
  0
LINE
  5
245
100
AcDbEntity
  8
ASSI
100
AcDbLine
 62
7
  6
CONTINUOUS
 10
-22.963292719
 20
-3.7330626667
 11
-22.8572267019
 21
-3.5493509362
  0
LINE
  5
246
100
AcDbEntity
  8
0
100
AcDbLine
 62
7
  6
CONTINUOUS
 10
-22.6097393284
 20
-3.52892537
 11
-22.5036733113
 21
-3.3452136395
  0
LINE
  5
247
100
AcDbEntity
  8
ASSI
100
AcDbLine
 62
7
  6
CONTINUOUS
 10
-22.6097393284
 20
-3.52892537
 11
-22.5036733113
 21
-3.3452136395
  0
LINE
  5
248
100
AcDbEntity
  8
0
100
AcDbLine
 62
7
  6
CONTINUOUS
 10
-22.2561859378
 20
-3.3247880734
 11
-22.1501199207
 21
-3.1410763428
  0
LINE
  5
249
100
AcDbEntity
  8
ASSI
100
AcDbLine
 62
7
  6
CONTINUOUS
 10
-22.2561859378
 20
-3.3247880734
 11
-22.1501199207
 21
-3.1410763428
  0
LINE
  5
24A
100
AcDbEntity
  8
0
100
AcDbLine
 62
250
  6
CONTINUOUS
 10
-34.241645879
 20
-0.1201323732
 11
-31.7667721448
 21
1.3088287034
  0
LINE
  5
24B
100
AcDbEntity
  8
0
100
AcDbLine
 62
7
  6
CONTINUOUS
 10
28.3373042561
 20
-38.0487079466
 11
-33.7466711321
 21
-2.2021986524
  0
LINE
  5
24C
100
AcDbEntity
  8
0
100
AcDbLine
 62
7
  6
CONTINUOUS
 10
28.6908576466
 20
-37.4363355115
 11
-33.3931177415
 21
-1.5898262174
  0
LINE
  5
24D
100
AcDbEntity
  8
0
100
AcDbLine
 62
7
  6
CONTINUOUS
 10
-20.0465618135
 20
-6.4380381853
 11
-20.0287995771
 21
-6.4072730895
  0
LINE
  5
24E
100
AcDbEntity
  8
ASSI
100
AcDbLine
 62
7
  6
CONTINUOUS
 10
-20.0465618135
 20
-6.4380381853
 11
-20.0287995771
 21
-6.4072730895
  0
LINE
  5
24F
100
AcDbEntity
  8
0
100
AcDbLine
 62
7
  6
CONTINUOUS
 10
-19.7813122037
 20
-6.3868475233
 11
-19.6752461865
 21
-6.2031357928
  0
LINE
  5
250
100
AcDbEntity
  8
ASSI
100
AcDbLine
 62
7
  6
CONTINUOUS
 10
-19.7813122037
 20
-6.3868475233
 11
-19.6752461865
 21
-6.2031357928
  0
LINE
  5
251
100
AcDbEntity
  8
0
100
AcDbLine
 62
7
  6
CONTINUOUS
 10
-19.4277588131
 20
-6.1827102267
 11
-19.3216927959
 21
-5.9989984961
  0
LINE
  5
252
100
AcDbEntity
  8
ASSI
100
AcDbLine
 62
7
  6
CONTINUOUS
 10
-19.4277588131
 20
-6.1827102267
 11
-19.3216927959
 21
-5.9989984961
  0
LINE
  5
253
100
AcDbEntity
  8
0
100
AcDbLine
 62
7
  6
CONTINUOUS
 10
-19.0742054225
 20
-5.97857293
 11
-18.9681394053
 21
-5.7948611995
  0
LINE
  5
254
100
AcDbEntity
  8
ASSI
100
AcDbLine
 62
7
  6
CONTINUOUS
 10
-19.0742054225
 20
-5.97857293
 11
-18.9681394053
 21
-5.7948611995
  0
LINE
  5
255
100
AcDbEntity
  8
0
100
AcDbLine
 62
7
  6
CONTINUOUS
 10
-18.7206520319
 20
-5.7744356333
 11
-18.6145860147
 21
-5.5907239028
  0
LINE
  5
256
100
AcDbEntity
  8
ASSI
100
AcDbLine
 62
7
  6
CONTINUOUS
 10
-18.7206520319
 20
-5.7744356333
 11
-18.6145860147
 21
-5.5907239028
  0
LINE
  5
257
100
AcDbEntity
  8
0
100
AcDbLine
 62
7
  6
CONTINUOUS
 10
-18.3670986413
 20
-5.5702983367
 11
-18.2610326241
 21
-5.3865866062
  0
LINE
  5
258
100
AcDbEntity
  8
ASSI
100
AcDbLine
 62
7
  6
CONTINUOUS
 10
-18.3670986413
 20
-5.5702983367
 11
-18.2610326241
 21
-5.3865866062
  0
LINE
  5
259
100
AcDbEntity
  8
0
100
AcDbLine
 62
250
  6
CONTINUOUS
 10
-33.3931177415
 20
-1.5898262174
 11
-30.9182440074
 21
-0.1608651407
  0
LINE
  5
25A
100
AcDbEntity
  8
RACCORDO
100
AcDbLine
 62
7
  6
CONTINUOUS
 10
-30.9182440074
 20
-0.1608651407
 11
29.5393857841
 21
-35.0683428702
  0
LINE
  5
25B
100
AcDbEntity
  8
0
100
AcDbLine
 62
7
  6
CONTINUOUS
 10
27.700908153
 20
-33.9658081391
 11
23.8118208565
 21
-31.7202978758
  0
LINE
  5
25C
100
AcDbEntity
  8
ASSI
100
AcDbLine
 62
7
  6
CONTINUOUS
 10
27.700908153
 20
-33.9658081391
 11
23.8118208565
 21
-31.7202978758
  0
LINE
  5
25D
100
AcDbEntity
  8
0
100
AcDbLine
 62
7
  6
CONTINUOUS
 10
-20.0287995771
 20
-6.4072730895
 11
-23.9178868736
 21
-4.1617628262
  0
LINE
  5
25E
100
AcDbEntity
  8
ASSI
100
AcDbLine
 62
7
  6
CONTINUOUS
 10
-20.0287995771
 20
-6.4072730895
 11
-23.9178868736
 21
-4.1617628262
  0
LINE
  5
25F
100
AcDbEntity
  8
0
100
AcDbLine
 62
7
  6
CONTINUOUS
 10
27.9483955264
 20
-33.9453825729
 11
23.9532422127
 21
-31.6386429571
  0
LINE
  5
260
100
AcDbEntity
  8
ASSI
100
AcDbLine
 62
7
  6
CONTINUOUS
 10
27.9483955264
 20
-33.9453825729
 11
23.9532422127
 21
-31.6386429571
  0
LINE
  5
261
100
AcDbEntity
  8
0
100
AcDbLine
 62
7
  6
CONTINUOUS
 10
-23.7764655174
 20
-4.0801079075
 11
-19.7813122037
 21
-6.3868475233
  0
LINE
  5
262
100
AcDbEntity
  8
ASSI
100
AcDbLine
 62
7
  6
CONTINUOUS
 10
-23.7764655174
 20
-4.0801079075
 11
-19.7813122037
 21
-6.3868475233
  0
LINE
  5
263
100
AcDbEntity
  8
0
100
AcDbLine
 62
7
  6
CONTINUOUS
 10
28.0544615436
 20
-33.7616708424
 11
24.1653742471
 21
-31.5161605791
  0
LINE
  5
264
100
AcDbEntity
  8
ASSI
100
AcDbLine
 62
7
  6
CONTINUOUS
 10
28.0544615436
 20
-33.7616708424
 11
24.1653742471
 21
-31.5161605791
  0
LINE
  5
265
100
AcDbEntity
  8
0
100
AcDbLine
 62
7
  6
CONTINUOUS
 10
-19.6752461865
 20
-6.2031357928
 11
-23.564333483
 21
-3.9576255295
  0
LINE
  5
266
100
AcDbEntity
  8
ASSI
100
AcDbLine
 62
7
  6
CONTINUOUS
 10
-19.6752461865
 20
-6.2031357928
 11
-23.564333483
 21
-3.9576255295
  0
LINE
  5
267
100
AcDbEntity
  8
0
100
AcDbLine
 62
7
  6
CONTINUOUS
 10
28.301948917
 20
-33.7412452763
 11
24.3067956033
 21
-31.4345056605
  0
LINE
  5
268
100
AcDbEntity
  8
ASSI
100
AcDbLine
 62
7
  6
CONTINUOUS
 10
28.301948917
 20
-33.7412452763
 11
24.3067956033
 21
-31.4345056605
  0
LINE
  5
269
100
AcDbEntity
  8
0
100
AcDbLine
 62
7
  6
CONTINUOUS
 10
-23.4229121268
 20
-3.8759706108
 11
-19.4277588131
 21
-6.1827102267
  0
LINE
  5
26A
100
AcDbEntity
  8
ASSI
100
AcDbLine
 62
7
  6
CONTINUOUS
 10
-23.4229121268
 20
-3.8759706108
 11
-19.4277588131
 21
-6.1827102267
  0
LINE
  5
26B
100
AcDbEntity
  8
0
100
AcDbLine
 62
7
  6
CONTINUOUS
 10
28.4080149342
 20
-33.5575335458
 11
24.5189276376
 21
-31.3120232825
  0
LINE
  5
26C
100
AcDbEntity
  8
ASSI
100
AcDbLine
 62
7
  6
CONTINUOUS
 10
28.4080149342
 20
-33.5575335458
 11
24.5189276376
 21
-31.3120232825
  0
LINE
  5
26D
100
AcDbEntity
  8
0
100
AcDbLine
 62
7
  6
CONTINUOUS
 10
-19.3216927959
 20
-5.9989984961
 11
-23.2107800924
 21
-3.7534882328
  0
LINE
  5
26E
100
AcDbEntity
  8
ASSI
100
AcDbLine
 62
7
  6
CONTINUOUS
 10
-19.3216927959
 20
-5.9989984961
 11
-23.2107800924
 21
-3.7534882328
  0
LINE
  5
26F
100
AcDbEntity
  8
0
100
AcDbLine
 62
7
  6
CONTINUOUS
 10
28.6555023076
 20
-33.5371079796
 11
24.6603489939
 21
-31.2303683638
  0
LINE
  5
270
100
AcDbEntity
  8
ASSI
100
AcDbLine
 62
7
  6
CONTINUOUS
 10
28.6555023076
 20
-33.5371079796
 11
24.6603489939
 21
-31.2303683638
  0
LINE
  5
271
100
AcDbEntity
  8
0
100
AcDbLine
 62
7
  6
CONTINUOUS
 10
-23.0693587362
 20
-3.6718333142
 11
-19.0742054225
 21
-5.97857293
  0
LINE
  5
272
100
AcDbEntity
  8
ASSI
100
AcDbLine
 62
7
  6
CONTINUOUS
 10
-23.0693587362
 20
-3.6718333142
 11
-19.0742054225
 21
-5.97857293
  0
LINE
  5
273
100
AcDbEntity
  8
0
100
AcDbLine
 62
7
  6
CONTINUOUS
 10
28.7615683248
 20
-33.3533962491
 11
24.8724810282
 21
-31.1078859858
  0
LINE
  5
274
100
AcDbEntity
  8
ASSI
100
AcDbLine
 62
7
  6
CONTINUOUS
 10
28.7615683248
 20
-33.3533962491
 11
24.8724810282
 21
-31.1078859858
  0
LINE
  5
275
100
AcDbEntity
  8
0
100
AcDbLine
 62
7
  6
CONTINUOUS
 10
-18.9681394053
 20
-5.7948611995
 11
-22.8572267019
 21
-3.5493509362
  0
LINE
  5
276
100
AcDbEntity
  8
ASSI
100
AcDbLine
 62
7
  6
CONTINUOUS
 10
-18.9681394053
 20
-5.7948611995
 11
-22.8572267019
 21
-3.5493509362
  0
LINE
  5
277
100
AcDbEntity
  8
0
100
AcDbLine
 62
7
  6
CONTINUOUS
 10
29.0090556982
 20
-33.332970683
 11
25.0139023845
 21
-31.0262310671
  0
LINE
  5
278
100
AcDbEntity
  8
ASSI
100
AcDbLine
 62
7
  6
CONTINUOUS
 10
29.0090556982
 20
-33.332970683
 11
25.0139023845
 21
-31.0262310671
  0
LINE
  5
279
100
AcDbEntity
  8
0
100
AcDbLine
 62
7
  6
CONTINUOUS
 10
-22.7158053456
 20
-3.4676960175
 11
-18.7206520319
 21
-5.7744356333
  0
LINE
  5
27A
100
AcDbEntity
  8
ASSI
100
AcDbLine
 62
7
  6
CONTINUOUS
 10
-22.7158053456
 20
-3.4676960175
 11
-18.7206520319
 21
-5.7744356333
  0
LINE
  5
27B
100
AcDbEntity
  8
0
100
AcDbLine
 62
7
  6
CONTINUOUS
 10
29.1151217154
 20
-33.1492589524
 11
25.2260344188
 21
-30.9037486891
  0
LINE
  5
27C
100
AcDbEntity
  8
ASSI
100
AcDbLine
 62
7
  6
CONTINUOUS
 10
29.1151217154
 20
-33.1492589524
 11
25.2260344188
 21
-30.9037486891
  0
LINE
  5
27D
100
AcDbEntity
  8
0
100
AcDbLine
 62
7
  6
CONTINUOUS
 10
-18.6145860147
 20
-5.5907239028
 11
-22.5036733113
 21
-3.3452136395
  0
LINE
  5
27E
100
AcDbEntity
  8
ASSI
100
AcDbLine
 62
7
  6
CONTINUOUS
 10
-18.6145860147
 20
-5.5907239028
 11
-22.5036733113
 21
-3.3452136395
  0
LINE
  5
27F
100
AcDbEntity
  8
0
100
AcDbLine
 62
7
  6
CONTINUOUS
 10
29.3626090888
 20
-33.1288333863
 11
25.3674557751
 21
-30.8220937705
  0
LINE
  5
280
100
AcDbEntity
  8
ASSI
100
AcDbLine
 62
7
  6
CONTINUOUS
 10
29.3626090888
 20
-33.1288333863
 11
25.3674557751
 21
-30.8220937705
  0
LINE
  5
281
100
AcDbEntity
  8
0
100
AcDbLine
 62
7
  6
CONTINUOUS
 10
-22.362251955
 20
-3.2635587208
 11
-18.3670986413
 21
-5.5702983367
  0
LINE
  5
282
100
AcDbEntity
  8
ASSI
100
AcDbLine
 62
7
  6
CONTINUOUS
 10
-22.362251955
 20
-3.2635587208
 11
-18.3670986413
 21
-5.5702983367
  0
LINE
  5
283
100
AcDbEntity
  8
0
100
AcDbLine
 62
7
  6
CONTINUOUS
 10
29.4686751059
 20
-32.9451216558
 11
25.5795878094
 21
-30.6996113925
  0
LINE
  5
284
100
AcDbEntity
  8
ASSI
100
AcDbLine
 62
7
  6
CONTINUOUS
 10
29.4686751059
 20
-32.9451216558
 11
25.5795878094
 21
-30.6996113925
  0
LINE
  5
285
100
AcDbEntity
  8
0
100
AcDbLine
 62
7
  6
CONTINUOUS
 10
-18.2610326241
 20
-5.3865866062
 11
-22.1501199207
 21
-3.1410763428
  0
LINE
  5
286
100
AcDbEntity
  8
ASSI
100
AcDbLine
 62
7
  6
CONTINUOUS
 10
-18.2610326241
 20
-5.3865866062
 11
-22.1501199207
 21
-3.1410763428
  0
LINE
  5
287
100
AcDbEntity
  8
0
100
AcDbLine
 62
7
  6
CONTINUOUS
 10
29.5393857841
 20
-32.8226392778
 11
25.7210091657
 21
-30.6179564738
  0
LINE
  5
288
100
AcDbEntity
  8
ASSI
100
AcDbLine
 62
7
  6
CONTINUOUS
 10
29.5393857841
 20
-32.8226392778
 11
25.7210091657
 21
-30.6179564738
  0
LINE
  5
289
100
AcDbEntity
  8
0
100
AcDbLine
 62
7
  6
CONTINUOUS
 10
-22.0086985644
 20
-3.0594214242
 11
-18.0135452507
 21
-5.36616104
  0
LINE
  5
28A
100
AcDbEntity
  8
ASSI
100
AcDbLine
 62
7
  6
CONTINUOUS
 10
-22.0086985644
 20
-3.0594214242
 11
-18.0135452507
 21
-5.36616104
  0
LINE
  5
28B
100
AcDbEntity
  8
0
100
AcDbLine
 62
250
  6
CONTINUOUS
 10
29.5393857841
 20
-32.7000435018
 11
25.7546041683
 21
-30.5147580313
  0
LINE
  5
28C
100
AcDbEntity
  8
ASSI
100
AcDbLine
 62
250
  6
CONTINUOUS
 10
29.5393857841
 20
-32.7000435018
 11
25.7546041683
 21
-30.5147580313
  0
LINE
  5
28D
100
AcDbEntity
  8
0
100
AcDbLine
 62
250
  6
CONTINUOUS
 10
-17.7287663035
 20
-5.4080048955
 11
-21.9751035618
 21
-2.9562229817
  0
LINE
  5
28E
100
AcDbEntity
  8
ASSI
100
AcDbLine
 62
250
  6
CONTINUOUS
 10
-17.7287663035
 20
-5.4080048955
 11
-21.9751035618
 21
-2.9562229817
  0
LINE
  5
28F
100
AcDbEntity
  8
0
100
AcDbLine
 62
250
  6
CONTINUOUS
 10
29.5393857841
 20
-32.6228458077
 11
25.8286513212
 21
-30.4803142353
  0
LINE
  5
290
100
AcDbEntity
  8
ASSI
100
AcDbLine
 62
250
  6
CONTINUOUS
 10
29.5393857841
 20
-32.6228458077
 11
25.8286513212
 21
-30.4803142353
  0
LINE
  5
291
100
AcDbEntity
  8
0
100
AcDbLine
 62
250
  6
CONTINUOUS
 10
-17.6620939475
 20
-5.3693029841
 11
-21.9010564089
 21
-2.9217791856
  0
LINE
  5
292
100
AcDbEntity
  8
ASSI
100
AcDbLine
 62
250
  6
CONTINUOUS
 10
-17.6620939475
 20
-5.3693029841
 11
-21.9010564089
 21
-2.9217791856
  0
LINE
  5
293
100
AcDbEntity
  8
0
100
AcDbLine
 62
7
  6
CONTINUOUS
 10
-20.3154546757
 20
-2.4039532325
 11
-16.4894532851
 21
-4.6130384843
  0
LINE
  5
294
100
AcDbEntity
  8
ASSI
100
AcDbLine
 62
7
  6
CONTINUOUS
 10
-20.3154546757
 20
-2.4039532325
 11
-16.4894532851
 21
-4.6130384843
  0
LINE
  5
295
100
AcDbEntity
  8
0
100
AcDbLine
 62
7
  6
CONTINUOUS
 10
27.4142530544
 20
-29.9624882821
 11
29.5393857841
 21
-31.189513286
  0
LINE
  5
296
100
AcDbEntity
  8
ASSI
100
AcDbLine
 62
7
  6
CONTINUOUS
 10
27.4142530544
 20
-29.9624882821
 11
29.5393857841
 21
-31.189513286
  0
LINE
  5
297
100
AcDbEntity
  8
0
100
AcDbLine
 62
7
  6
CONTINUOUS
 10
-4.3384501709
 20
-11.5899797359
 11
-0.6466526364
 21
-13.7215773632
  0
LINE
  5
298
100
AcDbEntity
  8
ASSI
100
AcDbLine
 62
7
  6
CONTINUOUS
 10
-4.3384501709
 20
-11.5899797359
 11
-0.6466526364
 21
-13.7215773632
  0
LINE
  5
299
100
AcDbEntity
  8
0
100
AcDbLine
 62
7
  6
CONTINUOUS
 10
11.5714524058
 20
-20.7761580858
 11
15.2632499403
 21
-22.9077557131
  0
LINE
  5
29A
100
AcDbEntity
  8
ASSI
100
AcDbLine
 62
7
  6
CONTINUOUS
 10
11.5714524058
 20
-20.7761580858
 11
15.2632499403
 21
-22.9077557131
  0
LINE
  5
29B
100
AcDbEntity
  8
0
100
AcDbLine
 62
250
  6
CONTINUOUS
 10
-18.4267250892
 20
-6.4354954291
 11
-18.0907801243
 21
-6.1087418393
  0
LINE
  5
29C
100
AcDbEntity
  8
ASSI
100
AcDbLine
 62
250
  6
CONTINUOUS
 10
-18.4267250892
 20
-6.4354954291
 11
-18.0907801243
 21
-6.1087418393
  0
LINE
  5
29D
100
AcDbEntity
  8
0
100
AcDbLine
 62
7
  6
CONTINUOUS
 10
-18.4228001946
 20
-6.4690305937
 11
-17.993815851
 21
-6.0517831608
  0
LINE
  5
29E
100
AcDbEntity
  8
ASSI
100
AcDbLine
 62
7
  6
CONTINUOUS
 10
-18.4228001946
 20
-6.4690305937
 11
-17.993815851
 21
-6.0517831608
  0
LINE
  5
29F
100
AcDbEntity
  8
0
100
AcDbLine
 62
7
  6
CONTINUOUS
 10
-17.7287663035
 20
-5.4080048955
 11
-19.6721597662
 21
-6.654213235
  0
LINE
  5
2A0
100
AcDbEntity
  8
ASSI
100
AcDbLine
 62
7
  6
CONTINUOUS
 10
-17.7287663035
 20
-5.4080048955
 11
-19.6721597662
 21
-6.654213235
  0
LINE
  5
2A1
100
AcDbEntity
  8
0
100
AcDbLine
 62
7
  6
CONTINUOUS
 10
-23.9178868736
 20
-4.1617628262
 11
-23.7764655174
 21
-4.0801079075
  0
LINE
  5
2A2
100
AcDbEntity
  8
ASSI
100
AcDbLine
 62
7
  6
CONTINUOUS
 10
-23.9178868736
 20
-4.1617628262
 11
-23.7764655174
 21
-4.0801079075
  0
LINE
  5
2A3
100
AcDbEntity
  8
0
100
AcDbLine
 62
7
  6
CONTINUOUS
 10
-23.564333483
 20
-3.9576255295
 11
-23.4229121268
 21
-3.8759706108
  0
LINE
  5
2A4
100
AcDbEntity
  8
ASSI
100
AcDbLine
 62
7
  6
CONTINUOUS
 10
-23.564333483
 20
-3.9576255295
 11
-23.4229121268
 21
-3.8759706108
  0
LINE
  5
2A5
100
AcDbEntity
  8
0
100
AcDbLine
 62
7
  6
CONTINUOUS
 10
-23.2107800924
 20
-3.7534882328
 11
-23.0693587362
 21
-3.6718333142
  0
LINE
  5
2A6
100
AcDbEntity
  8
ASSI
100
AcDbLine
 62
7
  6
CONTINUOUS
 10
-23.2107800924
 20
-3.7534882328
 11
-23.0693587362
 21
-3.6718333142
  0
LINE
  5
2A7
100
AcDbEntity
  8
0
100
AcDbLine
 62
7
  6
CONTINUOUS
 10
-22.8572267019
 20
-3.5493509362
 11
-22.7158053456
 21
-3.4676960175
  0
LINE
  5
2A8
100
AcDbEntity
  8
ASSI
100
AcDbLine
 62
7
  6
CONTINUOUS
 10
-22.8572267019
 20
-3.5493509362
 11
-22.7158053456
 21
-3.4676960175
  0
LINE
  5
2A9
100
AcDbEntity
  8
0
100
AcDbLine
 62
7
  6
CONTINUOUS
 10
-22.5036733113
 20
-3.3452136395
 11
-22.362251955
 21
-3.2635587208
  0
LINE
  5
2AA
100
AcDbEntity
  8
ASSI
100
AcDbLine
 62
7
  6
CONTINUOUS
 10
-22.5036733113
 20
-3.3452136395
 11
-22.362251955
 21
-3.2635587208
  0
LINE
  5
2AB
100
AcDbEntity
  8
0
100
AcDbLine
 62
7
  6
CONTINUOUS
 10
-22.1501199207
 20
-3.1410763428
 11
-22.0086985644
 21
-3.0594214242
  0
LINE
  5
2AC
100
AcDbEntity
  8
ASSI
100
AcDbLine
 62
7
  6
CONTINUOUS
 10
-22.1501199207
 20
-3.1410763428
 11
-22.0086985644
 21
-3.0594214242
  0
LINE
  5
2AD
100
AcDbEntity
  8
0
100
AcDbLine
 62
7
  6
CONTINUOUS
 10
-24.1334606627
 20
-4.0783140106
 11
-21.9751035618
 21
-2.9562229817
  0
LINE
  5
2AE
100
AcDbEntity
  8
ASSI
100
AcDbLine
 62
7
  6
CONTINUOUS
 10
-24.1334606627
 20
-4.0783140106
 11
-21.9751035618
 21
-2.9562229817
  0
LINE
  5
2AF
100
AcDbEntity
  8
0
100
AcDbLine
 62
7
  6
CONTINUOUS
 10
-21.9010564089
 20
-2.9217791856
 11
-20.5907021532
 21
-2.384316859
  0
LINE
  5
2B0
100
AcDbEntity
  8
ASSI
100
AcDbLine
 62
7
  6
CONTINUOUS
 10
-21.9010564089
 20
-2.9217791856
 11
-20.5907021532
 21
-2.384316859
  0
LINE
  5
2B1
100
AcDbEntity
  8
0
100
AcDbLine
 62
250
  6
CONTINUOUS
 10
-0.6358412231
 20
-13.9579383322
 11
-0.6358412231
 21
-14.3873361442
  0
LINE
  5
2B2
100
AcDbEntity
  8
ASSI
100
AcDbLine
 62
250
  6
CONTINUOUS
 10
-0.6358412231
 20
-13.9579383322
 11
-0.6358412231
 21
-14.3873361442
  0
LINE
  5
2B3
100
AcDbEntity
  8
0
100
AcDbLine
 62
7
  6
CONTINUOUS
 10
-0.5587846708
 20
-13.8434336619
 11
-0.5587846708
 21
-14.341518202
  0
LINE
  5
2B4
100
AcDbEntity
  8
ASSI
100
AcDbLine
 62
7
  6
CONTINUOUS
 10
-0.5587846708
 20
-13.8434336619
 11
-0.5587846708
 21
-14.341518202
  0
LINE
  5
2B5
100
AcDbEntity
  8
0
100
AcDbLine
 62
7
  6
CONTINUOUS
 10
-19.3429537147
 20
-6.8442926833
 11
-16.4822456762
 21
-5.1638577756
  0
LINE
  5
2B6
100
AcDbEntity
  8
ASSI
100
AcDbLine
 62
7
  6
CONTINUOUS
 10
-19.3429537147
 20
-6.8442926833
 11
-16.4822456762
 21
-5.1638577756
  0
LINE
  5
2B7
100
AcDbEntity
  8
0
100
AcDbLine
 62
7
  6
CONTINUOUS
 10
-18.4814145443
 20
-6.5134946188
 11
-19.196877147
 21
-6.9286354627
  0
LINE
  5
2B8
100
AcDbEntity
  8
ASSI
100
AcDbLine
 62
7
  6
CONTINUOUS
 10
-18.4814145443
 20
-6.5134946188
 11
-19.196877147
 21
-6.9286354627
  0
LINE
  5
2B9
100
AcDbEntity
  8
0
100
AcDbLine
 62
250
  6
CONTINUOUS
 10
-18.4267250892
 20
-6.4354954291
 11
-19.2371102437
 21
-6.9054053769
  0
LINE
  5
2BA
100
AcDbEntity
  8
ASSI
100
AcDbLine
 62
250
  6
CONTINUOUS
 10
-18.4267250892
 20
-6.4354954291
 11
-19.2371102437
 21
-6.9054053769
  0
LINE
  5
2BB
100
AcDbEntity
  8
0
100
AcDbLine
 62
7
  6
CONTINUOUS
 10
-20.0287995771
 20
-6.4072730895
 11
-19.8873782209
 21
-6.3256181708
  0
LINE
  5
2BC
100
AcDbEntity
  8
ASSI
100
AcDbLine
 62
7
  6
CONTINUOUS
 10
-20.0287995771
 20
-6.4072730895
 11
-19.8873782209
 21
-6.3256181708
  0
LINE
  5
2BD
100
AcDbEntity
  8
0
100
AcDbLine
 62
7
  6
CONTINUOUS
 10
-19.6752461865
 20
-6.2031357928
 11
-19.5338248303
 21
-6.1214808741
  0
LINE
  5
2BE
100
AcDbEntity
  8
ASSI
100
AcDbLine
 62
7
  6
CONTINUOUS
 10
-19.6752461865
 20
-6.2031357928
 11
-19.5338248303
 21
-6.1214808741
  0
LINE
  5
2BF
100
AcDbEntity
  8
0
100
AcDbLine
 62
7
  6
CONTINUOUS
 10
-19.3216927959
 20
-5.9989984961
 11
-19.1802714397
 21
-5.9173435775
  0
LINE
  5
2C0
100
AcDbEntity
  8
ASSI
100
AcDbLine
 62
7
  6
CONTINUOUS
 10
-19.3216927959
 20
-5.9989984961
 11
-19.1802714397
 21
-5.9173435775
  0
LINE
  5
2C1
100
AcDbEntity
  8
0
100
AcDbLine
 62
7
  6
CONTINUOUS
 10
-18.9681394053
 20
-5.7948611995
 11
-18.8267180491
 21
-5.7132062808
  0
LINE
  5
2C2
100
AcDbEntity
  8
ASSI
100
AcDbLine
 62
7
  6
CONTINUOUS
 10
-18.9681394053
 20
-5.7948611995
 11
-18.8267180491
 21
-5.7132062808
  0
LINE
  5
2C3
100
AcDbEntity
  8
0
100
AcDbLine
 62
7
  6
CONTINUOUS
 10
-18.6145860147
 20
-5.5907239028
 11
-18.4731646585
 21
-5.5090689841
  0
LINE
  5
2C4
100
AcDbEntity
  8
ASSI
100
AcDbLine
 62
7
  6
CONTINUOUS
 10
-18.6145860147
 20
-5.5907239028
 11
-18.4731646585
 21
-5.5090689841
  0
LINE
  5
2C5
100
AcDbEntity
  8
0
100
AcDbLine
 62
7
  6
CONTINUOUS
 10
-18.2610326241
 20
-5.3865866062
 11
-18.1196112679
 21
-5.3049316875
  0
LINE
  5
2C6
100
AcDbEntity
  8
ASSI
100
AcDbLine
 62
7
  6
CONTINUOUS
 10
-18.2610326241
 20
-5.3865866062
 11
-18.1196112679
 21
-5.3049316875
  0
LINE
  5
2C7
100
AcDbEntity
  8
0
100
AcDbLine
 62
7
  6
CONTINUOUS
 10
-18.0135452507
 20
-5.36616104
 11
-19.9582665662
 21
-6.4890187545
  0
LINE
  5
2C8
100
AcDbEntity
  8
ASSI
100
AcDbLine
 62
7
  6
CONTINUOUS
 10
-18.0135452507
 20
-5.36616104
 11
-19.9582665662
 21
-6.4890187545
  0
LINE
  5
2C9
100
AcDbEntity
  8
0
100
AcDbLine
 62
7
  6
CONTINUOUS
 10
-16.4822456762
 20
-4.7564881377
 11
-17.6620939475
 21
-5.3693029841
  0
LINE
  5
2CA
100
AcDbEntity
  8
ASSI
100
AcDbLine
 62
7
  6
CONTINUOUS
 10
-16.4822456762
 20
-4.7564881377
 11
-17.6620939475
 21
-5.3693029841
  0
LINE
  5
2CB
100
AcDbEntity
  8
0
100
AcDbLine
 62
250
  6
CONTINUOUS
 10
-34.9487526601
 20
-0.1201323732
 11
-34.241645879
 21
-0.1201323732
  0
LINE
  5
2CC
100
AcDbEntity
  8
0
100
AcDbLine
 62
250
  6
CONTINUOUS
 10
-2.5168225125
 20
-15.621673779
 11
-2.1808775476
 21
-15.2949201892
  0
LINE
  5
2CD
100
AcDbEntity
  8
ASSI
100
AcDbLine
 62
250
  6
CONTINUOUS
 10
-2.5168225125
 20
-15.621673779
 11
-2.1808775476
 21
-15.2949201892
  0
LINE
  5
2CE
100
AcDbEntity
  8
0
100
AcDbLine
 62
7
  6
CONTINUOUS
 10
-2.5128977662
 20
-15.6552090879
 11
-2.0839132743
 21
-15.2379615107
  0
LINE
  5
2CF
100
AcDbEntity
  8
ASSI
100
AcDbLine
 62
7
  6
CONTINUOUS
 10
-2.5128977662
 20
-15.6552090879
 11
-2.0839132743
 21
-15.2379615107
  0
LINE
  5
2D0
100
AcDbEntity
  8
0
100
AcDbLine
 62
7
  6
CONTINUOUS
 10
-0.6358412231
 20
-13.9579383322
 11
-3.6884772335
 21
-15.8829912068
  0
LINE
  5
2D1
100
AcDbEntity
  8
ASSI
100
AcDbLine
 62
7
  6
CONTINUOUS
 10
-0.6358412231
 20
-13.9579383322
 11
-3.6884772335
 21
-15.8829912068
  0
LINE
  5
2D2
100
AcDbEntity
  8
0
100
AcDbLine
 62
7
  6
CONTINUOUS
 10
-3.433051138
 20
-16.0304710331
 11
-0.6358412231
 21
-14.3873361442
  0
LINE
  5
2D3
100
AcDbEntity
  8
ASSI
100
AcDbLine
 62
7
  6
CONTINUOUS
 10
-3.433051138
 20
-16.0304710331
 11
-0.6358412231
 21
-14.3873361442
  0
LINE
  5
2D4
100
AcDbEntity
  8
0
100
AcDbLine
 62
7
  6
CONTINUOUS
 10
-8.1416171436
 20
-13.3118040337
 11
-4.7513213872
 21
-11.5817116646
  0
LINE
  5
2D5
100
AcDbEntity
  8
ASSI
100
AcDbLine
 62
7
  6
CONTINUOUS
 10
-8.1416171436
 20
-13.3118040337
 11
-4.7513213872
 21
-11.5817116646
  0
LINE
  5
2D6
100
AcDbEntity
  8
0
100
AcDbLine
 62
250
  6
CONTINUOUS
 10
15.2740613536
 20
-23.1441166821
 11
15.2740613536
 21
-23.5735144941
  0
LINE
  5
2D7
100
AcDbEntity
  8
ASSI
100
AcDbLine
 62
250
  6
CONTINUOUS
 10
15.2740613536
 20
-23.1441166821
 11
15.2740613536
 21
-23.5735144941
  0
LINE
  5
2D8
100
AcDbEntity
  8
0
100
AcDbLine
 62
7
  6
CONTINUOUS
 10
15.3511179059
 20
-23.0296120118
 11
15.3511179059
 21
-23.5276965519
  0
LINE
  5
2D9
100
AcDbEntity
  8
ASSI
100
AcDbLine
 62
7
  6
CONTINUOUS
 10
15.3511179059
 20
-23.0296120118
 11
15.3511179059
 21
-23.5276965519
  0
LINE
  5
2DA
100
AcDbEntity
  8
0
100
AcDbLine
 62
7
  6
CONTINUOUS
 10
-2.5715120996
 20
-15.6996730452
 11
-3.2869745703
 21
-16.1148138126
  0
LINE
  5
2DB
100
AcDbEntity
  8
ASSI
100
AcDbLine
 62
7
  6
CONTINUOUS
 10
-2.5715120996
 20
-15.6996730452
 11
-3.2869745703
 21
-16.1148138126
  0
LINE
  5
2DC
100
AcDbEntity
  8
0
100
AcDbLine
 62
250
  6
CONTINUOUS
 10
-2.5168225125
 20
-15.621673779
 11
-3.327207667
 21
-16.0915837267
  0
LINE
  5
2DD
100
AcDbEntity
  8
ASSI
100
AcDbLine
 62
250
  6
CONTINUOUS
 10
-2.5168225125
 20
-15.621673779
 11
-3.327207667
 21
-16.0915837267
  0
LINE
  5
2DE
100
AcDbEntity
  8
0
100
AcDbLine
 62
7
  6
CONTINUOUS
 10
-33.7466711321
 20
35.5187281354
 11
28.3373042561
 21
-0.3277811588
  0
LINE
  5
2DF
100
AcDbEntity
  8
SMUSSO
100
AcDbLine
 62
7
  6
CONTINUOUS
 10
48.3837815027
 20
6.7948823688
 11
50.1515484557
 21
7.8155688521
  0
LINE
  5
2E0
100
AcDbEntity
  8
0
100
AcDbLine
 62
250
  6
CONTINUOUS
 10
50.1520943372
 20
7.8158109154
 11
52.1669104778
 21
8.9791444978
  0
LINE
  5
2E1
100
AcDbEntity
  8
ASSI
100
AcDbLine
 62
250
  6
CONTINUOUS
 10
50.1520943372
 20
7.8158109154
 11
52.1669104778
 21
8.9791444978
  0
LINE
  5
2E2
100
AcDbEntity
  8
SMUSSO
100
AcDbLine
 62
7
  6
CONTINUOUS
 10
48.3837815027
 20
5.9783726371
 11
47.6766747215
 21
5.5701374987
  0
LINE
  5
2E3
100
AcDbEntity
  8
0
100
AcDbLine
 62
250
  6
CONTINUOUS
 10
50.8590934226
 20
6.5912525799
 11
52.8739095632
 21
7.7545861623
  0
LINE
  5
2E4
100
AcDbEntity
  8
ASSI
100
AcDbLine
 62
250
  6
CONTINUOUS
 10
50.8590934226
 20
6.5912525799
 11
52.8739095632
 21
7.7545861623
  0
LINE
  5
2E5
100
AcDbEntity
  8
SMUSSO
100
AcDbLine
 62
7
  6
CONTINUOUS
 10
49.0908882839
 20
5.5701374987
 11
50.8586552368
 21
6.590823982
  0
LINE
  5
2E6
100
AcDbEntity
  8
0
100
AcDbLine
 62
250
  6
CONTINUOUS
 10
52.192444969
 20
8.9645315022
 11
53.0424861021
 21
8.7186575537
  0
LINE
  5
2E7
100
AcDbEntity
  8
ASSI
100
AcDbLine
 62
250
  6
CONTINUOUS
 10
52.192444969
 20
8.9645315022
 11
53.0424861021
 21
8.7186575537
  0
LINE
  5
2E8
100
AcDbEntity
  8
0
100
AcDbLine
 62
250
  6
CONTINUOUS
 10
13.3930800642
 20
-24.8078521289
 11
13.7290250291
 21
-24.4810985391
  0
LINE
  5
2E9
100
AcDbEntity
  8
ASSI
100
AcDbLine
 62
250
  6
CONTINUOUS
 10
13.3930800642
 20
-24.8078521289
 11
13.7290250291
 21
-24.4810985391
  0
LINE
  5
2EA
100
AcDbEntity
  8
0
100
AcDbLine
 62
7
  6
CONTINUOUS
 10
13.3970048105
 20
-24.8413874377
 11
13.8259893024
 21
-24.4241398605
  0
LINE
  5
2EB
100
AcDbEntity
  8
ASSI
100
AcDbLine
 62
7
  6
CONTINUOUS
 10
13.3970048105
 20
-24.8413874377
 11
13.8259893024
 21
-24.4241398605
  0
LINE
  5
2EC
100
AcDbEntity
  8
0
100
AcDbLine
 62
7
  6
CONTINUOUS
 10
15.2740613536
 20
-23.1441166821
 11
12.2214253432
 21
-25.0691695567
  0
LINE
  5
2ED
100
AcDbEntity
  8
ASSI
100
AcDbLine
 62
7
  6
CONTINUOUS
 10
15.2740613536
 20
-23.1441166821
 11
12.2214253432
 21
-25.0691695567
  0
LINE
  5
2EE
100
AcDbEntity
  8
0
100
AcDbLine
 62
7
  6
CONTINUOUS
 10
12.4768514387
 20
-25.216649383
 11
15.2740613536
 21
-23.5735144941
  0
LINE
  5
2EF
100
AcDbEntity
  8
ASSI
100
AcDbLine
 62
7
  6
CONTINUOUS
 10
12.4768514387
 20
-25.216649383
 11
15.2740613536
 21
-23.5735144941
  0
LINE
  5
2F0
100
AcDbEntity
  8
0
100
AcDbLine
 62
7
  6
CONTINUOUS
 10
13.3383904771
 20
-24.8858513951
 11
12.6229280064
 21
-25.3009921624
  0
LINE
  5
2F1
100
AcDbEntity
  8
ASSI
100
AcDbLine
 62
7
  6
CONTINUOUS
 10
13.3383904771
 20
-24.8858513951
 11
12.6229280064
 21
-25.3009921624
  0
LINE
  5
2F2
100
AcDbEntity
  8
0
100
AcDbLine
 62
250
  6
CONTINUOUS
 10
13.3930800642
 20
-24.8078521289
 11
12.5826949097
 21
-25.2777620766
  0
LINE
  5
2F3
100
AcDbEntity
  8
ASSI
100
AcDbLine
 62
250
  6
CONTINUOUS
 10
13.3930800642
 20
-24.8078521289
 11
12.5826949097
 21
-25.2777620766
  0
LINE
  5
2F4
100
AcDbEntity
  8
0
100
AcDbLine
 62
7
  6
CONTINUOUS
 10
7.7682854331
 20
-22.4979823836
 11
11.1585811895
 21
-20.7678900145
  0
LINE
  5
2F5
100
AcDbEntity
  8
ASSI
100
AcDbLine
 62
7
  6
CONTINUOUS
 10
7.7682854331
 20
-22.4979823836
 11
11.1585811895
 21
-20.7678900145
  0
LINE
  5
2F6
100
AcDbEntity
  8
SMUSSO
100
AcDbLine
 62
7
  6
CONTINUOUS
 10
47.6766747215
 20
5.5701374987
 11
-53.0860415976
 21
63.7492670479
  0
LINE
  5
2F7
100
AcDbEntity
  8
0
100
AcDbLine
 62
7
  6
CONTINUOUS
 10
29.5393857841
 20
-2.409847438
 11
29.5393857841
 21
-37.3547752847
  0
LINE
  5
2F8
100
AcDbEntity
  8
0
100
AcDbLine
 62
250
  6
CONTINUOUS
 10
-34.9487526601
 20
34.8247954735
 11
-34.241645879
 21
34.8247954735
  0
LINE
  5
2F9
100
AcDbEntity
  8
SMUSSO
100
AcDbLine
 62
7
  6
CONTINUOUS
 10
48.3837815027
 20
5.9783726371
 11
49.0908882839
 21
5.5701374987
  0
LINE
  5
2FA
100
AcDbEntity
  8
SMUSSO
100
AcDbLine
 62
7
  6
CONTINUOUS
 10
48.3837815027
 20
6.7948823688
 11
-52.3789348164
 21
64.974011918
  0
LINE
  5
2FB
100
AcDbEntity
  8
SMUSSO
100
AcDbLine
 62
7
  6
CONTINUOUS
 10
-50.6111678634
 20
65.9946984013
 11
50.8586552368
 21
7.4073337137
  0
LINE
  5
2FC
100
AcDbEntity
  8
0
100
AcDbLine
 62
7
  6
CONTINUOUS
 10
-47.6060717392
 20
66.5868139808
 11
52.1669104778
 21
8.9791444978
  0
LINE
  5
2FD
100
AcDbEntity
  8
ASSI
100
AcDbLine
 62
7
  6
CONTINUOUS
 10
-47.6060717392
 20
66.5868139808
 11
52.1669104778
 21
8.9791444978
  0
LINE
  5
2FE
100
AcDbEntity
  8
0
100
AcDbLine
 62
7
  6
CONTINUOUS
 10
-46.3603270199
 20
66.1125960405
 11
53.0424861021
 21
8.7186575537
  0
LINE
  5
2FF
100
AcDbEntity
  8
ASSI
100
AcDbLine
 62
7
  6
CONTINUOUS
 10
-46.3603270199
 20
66.1125960405
 11
53.0424861021
 21
8.7186575537
  0
LINE
  5
300
100
AcDbEntity
  8
0
100
AcDbLine
 62
7
  6
CONTINUOUS
 10
23.7940586201
 20
-31.7510629716
 11
23.8118208565
 21
-31.7202978758
  0
LINE
  5
301
100
AcDbEntity
  8
ASSI
100
AcDbLine
 62
7
  6
CONTINUOUS
 10
23.7940586201
 20
-31.7510629716
 11
23.8118208565
 21
-31.7202978758
  0
LINE
  5
302
100
AcDbEntity
  8
0
100
AcDbLine
 62
7
  6
CONTINUOUS
 10
24.0593082299
 20
-31.6998723096
 11
24.1653742471
 21
-31.5161605791
  0
LINE
  5
303
100
AcDbEntity
  8
ASSI
100
AcDbLine
 62
7
  6
CONTINUOUS
 10
24.0593082299
 20
-31.6998723096
 11
24.1653742471
 21
-31.5161605791
  0
LINE
  5
304
100
AcDbEntity
  8
0
100
AcDbLine
 62
7
  6
CONTINUOUS
 10
24.4128616205
 20
-31.495735013
 11
24.5189276376
 21
-31.3120232825
  0
LINE
  5
305
100
AcDbEntity
  8
ASSI
100
AcDbLine
 62
7
  6
CONTINUOUS
 10
24.4128616205
 20
-31.495735013
 11
24.5189276376
 21
-31.3120232825
  0
LINE
  5
306
100
AcDbEntity
  8
0
100
AcDbLine
 62
7
  6
CONTINUOUS
 10
24.7664150111
 20
-31.2915977163
 11
24.8724810282
 21
-31.1078859858
  0
LINE
  5
307
100
AcDbEntity
  8
ASSI
100
AcDbLine
 62
7
  6
CONTINUOUS
 10
24.7664150111
 20
-31.2915977163
 11
24.8724810282
 21
-31.1078859858
  0
LINE
  5
308
100
AcDbEntity
  8
0
100
AcDbLine
 62
7
  6
CONTINUOUS
 10
25.1199684017
 20
-31.0874604197
 11
25.2260344188
 21
-30.9037486891
  0
LINE
  5
309
100
AcDbEntity
  8
ASSI
100
AcDbLine
 62
7
  6
CONTINUOUS
 10
25.1199684017
 20
-31.0874604197
 11
25.2260344188
 21
-30.9037486891
  0
LINE
  5
30A
100
AcDbEntity
  8
0
100
AcDbLine
 62
7
  6
CONTINUOUS
 10
25.4735217922
 20
-30.883323123
 11
25.5795878094
 21
-30.6996113925
  0
LINE
  5
30B
100
AcDbEntity
  8
ASSI
100
AcDbLine
 62
7
  6
CONTINUOUS
 10
25.4735217922
 20
-30.883323123
 11
25.5795878094
 21
-30.6996113925
  0
LINE
  5
30C
100
AcDbEntity
  8
0
100
AcDbLine
 62
7
  6
CONTINUOUS
 10
23.8118208565
 20
-31.7202978758
 11
23.9532422127
 21
-31.6386429571
  0
LINE
  5
30D
100
AcDbEntity
  8
ASSI
100
AcDbLine
 62
7
  6
CONTINUOUS
 10
23.8118208565
 20
-31.7202978758
 11
23.9532422127
 21
-31.6386429571
  0
LINE
  5
30E
100
AcDbEntity
  8
0
100
AcDbLine
 62
7
  6
CONTINUOUS
 10
24.1653742471
 20
-31.5161605791
 11
24.3067956033
 21
-31.4345056605
  0
LINE
  5
30F
100
AcDbEntity
  8
ASSI
100
AcDbLine
 62
7
  6
CONTINUOUS
 10
24.1653742471
 20
-31.5161605791
 11
24.3067956033
 21
-31.4345056605
  0
LINE
  5
310
100
AcDbEntity
  8
0
100
AcDbLine
 62
7
  6
CONTINUOUS
 10
24.5189276376
 20
-31.3120232825
 11
24.6603489939
 21
-31.2303683638
  0
LINE
  5
311
100
AcDbEntity
  8
ASSI
100
AcDbLine
 62
7
  6
CONTINUOUS
 10
24.5189276376
 20
-31.3120232825
 11
24.6603489939
 21
-31.2303683638
  0
LINE
  5
312
100
AcDbEntity
  8
0
100
AcDbLine
 62
7
  6
CONTINUOUS
 10
24.8724810282
 20
-31.1078859858
 11
25.0139023845
 21
-31.0262310671
  0
LINE
  5
313
100
AcDbEntity
  8
ASSI
100
AcDbLine
 62
7
  6
CONTINUOUS
 10
24.8724810282
 20
-31.1078859858
 11
25.0139023845
 21
-31.0262310671
  0
LINE
  5
314
100
AcDbEntity
  8
0
100
AcDbLine
 62
7
  6
CONTINUOUS
 10
25.2260344188
 20
-30.9037486891
 11
25.3674557751
 21
-30.8220937705
  0
LINE
  5
315
100
AcDbEntity
  8
ASSI
100
AcDbLine
 62
7
  6
CONTINUOUS
 10
25.2260344188
 20
-30.9037486891
 11
25.3674557751
 21
-30.8220937705
  0
LINE
  5
316
100
AcDbEntity
  8
0
100
AcDbLine
 62
7
  6
CONTINUOUS
 10
25.5795878094
 20
-30.6996113925
 11
25.7210091657
 21
-30.6179564738
  0
LINE
  5
317
100
AcDbEntity
  8
ASSI
100
AcDbLine
 62
7
  6
CONTINUOUS
 10
25.5795878094
 20
-30.6996113925
 11
25.7210091657
 21
-30.6179564738
  0
LINE
  5
318
100
AcDbEntity
  8
0
100
AcDbLine
 62
7
  6
CONTINUOUS
 10
23.5962470674
 20
-31.6368490602
 11
25.7546041683
 21
-30.5147580313
  0
LINE
  5
319
100
AcDbEntity
  8
ASSI
100
AcDbLine
 62
7
  6
CONTINUOUS
 10
23.5962470674
 20
-31.6368490602
 11
25.7546041683
 21
-30.5147580313
  0
LINE
  5
31A
100
AcDbEntity
  8
0
100
AcDbLine
 62
7
  6
CONTINUOUS
 10
25.8286513212
 20
-30.4803142353
 11
27.1390055769
 21
-29.9428519086
  0
LINE
  5
31B
100
AcDbEntity
  8
ASSI
100
AcDbLine
 62
7
  6
CONTINUOUS
 10
25.8286513212
 20
-30.4803142353
 11
27.1390055769
 21
-29.9428519086
  0
LINE
  5
31C
100
AcDbEntity
  8
0
100
AcDbLine
 62
7
  6
CONTINUOUS
 10
27.6831459166
 20
-33.9965732349
 11
27.700908153
 21
-33.9658081391
  0
LINE
  5
31D
100
AcDbEntity
  8
ASSI
100
AcDbLine
 62
7
  6
CONTINUOUS
 10
27.6831459166
 20
-33.9965732349
 11
27.700908153
 21
-33.9658081391
  0
LINE
  5
31E
100
AcDbEntity
  8
0
100
AcDbLine
 62
7
  6
CONTINUOUS
 10
27.9483955264
 20
-33.9453825729
 11
28.0544615436
 21
-33.7616708424
  0
LINE
  5
31F
100
AcDbEntity
  8
ASSI
100
AcDbLine
 62
7
  6
CONTINUOUS
 10
27.9483955264
 20
-33.9453825729
 11
28.0544615436
 21
-33.7616708424
  0
LINE
  5
320
100
AcDbEntity
  8
0
100
AcDbLine
 62
7
  6
CONTINUOUS
 10
28.301948917
 20
-33.7412452763
 11
28.4080149342
 21
-33.5575335458
  0
LINE
  5
321
100
AcDbEntity
  8
ASSI
100
AcDbLine
 62
7
  6
CONTINUOUS
 10
28.301948917
 20
-33.7412452763
 11
28.4080149342
 21
-33.5575335458
  0
LINE
  5
322
100
AcDbEntity
  8
0
100
AcDbLine
 62
7
  6
CONTINUOUS
 10
28.6555023076
 20
-33.5371079796
 11
28.7615683248
 21
-33.3533962491
  0
LINE
  5
323
100
AcDbEntity
  8
ASSI
100
AcDbLine
 62
7
  6
CONTINUOUS
 10
28.6555023076
 20
-33.5371079796
 11
28.7615683248
 21
-33.3533962491
  0
LINE
  5
324
100
AcDbEntity
  8
0
100
AcDbLine
 62
7
  6
CONTINUOUS
 10
29.0090556982
 20
-33.332970683
 11
29.1151217154
 21
-33.1492589524
  0
LINE
  5
325
100
AcDbEntity
  8
ASSI
100
AcDbLine
 62
7
  6
CONTINUOUS
 10
29.0090556982
 20
-33.332970683
 11
29.1151217154
 21
-33.1492589524
  0
LINE
  5
326
100
AcDbEntity
  8
0
100
AcDbLine
 62
7
  6
CONTINUOUS
 10
29.3626090888
 20
-33.1288333863
 11
29.4686751059
 21
-32.9451216558
  0
LINE
  5
327
100
AcDbEntity
  8
ASSI
100
AcDbLine
 62
7
  6
CONTINUOUS
 10
29.3626090888
 20
-33.1288333863
 11
29.4686751059
 21
-32.9451216558
  0
LINE
  5
328
100
AcDbEntity
  8
0
100
AcDbLine
 62
250
  6
CONTINUOUS
 10
28.3373042561
 20
-38.0487079466
 11
28.6908576466
 21
-37.4363355115
  0
LINE
  5
329
100
AcDbEntity
  8
0
100
AcDbLine
 62
250
  6
CONTINUOUS
 10
29.3029826409
 20
-33.9940304788
 11
29.5393857841
 21
-33.7640952699
  0
LINE
  5
32A
100
AcDbEntity
  8
ASSI
100
AcDbLine
 62
250
  6
CONTINUOUS
 10
29.3029826409
 20
-33.9940304788
 11
29.5393857841
 21
-33.7640952699
  0
LINE
  5
32B
100
AcDbEntity
  8
0
100
AcDbLine
 62
7
  6
CONTINUOUS
 10
29.3069075355
 20
-34.0275656433
 11
29.5393857841
 21
-33.8014479449
  0
LINE
  5
32C
100
AcDbEntity
  8
ASSI
100
AcDbLine
 62
7
  6
CONTINUOUS
 10
29.3069075355
 20
-34.0275656433
 11
29.5393857841
 21
-33.8014479449
  0
LINE
  5
32D
100
AcDbEntity
  8
0
100
AcDbLine
 62
7
  6
CONTINUOUS
 10
29.5393857841
 20
-33.2625142303
 11
28.0575479639
 21
-34.2127482847
  0
LINE
  5
32E
100
AcDbEntity
  8
ASSI
100
AcDbLine
 62
7
  6
CONTINUOUS
 10
29.5393857841
 20
-33.2625142303
 11
28.0575479639
 21
-34.2127482847
  0
LINE
  5
32F
100
AcDbEntity
  8
0
100
AcDbLine
 62
7
  6
CONTINUOUS
 10
28.3867540154
 20
-34.4028277329
 11
29.5393857841
 21
-33.7257496691
  0
LINE
  5
330
100
AcDbEntity
  8
ASSI
100
AcDbLine
 62
7
  6
CONTINUOUS
 10
28.3867540154
 20
-34.4028277329
 11
29.5393857841
 21
-33.7257496691
  0
LINE
  5
331
100
AcDbEntity
  8
0
100
AcDbLine
 62
7
  6
CONTINUOUS
 10
29.2482931858
 20
-34.0720296684
 11
28.5328305831
 21
-34.4871705123
  0
LINE
  5
332
100
AcDbEntity
  8
ASSI
100
AcDbLine
 62
7
  6
CONTINUOUS
 10
29.2482931858
 20
-34.0720296684
 11
28.5328305831
 21
-34.4871705123
  0
LINE
  5
333
100
AcDbEntity
  8
0
100
AcDbLine
 62
250
  6
CONTINUOUS
 10
29.3029826409
 20
-33.9940304788
 11
28.4925974864
 21
-34.4639404265
  0
LINE
  5
334
100
AcDbEntity
  8
ASSI
100
AcDbLine
 62
250
  6
CONTINUOUS
 10
29.3029826409
 20
-33.9940304788
 11
28.4925974864
 21
-34.4639404265
  0
LINE
  5
335
100
AcDbEntity
  8
0
100
AcDbLine
 62
7
  6
CONTINUOUS
 10
27.700908153
 20
-33.9658081391
 11
27.8423295092
 21
-33.8841532204
  0
LINE
  5
336
100
AcDbEntity
  8
ASSI
100
AcDbLine
 62
7
  6
CONTINUOUS
 10
27.700908153
 20
-33.9658081391
 11
27.8423295092
 21
-33.8841532204
  0
LINE
  5
337
100
AcDbEntity
  8
0
100
AcDbLine
 62
7
  6
CONTINUOUS
 10
28.0544615436
 20
-33.7616708424
 11
28.1958828998
 21
-33.6800159238
  0
LINE
  5
338
100
AcDbEntity
  8
ASSI
100
AcDbLine
 62
7
  6
CONTINUOUS
 10
28.0544615436
 20
-33.7616708424
 11
28.1958828998
 21
-33.6800159238
  0
LINE
  5
339
100
AcDbEntity
  8
0
100
AcDbLine
 62
7
  6
CONTINUOUS
 10
28.4080149342
 20
-33.5575335458
 11
28.5494362904
 21
-33.4758786271
  0
LINE
  5
33A
100
AcDbEntity
  8
ASSI
100
AcDbLine
 62
7
  6
CONTINUOUS
 10
28.4080149342
 20
-33.5575335458
 11
28.5494362904
 21
-33.4758786271
  0
LINE
  5
33B
100
AcDbEntity
  8
0
100
AcDbLine
 62
7
  6
CONTINUOUS
 10
28.7615683248
 20
-33.3533962491
 11
28.902989681
 21
-33.2717413304
  0
LINE
  5
33C
100
AcDbEntity
  8
ASSI
100
AcDbLine
 62
7
  6
CONTINUOUS
 10
28.7615683248
 20
-33.3533962491
 11
28.902989681
 21
-33.2717413304
  0
LINE
  5
33D
100
AcDbEntity
  8
0
100
AcDbLine
 62
7
  6
CONTINUOUS
 10
29.1151217154
 20
-33.1492589524
 11
29.2565430716
 21
-33.0676040338
  0
LINE
  5
33E
100
AcDbEntity
  8
ASSI
100
AcDbLine
 62
7
  6
CONTINUOUS
 10
29.1151217154
 20
-33.1492589524
 11
29.2565430716
 21
-33.0676040338
  0
LINE
  5
33F
100
AcDbEntity
  8
0
100
AcDbLine
 62
7
  6
CONTINUOUS
 10
29.4686751059
 20
-32.9451216558
 11
29.5393857841
 21
-32.9042941964
  0
LINE
  5
340
100
AcDbEntity
  8
ASSI
100
AcDbLine
 62
7
  6
CONTINUOUS
 10
29.4686751059
 20
-32.9451216558
 11
29.5393857841
 21
-32.9042941964
  0
LINE
  5
341
100
AcDbEntity
  8
0
100
AcDbLine
 62
7
  6
CONTINUOUS
 10
29.5393857841
 20
-33.026764738
 11
27.7714411639
 21
-34.0475538041
  0
LINE
  5
342
100
AcDbEntity
  8
ASSI
100
AcDbLine
 62
7
  6
CONTINUOUS
 10
29.5393857841
 20
-33.026764738
 11
27.7714411639
 21
-34.0475538041
  0
LINE
  5
343
100
AcDbEntity
  8
0
100
AcDbLine
 62
250
  6
CONTINUOUS
 10
-47.6304783118
 20
66.6010363295
 11
-46.3603270199
 21
66.1125960405
  0
LINE
  5
344
100
AcDbEntity
  8
ASSI
100
AcDbLine
 62
250
  6
CONTINUOUS
 10
-47.6304783118
 20
66.6010363295
 11
-46.3603270199
 21
66.1125960405
  0
LINE
  5
345
100
AcDbEntity
  8
0
100
AcDbLine
 62
7
  6
CONTINUOUS
 10
-46.3673527932
 20
66.1160071614
 11
-47.7344784372
 21
66.6520849942
  0
LINE
  5
346
100
AcDbEntity
  8
ASSI
100
AcDbLine
 62
7
  6
CONTINUOUS
 10
-46.3673527932
 20
66.1160071614
 11
-47.7344784372
 21
66.6520849942
  0
LINE
  5
347
100
AcDbEntity
  8
SMUSSO
100
AcDbLine
 62
7
  6
CONTINUOUS
 10
47.6766747215
 20
-66.2792468591
 11
47.6766747215
 21
5.5701374987
  0
LINE
  5
348
100
AcDbEntity
  8
SMUSSO
100
AcDbLine
 62
7
  6
CONTINUOUS
 10
48.3837815027
 20
6.7948823688
 11
48.3837815027
 21
5.9783726371
  0
LINE
  5
349
100
AcDbEntity
  8
SMUSSO
100
AcDbLine
 62
7
  6
CONTINUOUS
 10
49.0908882839
 20
-66.2792468591
 11
49.0908882839
 21
5.5701374987
  0
LINE
  5
34A
100
AcDbEntity
  8
SMUSSO
100
AcDbLine
 62
7
  6
CONTINUOUS
 10
50.8586552368
 20
7.4073337137
 11
50.8586552368
 21
-65.2585603758
  0
LINE
  5
34B
100
AcDbEntity
  8
0
100
AcDbLine
 62
250
  6
CONTINUOUS
 10
51.2193522753
 20
-58.1124614604
 11
51.2193522753
 21
-57.7886722098
  0
LINE
  5
34C
100
AcDbEntity
  8
0
100
AcDbLine
 62
250
  6
CONTINUOUS
 10
51.2194314784
 20
-55.1905502992
 11
51.2194314784
 21
-55.5037776903
  0
LINE
  5
34D
100
AcDbEntity
  8
0
100
AcDbLine
 62
250
  6
CONTINUOUS
 10
51.2194314784
 20
-56.1862178394
 11
51.2194314784
 21
-56.5065762819
  0
LINE
  5
34E
100
AcDbEntity
  8
0
100
AcDbLine
 62
250
  6
CONTINUOUS
 10
51.2194314784
 20
-57.1507354056
 11
51.2194314784
 21
-57.474256854
  0
LINE
  5
34F
100
AcDbEntity
  8
0
100
AcDbLine
 62
250
  6
CONTINUOUS
 10
51.2194314784
 20
-58.2325732189
 11
51.2194314784
 21
-58.556141206
  0
LINE
  5
350
100
AcDbEntity
  8
0
100
AcDbLine
 62
250
  6
CONTINUOUS
 10
51.2194314784
 20
-59.1565350735
 11
51.2194314784
 21
-59.5082704687
  0
LINE
  5
351
100
AcDbEntity
  8
0
100
AcDbLine
 62
250
  6
CONTINUOUS
 10
51.8066477419
 20
-53.9566851312
 11
51.8066477419
 21
-53.7716426323
  0
LINE
  5
352
100
AcDbEntity
  8
0
100
AcDbLine
 62
250
  6
CONTINUOUS
 10
52.8740223551
 20
7.7840048415
 11
53.0860415976
 21
8.6432172227
  0
LINE
  5
353
100
AcDbEntity
  8
ASSI
100
AcDbLine
 62
250
  6
CONTINUOUS
 10
52.8740223551
 20
7.7840048415
 11
53.0860415976
 21
8.6432172227
  0
LINE
  5
354
100
AcDbEntity
  8
0
100
AcDbLine
 62
250
  6
CONTINUOUS
 10
28.6908576466
 20
-37.4363355115
 11
29.5393857841
 21
-36.9464059995
  0
LINE
  5
355
100
AcDbEntity
  8
0
100
AcDbLine
 62
250
  6
CONTINUOUS
 10
52.0228227981
 20
-53.6430890077
 11
52.0228227981
 21
-53.8166972108
  0
LINE
  5
356
100
AcDbEntity
  8
0
100
AcDbLine
 62
250
  6
CONTINUOUS
 10
52.0719668848
 20
-54.6947293199
 11
52.0719668848
 21
-55.0047349193
  0
LINE
  5
357
100
AcDbEntity
  8
0
100
AcDbLine
 62
250
  6
CONTINUOUS
 10
52.2758683626
 20
-54.9490546574
 11
52.2758683626
 21
-54.5081068209
  0
LINE
  5
358
100
AcDbEntity
  8
0
100
AcDbLine
 62
250
  6
CONTINUOUS
 10
52.5393764389
 20
-58.22732219
 11
52.5393764389
 21
-57.9419821576
  0
LINE
  5
359
100
AcDbEntity
  8
0
100
AcDbLine
 62
250
  6
CONTINUOUS
 10
52.5393764389
 20
-56.825120219
 11
52.5393764389
 21
-56.5153595606
  0
LINE
  5
35A
100
AcDbEntity
  8
0
100
AcDbLine
 62
250
  6
CONTINUOUS
 10
52.5393764389
 20
-56.0656412004
 11
52.5393764389
 21
-56.0202299401
  0
LINE
  5
35B
100
AcDbEntity
  8
0
100
AcDbLine
 62
250
  6
CONTINUOUS
 10
52.5393764389
 20
-55.5687202441
 11
52.5393764389
 21
-55.2519681508
  0
LINE
  5
35C
100
AcDbEntity
  8
0
100
AcDbLine
 62
250
  6
CONTINUOUS
 10
52.5393764389
 20
-55.2011249137
 11
52.5393764389
 21
-54.8808481182
  0
LINE
  5
35D
100
AcDbEntity
  8
0
100
AcDbLine
 62
250
  6
CONTINUOUS
 10
52.5393764389
 20
-54.2666763149
 11
52.5393764389
 21
-53.9254154168
  0
LINE
  5
35E
100
AcDbEntity
  8
0
100
AcDbLine
 62
250
  6
CONTINUOUS
 10
52.5393762624
 20
-52.7005618766
 11
52.5393762624
 21
-53.0120097586
  0
LINE
  5
35F
100
AcDbEntity
  8
0
100
AcDbLine
 62
250
  6
CONTINUOUS
 10
52.5393762624
 20
-53.5078487452
 11
52.5393762624
 21
-53.8303354335
  0
LINE
  5
360
100
AcDbEntity
  8
0
100
AcDbLine
 62
250
  6
CONTINUOUS
 10
52.5393764389
 20
-56.9994268254
 11
52.5393764389
 21
-57.323216076
  0
LINE
  5
361
100
AcDbEntity
  8
0
100
AcDbLine
 62
7
  6
CONTINUOUS
 10
52.8739095632
 20
7.7545861623
 11
52.8739095632
 21
-62.9519885127
  0
LINE
  5
362
100
AcDbEntity
  8
ASSI
100
AcDbLine
 62
7
  6
CONTINUOUS
 10
52.8739095632
 20
7.7545861623
 11
52.8739095632
 21
-62.9519885127
  0
LINE
  5
363
100
AcDbEntity
  8
0
100
AcDbLine
 62
7
  6
CONTINUOUS
 10
53.0860415976
 20
8.6432172227
 11
53.0860415976
 21
-61.6359367692
  0
LINE
  5
364
100
AcDbEntity
  8
ASSI
100
AcDbLine
 62
7
  6
CONTINUOUS
 10
53.0860415976
 20
8.6432172227
 11
53.0860415976
 21
-61.6359367692
  0
LINE
  5
365
100
AcDbEntity
  8
0
100
AcDbLine
 62
7
  6
CONTINUOUS
 10
53.0854831736
 20
-61.6437225007
 11
52.8662364176
 21
-63.0957612296
  0
LINE
  5
366
100
AcDbEntity
  8
ASSI
100
AcDbLine
 62
7
  6
CONTINUOUS
 10
53.0854831736
 20
-61.6437225007
 11
52.8662364176
 21
-63.0957612296
  0
LINE
  5
367
100
AcDbEntity
  8
0
100
AcDbLine
 62
250
  6
CONTINUOUS
 10
52.8740223551
 20
-62.9802349491
 11
53.0860415976
 21
-61.6359367692
  0
LINE
  5
368
100
AcDbEntity
  8
ASSI
100
AcDbLine
 62
250
  6
CONTINUOUS
 10
52.8740223551
 20
-62.9802349491
 11
53.0860415976
 21
-61.6359367692
  0
LINE
  5
369
100
AcDbEntity
  8
0
100
AcDbLine
 62
250
  6
CONTINUOUS
 10
51.9154380369
 20
-53.3709425148
 11
51.9232377596
 21
-53.3662790432
  0
LINE
  5
36A
100
AcDbEntity
  8
0
100
AcDbLine
 62
250
  6
CONTINUOUS
 10
52.0228227981
 20
-53.8166972108
 11
52.5393762624
 21
-53.5078487452
  0
LINE
  5
36B
100
AcDbEntity
  8
0
100
AcDbLine
 62
250
  6
CONTINUOUS
 10
51.4442971714
 20
-54.1733353435
 11
51.8066477419
 21
-53.9566851312
  0
LINE
  5
36C
100
AcDbEntity
  8
0
100
AcDbLine
 62
250
  6
CONTINUOUS
 10
52.5393762624
 20
-53.8303354335
 11
51.2348528403
 21
-54.6103128901
  0
LINE
  5
36D
100
AcDbEntity
  8
0
100
AcDbLine
 62
250
  6
CONTINUOUS
 10
52.5393764389
 20
-56.5153595606
 11
51.6774770007
 21
-56.9608168096
  0
LINE
  5
36E
100
AcDbEntity
  8
0
100
AcDbLine
 62
250
  6
CONTINUOUS
 10
51.2194314784
 20
-57.474256854
 11
52.5393764389
 21
-56.825120219
  0
LINE
  5
36F
100
AcDbEntity
  8
0
100
AcDbLine
 62
250
  6
CONTINUOUS
 10
51.6774770007
 20
-56.9608168096
 11
52.5393764389
 21
-56.0656412004
  0
LINE
  5
370
100
AcDbEntity
  8
0
100
AcDbLine
 62
250
  6
CONTINUOUS
 10
51.9522687422
 20
-56.392200502
 11
51.2194314784
 21
-57.1507354056
  0
LINE
  5
371
100
AcDbEntity
  8
0
100
AcDbLine
 62
250
  6
CONTINUOUS
 10
51.2194314784
 20
-59.5082704687
 11
52.5393764389
 21
-58.22732219
  0
LINE
  5
372
100
AcDbEntity
  8
0
100
AcDbLine
 62
250
  6
CONTINUOUS
 10
52.5393764389
 20
-53.9254154168
 11
51.2194314784
 21
-55.1905502992
  0
LINE
  5
373
100
AcDbEntity
  8
0
100
AcDbLine
 62
250
  6
CONTINUOUS
 10
52.1279905845
 20
-58.317624934
 11
51.2194314784
 21
-59.1565350735
  0
LINE
  5
374
100
AcDbEntity
  8
0
100
AcDbLine
 62
250
  6
CONTINUOUS
 10
52.2758683626
 20
-54.5081068209
 11
52.5393764389
 21
-54.2666763149
  0
LINE
  5
375
100
AcDbEntity
  8
0
100
AcDbLine
 62
250
  6
CONTINUOUS
 10
51.5821185319
 20
-55.1363961186
 11
52.0719668848
 21
-54.6947293199
  0
LINE
  5
376
100
AcDbEntity
  8
0
100
AcDbLine
 62
250
  6
CONTINUOUS
 10
52.5393764389
 20
-55.2519681508
 11
51.2194314784
 21
-56.1862178394
  0
LINE
  5
377
100
AcDbEntity
  8
0
100
AcDbLine
 62
250
  6
CONTINUOUS
 10
51.6810703211
 20
-56.1484269303
 11
52.5393764389
 21
-55.5687202441
  0
LINE
  5
378
100
AcDbEntity
  8
0
100
AcDbLine
 62
250
  6
CONTINUOUS
 10
50.8590934226
 20
-64.197981037
 11
52.8739095632
 21
-62.9519885127
  0
LINE
  5
379
100
AcDbEntity
  8
ASSI
100
AcDbLine
 62
250
  6
CONTINUOUS
 10
50.8590934226
 20
-64.197981037
 11
52.8739095632
 21
-62.9519885127
  0
LINE
  5
37A
100
AcDbEntity
  8
0
100
AcDbLine
 62
7
  6
CONTINUOUS
 10
50.8586552368
 20
-64.5280853167
 11
52.6889636986
 21
-63.3961951087
  0
LINE
  5
37B
100
AcDbEntity
  8
ASSI
100
AcDbLine
 62
7
  6
CONTINUOUS
 10
50.8586552368
 20
-64.5280853167
 11
52.6889636986
 21
-63.3961951087
  0
LINE
  5
37C
100
AcDbEntity
  8
0
100
AcDbLine
 62
250
  6
CONTINUOUS
 10
51.2193522753
 20
-57.7886722098
 11
52.5393764389
 21
-56.9994268254
  0
LINE
  5
37D
100
AcDbEntity
  8
0
100
AcDbLine
 62
250
  6
CONTINUOUS
 10
52.5393764389
 20
-57.323216076
 11
51.2193522753
 21
-58.1124614604
  0
LINE
  5
37E
100
AcDbEntity
  8
SMUSSO
100
AcDbLine
 62
7
  6
CONTINUOUS
 10
48.3837815027
 20
-66.6874819975
 11
50.8586552368
 21
-65.2585603758
  0
ARC
  5
37F
100
AcDbEntity
  8
0
100
AcDbCircle
 62
7
  6
CONTINUOUS
 10
-18.6321339466
 20
-6.253846673
 40
0.3
100
AcDbArc
 50
300.1089947038
 51
314.200140419
  0
ARC
  5
380
100
AcDbEntity
  8
0
100
AcDbCircle
 62
7
  6
CONTINUOUS
 10
-2.7222315024
 20
-15.4400251797
 40
0.3
100
AcDbArc
 50
300.1089804062
 51
314.2001409262
  0
ARC
  5
381
100
AcDbEntity
  8
ASSI
100
AcDbCircle
 62
7
  6
CONTINUOUS
 10
-18.6321339466
 20
-6.253846673
 40
0.3
100
AcDbArc
 50
300.108994761
 51
314.2001404186
  0
ARC
  5
382
100
AcDbEntity
  8
ASSI
100
AcDbCircle
 62
7
  6
CONTINUOUS
 10
-2.7222315024
 20
-15.4400251797
 40
0.3
100
AcDbArc
 50
300.1089804578
 51
314.2001409258
  0
ARC
  5
383
100
AcDbEntity
  8
0
100
AcDbCircle
 62
250
  6
CONTINUOUS
 10
-18.5913397496
 20
-6.3916667191
 40
0.1703494709
100
AcDbArc
 50
339.0198146641
 51
345.0908549882
  0
ARC
  5
384
100
AcDbEntity
  8
ASSI
100
AcDbCircle
 62
250
  6
CONTINUOUS
 10
-18.5913397497
 20
-6.3916667191
 40
0.170349471
100
AcDbArc
 50
339.0198146713
 51
345.0908549903
  0
ARC
  5
385
100
AcDbEntity
  8
0
100
AcDbCircle
 62
250
  6
CONTINUOUS
 10
-18.531493111
 20
-6.4271597305
 40
0.099807732
100
AcDbArc
 50
300.1159511657
 51
302.5103145113
  0
ARC
  5
386
100
AcDbEntity
  8
ASSI
100
AcDbCircle
 62
250
  6
CONTINUOUS
 10
-18.531493111
 20
-6.4271597305
 40
0.099807732
100
AcDbArc
 50
300.1159511655
 51
302.5103145078
  0
ARC
  5
387
100
AcDbEntity
  8
0
100
AcDbCircle
 62
7
  6
CONTINUOUS
 10
29.0975737835
 20
-33.8123817226
 40
0.3
100
AcDbArc
 50
300.1089947042
 51
314.200140419
  0
ARC
  5
388
100
AcDbEntity
  8
0
100
AcDbCircle
 62
7
  6
CONTINUOUS
 10
13.1876710743
 20
-24.6262035296
 40
0.3
100
AcDbArc
 50
300.1089804062
 51
314.2001409262
  0
ARC
  5
389
100
AcDbEntity
  8
ASSI
100
AcDbCircle
 62
7
  6
CONTINUOUS
 10
29.0975737835
 20
-33.8123817226
 40
0.3
100
AcDbArc
 50
300.1089947609
 51
314.2001404186
  0
ARC
  5
38A
100
AcDbEntity
  8
ASSI
100
AcDbCircle
 62
7
  6
CONTINUOUS
 10
13.1876710743
 20
-24.6262035296
 40
0.3
100
AcDbArc
 50
300.1089804578
 51
314.2001409258
  0
ARC
  5
38B
100
AcDbEntity
  8
0
100
AcDbCircle
 62
250
  6
CONTINUOUS
 10
29.1383679804
 20
-33.9502017687
 40
0.1703494709
100
AcDbArc
 50
339.0198146678
 51
345.0908549898
  0
ARC
  5
38C
100
AcDbEntity
  8
ASSI
100
AcDbCircle
 62
250
  6
CONTINUOUS
 10
29.1383679804
 20
-33.9502017687
 40
0.1703494709
100
AcDbArc
 50
339.0198146701
 51
345.0908549898
  0
ARC
  5
38D
100
AcDbEntity
  8
0
100
AcDbCircle
 62
250
  6
CONTINUOUS
 10
29.1982146191
 20
-33.9856947801
 40
0.099807732
100
AcDbArc
 50
300.1159511656
 51
302.510314506
  0
ARC
  5
38E
100
AcDbEntity
  8
ASSI
100
AcDbCircle
 62
250
  6
CONTINUOUS
 10
29.1982146191
 20
-33.9856947801
 40
0.099807732
100
AcDbArc
 50
300.1159511656
 51
302.5103145009
  0
SPLINE
  5
38F
100
AcDbEntity
  8
0
100
AcDbSpline
 62
7
  6
CONTINUOUS
 70
0
 71
3
 72
10
 73
6
 74
0
 42
0.0000001
 43
0.0000001
 44
0.0000000001
 40
0.0
 40
0.0
 40
0.0
 40
0.0
 40
0.5286417693
 40
0.7679924232
 40
1.0
 40
1.0
 40
1.0
 40
1.0
 10
-47.7344781246
 20
66.6520818342
 30
0.0
 10
-47.7933283527
 20
66.6751673086
 30
0.0
 10
-47.8858666105
 20
66.6965272813
 30
0.0
 10
-48.0055775708
 20
66.6823584685
 30
0.0
 10
-48.0588747392
 20
66.6619007675
 30
0.0
 10
-48.0833104239
 20
66.6487620093
 30
0.0
  0
SPLINE
  5
390
100
AcDbEntity
  8
0
100
AcDbSpline
 62
7
  6
CONTINUOUS
 70
0
 71
3
 72
10
 73
6
 74
0
 42
0.0000001
 43
0.0000001
 44
0.0000000001
 40
0.0
 40
0.0
 40
0.0
 40
0.0
 40
0.2320078143
 40
0.4713585689
 40
1.0
 40
1.0
 40
1.0
 40
1.0
 10
52.6889634867
 20
-63.3961948255
 30
0.0
 10
52.7125581666
 20
-63.3816014821
 30
0.0
 10
52.7569201043
 20
-63.3456725766
 30
0.0
 10
52.8290386614
 20
-63.2490842368
 30
0.0
 10
52.8568043767
 20
-63.1582659715
 30
0.0
 10
52.86623383
 20
-63.0957593739
 30
0.0
  0
SPLINE
  5
391
100
AcDbEntity
  8
0
100
AcDbSpline
 62
250
  6
CONTINUOUS
 70
0
 71
3
 72
9
 73
5
 74
0
 42
0.0000001
 43
0.0000001
 44
0.0000000001
 40
0.0
 40
0.0
 40
0.0
 40
0.0
 40
0.2416065921
 40
1.0
 40
1.0
 40
1.0
 40
1.0
 10
-2.5715124836
 20
-15.6996724744
 30
0.0
 10
-2.5668377522
 20
-15.6969433514
 30
0.0
 10
-2.5484193857
 20
-15.6840419234
 30
0.0
 10
-2.5346299478
 20
-15.665177866
 30
0.0
 10
-2.5272208212
 20
-15.6498869583
 30
0.0
  0
SPLINE
  5
392
100
AcDbEntity
  8
0
100
AcDbSpline
 62
250
  6
CONTINUOUS
 70
0
 71
3
 72
9
 73
5
 74
0
 42
0.0000001
 43
0.0000001
 44
0.0000000001
 40
0.0
 40
0.0
 40
0.0
 40
0.0
 40
0.2431061738
 40
1.0
 40
1.0
 40
1.0
 40
1.0
 10
-2.5272208212
 20
-15.6498869583
 30
0.0
 10
-2.5261574252
 20
-15.6476923285
 30
0.0
 10
-2.5220136088
 20
-15.6385541277
 30
0.0
 10
-2.5187848618
 20
-15.6290084991
 30
0.0
 10
-2.5168225125
 20
-15.621673779
 30
0.0
  0
SPLINE
  5
393
100
AcDbEntity
  8
0
100
AcDbSpline
 62
7
  6
CONTINUOUS
 70
0
 71
3
 72
9
 73
5
 74
0
 42
0.0000001
 43
0.0000001
 44
0.0000000001
 40
0.0
 40
0.0
 40
0.0
 40
0.0
 40
0.2419971751
 40
1.0
 40
1.0
 40
1.0
 40
1.0
 10
52.86623383
 20
-63.0957593739
 30
0.0
 10
52.8676278866
 20
-63.0865183573
 30
0.0
 10
52.872553153
 20
-63.0482077004
 30
0.0
 10
52.87426126
 20
-63.0095069301
 30
0.0
 10
52.8740223551
 20
-62.9802349491
 30
0.0
  0
SPLINE
  5
394
100
AcDbEntity
  8
0
100
AcDbSpline
 62
250
  6
CONTINUOUS
 70
0
 71
3
 72
9
 73
5
 74
0
 42
0.0000001
 43
0.0000001
 44
0.0000000001
 40
0.0
 40
0.0
 40
0.0
 40
0.0
 40
0.2416065921
 40
1.0
 40
1.0
 40
1.0
 40
1.0
 10
13.3383900931
 20
-24.8858508243
 30
0.0
 10
13.3430648245
 20
-24.8831217013
 30
0.0
 10
13.361483191
 20
-24.8702202733
 30
0.0
 10
13.3752726289
 20
-24.8513562159
 30
0.0
 10
13.3826817555
 20
-24.8360653081
 30
0.0
  0
SPLINE
  5
395
100
AcDbEntity
  8
0
100
AcDbSpline
 62
250
  6
CONTINUOUS
 70
0
 71
3
 72
9
 73
5
 74
0
 42
0.0000001
 43
0.0000001
 44
0.0000000001
 40
0.0
 40
0.0
 40
0.0
 40
0.0
 40
0.2431061738
 40
1.0
 40
1.0
 40
1.0
 40
1.0
 10
13.3826817555
 20
-24.8360653081
 30
0.0
 10
13.3837451515
 20
-24.8338706784
 30
0.0
 10
13.3878889679
 20
-24.8247324776
 30
0.0
 10
13.3911177149
 20
-24.815186849
 30
0.0
 10
13.3930800642
 20
-24.8078521289
 30
0.0
  0
SPLINE
  5
396
100
AcDbEntity
  8
0
100
AcDbSpline
 62
250
  6
CONTINUOUS
 70
0
 71
3
 72
9
 73
5
 74
0
 42
0.0000001
 43
0.0000001
 44
0.0000000001
 40
0.0
 40
0.0
 40
0.0
 40
0.0
 40
0.4797910457
 40
1.0
 40
1.0
 40
1.0
 40
1.0
 10
-18.4778513028
 20
-6.5113270626
 30
0.0
 10
-18.4677015887
 20
-6.5048585887
 30
0.0
 10
-18.4489339922
 20
-6.4873425755
 30
0.0
 10
-18.4369716469
 20
-6.46483797
 30
0.0
 10
-18.4322837152
 20
-6.4526595068
 30
0.0
  0
SPLINE
  5
397
100
AcDbEntity
  8
0
100
AcDbSpline
 62
250
  6
CONTINUOUS
 70
0
 71
3
 72
9
 73
5
 74
0
 42
0.0000001
 43
0.0000001
 44
0.0000000001
 40
0.0
 40
0.0
 40
0.0
 40
0.0
 40
0.4797910457
 40
1.0
 40
1.0
 40
1.0
 40
1.0
 10
29.2518564273
 20
-34.0698621122
 30
0.0
 10
29.2620061414
 20
-34.0633936384
 30
0.0
 10
29.2807737379
 20
-34.0458776251
 30
0.0
 10
29.2927360831
 20
-34.0233730196
 30
0.0
 10
29.2974240149
 20
-34.0111945564
 30
0.0
  0
SPLINE
  5
398
100
AcDbEntity
  8
0
100
AcDbSpline
 62
250
  6
CONTINUOUS
 70
0
 71
3
 72
10
 73
6
 74
0
 42
0.0000001
 43
0.0000001
 44
0.0000000001
 40
0.0
 40
0.0
 40
0.0
 40
0.0
 40
0.360269124
 40
0.641576974
 40
1.0
 40
1.0
 40
1.0
 40
1.0
 10
13.3930800642
 20
-24.8078521289
 30
0.0
 10
13.3947926381
 20
-24.8116841714
 30
0.0
 10
13.397564345
 20
-24.8187375199
 30
0.0
 10
13.4005226101
 20
-24.8296705907
 30
0.0
 10
13.3999956458
 20
-24.8384719735
 30
0.0
 10
13.3970001237
 20
-24.8413813063
 30
0.0
  0
SPLINE
  5
399
100
AcDbEntity
  8
0
100
AcDbSpline
 62
250
  6
CONTINUOUS
 70
0
 71
3
 72
10
 73
6
 74
0
 42
0.0000001
 43
0.0000001
 44
0.0000000001
 40
0.0
 40
0.0
 40
0.0
 40
0.0
 40
0.360269124
 40
0.641576974
 40
1.0
 40
1.0
 40
1.0
 40
1.0
 10
-2.5168225125
 20
-15.621673779
 30
0.0
 10
-2.5151099386
 20
-15.6255058215
 30
0.0
 10
-2.5123382317
 20
-15.6325591701
 30
0.0
 10
-2.5093799666
 20
-15.6434922409
 30
0.0
 10
-2.5099069309
 20
-15.6522936236
 30
0.0
 10
-2.512902453
 20
-15.6552029564
 30
0.0
  0
SPLINE
  5
39A
100
AcDbEntity
  8
0
100
AcDbSpline
 62
7
  6
CONTINUOUS
 70
0
 71
3
 72
9
 73
5
 74
0
 42
0.0000001
 43
0.0000001
 44
0.0000000001
 40
0.0
 40
0.0
 40
0.0
 40
0.0
 40
0.2581555554
 40
1.0
 40
1.0
 40
1.0
 40
1.0
 10
-47.6304783118
 20
66.6010363295
 30
0.0
 10
-47.6390757046
 20
66.6060943957
 30
0.0
 10
-47.672724938
 20
66.6250869255
 30
0.0
 10
-47.7077935126
 20
66.6416141275
 30
0.0
 10
-47.7344781246
 20
66.6520818342
 30
0.0
  0
SPLINE
  5
39B
100
AcDbEntity
  8
0
100
AcDbSpline
 62
7
  6
CONTINUOUS
 70
0
 71
3
 72
11
 73
7
 74
0
 42
0.0000001
 43
0.0000001
 44
0.0000000001
 40
0.0
 40
0.0
 40
0.0
 40
0.0
 40
0.2395913414
 40
0.4999945237
 40
0.7604006804
 40
1.0
 40
1.0
 40
1.0
 40
1.0
 10
52.8740223551
 20
7.7840048415
 30
0.0
 10
52.874873561
 20
7.8971459656
 30
0.0
 10
52.8366014323
 20
8.1339877846
 30
0.0
 10
52.6925815958
 20
8.4662599162
 30
0.0
 10
52.4768327426
 20
8.7571235076
 30
0.0
 10
52.2908555437
 20
8.908693792
 30
0.0
 10
52.192444969
 20
8.9645315022
 30
0.0
  0
SPLINE
  5
39C
100
AcDbEntity
  8
0
100
AcDbSpline
 62
250
  6
CONTINUOUS
 70
0
 71
3
 72
10
 73
6
 74
0
 42
0.0000001
 43
0.0000001
 44
0.0000000001
 40
0.0
 40
0.0
 40
0.0
 40
0.0
 40
0.3605942181
 40
0.6415344154
 40
1.0
 40
1.0
 40
1.0
 40
1.0
 10
29.3029826409
 20
-33.9940304788
 30
0.0
 10
29.3046975659
 20
-33.997867763
 30
0.0
 10
29.3074946366
 20
-34.0049135275
 30
0.0
 10
29.3104445044
 20
-34.0158599774
 30
0.0
 10
29.3099009391
 20
-34.0246522272
 30
0.0
 10
29.3069065531
 20
-34.0275662314
 30
0.0
  0
SPLINE
  5
39D
100
AcDbEntity
  8
0
100
AcDbSpline
 62
250
  6
CONTINUOUS
 70
0
 71
3
 72
10
 73
6
 74
0
 42
0.0000001
 43
0.0000001
 44
0.0000000001
 40
0.0
 40
0.0
 40
0.0
 40
0.0
 40
0.3605942181
 40
0.6415344154
 40
1.0
 40
1.0
 40
1.0
 40
1.0
 10
-18.4267250892
 20
-6.4354954291
 30
0.0
 10
-18.4250101642
 20
-6.4393327134
 30
0.0
 10
-18.4222130935
 20
-6.4463784779
 30
0.0
 10
-18.4192632257
 20
-6.4573249278
 30
0.0
 10
-18.419806791
 20
-6.4661171775
 30
0.0
 10
-18.422801177
 20
-6.4690311818
 30
0.0
  0
SPLINE
  5
39E
100
AcDbEntity
  8
ASSI
100
AcDbSpline
 62
7
  6
CONTINUOUS
 70
0
 71
3
 72
10
 73
6
 74
0
 42
0.0000001
 43
0.0000001
 44
0.0000000001
 40
0.0
 40
0.0
 40
0.0
 40
0.0
 40
0.5286417693
 40
0.7679924232
 40
1.0
 40
1.0
 40
1.0
 40
1.0
 10
-47.7344781246
 20
66.6520818342
 30
0.0
 10
-47.7933283527
 20
66.6751673086
 30
0.0
 10
-47.8858666105
 20
66.6965272813
 30
0.0
 10
-48.0055775708
 20
66.6823584685
 30
0.0
 10
-48.0588747392
 20
66.6619007675
 30
0.0
 10
-48.0833104239
 20
66.6487620093
 30
0.0
  0
SPLINE
  5
39F
100
AcDbEntity
  8
ASSI
100
AcDbSpline
 62
7
  6
CONTINUOUS
 70
0
 71
3
 72
10
 73
6
 74
0
 42
0.0000001
 43
0.0000001
 44
0.0000000001
 40
0.0
 40
0.0
 40
0.0
 40
0.0
 40
0.2320078143
 40
0.4713585689
 40
1.0
 40
1.0
 40
1.0
 40
1.0
 10
52.6889634867
 20
-63.3961948255
 30
0.0
 10
52.7125581666
 20
-63.3816014821
 30
0.0
 10
52.7569201043
 20
-63.3456725766
 30
0.0
 10
52.8290386614
 20
-63.2490842368
 30
0.0
 10
52.8568043767
 20
-63.1582659715
 30
0.0
 10
52.86623383
 20
-63.0957593739
 30
0.0
  0
SPLINE
  5
3A0
100
AcDbEntity
  8
ASSI
100
AcDbSpline
 62
7
  6
CONTINUOUS
 70
0
 71
3
 72
9
 73
5
 74
0
 42
0.0000001
 43
0.0000001
 44
0.0000000001
 40
0.0
 40
0.0
 40
0.0
 40
0.0
 40
0.2419971751
 40
1.0
 40
1.0
 40
1.0
 40
1.0
 10
52.86623383
 20
-63.0957593739
 30
0.0
 10
52.8676278866
 20
-63.0865183573
 30
0.0
 10
52.872553153
 20
-63.0482077004
 30
0.0
 10
52.87426126
 20
-63.0095069301
 30
0.0
 10
52.8740223551
 20
-62.9802349491
 30
0.0
  0
SPLINE
  5
3A1
100
AcDbEntity
  8
ASSI
100
AcDbSpline
 62
250
  6
CONTINUOUS
 70
0
 71
3
 72
9
 73
5
 74
0
 42
0.0000001
 43
0.0000001
 44
0.0000000001
 40
0.0
 40
0.0
 40
0.0
 40
0.0
 40
0.4797910457
 40
1.0
 40
1.0
 40
1.0
 40
1.0
 10
-18.4778513028
 20
-6.5113270626
 30
0.0
 10
-18.4677015887
 20
-6.5048585887
 30
0.0
 10
-18.4489339922
 20
-6.4873425755
 30
0.0
 10
-18.4369716469
 20
-6.46483797
 30
0.0
 10
-18.4322837152
 20
-6.4526595068
 30
0.0
  0
SPLINE
  5
3A2
100
AcDbEntity
  8
ASSI
100
AcDbSpline
 62
250
  6
CONTINUOUS
 70
0
 71
3
 72
9
 73
5
 74
0
 42
0.0000001
 43
0.0000001
 44
0.0000000001
 40
0.0
 40
0.0
 40
0.0
 40
0.0
 40
0.4797910457
 40
1.0
 40
1.0
 40
1.0
 40
1.0
 10
29.2518564273
 20
-34.0698621122
 30
0.0
 10
29.2620061414
 20
-34.0633936384
 30
0.0
 10
29.2807737379
 20
-34.0458776251
 30
0.0
 10
29.2927360831
 20
-34.0233730196
 30
0.0
 10
29.2974240149
 20
-34.0111945564
 30
0.0
  0
SPLINE
  5
3A3
100
AcDbEntity
  8
ASSI
100
AcDbSpline
 62
250
  6
CONTINUOUS
 70
0
 71
3
 72
9
 73
5
 74
0
 42
0.0000001
 43
0.0000001
 44
0.0000000001
 40
0.0
 40
0.0
 40
0.0
 40
0.0
 40
0.2416065921
 40
1.0
 40
1.0
 40
1.0
 40
1.0
 10
-2.5715124836
 20
-15.6996724744
 30
0.0
 10
-2.5668377522
 20
-15.6969433514
 30
0.0
 10
-2.5484193857
 20
-15.6840419234
 30
0.0
 10
-2.5346299478
 20
-15.665177866
 30
0.0
 10
-2.5272208212
 20
-15.6498869583
 30
0.0
  0
SPLINE
  5
3A4
100
AcDbEntity
  8
ASSI
100
AcDbSpline
 62
250
  6
CONTINUOUS
 70
0
 71
3
 72
9
 73
5
 74
0
 42
0.0000001
 43
0.0000001
 44
0.0000000001
 40
0.0
 40
0.0
 40
0.0
 40
0.0
 40
0.2431061738
 40
1.0
 40
1.0
 40
1.0
 40
1.0
 10
-2.5272208212
 20
-15.6498869583
 30
0.0
 10
-2.5261574252
 20
-15.6476923285
 30
0.0
 10
-2.5220136088
 20
-15.6385541277
 30
0.0
 10
-2.5187848618
 20
-15.6290084991
 30
0.0
 10
-2.5168225125
 20
-15.621673779
 30
0.0
  0
SPLINE
  5
3A5
100
AcDbEntity
  8
ASSI
100
AcDbSpline
 62
250
  6
CONTINUOUS
 70
0
 71
3
 72
10
 73
6
 74
0
 42
0.0000001
 43
0.0000001
 44
0.0000000001
 40
0.0
 40
0.0
 40
0.0
 40
0.0
 40
0.360269124
 40
0.641576974
 40
1.0
 40
1.0
 40
1.0
 40
1.0
 10
13.3930800642
 20
-24.8078521289
 30
0.0
 10
13.3947926381
 20
-24.8116841714
 30
0.0
 10
13.397564345
 20
-24.8187375199
 30
0.0
 10
13.4005226101
 20
-24.8296705907
 30
0.0
 10
13.3999956458
 20
-24.8384719735
 30
0.0
 10
13.3970001237
 20
-24.8413813063
 30
0.0
  0
SPLINE
  5
3A6
100
AcDbEntity
  8
ASSI
100
AcDbSpline
 62
250
  6
CONTINUOUS
 70
0
 71
3
 72
10
 73
6
 74
0
 42
0.0000001
 43
0.0000001
 44
0.0000000001
 40
0.0
 40
0.0
 40
0.0
 40
0.0
 40
0.360269124
 40
0.641576974
 40
1.0
 40
1.0
 40
1.0
 40
1.0
 10
-2.5168225125
 20
-15.621673779
 30
0.0
 10
-2.5151099386
 20
-15.6255058215
 30
0.0
 10
-2.5123382317
 20
-15.6325591701
 30
0.0
 10
-2.5093799666
 20
-15.6434922409
 30
0.0
 10
-2.5099069309
 20
-15.6522936236
 30
0.0
 10
-2.512902453
 20
-15.6552029564
 30
0.0
  0
SPLINE
  5
3A7
100
AcDbEntity
  8
ASSI
100
AcDbSpline
 62
250
  6
CONTINUOUS
 70
0
 71
3
 72
9
 73
5
 74
0
 42
0.0000001
 43
0.0000001
 44
0.0000000001
 40
0.0
 40
0.0
 40
0.0
 40
0.0
 40
0.2416065921
 40
1.0
 40
1.0
 40
1.0
 40
1.0
 10
13.3383900931
 20
-24.8858508243
 30
0.0
 10
13.3430648245
 20
-24.8831217013
 30
0.0
 10
13.361483191
 20
-24.8702202733
 30
0.0
 10
13.3752726289
 20
-24.8513562159
 30
0.0
 10
13.3826817555
 20
-24.8360653081
 30
0.0
  0
SPLINE
  5
3A8
100
AcDbEntity
  8
ASSI
100
AcDbSpline
 62
250
  6
CONTINUOUS
 70
0
 71
3
 72
9
 73
5
 74
0
 42
0.0000001
 43
0.0000001
 44
0.0000000001
 40
0.0
 40
0.0
 40
0.0
 40
0.0
 40
0.2431061738
 40
1.0
 40
1.0
 40
1.0
 40
1.0
 10
13.3826817555
 20
-24.8360653081
 30
0.0
 10
13.3837451515
 20
-24.8338706784
 30
0.0
 10
13.3878889679
 20
-24.8247324776
 30
0.0
 10
13.3911177149
 20
-24.815186849
 30
0.0
 10
13.3930800642
 20
-24.8078521289
 30
0.0
  0
SPLINE
  5
3A9
100
AcDbEntity
  8
ASSI
100
AcDbSpline
 62
7
  6
CONTINUOUS
 70
0
 71
3
 72
9
 73
5
 74
0
 42
0.0000001
 43
0.0000001
 44
0.0000000001
 40
0.0
 40
0.0
 40
0.0
 40
0.0
 40
0.2581555554
 40
1.0
 40
1.0
 40
1.0
 40
1.0
 10
-47.6304783118
 20
66.6010363295
 30
0.0
 10
-47.6390757046
 20
66.6060943957
 30
0.0
 10
-47.672724938
 20
66.6250869255
 30
0.0
 10
-47.7077935126
 20
66.6416141275
 30
0.0
 10
-47.7344781246
 20
66.6520818342
 30
0.0
  0
SPLINE
  5
3AA
100
AcDbEntity
  8
ASSI
100
AcDbSpline
 62
7
  6
CONTINUOUS
 70
0
 71
3
 72
11
 73
7
 74
0
 42
0.0000001
 43
0.0000001
 44
0.0000000001
 40
0.0
 40
0.0
 40
0.0
 40
0.0
 40
0.2395913414
 40
0.4999945237
 40
0.7604006804
 40
1.0
 40
1.0
 40
1.0
 40
1.0
 10
52.8740223551
 20
7.7840048415
 30
0.0
 10
52.874873561
 20
7.8971459656
 30
0.0
 10
52.8366014323
 20
8.1339877846
 30
0.0
 10
52.6925815958
 20
8.4662599162
 30
0.0
 10
52.4768327426
 20
8.7571235076
 30
0.0
 10
52.2908555437
 20
8.908693792
 30
0.0
 10
52.192444969
 20
8.9645315022
 30
0.0
  0
SPLINE
  5
3AB
100
AcDbEntity
  8
ASSI
100
AcDbSpline
 62
250
  6
CONTINUOUS
 70
0
 71
3
 72
10
 73
6
 74
0
 42
0.0000001
 43
0.0000001
 44
0.0000000001
 40
0.0
 40
0.0
 40
0.0
 40
0.0
 40
0.3605942179
 40
0.6415344154
 40
1.0
 40
1.0
 40
1.0
 40
1.0
 10
29.3029826409
 20
-33.9940304788
 30
0.0
 10
29.3046975659
 20
-33.997867763
 30
0.0
 10
29.3074946366
 20
-34.0049135275
 30
0.0
 10
29.3104445044
 20
-34.0158599774
 30
0.0
 10
29.3099009391
 20
-34.0246522272
 30
0.0
 10
29.3069065531
 20
-34.0275662314
 30
0.0
  0
SPLINE
  5
3AC
100
AcDbEntity
  8
ASSI
100
AcDbSpline
 62
250
  6
CONTINUOUS
 70
0
 71
3
 72
10
 73
6
 74
0
 42
0.0000001
 43
0.0000001
 44
0.0000000001
 40
0.0
 40
0.0
 40
0.0
 40
0.0
 40
0.3605942178
 40
0.6415344153
 40
1.0
 40
1.0
 40
1.0
 40
1.0
 10
-18.4267250892
 20
-6.4354954291
 30
0.0
 10
-18.4250101642
 20
-6.4393327134
 30
0.0
 10
-18.4222130935
 20
-6.4463784779
 30
0.0
 10
-18.4192632257
 20
-6.4573249278
 30
0.0
 10
-18.419806791
 20
-6.4661171775
 30
0.0
 10
-18.4228011769
 20
-6.4690311818
 30
0.0
  0
SPLINE
  5
3AD
100
AcDbEntity
  8
0
100
AcDbSpline
 62
250
  6
CONTINUOUS
 70
0
 71
3
 72
12
 73
8
 74
0
 42
0.0000001
 43
0.0000001
 44
0.0000000001
 40
0.0
 40
0.0
 40
0.0
 40
0.0
 40
0.3333333333
 40
0.5
 40
0.6666666667
 40
0.8333333333
 40
1.0
 40
1.0
 40
1.0
 40
1.0
 10
51.4365260603
 20
-53.9243327658
 30
0.0
 10
51.4337796934
 20
-53.9537836622
 30
0.0
 10
51.4314819302
 20
-53.9970482081
 30
0.0
 10
51.4320034353
 20
-54.0526964044
 30
0.0
 10
51.4341879099
 20
-54.093576546
 30
0.0
 10
51.4383393663
 20
-54.133824922
 30
0.0
 10
51.4422011283
 20
-54.1601529183
 30
0.0
 10
51.4442971714
 20
-54.1733353435
 30
0.0
  0
SPLINE
  5
3AE
100
AcDbEntity
  8
0
100
AcDbSpline
 62
250
  6
CONTINUOUS
 70
0
 71
3
 72
19
 73
15
 74
0
 42
0.0000001
 43
0.0000001
 44
0.0000000001
 40
0.0
 40
0.0
 40
0.0
 40
0.0
 40
0.1
 40
0.2
 40
0.25
 40
0.3
 40
0.4
 40
0.5
 40
0.6
 40
0.7
 40
0.75
 40
0.8
 40
0.9
 40
1.0
 40
1.0
 40
1.0
 40
1.0
 10
51.6016013547
 20
-53.6427194016
 30
0.0
 10
51.5936215414
 20
-53.6476328491
 30
0.0
 10
51.5781573625
 20
-53.6585473507
 30
0.0
 10
51.5588859008
 20
-53.6753524901
 30
0.0
 10
51.5438330776
 20
-53.6904561181
 30
0.0
 10
51.5290058774
 20
-53.7067114129
 30
0.0
 10
51.5113261409
 20
-53.7287685871
 30
0.0
 10
51.4914893719
 20
-53.758452538
 30
0.0
 10
51.4742989363
 20
-53.7903990783
 30
0.0
 10
51.4625344778
 20
-53.8178431555
 30
0.0
 10
51.4545310044
 20
-53.8403300598
 30
0.0
 10
51.4475790548
 20
-53.8628293453
 30
0.0
 10
51.4408070646
 20
-53.8910741796
 30
0.0
 10
51.4375694438
 20
-53.9131419946
 30
0.0
 10
51.4365257895
 20
-53.9243356692
 30
0.0
  0
SPLINE
  5
3AF
100
AcDbEntity
  8
0
100
AcDbSpline
 62
250
  6
CONTINUOUS
 70
0
 71
3
 72
17
 73
13
 74
0
 42
0.0000001
 43
0.0000001
 44
0.0000000001
 40
0.0
 40
0.0
 40
0.0
 40
0.0
 40
0.1428571429
 40
0.2857142857
 40
0.3571428571
 40
0.4285714286
 40
0.5
 40
0.5714285714
 40
0.6428571429
 40
0.7142857143
 40
0.8571428571
 40
1.0
 40
1.0
 40
1.0
 40
1.0
 10
51.8066477419
 20
-53.7716426323
 30
0.0
 10
51.8062255141
 20
-53.7496799169
 30
0.0
 10
51.8029756299
 20
-53.7101582214
 30
0.0
 10
51.7937433414
 20
-53.6724875671
 30
0.0
 10
51.7825588878
 20
-53.6475759403
 30
0.0
 10
51.7721137104
 20
-53.6320483342
 30
0.0
 10
51.7588918602
 20
-53.6196701831
 30
0.0
 10
51.7428854362
 20
-53.6114349844
 30
0.0
 10
51.7244379328
 20
-53.6070133071
 30
0.0
 10
51.696797648
 20
-53.6060973705
 30
0.0
 10
51.6575180161
 20
-53.6140227529
 30
0.0
 10
51.6210543536
 20
-53.6307393998
 30
0.0
 10
51.6015651236
 20
-53.6427417228
 30
0.0
  0
SPLINE
  5
3B0
100
AcDbEntity
  8
0
100
AcDbSpline
 62
250
  6
CONTINUOUS
 70
0
 71
3
 72
17
 73
13
 74
0
 42
0.0000001
 43
0.0000001
 44
0.0000000001
 40
0.0
 40
0.0
 40
0.0
 40
0.0
 40
0.1
 40
0.2
 40
0.3
 40
0.4
 40
0.5
 40
0.6
 40
0.7
 40
0.8
 40
0.9
 40
1.0
 40
1.0
 40
1.0
 40
1.0
 10
52.1389873212
 20
-53.393049519
 30
0.0
 10
52.1319939543
 20
-53.4003217772
 30
0.0
 10
52.1186927792
 20
-53.4151291917
 30
0.0
 10
52.0997746386
 20
-53.4389770981
 30
0.0
 10
52.0822547557
 20
-53.4640782659
 30
0.0
 10
52.0665163729
 20
-53.4899657601
 30
0.0
 10
52.0528992312
 20
-53.5162322297
 30
0.0
 10
52.0416117526
 20
-53.5426434187
 30
0.0
 10
52.0328625028
 20
-53.569446417
 30
0.0
 10
52.026904595
 20
-53.5956214544
 30
0.0
 10
52.023553876
 20
-53.6201580256
 30
0.0
 10
52.0228227981
 20
-53.6354825252
 30
0.0
 10
52.0228227981
 20
-53.6430890077
 30
0.0
  0
SPLINE
  5
3B1
100
AcDbEntity
  8
0
100
AcDbSpline
 62
250
  6
CONTINUOUS
 70
0
 71
3
 72
12
 73
8
 74
0
 42
0.0000001
 43
0.0000001
 44
0.0000000001
 40
0.0
 40
0.0
 40
0.0
 40
0.0
 40
0.1666666667
 40
0.3333333333
 40
0.5
 40
0.6666666667
 40
1.0
 40
1.0
 40
1.0
 40
1.0
 10
52.5393762624
 20
-53.0120097586
 30
0.0
 10
52.5151134867
 20
-53.0347141381
 30
0.0
 10
52.467291529
 20
-53.0797620143
 30
0.0
 10
52.3975509616
 20
-53.1456173477
 30
0.0
 10
52.3295455837
 20
-53.2090543156
 30
0.0
 10
52.2413935955
 20
-53.2909821302
 30
0.0
 10
52.1787486243
 20
-53.3517163117
 30
0.0
 10
52.139015015
 20
-53.3930207406
 30
0.0
  0
SPLINE
  5
3B2
100
AcDbEntity
  8
0
100
AcDbSpline
 62
250
  6
CONTINUOUS
 70
0
 71
3
 72
10
 73
6
 74
0
 42
0.0000001
 43
0.0000001
 44
0.0000000001
 40
0.0
 40
0.0
 40
0.0
 40
0.0
 40
0.3333333333
 40
0.6666666667
 40
1.0
 40
1.0
 40
1.0
 40
1.0
 10
52.1821514684
 20
-53.0248288301
 30
0.0
 10
52.223201953
 20
-52.9871416559
 30
0.0
 10
52.3044862621
 20
-52.9132102342
 30
0.0
 10
52.4236032055
 20
-52.805610104
 30
0.0
 10
52.5011793517
 20
-52.7355913745
 30
0.0
 10
52.5393762624
 20
-52.7005618766
 30
0.0
  0
SPLINE
  5
3B3
100
AcDbEntity
  8
0
100
AcDbSpline
 62
250
  6
CONTINUOUS
 70
0
 71
3
 72
16
 73
12
 74
0
 42
0.0000001
 43
0.0000001
 44
0.0000000001
 40
0.0
 40
0.0
 40
0.0
 40
0.0
 40
0.1111111111
 40
0.2222222222
 40
0.3333333333
 40
0.4444444444
 40
0.5555555556
 40
0.6666666667
 40
0.7777777778
 40
0.8888888889
 40
1.0
 40
1.0
 40
1.0
 40
1.0
 10
51.9232377596
 20
-53.3662790432
 30
0.0
 10
51.927401287
 20
-53.3515191208
 30
0.0
 10
51.9379208687
 20
-53.3222660679
 30
0.0
 10
51.959862462
 20
-53.2783540674
 30
0.0
 10
51.9853809158
 20
-53.2373761844
 30
0.0
 10
52.0133829982
 20
-53.1988881397
 30
0.0
 10
52.0423196375
 20
-53.163556669
 30
0.0
 10
52.0728945624
 20
-53.1295710808
 30
0.0
 10
52.1056757131
 20
-53.0959667047
 30
0.0
 10
52.1415296198
 20
-53.0618800444
 30
0.0
 10
52.1682439368
 20
-53.037596903
 30
0.0
 10
52.1821514685
 20
-53.0248288303
 30
0.0
  0
SPLINE
  5
3B4
100
AcDbEntity
  8
0
100
AcDbSpline
 62
250
  6
CONTINUOUS
 70
0
 71
3
 72
30
 73
26
 74
0
 42
0.0000001
 43
0.0000001
 44
0.0000000001
 40
0.0
 40
0.0
 40
0.0
 40
0.0
 40
0.0526315789
 40
0.1052631579
 40
0.1578947368
 40
0.2105263158
 40
0.2631578947
 40
0.3157894737
 40
0.3684210526
 40
0.4210526316
 40
0.4736842105
 40
0.5263157895
 40
0.5789473684
 40
0.6315789474
 40
0.6842105263
 40
0.7368421053
 40
0.7894736842
 40
0.8157894737
 40
0.8421052632
 40
0.8684210526
 40
0.8947368421
 40
0.9210526316
 40
0.9473684211
 40
0.9736842105
 40
1.0
 40
1.0
 40
1.0
 40
1.0
 10
51.2487498082
 20
-53.802940846
 30
0.0
 10
51.254816545
 20
-53.7795507744
 30
0.0
 10
51.2718953127
 20
-53.7295917439
 30
0.0
 10
51.3141728422
 20
-53.6397852373
 30
0.0
 10
51.3696461454
 20
-53.5507514092
 30
0.0
 10
51.4351138095
 20
-53.4700506377
 30
0.0
 10
51.5006768586
 20
-53.4079001549
 30
0.0
 10
51.5630164629
 20
-53.3616090079
 30
0.0
 10
51.6184338959
 20
-53.3288021426
 30
0.0
 10
51.6675841019
 20
-53.3068082079
 30
0.0
 10
51.7107386763
 20
-53.2937023133
 30
0.0
 10
51.748864069
 20
-53.2876315492
 30
0.0
 10
51.781717955
 20
-53.2871557593
 30
0.0
 10
51.8100009323
 20
-53.2910377992
 30
0.0
 10
51.8339016422
 20
-53.2984054865
 30
0.0
 10
51.8540434419
 20
-53.3083897733
 30
0.0
 10
51.8683767934
 20
-53.3176655554
 30
0.0
 10
51.8787096872
 20
-53.3252009328
 30
0.0
 10
51.8859881161
 20
-53.3308504528
 30
0.0
 10
51.892801458
 20
-53.3364010189
 30
0.0
 10
51.8992805671
 20
-53.3418348028
 30
0.0
 10
51.9052885984
 20
-53.3477925067
 30
0.0
 10
51.9102190111
 20
-53.3544605275
 30
0.0
 10
51.9137590559
 20
-53.3620199488
 30
0.0
 10
51.9150734357
 20
-53.3678398638
 30
0.0
 10
51.9154380369
 20
-53.3709425148
 30
0.0
  0
SPLINE
  5
3B5
100
AcDbEntity
  8
0
100
AcDbSpline
 62
250
  6
CONTINUOUS
 70
0
 71
3
 72
15
 73
11
 74
0
 42
0.0000001
 43
0.0000001
 44
0.0000000001
 40
0.0
 40
0.0
 40
0.0
 40
0.0
 40
0.125
 40
0.25
 40
0.375
 40
0.5
 40
0.625
 40
0.75
 40
0.875
 40
1.0
 40
1.0
 40
1.0
 40
1.0
 10
51.2348528403
 20
-54.6103128901
 30
0.0
 10
51.2298056542
 20
-54.5730135096
 30
0.0
 10
51.220478428
 20
-54.5008523688
 30
0.0
 10
51.2100126563
 20
-54.4002079864
 30
0.0
 10
51.2032837178
 20
-54.3033072774
 30
0.0
 10
51.2006723346
 20
-54.2079178329
 30
0.0
 10
51.20277081
 20
-54.1109683441
 30
0.0
 10
51.2105077168
 20
-54.0113672181
 30
0.0
 10
51.224928037
 20
-53.9088591345
 30
0.0
 10
51.2394737834
 20
-53.8386604115
 30
0.0
 10
51.2487498082
 20
-53.802940846
 30
0.0
  0
SPLINE
  5
3B6
100
AcDbEntity
  8
0
100
AcDbSpline
 62
7
  6
CONTINUOUS
 70
0
 71
3
 72
11
 73
7
 74
0
 42
0.0000001
 43
0.0000001
 44
0.0000000001
 40
0.0
 40
0.0
 40
0.0
 40
0.0
 40
0.2177670691
 40
0.4509439475
 40
0.710195215
 40
1.0
 40
1.0
 40
1.0
 40
1.0
 10
-33.9931467337
 20
35.3740797069
 30
0.0
 10
-33.9535644151
 20
35.3969340551
 30
0.0
 10
-33.8626084553
 20
35.4299685045
 30
0.0
 10
-33.7115522679
 20
35.4337483052
 30
0.0
 10
-33.5505306699
 20
35.3949117176
 30
0.0
 10
-33.4457939661
 20
35.3450448855
 30
0.0
 10
-33.3931177415
 20
35.3146302937
 30
0.0
  0
SPLINE
  5
3B7
100
AcDbEntity
  8
0
100
AcDbSpline
 62
7
  6
CONTINUOUS
 70
0
 71
3
 72
13
 73
9
 74
0
 42
0.0000001
 43
0.0000001
 44
0.0000000001
 40
0.0
 40
0.0
 40
0.0
 40
0.0
 40
0.1142615865
 40
0.2375404667
 40
0.5000060664
 40
0.7624683449
 40
0.8857433485
 40
1.0
 40
1.0
 40
1.0
 40
1.0
 10
28.3373042561
 20
-0.3277811588
 30
0.0
 10
28.4195982426
 20
-0.3752966754
 30
0.0
 10
28.5821599944
 20
-0.4892375506
 30
0.0
 10
28.8864647851
 20
-0.7740991959
 30
0.0
 10
29.2079439326
 20
-1.2131765061
 30
0.0
 10
29.4274560849
 20
-1.7111213073
 30
0.0
 10
29.5219953688
 20
-2.117078896
 30
0.0
 10
29.539385784
 20
-2.314825101
 30
0.0
 10
29.5393857841
 20
-2.409847438
 30
0.0
  0
SPLINE
  5
3B8
100
AcDbEntity
  8
0
100
AcDbSpline
 62
7
  6
CONTINUOUS
 70
0
 71
3
 72
9
 73
5
 74
0
 42
0.0000001
 43
0.0000001
 44
0.0000000001
 40
0.0
 40
0.0
 40
0.0
 40
0.0
 40
0.2715340105
 40
1.0
 40
1.0
 40
1.0
 40
1.0
 10
29.5393857841
 20
-36.9465006914
 30
0.0
 10
29.539385784
 20
-36.9777380672
 30
0.0
 10
29.5346481775
 20
-37.0925573451
 30
0.0
 10
29.5093454427
 20
-37.2077945875
 30
0.0
 10
29.4747963866
 20
-37.2841444814
 30
0.0
  0
SPLINE
  5
3B9
100
AcDbEntity
  8
0
100
AcDbSpline
 62
7
  6
CONTINUOUS
 70
0
 71
3
 72
9
 73
5
 74
0
 42
0.0000001
 43
0.0000001
 44
0.0000000001
 40
0.0
 40
0.0
 40
0.0
 40
0.0
 40
0.5170807976
 40
1.0
 40
1.0
 40
1.0
 40
1.0
 10
29.4747963866
 20
-37.2841444814
 30
0.0
 10
29.4546238691
 20
-37.3287236897
 30
0.0
 10
29.4045028161
 20
-37.4107493067
 30
0.0
 10
29.3304618408
 20
-37.4729346856
 30
0.0
 10
29.2908866388
 20
-37.4957849248
 30
0.0
  0
SPLINE
  5
3BA
100
AcDbEntity
  8
RACCORDO
100
AcDbSpline
 62
7
  6
CONTINUOUS
 70
0
 71
3
 72
11
 73
7
 74
0
 42
0.0000001
 43
0.0000001
 44
0.0000000001
 40
0.0
 40
0.0
 40
0.0
 40
0.0
 40
0.2372134916
 40
0.4999938932
 40
0.7627776188
 40
1.0
 40
1.0
 40
1.0
 40
1.0
 10
-31.7667721448
 20
1.3088287034
 30
0.0
 10
-31.7667721448
 20
1.1697411373
 30
0.0
 10
-31.714601881
 20
0.8763860191
 30
0.0
 10
-31.532751401
 20
0.4641555492
 30
0.0
 10
-31.2666709175
 20
0.1005493695
 30
0.0
 10
-31.0386999468
 20
-0.091315391
 30
0.0
 10
-30.9182440074
 20
-0.1608651407
 30
0.0
  0
SPLINE
  5
3BB
100
AcDbEntity
  8
0
100
AcDbSpline
 62
7
  6
CONTINUOUS
 70
0
 71
3
 72
15
 73
11
 74
0
 42
0.0000001
 43
0.0000001
 44
0.0000000001
 40
0.0
 40
0.0
 40
0.0
 40
0.0
 40
0.1449018481
 40
0.2745170406
 40
0.3911053286
 40
0.4999889043
 40
0.6088744936
 40
0.7254681391
 40
0.8550905429
 40
1.0
 40
1.0
 40
1.0
 40
1.0
 10
29.5393857841
 20
-37.3547752847
 30
0.0
 10
29.5393857839
 20
-37.4409388053
 30
0.0
 10
29.5263653268
 20
-37.6047473389
 30
0.0
 10
29.4599905318
 20
-37.8297533895
 30
0.0
 10
29.3482195533
 20
-38.0124628627
 30
0.0
 10
29.1930700846
 20
-38.142942203
 30
0.0
 10
29.002486267
 20
-38.2120450877
 30
0.0
 10
28.7883610991
 20
-38.2174680637
 30
0.0
 10
28.5603046729
 20
-38.1624312021
 30
0.0
 10
28.4119267702
 20
-38.091794051
 30
0.0
 10
28.3373042561
 20
-38.0487079466
 30
0.0
  0
SPLINE
  5
3BC
100
AcDbEntity
  8
0
100
AcDbSpline
 62
7
  6
CONTINUOUS
 70
0
 71
3
 72
11
 73
7
 74
0
 42
0.0000001
 43
0.0000001
 44
0.0000000001
 40
0.0
 40
0.0
 40
0.0
 40
0.0
 40
0.2177670691
 40
0.4509439475
 40
0.710195215
 40
1.0
 40
1.0
 40
1.0
 40
1.0
 10
29.2908866388
 20
-37.4957849248
 30
0.0
 10
29.2513043202
 20
-37.5186392729
 30
0.0
 10
29.1603483604
 20
-37.5516737224
 30
0.0
 10
29.009292173
 20
-37.5554535231
 30
0.0
 10
28.848270575
 20
-37.5166169355
 30
0.0
 10
28.7435338712
 20
-37.4667501034
 30
0.0
 10
28.6908576466
 20
-37.4363355115
 30
0.0
  0
SPLINE
  5
3BD
100
AcDbEntity
  8
0
100
AcDbSpline
 62
7
  6
CONTINUOUS
 70
0
 71
3
 72
11
 73
7
 74
0
 42
0.0000001
 43
0.0000001
 44
0.0000000001
 40
0.0
 40
0.0
 40
0.0
 40
0.0
 40
0.2897992298
 40
0.5490484708
 40
0.7822275827
 40
1.0
 40
1.0
 40
1.0
 40
1.0
 10
-34.241645879
 20
34.8247954735
 30
0.0
 10
-34.2416458791
 20
34.8856114589
 30
0.0
 10
-34.2324619293
 20
35.0012303542
 30
0.0
 10
-34.1855889458
 20
35.1600715853
 30
0.0
 10
-34.1067985077
 20
35.2889814407
 30
0.0
 10
-34.0327241068
 20
35.3512282142
 30
0.0
 10
-33.9931467337
 20
35.3740797069
 30
0.0
  0
SPLINE
  5
3BE
100
AcDbEntity
  8
0
100
AcDbSpline
 62
7
  6
CONTINUOUS
 70
0
 71
3
 72
15
 73
11
 74
0
 42
0.0000001
 43
0.0000001
 44
0.0000000001
 40
0.0
 40
0.0
 40
0.0
 40
0.0
 40
0.1449018481
 40
0.2745170406
 40
0.3911053286
 40
0.4999889043
 40
0.6088744936
 40
0.7254681391
 40
0.8550905429
 40
1.0
 40
1.0
 40
1.0
 40
1.0
 10
-34.9487526601
 20
34.8247954735
 30
0.0
 10
-34.94875266
 20
34.9109589941
 30
0.0
 10
-34.9357322029
 20
35.0747675277
 30
0.0
 10
-34.8693574079
 20
35.2997735783
 30
0.0
 10
-34.7575864294
 20
35.4824830515
 30
0.0
 10
-34.6024369606
 20
35.6129623918
 30
0.0
 10
-34.4118531431
 20
35.6820652765
 30
0.0
 10
-34.1977279752
 20
35.6874882525
 30
0.0
 10
-33.969671549
 20
35.632451391
 30
0.0
 10
-33.8212936463
 20
35.5618142398
 30
0.0
 10
-33.7466711321
 20
35.5187281354
 30
0.0
  0
SPLINE
  5
3BF
100
AcDbEntity
  8
0
100
AcDbSpline
 62
7
  6
CONTINUOUS
 70
0
 71
3
 72
11
 73
7
 74
0
 42
0.0000001
 43
0.0000001
 44
0.0000000001
 40
0.0
 40
0.0
 40
0.0
 40
0.0
 40
0.2372223749
 40
0.5000061065
 40
0.762786514
 40
1.0
 40
1.0
 40
1.0
 40
1.0
 10
-33.3931177415
 20
-1.5898262174
 30
0.0
 10
-33.5135736779
 20
-1.5202764697
 30
0.0
 10
-33.7415446487
 20
-1.32841171
 30
0.0
 10
-34.0076251356
 20
-0.9648055285
 30
0.0
 10
-34.1894756161
 20
-0.5525750544
 30
0.0
 10
-34.241645879
 20
-0.2592199361
 30
0.0
 10
-34.241645879
 20
-0.1201323732
 30
0.0
  0
SPLINE
  5
3C0
100
AcDbEntity
  8
0
100
AcDbSpline
 62
7
  6
CONTINUOUS
 70
0
 71
3
 72
13
 73
9
 74
0
 42
0.0000001
 43
0.0000001
 44
0.0000000001
 40
0.0
 40
0.0
 40
0.0
 40
0.0
 40
0.1142615865
 40
0.2375404667
 40
0.5000060664
 40
0.7624683449
 40
0.8857433485
 40
1.0
 40
1.0
 40
1.0
 40
1.0
 10
-33.7466711321
 20
-2.2021986524
 30
0.0
 10
-33.8289651186
 20
-2.1546831358
 30
0.0
 10
-33.9915268705
 20
-2.0407422606
 30
0.0
 10
-34.2958316612
 20
-1.7558806153
 30
0.0
 10
-34.6173108086
 20
-1.3168033051
 30
0.0
 10
-34.836822961
 20
-0.8188585039
 30
0.0
 10
-34.9313622449
 20
-0.4129009152
 30
0.0
 10
-34.9487526601
 20
-0.2151547102
 30
0.0
 10
-34.9487526601
 20
-0.1201323732
 30
0.0
  0
ELLIPSE
  5
3C1
100
AcDbEntity
  8
0
100
AcDbEllipse
 62
7
  6
CONTINUOUS
 10
53.0414177889
 20
-61.6089379992
 30
0.0
 11
-0.0319307066
 21
0.0553022874
 31
0.0
 40
0.5636716562
 41
-2.5265818713
 42
-2.3682119497
  0
ELLIPSE
  5
3C2
100
AcDbEntity
  8
0
100
AcDbEllipse
 62
7
  6
CONTINUOUS
 10
53.0414177889
 20
8.6677489084
 30
0.0
 11
-0.0311754239
 21
0.0539936769
 31
0.0
 40
0.5913227191
 41
-2.3442738678
 42
-0.7974202594
  0
ELLIPSE
  5
3C3
100
AcDbEntity
  8
0
100
AcDbEllipse
 62
7
  6
CONTINUOUS
 10
-46.3592587067
 20
66.0604537339
 30
0.0
 11
-0.0319307066
 21
0.0553022874
 31
0.0
 40
0.5636716562
 41
-0.7734729046
 42
-0.6150192183
  0
ELLIPSE
  5
3C4
100
AcDbEntity
  8
0
100
AcDbEllipse
 62
7
  6
CONTINUOUS
 10
-0.8587846708
 20
-14.5161427283
 30
0.0
 11
0.2999993451
 21
0.1746271577
 31
0.0
 40
0.0035896273
 41
-0.7351277754
 42
-0.0020894543
  0
ELLIPSE
  5
3C5
100
AcDbEntity
  8
0
100
AcDbEllipse
 62
7
  6
CONTINUOUS
 10
15.0511179059
 20
-23.7023210782
 30
0.0
 11
0.2999993451
 21
0.1746271577
 31
0.0
 40
0.0035896273
 41
-0.7351277754
 42
-0.0020894543
  0
ELLIPSE
  5
3C6
100
AcDbEntity
  8
0
100
AcDbEllipse
 62
7
  6
CONTINUOUS
 10
-16.6308746413
 20
-5.2497288317
 30
0.0
 11
0.1999995634
 21
0.1164181051
 31
0.0
 40
0.0035896273
 41
-0.7351277754
 42
-0.6748017824
  0
ELLIPSE
  5
3C7
100
AcDbEntity
  8
0
100
AcDbEllipse
 62
7
  6
CONTINUOUS
 10
27.2728316982
 20
-30.0278137952
 30
0.0
 11
0.1998333781
 21
-0.0157785196
 31
0.0
 40
0.5172961965
 41
0.8262203412
 42
2.3446567905
  0
ELLIPSE
  5
3C8
100
AcDbEntity
  8
0
100
AcDbEllipse
 62
7
  6
CONTINUOUS
 10
-20.4568760319
 20
-2.4692787456
 30
0.0
 11
0.1998333781
 21
-0.0157785196
 31
0.0
 40
0.5172961965
 41
0.8262203412
 42
2.3446567905
  0
ELLIPSE
  5
3C9
100
AcDbEntity
  8
0
100
AcDbEllipse
 62
7
  6
CONTINUOUS
 10
11.3593203714
 20
-20.8965028953
 30
0.0
 11
0.2999972416
 21
-0.0022477848
 31
0.0
 40
0.5723275643
 41
0.7896864073
 42
2.3081228565
  0
ELLIPSE
  5
3CA
100
AcDbEntity
  8
0
100
AcDbEllipse
 62
7
  6
CONTINUOUS
 10
-4.5505822053
 20
-11.7103245454
 30
0.0
 11
0.2999972416
 21
-0.0022477848
 31
0.0
 40
0.5723275643
 41
0.7896864073
 42
2.3081228565
  0
ELLIPSE
  5
3CB
100
AcDbEntity
  8
0
100
AcDbEllipse
 62
7
  6
CONTINUOUS
 10
25.7546041683
 20
-31.3312283081
 30
0.0
 11
0.5413005334
 21
0.8416911418
 31
0.0
 40
0.6067084637
 41
0.7148472392
 42
0.8145158917
  0
ELLIPSE
  5
3CC
100
AcDbEntity
  8
0
100
AcDbEllipse
 62
7
  6
CONTINUOUS
 10
-21.9751035618
 20
-3.7726932585
 30
0.0
 11
0.5413005334
 21
0.8416911418
 31
0.0
 40
0.6067084637
 41
0.7148472392
 42
0.8145158917
  0
ELLIPSE
  5
3CD
100
AcDbEntity
  8
0
100
AcDbEllipse
 62
7
  6
CONTINUOUS
 10
-16.6308746413
 20
-4.6783639974
 30
0.0
 11
0.1998333781
 21
-0.0157785196
 31
0.0
 40
0.5172961965
 41
-0.692216108
 42
0.8262203412
  0
ELLIPSE
  5
3CE
100
AcDbEntity
  8
0
100
AcDbEllipse
 62
7
  6
CONTINUOUS
 10
15.0511179059
 20
-23.0281005226
 30
0.0
 11
0.2999972416
 21
-0.0022477848
 31
0.0
 40
0.5723275643
 41
-0.728750042
 42
0.7896864073
  0
ELLIPSE
  5
3CF
100
AcDbEntity
  8
0
100
AcDbEllipse
 62
7
  6
CONTINUOUS
 10
-0.8587846708
 20
-13.8419221728
 30
0.0
 11
0.2999972416
 21
-0.0022477848
 31
0.0
 40
0.5723275643
 41
-0.728750042
 42
0.7896864073
  0
ELLIPSE
  5
3D0
100
AcDbEntity
  8
0
100
AcDbEllipse
 62
7
  6
CONTINUOUS
 10
-17.7287663035
 20
-6.2244751723
 30
0.0
 11
0.4625183445
 21
0.8873459255
 31
0.0
 40
0.5463614449
 41
0.662201126
 42
0.7618697785
  0
ELLIPSE
  5
3D1
100
AcDbEntity
  8
0
100
AcDbEllipse
 62
7
  6
CONTINUOUS
 10
-46.6863449574
 20
66.264578419
 30
0.0
 11
1.1592455945
 21
-0.5090882972
 31
0.0
 40
0.0921189357
 41
-2.4809772198
 42
-2.4456474731
  0
ELLIPSE
  5
3D2
100
AcDbEntity
  8
0
100
AcDbEllipse
 62
7
  6
CONTINUOUS
 10
53.0546568818
 20
8.6753740054
 30
0.0
 11
1.1339988709
 21
-0.4970753424
 31
0.0
 40
0.0963242103
 41
-2.4267061945
 42
-2.3913764477
  0
ELLIPSE
  5
3D3
100
AcDbEntity
  8
0
100
AcDbEllipse
 62
7
  6
CONTINUOUS
 10
53.0546568818
 20
8.6753740054
 30
0.0
 11
0.1365023326
 21
1.2306519884
 31
0.0
 40
0.0962714138
 41
-3.8917430252
 42
-3.8564132784
  0
ELLIPSE
  5
3D4
100
AcDbEntity
  8
0
100
AcDbEllipse
 62
7
  6
CONTINUOUS
 10
53.0546568818
 20
-61.9942740998
 30
0.0
 11
0.1387214801
 21
1.2585231556
 31
0.0
 40
0.0920685296
 41
-3.8374748546
 42
-3.8021451078
  0
ELLIPSE
  5
3D5
100
AcDbEntity
  8
ASSI
100
AcDbEllipse
 62
7
  6
CONTINUOUS
 10
53.0414177889
 20
-61.6089379992
 30
0.0
 11
-0.0319307066
 21
0.0553022874
 31
0.0
 40
0.5636716562
 41
-2.5265818713
 42
-2.3682119497
  0
ELLIPSE
  5
3D6
100
AcDbEntity
  8
ASSI
100
AcDbEllipse
 62
7
  6
CONTINUOUS
 10
53.0414177889
 20
8.6677489084
 30
0.0
 11
-0.0311754239
 21
0.0539936769
 31
0.0
 40
0.5913227191
 41
-2.3442738678
 42
-0.7974202594
  0
ELLIPSE
  5
3D7
100
AcDbEntity
  8
ASSI
100
AcDbEllipse
 62
7
  6
CONTINUOUS
 10
-46.3592587067
 20
66.0604537339
 30
0.0
 11
-0.0319307066
 21
0.0553022874
 31
0.0
 40
0.5636716562
 41
-0.7734729046
 42
-0.6150192183
  0
ELLIPSE
  5
3D8
100
AcDbEntity
  8
ASSI
100
AcDbEllipse
 62
7
  6
CONTINUOUS
 10
-0.8587846708
 20
-14.5161427283
 30
0.0
 11
0.2999993451
 21
0.1746271577
 31
0.0
 40
0.0035896273
 41
-0.7351277754
 42
-0.0020894543
  0
ELLIPSE
  5
3D9
100
AcDbEntity
  8
ASSI
100
AcDbEllipse
 62
7
  6
CONTINUOUS
 10
15.0511179059
 20
-23.7023210782
 30
0.0
 11
0.2999993451
 21
0.1746271577
 31
0.0
 40
0.0035896273
 41
-0.7351277754
 42
-0.0020894543
  0
ELLIPSE
  5
3DA
100
AcDbEntity
  8
ASSI
100
AcDbEllipse
 62
7
  6
CONTINUOUS
 10
-16.6308746413
 20
-5.2497288317
 30
0.0
 11
0.1999995634
 21
0.1164181051
 31
0.0
 40
0.0035896273
 41
-0.7351277754
 42
-0.6748017824
  0
ELLIPSE
  5
3DB
100
AcDbEntity
  8
ASSI
100
AcDbEllipse
 62
7
  6
CONTINUOUS
 10
27.2728316982
 20
-30.0278137952
 30
0.0
 11
0.1998333781
 21
-0.0157785196
 31
0.0
 40
0.5172961965
 41
0.8262203412
 42
2.3446567905
  0
ELLIPSE
  5
3DC
100
AcDbEntity
  8
ASSI
100
AcDbEllipse
 62
7
  6
CONTINUOUS
 10
-20.4568760319
 20
-2.4692787456
 30
0.0
 11
0.1998333781
 21
-0.0157785196
 31
0.0
 40
0.5172961965
 41
0.8262203412
 42
2.3446567905
  0
ELLIPSE
  5
3DD
100
AcDbEntity
  8
ASSI
100
AcDbEllipse
 62
7
  6
CONTINUOUS
 10
11.3593203714
 20
-20.8965028953
 30
0.0
 11
0.2999972416
 21
-0.0022477848
 31
0.0
 40
0.5723275643
 41
0.7896864073
 42
2.3081228565
  0
ELLIPSE
  5
3DE
100
AcDbEntity
  8
ASSI
100
AcDbEllipse
 62
7
  6
CONTINUOUS
 10
-4.5505822053
 20
-11.7103245454
 30
0.0
 11
0.2999972416
 21
-0.0022477848
 31
0.0
 40
0.5723275643
 41
0.7896864073
 42
2.3081228565
  0
ELLIPSE
  5
3DF
100
AcDbEntity
  8
ASSI
100
AcDbEllipse
 62
7
  6
CONTINUOUS
 10
25.7546041683
 20
-31.3312283081
 30
0.0
 11
0.5413005334
 21
0.8416911418
 31
0.0
 40
0.6067084637
 41
0.7148472392
 42
0.8145158917
  0
ELLIPSE
  5
3E0
100
AcDbEntity
  8
ASSI
100
AcDbEllipse
 62
7
  6
CONTINUOUS
 10
-21.9751035618
 20
-3.7726932585
 30
0.0
 11
0.5413005334
 21
0.8416911418
 31
0.0
 40
0.6067084637
 41
0.7148472392
 42
0.8145158917
  0
ELLIPSE
  5
3E1
100
AcDbEntity
  8
ASSI
100
AcDbEllipse
 62
7
  6
CONTINUOUS
 10
-16.6308746413
 20
-4.6783639974
 30
0.0
 11
0.1998333781
 21
-0.0157785196
 31
0.0
 40
0.5172961965
 41
-0.692216108
 42
0.8262203412
  0
ELLIPSE
  5
3E2
100
AcDbEntity
  8
ASSI
100
AcDbEllipse
 62
7
  6
CONTINUOUS
 10
15.0511179059
 20
-23.0281005226
 30
0.0
 11
0.2999972416
 21
-0.0022477848
 31
0.0
 40
0.5723275643
 41
-0.728750042
 42
0.7896864073
  0
ELLIPSE
  5
3E3
100
AcDbEntity
  8
ASSI
100
AcDbEllipse
 62
7
  6
CONTINUOUS
 10
-0.8587846708
 20
-13.8419221728
 30
0.0
 11
0.2999972416
 21
-0.0022477848
 31
0.0
 40
0.5723275643
 41
-0.728750042
 42
0.7896864073
  0
ELLIPSE
  5
3E4
100
AcDbEntity
  8
ASSI
100
AcDbEllipse
 62
7
  6
CONTINUOUS
 10
-17.7287663035
 20
-6.2244751723
 30
0.0
 11
0.4625183445
 21
0.8873459255
 31
0.0
 40
0.5463614449
 41
0.662201126
 42
0.7618697785
  0
ELLIPSE
  5
3E5
100
AcDbEntity
  8
ASSI
100
AcDbEllipse
 62
7
  6
CONTINUOUS
 10
-46.6863449574
 20
66.264578419
 30
0.0
 11
1.1592455945
 21
-0.5090882972
 31
0.0
 40
0.0921189357
 41
-2.4809772198
 42
-2.4456474731
  0
ELLIPSE
  5
3E6
100
AcDbEntity
  8
ASSI
100
AcDbEllipse
 62
7
  6
CONTINUOUS
 10
53.0546568818
 20
8.6753740054
 30
0.0
 11
1.1339988709
 21
-0.4970753424
 31
0.0
 40
0.0963242103
 41
-2.4267061945
 42
-2.3913764477
  0
ELLIPSE
  5
3E7
100
AcDbEntity
  8
ASSI
100
AcDbEllipse
 62
7
  6
CONTINUOUS
 10
53.0546568818
 20
8.6753740054
 30
0.0
 11
0.1365023326
 21
1.2306519884
 31
0.0
 40
0.0962714138
 41
-3.8917430252
 42
-3.8564132784
  0
ELLIPSE
  5
3E8
100
AcDbEntity
  8
ASSI
100
AcDbEllipse
 62
7
  6
CONTINUOUS
 10
53.0546568818
 20
-61.9942740998
 30
0.0
 11
0.1387214801
 21
1.2585231556
 31
0.0
 40
0.0920685296
 41
-3.8374748546
 42
-3.8021451078
  0
ENDSEC
  0
SECTION
  2
OBJECTS
  0
DICTIONARY
  5
C
100
AcDbDictionary
280
0
281
1
  3
ACAD_GROUP
350
D
  3
ACAD_MLINESTYLE
350
17
  3
ACAD_LAYOUT
350
1A
  3
ACAD_PLOTSETTINGS
350
19
  3
ACAD_PLOTSTYLENAME
350
E
  0
DICTIONARY
  5
D
102
{ACAD_REACTORS
330
C
102
}
100
AcDbDictionary
280
0
281
1
  0
ACDBDICTIONARYWDFLT
  5
E
102
{ACAD_REACTORS
330
C
102
}
100
AcDbDictionary
281
1
  3
Normal
350
F
100
AcDbDictionaryWithDefault
340
F
  0
DICTIONARY
  5
17
102
{ACAD_REACTORS
330
C
102
}
100
AcDbDictionary
280
0
281
1
  3
Standard
350
18
  0
DICTIONARY
  5
19
102
{ACAD_REACTORS
330
C
102
}
100
AcDbDictionary
281
1
  0
DICTIONARY
  5
1A
102
{ACAD_REACTORS
330
C
102
}
100
AcDbDictionary
281
1
  3
Model
350
3E9
  3
Layout1
350
3EA
  0
ACDBPLACEHOLDER
  5
F
102
{ACAD_REACTORS
330
E
102
}
  0
MLINESTYLE
  5
18
102
{ACAD_REACTORS
330
17
102
}
100
AcDbMlineStyle
  2
STANDARD
 70
0
  3

 62
256
 51
90.0
 52
90.0
 71
2
 49
0.5
 62
256
  6
BYLAYER
 49
-0.5
 62
256
  6
BYLAYER
  0
LAYOUT
  5
3E9
102
{ACAD_REACTORS
330
1A
102
}
100
AcDbPlotSettings
  1

  2
none_device
  4
ISO_A4_(297.00_x_210.00_MM)
  6

 40
0.0
 41
0.0
 42
0.0
 43
0.0
 44
297.0
 45
210.0
 46
0.0
 47
0.0
 48
0.0
 49
0.0
140
0.0
141
0.0
142
1.0
143
1.0
 70
1024
 72
1
 73
0
 74
0
  7

 75
0
147
1.0
148
0.0
149
0.0
100
AcDbLayout
  1
Model
 70
0
 71
0
 10
0.0
 20
0.0
 11
297.0
 21
210.0
 12
0.0
 22
0.0
 32
0.0
 14
0.0
 24
0.0
 34
0.0
 15
0.0
 25
0.0
 35
0.0
146
0.0
 13
0.0
 23
0.0
 33
0.0
 16
1.0
 26
0.0
 36
0.0
 17
0.0
 27
1.0
 37
0.0
 76
0
330
21C
345
0
346
0
  0
LAYOUT
  5
3EA
102
{ACAD_REACTORS
330
1A
102
}
100
AcDbPlotSettings
  1

  2
none_device
  4
ISO_A4_(297.00_x_210.00_MM)
  6

 40
0.0
 41
0.0
 42
0.0
 43
0.0
 44
297.0
 45
210.0
 46
0.0
 47
0.0
 48
0.0
 49
0.0
140
0.0
141
0.0
142
1.0
143
1.0
 70
0
 72
1
 73
0
 74
0
  7

 75
0
147
1.0
148
0.0
149
0.0
100
AcDbLayout
  1
Layout1
 70
0
 71
1
 10
0.0
 20
0.0
 11
297.0
 21
210.0
 12
0.0
 22
0.0
 32
0.0
 14
0.0
 24
0.0
 34
0.0
 15
0.0
 25
0.0
 35
0.0
146
0.0
 13
0.0
 23
0.0
 33
0.0
 16
1.0
 26
0.0
 36
0.0
 17
0.0
 27
1.0
 37
0.0
 76
0
330
21D
345
0
346
0
  0
ENDSEC
  0
EOF
