  0
SECTION
  2
HEADER
  9
$ACADVER
  1
AC1024
  9
$DWGCODEPAGE
  3
ANSI_1252
  9
$EXTMAX
 10
297.0
 20
210.0
 30
0.0
  9
$EXTMIN
 10
0.0
 20
0.0
 30
0.0
  9
$LIMMIN
 10
0.0
 20
0.0
  9
$LIMMAX
 10
297.0
 20
210.0
  9
$VIEWCTR
 10
148.5
 20
105.0
  9
$VIEWSIZE
 40
210.0
  9
$CLAYER
  8
0
  9
$LTSCALE
 40
16.335
  9
$CELTYPE
  6
BYLAYER
  9
$DIMSCALE
 40
1.0
  9
$DIMASZ
 40
3.0
  9
$DIMEXO
 40
0.5
  9
$DIMDLI
 40
11.286
  9
$DIMEXE
 40
1.5
  9
$DIMCEN
 40
2.673
  9
$DIMLFAC
 40
1.0
  9
$DIMBLK
  1
_FILLED
  9
$DIMALT
 70
0
  9
$DIMALTF
 40
0.0393700787
  9
$DIMTXT
 40
3.0
  9
$DIMTOL
 70
1
  9
$DIMLIM
 70
0
  9
$DIMTFAC
 40
1.0
  9
$DIMTP
 40
0.01
  9
$DIMTM
 40
0.01
  9
$DIMGAP
 40
0.625
  9
$DIMDSEP
 70
44
  9
$AUNITS
 70
0
  9
$PDMODE
 70
3
  9
$PDSIZE
 40
3.0
  9
$HANDSEED
  5
3EE
  9
$TILEMODE
 70
1
  9
$MEASUREMENT
 70
1
  9
$INSUNITS
 70
4
  0
ENDSEC
  0
SECTION
  2
CLASSES
  0
CLASS
  1
ACDBDICTIONARYWDFLT
  2
AcDbDictionaryWithDefault
  3
AutoCAD 2000
 90
0
 91
1
280
0
281
0
  0
CLASS
  1
ACDBPLACEHOLDER
  2
AcDbPlaceHolder
  3
AutoCAD 2000
 90
0
 91
1
280
0
281
0
  0
CLASS
  1
LAYOUT
  2
AcDbLayout
  3
AutoCAD 2000
 90
0
 91
0
280
0
281
0
  0
ENDSEC
  0
SECTION
  2
TABLES
  0
TABLE
  2
VPORT
  5
8
100
AcDbSymbolTable
 70
2
  0
VPORT
  5
1F4
100
AcDbSymbolTableRecord
100
AcDbViewportTableRecord
  2
*ACTIVE
 70
0
 10
0.0
 20
0.0
 11
1.0
 21
1.0
 12
148.5
 22
105.0
 13
0.0
 23
0.0
 14
1.0
 24
1.0
 15
0.0
 25
0.0
 16
0.0
 26
0.0
 36
1.0
 17
0.0
 27
0.0
 37
0.0
 40
210.0
 41
1.4142857143
 42
50.0
 43
0.0
 44
0.0
 50
0.0
 51
0.0
 71
0
 72
100
 73
1
 74
1
 75
0
 76
0
 77
0
 78
0
  0
ENDTAB
  0
TABLE
  2
LTYPE
  5
5
100
AcDbSymbolTable
 70
6
  0
LTYPE
  5
14
100
AcDbSymbolTableRecord
100
AcDbLinetypeTableRecord
  2
BYBLOCK
 70
0
  3

 72
65
 73
0
 40
0.0
  0
LTYPE
  5
15
100
AcDbSymbolTableRecord
100
AcDbLinetypeTableRecord
  2
BYLAYER
 70
0
  3

 72
65
 73
0
 40
0.0
  0
LTYPE
  5
16
100
AcDbSymbolTableRecord
100
AcDbLinetypeTableRecord
  2
CONTINUOUS
 70
64
  3
Solid line
 72
65
 73
0
 40
0.0
  0
LTYPE
  5
1F5
100
AcDbSymbolTableRecord
100
AcDbLinetypeTableRecord
  2
CENTER
 70
64
  3
____ _ ____ _ ____ _ ____ _ ____ _ ____ _ ____
 72
65
 73
4
 40
0.6
 49
0.375
 74
0
 49
-0.075
 74
0
 49
0.075
 74
0
 49
-0.075
 74
0
  0
LTYPE
  5
1F6
100
AcDbSymbolTableRecord
100
AcDbLinetypeTableRecord
  2
HIDDEN
 70
64
  3
- - - - - - - - - - - - - - - - - - - -
 72
65
 73
2
 40
0.2
 49
0.1
 74
0
 49
-0.1
 74
0
  0
LTYPE
  5
1F7
100
AcDbSymbolTableRecord
100
AcDbLinetypeTableRecord
  2
PHANTOM
 70
64
  3
_____ _ _ _____ _ _ _____ _ _ _____
 72
65
 73
6
 40
0.8
 49
0.45
 74
0
 49
-0.05
 74
0
 49
0.1
 74
0
 49
-0.05
 74
0
 49
0.1
 74
0
 49
-0.05
 74
0
  0
LTYPE
  5
1F8
100
AcDbSymbolTableRecord
100
AcDbLinetypeTableRecord
  2
DOT
 70
64
  3
. . . . . . . . . . . . . . . . . . . .
 72
65
 73
2
 40
0.2
 49
0.1
 74
0
 49
-0.1
 74
0
  0
LTYPE
  5
1F9
100
AcDbSymbolTableRecord
100
AcDbLinetypeTableRecord
  2
DASHED
 70
64
  3
- - - - - - - - - - - - - - - - - - - -
 72
65
 73
2
 40
0.2
 49
0.1
 74
0
 49
-0.1
 74
0
  0
ENDTAB
  0
TABLE
  2
LAYER
  5
2
100
AcDbSymbolTable
 70
36
  0
LAYER
  5
10
100
AcDbSymbolTableRecord
100
AcDbLayerTableRecord
  2
0
 70
0
 62
7
  6
CONTINUOUS
370
-3
390
F
  0
LAYER
  5
1FA
100
AcDbSymbolTableRecord
100
AcDbLayerTableRecord
  2
DEFAULT_1
 70
0
 62
7
  6
CENTER
370
-3
390
F
  0
LAYER
  5
1FB
100
AcDbSymbolTableRecord
100
AcDbLayerTableRecord
  2
DEFAULT_2
 70
0
 62
7
  6
HIDDEN
370
-3
390
F
  0
LAYER
  5
1FC
100
AcDbSymbolTableRecord
100
AcDbLayerTableRecord
  2
DEFAULT_3
 70
0
 62
7
  6
PHANTOM
370
-3
390
F
  0
LAYER
  5
1FD
100
AcDbSymbolTableRecord
100
AcDbLayerTableRecord
  2
ASSI
 70
0
 62
7
  6
CONTINUOUS
370
-3
390
F
  0
LAYER
  5
1FE
100
AcDbSymbolTableRecord
100
AcDbLayerTableRecord
  2
COORDINATE
 70
0
 62
7
  6
CONTINUOUS
370
-3
390
F
  0
LAYER
  5
1FF
100
AcDbSymbolTableRecord
100
AcDbLayerTableRecord
  2
COORD_ORIGINE
 70
0
 62
7
  6
CONTINUOUS
370
-3
390
F
  0
LAYER
  5
200
100
AcDbSymbolTableRecord
100
AcDbLayerTableRecord
  2
COPY_PUBLISH
 70
0
 62
7
  6
CONTINUOUS
370
-3
390
F
  0
LAYER
  5
201
100
AcDbSymbolTableRecord
100
AcDbLayerTableRecord
  2
COSMETIC
 70
0
 62
7
  6
CONTINUOUS
370
-3
390
F
  0
LAYER
  5
202
100
AcDbSymbolTableRecord
100
AcDbLayerTableRecord
  2
COSMETICI
 70
0
 62
7
  6
CONTINUOUS
370
-3
390
F
  0
LAYER
  5
203
100
AcDbSymbolTableRecord
100
AcDbLayerTableRecord
  2
CURVA_TASSELLO
 70
0
 62
7
  6
CONTINUOUS
370
-3
390
F
  0
LAYER
  5
204
100
AcDbSymbolTableRecord
100
AcDbLayerTableRecord
  2
CURVE
 70
0
 62
7
  6
CONTINUOUS
370
-3
390
F
  0
LAYER
  5
205
100
AcDbSymbolTableRecord
100
AcDbLayerTableRecord
  2
DRAFT
 70
0
 62
7
  6
CONTINUOUS
370
-3
390
F
  0
LAYER
  5
206
100
AcDbSymbolTableRecord
100
AcDbLayerTableRecord
  2
IMPORT_IGES
 70
0
 62
7
  6
CONTINUOUS
370
-3
390
F
  0
LAYER
  5
207
100
AcDbSymbolTableRecord
100
AcDbLayerTableRecord
  2
INTFCLR_2
 70
0
 62
7
  6
CONTINUOUS
370
-3
390
F
  0
LAYER
  5
208
100
AcDbSymbolTableRecord
100
AcDbLayerTableRecord
  2
INTF_1
 70
0
 62
7
  6
CONTINUOUS
370
-3
390
F
  0
LAYER
  5
209
100
AcDbSymbolTableRecord
100
AcDbLayerTableRecord
  2
INTF_7
 70
0
 62
7
  6
CONTINUOUS
370
-3
390
F
  0
LAYER
  5
20A
100
AcDbSymbolTableRecord
100
AcDbLayerTableRecord
  2
LINEA_CHIUSURA
 70
0
 62
7
  6
CONTINUOUS
370
-3
390
F
  0
LAYER
  5
20B
100
AcDbSymbolTableRecord
100
AcDbLayerTableRecord
  2
NOTE
 70
0
 62
7
  6
CONTINUOUS
370
-3
390
F
  0
LAYER
  5
20C
100
AcDbSymbolTableRecord
100
AcDbLayerTableRecord
  2
PIANI
 70
0
 62
7
  6
CONTINUOUS
370
-3
390
F
  0
LAYER
  5
20D
100
AcDbSymbolTableRecord
100
AcDbLayerTableRecord
  2
PIANI_ORIGINE
 70
0
 62
7
  6
CONTINUOUS
370
-3
390
F
  0
LAYER
  5
20E
100
AcDbSymbolTableRecord
100
AcDbLayerTableRecord
  2
PIANI_RIFERIMENTO
 70
0
 62
7
  6
CONTINUOUS
370
-3
390
F
  0
LAYER
  5
20F
100
AcDbSymbolTableRecord
100
AcDbLayerTableRecord
  2
PUNTI
 70
0
 62
7
  6
CONTINUOUS
370
-3
390
F
  0
LAYER
  5
210
100
AcDbSymbolTableRecord
100
AcDbLayerTableRecord
  2
RACCORDO
 70
0
 62
7
  6
CONTINUOUS
370
-3
390
F
  0
LAYER
  5
211
100
AcDbSymbolTableRecord
100
AcDbLayerTableRecord
  2
RGB__255__255__255__
 70
0
 62
7
  6
CONTINUOUS
370
-3
390
F
  0
LAYER
  5
212
100
AcDbSymbolTableRecord
100
AcDbLayerTableRecord
  2
RGB____0____0____0__
 70
0
 62
7
  6
CONTINUOUS
370
-3
390
F
  0
LAYER
  5
213
100
AcDbSymbolTableRecord
100
AcDbLayerTableRecord
  2
SIMBOLI
 70
0
 62
7
  6
CONTINUOUS
370
-3
390
F
  0
LAYER
  5
214
100
AcDbSymbolTableRecord
100
AcDbLayerTableRecord
  2
SMUSSO
 70
0
 62
7
  6
CONTINUOUS
370
-3
390
F
  0
LAYER
  5
215
100
AcDbSymbolTableRecord
100
AcDbLayerTableRecord
  2
SNAPLINE
 70
0
 62
7
  6
CONTINUOUS
370
-3
390
F
  0
LAYER
  5
216
100
AcDbSymbolTableRecord
100
AcDbLayerTableRecord
  2
SUPERFICI
 70
0
 62
7
  6
CONTINUOUS
370
-3
390
F
  0
LAYER
  5
217
100
AcDbSymbolTableRecord
100
AcDbLayerTableRecord
  2
TRASH
 70
0
 62
7
  6
CONTINUOUS
370
-3
390
F
  0
LAYER
  5
218
100
AcDbSymbolTableRecord
100
AcDbLayerTableRecord
  2
WHITE
 70
0
 62
7
  6
CONTINUOUS
370
-3
390
F
  0
LAYER
  5
219
100
AcDbSymbolTableRecord
100
AcDbLayerTableRecord
  2
XSEC_DATUMS
 70
0
 62
7
  6
CONTINUOUS
370
-3
390
F
  0
ENDTAB
  0
TABLE
  2
STYLE
  5
3
100
AcDbSymbolTable
 70
1
  0
STYLE
  5
11
100
AcDbSymbolTableRecord
100
AcDbTextStyleTableRecord
  2
STANDARD
 70
0
 40
0.0
 41
0.8
 50
0.0
 71
0
 42
0.2
  3
txt
  4

  0
STYLE
  5
21A
100
AcDbSymbolTableRecord
100
AcDbTextStyleTableRecord
  2
TEXTSTYLE_1
 70
0
 40
0.0
 41
0.8
 50
0.0
 71
0
 42
0.2
  3
gdt
  4

  0
ENDTAB
  0
TABLE
  2
VIEW
  5
6
100
AcDbSymbolTable
 70
0
  0
ENDTAB
  0
TABLE
  2
UCS
  5
7
100
AcDbSymbolTable
 70
0
  0
ENDTAB
  0
TABLE
  2
APPID
  5
9
100
AcDbSymbolTable
 70
1
  0
APPID
  5
21B
100
AcDbSymbolTableRecord
100
AcDbRegAppTableRecord
  2
ACAD
 70
0
  0
ENDTAB
  0
TABLE
  2
BLOCK_RECORD
  5
1
100
AcDbSymbolTable
 70
0
  0
BLOCK_RECORD
  5
21C
100
AcDbSymbolTableRecord
100
AcDbBlockTableRecord
  2
*Model_Space
  0
BLOCK_RECORD
  5
21D
100
AcDbSymbolTableRecord
100
AcDbBlockTableRecord
  2
*Paper_Space
  0
BLOCK_RECORD
  5
21E
100
AcDbSymbolTableRecord
100
AcDbBlockTableRecord
  2
_FILLED
  0
ENDTAB
  0
TABLE
  2
DIMSTYLE
  5
A
100
AcDbSymbolTable
 70
1
100
AcDbDimStyleTable
 71
0
  0
DIMSTYLE
105
21F
100
AcDbSymbolTableRecord
100
AcDbDimStyleTableRecord
  2
STANDARD
 70
0
  3

  4

 40
1.0
 41
3.0
 42
0.5
 43
0.38
 44
1.5
 45
0.0
 46
0.0
 47
0.01
 48
0.01
140
3.0
141
0.09
142
0.0
143
25.4
144
1.0
145
0.0
146
1.0
147
0.625
 71
1
 72
0
 73
0
 74
0
 75
0
 76
0
 77
1
 78
8
 79
2
170
0
171
1
172
0
173
0
174
0
175
0
176
0
177
0
178
0
270
2
179
2
271
2
272
2
273
2
274
2
275
0
280
0
281
0
282
0
283
1
284
8
285
0
286
0
287
3
288
0
340
11
278
44
341
21E
342
21E
343
21E
344
21E
  0
ENDTAB
  0
ENDSEC
  0
SECTION
  2
BLOCKS
  0
BLOCK
  5
20
100
AcDbEntity
  8
0
100
AcDbBlockBegin
  2
*Model_Space
 70
0
 10
0.0
 20
0.0
 30
0.0
  3
*Model_Space
  1

  0
ENDBLK
  5
21
100
AcDbEntity
  8
0
100
AcDbBlockEnd
  0
BLOCK
  5
1C
100
AcDbEntity
  8
0
100
AcDbBlockBegin
  2
*Paper_Space
 70
0
 10
0.0
 20
0.0
 30
0.0
  3
*Paper_Space
  1

  0
ENDBLK
  5
1D
100
AcDbEntity
  8
0
100
AcDbBlockEnd
  0
BLOCK
  5
220
100
AcDbEntity
  8
0
100
AcDbBlockBegin
  2
_FILLED
 70
64
 10
0.0
 20
0.0
  3
_FILLED
  1

  0
SOLID
  5
221
100
AcDbEntity
  8
0
  6
BYBLOCK
 62
0
100
AcDbTrace
 10
0.0
 20
0.0
 11
-1.0
 21
0.3166666667
 12
-1.0
 22
-0.3166666667
 13
-1.0
 23
-0.3166666667
  0
ENDBLK
  5
222
100
AcDbEntity
  8
0
  6
BYBLOCK
 62
0
100
AcDbBlockEnd
  0
ENDSEC
  0
SECTION
  2
ENTITIES
  0
LINE
  5
223
100
AcDbEntity
  8
RACCORDO
100
AcDbLine
 62
7
  6
CONTINUOUS
 10
-52.5254055859
 20
65.2750465216
 11
-51.4647454142
 21
65.8874584116
  0
LINE
  5
224
100
AcDbEntity
  8
SMUSSO
100
AcDbLine
 62
250
  6
CONTINUOUS
 10
-52.0253814258
 20
65.2255053439
 11
-50.964721254
 21
65.8379172339
  0
LINE
  5
225
100
AcDbEntity
  8
ASSI
100
AcDbLine
 62
7
  6
CONTINUOUS
 10
-48.4368639524
 20
66.4919811638
 11
-50.3321855883
 21
65.472738523
  0
LINE
  5
226
100
AcDbEntity
  8
0
100
AcDbLine
 62
7
  6
CONTINUOUS
 10
-48.4368639524
 20
66.4919811638
 11
-50.3321855883
 21
65.472738523
  0
LINE
  5
227
100
AcDbEntity
  8
ASSI
100
AcDbLine
 62
250
  6
CONTINUOUS
 10
-47.9596251298
 20
66.4300328133
 11
-50.0460283201
 21
65.3080326962
  0
LINE
  5
228
100
AcDbEntity
  8
0
100
AcDbLine
 62
250
  6
CONTINUOUS
 10
-47.9596251298
 20
66.4300328133
 11
-50.0460283201
 21
65.3080326962
  0
LINE
  5
229
100
AcDbEntity
  8
SMUSSO
100
AcDbLine
 62
250
  6
CONTINUOUS
 10
-52.732488207
 20
64.0007604738
 11
-52.0253814258
 21
65.2255053439
  0
LINE
  5
22A
100
AcDbEntity
  8
0
100
AcDbLine
 62
250
  6
CONTINUOUS
 10
50.8658780878
 20
-58.7129223734
 11
51.7744371939
 21
-58.4744061014
  0
LINE
  5
22B
100
AcDbEntity
  8
0
100
AcDbLine
 62
250
  6
CONTINUOUS
 10
52.1858230483
 20
-58.098763325
 11
50.8658780878
 21
-58.3893543863
  0
LINE
  5
22C
100
AcDbEntity
  8
0
100
AcDbLine
 62
250
  6
CONTINUOUS
 10
51.7184134942
 20
-55.1615160867
 11
51.2285651413
 21
-55.293177286
  0
LINE
  5
22D
100
AcDbEntity
  8
0
100
AcDbLine
 62
250
  6
CONTINUOUS
 10
52.1858230483
 20
-55.0376292857
 11
51.922314972
 21
-55.1058358249
  0
LINE
  5
22E
100
AcDbEntity
  8
0
100
AcDbLine
 62
250
  6
CONTINUOUS
 10
50.8658780878
 20
-55.6605588578
 11
52.1858230483
 21
-55.3579060811
  0
LINE
  5
22F
100
AcDbEntity
  8
0
100
AcDbLine
 62
250
  6
CONTINUOUS
 10
50.8658780878
 20
-56.6633574494
 11
51.5987153516
 21
-56.5489816694
  0
LINE
  5
230
100
AcDbEntity
  8
0
100
AcDbLine
 62
250
  6
CONTINUOUS
 10
52.1858230483
 20
-56.1770111075
 11
51.3275169305
 21
-56.3052080977
  0
LINE
  5
231
100
AcDbEntity
  8
SMUSSO
100
AcDbLine
 62
250
  6
CONTINUOUS
 10
48.0302281121
 20
-66.0277534332
 11
49.4444416745
 21
-66.0277534332
  0
LINE
  5
232
100
AcDbEntity
  8
SMUSSO
100
AcDbLine
 62
7
  6
CONTINUOUS
 10
-52.732488207
 20
-7.848623884
 11
-52.732488207
 21
64.8173096604
  0
LINE
  5
233
100
AcDbEntity
  8
RACCORDO
100
AcDbLine
 62
250
  6
CONTINUOUS
 10
-34.3477118961
 20
35.0558633333
 11
-33.4992247628
 21
35.54576917
  0
LINE
  5
234
100
AcDbEntity
  8
RACCORDO
100
AcDbLine
 62
7
  6
CONTINUOUS
 10
-34.3477118961
 20
35.0558633333
 11
-34.3477118961
 21
-0.1340055965
  0
LINE
  5
235
100
AcDbEntity
  8
RACCORDO
100
AcDbLine
 62
7
  6
CONTINUOUS
 10
-32.2263915526
 20
34.8108038854
 11
-32.2263915526
 21
1.0908181835
  0
LINE
  5
236
100
AcDbEntity
  8
ASSI
100
AcDbLine
 62
250
  6
CONTINUOUS
 10
-31.5279897741
 20
34.4075554516
 11
-31.5279897741
 21
-0.2763052907
  0
LINE
  5
237
100
AcDbEntity
  8
0
100
AcDbLine
 62
250
  6
CONTINUOUS
 10
-31.5279897741
 20
34.4075554516
 11
-31.5279897741
 21
-0.2763052907
  0
LINE
  5
238
100
AcDbEntity
  8
ASSI
100
AcDbLine
 62
7
  6
CONTINUOUS
 10
-31.4437917142
 20
34.358940547
 11
-31.4437917142
 21
-0.3374953626
  0
LINE
  5
239
100
AcDbEntity
  8
0
100
AcDbLine
 62
7
  6
CONTINUOUS
 10
-31.4437917142
 20
34.358940547
 11
-31.4437917142
 21
-0.3374953626
  0
LINE
  5
23A
100
AcDbEntity
  8
SMUSSO
100
AcDbLine
 62
7
  6
CONTINUOUS
 10
48.0302281121
 20
-66.0277534332
 11
48.7373348933
 21
-66.4359491166
  0
LINE
  5
23B
100
AcDbEntity
  8
SMUSSO
100
AcDbLine
 62
7
  6
CONTINUOUS
 10
-52.732488207
 20
-7.848623884
 11
48.0302281121
 21
-66.0277534332
  0
LINE
  5
23C
100
AcDbEntity
  8
ASSI
100
AcDbLine
 62
250
  6
CONTINUOUS
 10
-16.8357990668
 20
-4.9132693051
 11
-16.8357990668
 21
-5.320638943
  0
LINE
  5
23D
100
AcDbEntity
  8
0
100
AcDbLine
 62
250
  6
CONTINUOUS
 10
-16.8357990668
 20
-4.9132693051
 11
-16.8357990668
 21
-5.320638943
  0
LINE
  5
23E
100
AcDbEntity
  8
ASSI
100
AcDbLine
 62
7
  6
CONTINUOUS
 10
-16.7844280319
 20
-4.8466917983
 11
-16.7844280319
 21
-5.2900936482
  0
LINE
  5
23F
100
AcDbEntity
  8
0
100
AcDbLine
 62
7
  6
CONTINUOUS
 10
-16.7844280319
 20
-4.8466917983
 11
-16.7844280319
 21
-5.2900936482
  0
LINE
  5
240
100
AcDbEntity
  8
ASSI
100
AcDbLine
 62
7
  6
CONTINUOUS
 10
-24.3422329466
 20
-4.4411605161
 11
-24.2714402642
 21
-4.3185439936
  0
LINE
  5
241
100
AcDbEntity
  8
0
100
AcDbLine
 62
7
  6
CONTINUOUS
 10
-24.3422329466
 20
-4.4411605161
 11
-24.2714402642
 21
-4.3185439936
  0
LINE
  5
242
100
AcDbEntity
  8
ASSI
100
AcDbLine
 62
7
  6
CONTINUOUS
 10
-24.0239528908
 20
-4.2981184274
 11
-23.9178868736
 21
-4.1144066969
  0
LINE
  5
243
100
AcDbEntity
  8
0
100
AcDbLine
 62
7
  6
CONTINUOUS
 10
-24.0239528908
 20
-4.2981184274
 11
-23.9178868736
 21
-4.1144066969
  0
LINE
  5
244
100
AcDbEntity
  8
ASSI
100
AcDbLine
 62
7
  6
CONTINUOUS
 10
-23.6703995002
 20
-4.0939811308
 11
-23.564333483
 21
-3.9102694003
  0
LINE
  5
245
100
AcDbEntity
  8
0
100
AcDbLine
 62
7
  6
CONTINUOUS
 10
-23.6703995002
 20
-4.0939811308
 11
-23.564333483
 21
-3.9102694003
  0
LINE
  5
246
100
AcDbEntity
  8
ASSI
100
AcDbLine
 62
7
  6
CONTINUOUS
 10
-23.3168461096
 20
-3.8898438341
 11
-23.2107800924
 21
-3.7061321036
  0
LINE
  5
247
100
AcDbEntity
  8
0
100
AcDbLine
 62
7
  6
CONTINUOUS
 10
-23.3168461096
 20
-3.8898438341
 11
-23.2107800924
 21
-3.7061321036
  0
LINE
  5
248
100
AcDbEntity
  8
ASSI
100
AcDbLine
 62
7
  6
CONTINUOUS
 10
-22.963292719
 20
-3.6857065374
 11
-22.8572267019
 21
-3.5019948069
  0
LINE
  5
249
100
AcDbEntity
  8
0
100
AcDbLine
 62
7
  6
CONTINUOUS
 10
-22.963292719
 20
-3.6857065374
 11
-22.8572267019
 21
-3.5019948069
  0
LINE
  5
24A
100
AcDbEntity
  8
ASSI
100
AcDbLine
 62
7
  6
CONTINUOUS
 10
-22.6097393284
 20
-3.4815692408
 11
-22.5036733113
 21
-3.2978575103
  0
LINE
  5
24B
100
AcDbEntity
  8
0
100
AcDbLine
 62
7
  6
CONTINUOUS
 10
-22.6097393284
 20
-3.4815692408
 11
-22.5036733113
 21
-3.2978575103
  0
LINE
  5
24C
100
AcDbEntity
  8
RACCORDO
100
AcDbLine
 62
250
  6
CONTINUOUS
 10
-34.3477118961
 20
-0.1340055965
 11
-32.2263915526
 21
1.0908181835
  0
LINE
  5
24D
100
AcDbEntity
  8
RACCORDO
100
AcDbLine
 62
7
  6
CONTINUOUS
 10
-33.4991837587
 20
-1.6036994406
 11
28.7969236638
 21
-37.5726911128
  0
LINE
  5
24E
100
AcDbEntity
  8
ASSI
100
AcDbLine
 62
7
  6
CONTINUOUS
 10
-20.45314565
 20
-6.6866707794
 11
-20.3823529677
 21
-6.5640542569
  0
LINE
  5
24F
100
AcDbEntity
  8
0
100
AcDbLine
 62
7
  6
CONTINUOUS
 10
-20.45314565
 20
-6.6866707794
 11
-20.3823529677
 21
-6.5640542569
  0
LINE
  5
250
100
AcDbEntity
  8
ASSI
100
AcDbLine
 62
7
  6
CONTINUOUS
 10
-20.1348655943
 20
-6.5436286907
 11
-20.0287995771
 21
-6.3599169602
  0
LINE
  5
251
100
AcDbEntity
  8
0
100
AcDbLine
 62
7
  6
CONTINUOUS
 10
-20.1348655943
 20
-6.5436286907
 11
-20.0287995771
 21
-6.3599169602
  0
LINE
  5
252
100
AcDbEntity
  8
ASSI
100
AcDbLine
 62
7
  6
CONTINUOUS
 10
-19.7813122037
 20
-6.3394913941
 11
-19.6752461865
 21
-6.1557796636
  0
LINE
  5
253
100
AcDbEntity
  8
0
100
AcDbLine
 62
7
  6
CONTINUOUS
 10
-19.7813122037
 20
-6.3394913941
 11
-19.6752461865
 21
-6.1557796636
  0
LINE
  5
254
100
AcDbEntity
  8
ASSI
100
AcDbLine
 62
7
  6
CONTINUOUS
 10
-19.4277588131
 20
-6.1353540974
 11
-19.3216927959
 21
-5.9516423669
  0
LINE
  5
255
100
AcDbEntity
  8
0
100
AcDbLine
 62
7
  6
CONTINUOUS
 10
-19.4277588131
 20
-6.1353540974
 11
-19.3216927959
 21
-5.9516423669
  0
LINE
  5
256
100
AcDbEntity
  8
ASSI
100
AcDbLine
 62
7
  6
CONTINUOUS
 10
-19.0742054225
 20
-5.9312168008
 11
-18.9681394053
 21
-5.7475050702
  0
LINE
  5
257
100
AcDbEntity
  8
0
100
AcDbLine
 62
7
  6
CONTINUOUS
 10
-19.0742054225
 20
-5.9312168008
 11
-18.9681394053
 21
-5.7475050702
  0
LINE
  5
258
100
AcDbEntity
  8
ASSI
100
AcDbLine
 62
7
  6
CONTINUOUS
 10
-18.7206520319
 20
-5.7270795041
 11
-18.6145860147
 21
-5.5433677736
  0
LINE
  5
259
100
AcDbEntity
  8
0
100
AcDbLine
 62
7
  6
CONTINUOUS
 10
-18.7206520319
 20
-5.7270795041
 11
-18.6145860147
 21
-5.5433677736
  0
LINE
  5
25A
100
AcDbEntity
  8
RACCORDO
100
AcDbLine
 62
250
  6
CONTINUOUS
 10
-33.4991837587
 20
-1.6036994406
 11
-31.3778634152
 21
-0.3788756607
  0
LINE
  5
25B
100
AcDbEntity
  8
RACCORDO
100
AcDbLine
 62
7
  6
CONTINUOUS
 10
-31.3778634152
 20
-0.3788756607
 11
29.6454518012
 21
-35.6129730648
  0
LINE
  5
25C
100
AcDbEntity
  8
ASSI
100
AcDbLine
 62
7
  6
CONTINUOUS
 10
27.3473547624
 20
-34.1225893065
 11
23.4582674659
 21
-31.8770790432
  0
LINE
  5
25D
100
AcDbEntity
  8
0
100
AcDbLine
 62
7
  6
CONTINUOUS
 10
27.3473547624
 20
-34.1225893065
 11
23.4582674659
 21
-31.8770790432
  0
LINE
  5
25E
100
AcDbEntity
  8
ASSI
100
AcDbLine
 62
7
  6
CONTINUOUS
 10
-20.3823529677
 20
-6.5640542569
 11
-24.2714402642
 21
-4.3185439936
  0
LINE
  5
25F
100
AcDbEntity
  8
0
100
AcDbLine
 62
7
  6
CONTINUOUS
 10
-20.3823529677
 20
-6.5640542569
 11
-24.2714402642
 21
-4.3185439936
  0
LINE
  5
260
100
AcDbEntity
  8
ASSI
100
AcDbLine
 62
7
  6
CONTINUOUS
 10
27.5948421358
 20
-34.1021637404
 11
23.5996888221
 21
-31.7954241245
  0
LINE
  5
261
100
AcDbEntity
  8
0
100
AcDbLine
 62
7
  6
CONTINUOUS
 10
27.5948421358
 20
-34.1021637404
 11
23.5996888221
 21
-31.7954241245
  0
LINE
  5
262
100
AcDbEntity
  8
ASSI
100
AcDbLine
 62
7
  6
CONTINUOUS
 10
-24.130018908
 20
-4.2368890749
 11
-20.1348655943
 21
-6.5436286907
  0
LINE
  5
263
100
AcDbEntity
  8
0
100
AcDbLine
 62
7
  6
CONTINUOUS
 10
-24.130018908
 20
-4.2368890749
 11
-20.1348655943
 21
-6.5436286907
  0
LINE
  5
264
100
AcDbEntity
  8
ASSI
100
AcDbLine
 62
7
  6
CONTINUOUS
 10
27.700908153
 20
-33.9184520098
 11
23.8118208565
 21
-31.6729417465
  0
LINE
  5
265
100
AcDbEntity
  8
0
100
AcDbLine
 62
7
  6
CONTINUOUS
 10
27.700908153
 20
-33.9184520098
 11
23.8118208565
 21
-31.6729417465
  0
LINE
  5
266
100
AcDbEntity
  8
ASSI
100
AcDbLine
 62
7
  6
CONTINUOUS
 10
-20.0287995771
 20
-6.3599169602
 11
-23.9178868736
 21
-4.1144066969
  0
LINE
  5
267
100
AcDbEntity
  8
0
100
AcDbLine
 62
7
  6
CONTINUOUS
 10
-20.0287995771
 20
-6.3599169602
 11
-23.9178868736
 21
-4.1144066969
  0
LINE
  5
268
100
AcDbEntity
  8
ASSI
100
AcDbLine
 62
7
  6
CONTINUOUS
 10
27.9483955264
 20
-33.8980264437
 11
23.9532422127
 21
-31.5912868279
  0
LINE
  5
269
100
AcDbEntity
  8
0
100
AcDbLine
 62
7
  6
CONTINUOUS
 10
27.9483955264
 20
-33.8980264437
 11
23.9532422127
 21
-31.5912868279
  0
LINE
  5
26A
100
AcDbEntity
  8
ASSI
100
AcDbLine
 62
7
  6
CONTINUOUS
 10
-23.7764655174
 20
-4.0327517783
 11
-19.7813122037
 21
-6.3394913941
  0
LINE
  5
26B
100
AcDbEntity
  8
0
100
AcDbLine
 62
7
  6
CONTINUOUS
 10
-23.7764655174
 20
-4.0327517783
 11
-19.7813122037
 21
-6.3394913941
  0
LINE
  5
26C
100
AcDbEntity
  8
ASSI
100
AcDbLine
 62
7
  6
CONTINUOUS
 10
28.0544615436
 20
-33.7143147132
 11
24.1653742471
 21
-31.4688044499
  0
LINE
  5
26D
100
AcDbEntity
  8
0
100
AcDbLine
 62
7
  6
CONTINUOUS
 10
28.0544615436
 20
-33.7143147132
 11
24.1653742471
 21
-31.4688044499
  0
LINE
  5
26E
100
AcDbEntity
  8
ASSI
100
AcDbLine
 62
7
  6
CONTINUOUS
 10
-19.6752461865
 20
-6.1557796636
 11
-23.564333483
 21
-3.9102694003
  0
LINE
  5
26F
100
AcDbEntity
  8
0
100
AcDbLine
 62
7
  6
CONTINUOUS
 10
-19.6752461865
 20
-6.1557796636
 11
-23.564333483
 21
-3.9102694003
  0
LINE
  5
270
100
AcDbEntity
  8
ASSI
100
AcDbLine
 62
7
  6
CONTINUOUS
 10
28.301948917
 20
-33.693889147
 11
24.3067956033
 21
-31.3871495312
  0
LINE
  5
271
100
AcDbEntity
  8
0
100
AcDbLine
 62
7
  6
CONTINUOUS
 10
28.301948917
 20
-33.693889147
 11
24.3067956033
 21
-31.3871495312
  0
LINE
  5
272
100
AcDbEntity
  8
ASSI
100
AcDbLine
 62
7
  6
CONTINUOUS
 10
-23.4229121268
 20
-3.8286144816
 11
-19.4277588131
 21
-6.1353540974
  0
LINE
  5
273
100
AcDbEntity
  8
0
100
AcDbLine
 62
7
  6
CONTINUOUS
 10
-23.4229121268
 20
-3.8286144816
 11
-19.4277588131
 21
-6.1353540974
  0
LINE
  5
274
100
AcDbEntity
  8
ASSI
100
AcDbLine
 62
7
  6
CONTINUOUS
 10
28.4080149342
 20
-33.5101774165
 11
24.5189276376
 21
-31.2646671532
  0
LINE
  5
275
100
AcDbEntity
  8
0
100
AcDbLine
 62
7
  6
CONTINUOUS
 10
28.4080149342
 20
-33.5101774165
 11
24.5189276376
 21
-31.2646671532
  0
LINE
  5
276
100
AcDbEntity
  8
ASSI
100
AcDbLine
 62
7
  6
CONTINUOUS
 10
-19.3216927959
 20
-5.9516423669
 11
-23.2107800924
 21
-3.7061321036
  0
LINE
  5
277
100
AcDbEntity
  8
0
100
AcDbLine
 62
7
  6
CONTINUOUS
 10
-19.3216927959
 20
-5.9516423669
 11
-23.2107800924
 21
-3.7061321036
  0
LINE
  5
278
100
AcDbEntity
  8
ASSI
100
AcDbLine
 62
7
  6
CONTINUOUS
 10
28.6555023076
 20
-33.4897518504
 11
24.6603489939
 21
-31.1830122346
  0
LINE
  5
279
100
AcDbEntity
  8
0
100
AcDbLine
 62
7
  6
CONTINUOUS
 10
28.6555023076
 20
-33.4897518504
 11
24.6603489939
 21
-31.1830122346
  0
LINE
  5
27A
100
AcDbEntity
  8
ASSI
100
AcDbLine
 62
7
  6
CONTINUOUS
 10
-23.0693587362
 20
-3.6244771849
 11
-19.0742054225
 21
-5.9312168008
  0
LINE
  5
27B
100
AcDbEntity
  8
0
100
AcDbLine
 62
7
  6
CONTINUOUS
 10
-23.0693587362
 20
-3.6244771849
 11
-19.0742054225
 21
-5.9312168008
  0
LINE
  5
27C
100
AcDbEntity
  8
ASSI
100
AcDbLine
 62
7
  6
CONTINUOUS
 10
28.7615683248
 20
-33.3060401199
 11
24.8724810282
 21
-31.0605298566
  0
LINE
  5
27D
100
AcDbEntity
  8
0
100
AcDbLine
 62
7
  6
CONTINUOUS
 10
28.7615683248
 20
-33.3060401199
 11
24.8724810282
 21
-31.0605298566
  0
LINE
  5
27E
100
AcDbEntity
  8
ASSI
100
AcDbLine
 62
7
  6
CONTINUOUS
 10
-18.9681394053
 20
-5.7475050702
 11
-22.8572267019
 21
-3.5019948069
  0
LINE
  5
27F
100
AcDbEntity
  8
0
100
AcDbLine
 62
7
  6
CONTINUOUS
 10
-18.9681394053
 20
-5.7475050702
 11
-22.8572267019
 21
-3.5019948069
  0
LINE
  5
280
100
AcDbEntity
  8
ASSI
100
AcDbLine
 62
7
  6
CONTINUOUS
 10
29.0090556982
 20
-33.2856145537
 11
25.0139023845
 21
-30.9788749379
  0
LINE
  5
281
100
AcDbEntity
  8
0
100
AcDbLine
 62
7
  6
CONTINUOUS
 10
29.0090556982
 20
-33.2856145537
 11
25.0139023845
 21
-30.9788749379
  0
LINE
  5
282
100
AcDbEntity
  8
ASSI
100
AcDbLine
 62
7
  6
CONTINUOUS
 10
-22.7158053456
 20
-3.4203398883
 11
-18.7206520319
 21
-5.7270795041
  0
LINE
  5
283
100
AcDbEntity
  8
0
100
AcDbLine
 62
7
  6
CONTINUOUS
 10
-22.7158053456
 20
-3.4203398883
 11
-18.7206520319
 21
-5.7270795041
  0
LINE
  5
284
100
AcDbEntity
  8
ASSI
100
AcDbLine
 62
7
  6
CONTINUOUS
 10
29.1151217154
 20
-33.1019028232
 11
25.2260344188
 21
-30.8563925599
  0
LINE
  5
285
100
AcDbEntity
  8
0
100
AcDbLine
 62
7
  6
CONTINUOUS
 10
29.1151217154
 20
-33.1019028232
 11
25.2260344188
 21
-30.8563925599
  0
LINE
  5
286
100
AcDbEntity
  8
ASSI
100
AcDbLine
 62
7
  6
CONTINUOUS
 10
-18.6145860147
 20
-5.5433677736
 11
-22.5036733113
 21
-3.2978575103
  0
LINE
  5
287
100
AcDbEntity
  8
0
100
AcDbLine
 62
7
  6
CONTINUOUS
 10
-18.6145860147
 20
-5.5433677736
 11
-22.5036733113
 21
-3.2978575103
  0
LINE
  5
288
100
AcDbEntity
  8
ASSI
100
AcDbLine
 62
7
  6
CONTINUOUS
 10
29.3626090888
 20
-33.081477257
 11
25.3674557751
 21
-30.7747376412
  0
LINE
  5
289
100
AcDbEntity
  8
0
100
AcDbLine
 62
7
  6
CONTINUOUS
 10
29.3626090888
 20
-33.081477257
 11
25.3674557751
 21
-30.7747376412
  0
LINE
  5
28A
100
AcDbEntity
  8
ASSI
100
AcDbLine
 62
7
  6
CONTINUOUS
 10
-22.362251955
 20
-3.2162025916
 11
-18.3670986413
 21
-5.5229422074
  0
LINE
  5
28B
100
AcDbEntity
  8
0
100
AcDbLine
 62
7
  6
CONTINUOUS
 10
-22.362251955
 20
-3.2162025916
 11
-18.3670986413
 21
-5.5229422074
  0
LINE
  5
28C
100
AcDbEntity
  8
ASSI
100
AcDbLine
 62
250
  6
CONTINUOUS
 10
29.647388036
 20
-33.1233211126
 11
25.4010507777
 21
-30.6715391987
  0
LINE
  5
28D
100
AcDbEntity
  8
0
100
AcDbLine
 62
250
  6
CONTINUOUS
 10
29.647388036
 20
-33.1233211126
 11
25.4010507777
 21
-30.6715391987
  0
LINE
  5
28E
100
AcDbEntity
  8
ASSI
100
AcDbLine
 62
250
  6
CONTINUOUS
 10
-18.0823196941
 20
-5.564786063
 11
-22.3286569524
 21
-3.1130041491
  0
LINE
  5
28F
100
AcDbEntity
  8
0
100
AcDbLine
 62
250
  6
CONTINUOUS
 10
-18.0823196941
 20
-5.564786063
 11
-22.3286569524
 21
-3.1130041491
  0
LINE
  5
290
100
AcDbEntity
  8
ASSI
100
AcDbLine
 62
250
  6
CONTINUOUS
 10
29.6454518012
 20
-33.0450054608
 11
25.4750979306
 21
-30.6370954027
  0
LINE
  5
291
100
AcDbEntity
  8
0
100
AcDbLine
 62
250
  6
CONTINUOUS
 10
29.6454518012
 20
-33.0450054608
 11
25.4750979306
 21
-30.6370954027
  0
LINE
  5
292
100
AcDbEntity
  8
ASSI
100
AcDbLine
 62
250
  6
CONTINUOUS
 10
-18.0156473381
 20
-5.5260841515
 11
-22.2546097994
 21
-3.0785603531
  0
LINE
  5
293
100
AcDbEntity
  8
0
100
AcDbLine
 62
250
  6
CONTINUOUS
 10
-18.0156473381
 20
-5.5260841515
 11
-22.2546097994
 21
-3.0785603531
  0
LINE
  5
294
100
AcDbEntity
  8
ASSI
100
AcDbLine
 62
7
  6
CONTINUOUS
 10
-20.6690080663
 20
-2.5607343999
 11
-16.8430066757
 21
-4.7698196517
  0
LINE
  5
295
100
AcDbEntity
  8
0
100
AcDbLine
 62
7
  6
CONTINUOUS
 10
-20.6690080663
 20
-2.5607343999
 11
-16.8430066757
 21
-4.7698196517
  0
LINE
  5
296
100
AcDbEntity
  8
ASSI
100
AcDbLine
 62
7
  6
CONTINUOUS
 10
27.0606996638
 20
-30.1192694495
 11
29.6454518012
 21
-31.6116729391
  0
LINE
  5
297
100
AcDbEntity
  8
0
100
AcDbLine
 62
7
  6
CONTINUOUS
 10
27.0606996638
 20
-30.1192694495
 11
29.6454518012
 21
-31.6116729391
  0
LINE
  5
298
100
AcDbEntity
  8
ASSI
100
AcDbLine
 62
7
  6
CONTINUOUS
 10
-4.6920035615
 20
-11.7467609033
 11
-1.000206027
 21
-13.8783585306
  0
LINE
  5
299
100
AcDbEntity
  8
0
100
AcDbLine
 62
7
  6
CONTINUOUS
 10
-4.6920035615
 20
-11.7467609033
 11
-1.000206027
 21
-13.8783585306
  0
LINE
  5
29A
100
AcDbEntity
  8
ASSI
100
AcDbLine
 62
7
  6
CONTINUOUS
 10
11.2178990152
 20
-20.9329392532
 11
14.9096965497
 21
-23.0645368805
  0
LINE
  5
29B
100
AcDbEntity
  8
0
100
AcDbLine
 62
7
  6
CONTINUOUS
 10
11.2178990152
 20
-20.9329392532
 11
14.9096965497
 21
-23.0645368805
  0
LINE
  5
29C
100
AcDbEntity
  8
ASSI
100
AcDbLine
 62
250
  6
CONTINUOUS
 10
-18.7802784798
 20
-6.5922765966
 11
-18.4443335149
 21
-6.2655230068
  0
LINE
  5
29D
100
AcDbEntity
  8
0
100
AcDbLine
 62
250
  6
CONTINUOUS
 10
-18.7802784798
 20
-6.5922765966
 11
-18.4443335149
 21
-6.2655230068
  0
LINE
  5
29E
100
AcDbEntity
  8
ASSI
100
AcDbLine
 62
7
  6
CONTINUOUS
 10
-18.7763535851
 20
-6.6258117611
 11
-18.3473692416
 21
-6.2085643282
  0
LINE
  5
29F
100
AcDbEntity
  8
0
100
AcDbLine
 62
7
  6
CONTINUOUS
 10
-18.7763535852
 20
-6.6258117611
 11
-18.3473692416
 21
-6.2085643282
  0
LINE
  5
2A0
100
AcDbEntity
  8
ASSI
100
AcDbLine
 62
7
  6
CONTINUOUS
 10
-18.0823196941
 20
-5.564786063
 11
-20.1262107767
 21
-6.8754388778
  0
LINE
  5
2A1
100
AcDbEntity
  8
0
100
AcDbLine
 62
7
  6
CONTINUOUS
 10
-18.0823196941
 20
-5.564786063
 11
-20.1262107767
 21
-6.8754388778
  0
LINE
  5
2A2
100
AcDbEntity
  8
ASSI
100
AcDbLine
 62
7
  6
CONTINUOUS
 10
-24.2714402642
 20
-4.3185439936
 11
-24.130018908
 21
-4.2368890749
  0
LINE
  5
2A3
100
AcDbEntity
  8
0
100
AcDbLine
 62
7
  6
CONTINUOUS
 10
-24.2714402642
 20
-4.3185439936
 11
-24.130018908
 21
-4.2368890749
  0
LINE
  5
2A4
100
AcDbEntity
  8
ASSI
100
AcDbLine
 62
7
  6
CONTINUOUS
 10
-23.9178868736
 20
-4.1144066969
 11
-23.7764655174
 21
-4.0327517783
  0
LINE
  5
2A5
100
AcDbEntity
  8
0
100
AcDbLine
 62
7
  6
CONTINUOUS
 10
-23.9178868736
 20
-4.1144066969
 11
-23.7764655174
 21
-4.0327517783
  0
LINE
  5
2A6
100
AcDbEntity
  8
ASSI
100
AcDbLine
 62
7
  6
CONTINUOUS
 10
-23.564333483
 20
-3.9102694003
 11
-23.4229121268
 21
-3.8286144816
  0
LINE
  5
2A7
100
AcDbEntity
  8
0
100
AcDbLine
 62
7
  6
CONTINUOUS
 10
-23.564333483
 20
-3.9102694003
 11
-23.4229121268
 21
-3.8286144816
  0
LINE
  5
2A8
100
AcDbEntity
  8
ASSI
100
AcDbLine
 62
7
  6
CONTINUOUS
 10
-23.2107800924
 20
-3.7061321036
 11
-23.0693587362
 21
-3.6244771849
  0
LINE
  5
2A9
100
AcDbEntity
  8
0
100
AcDbLine
 62
7
  6
CONTINUOUS
 10
-23.2107800924
 20
-3.7061321036
 11
-23.0693587362
 21
-3.6244771849
  0
LINE
  5
2AA
100
AcDbEntity
  8
ASSI
100
AcDbLine
 62
7
  6
CONTINUOUS
 10
-22.8572267019
 20
-3.5019948069
 11
-22.7158053456
 21
-3.4203398883
  0
LINE
  5
2AB
100
AcDbEntity
  8
0
100
AcDbLine
 62
7
  6
CONTINUOUS
 10
-22.8572267019
 20
-3.5019948069
 11
-22.7158053456
 21
-3.4203398883
  0
LINE
  5
2AC
100
AcDbEntity
  8
ASSI
100
AcDbLine
 62
7
  6
CONTINUOUS
 10
-22.5036733113
 20
-3.2978575103
 11
-22.362251955
 21
-3.2162025916
  0
LINE
  5
2AD
100
AcDbEntity
  8
0
100
AcDbLine
 62
7
  6
CONTINUOUS
 10
-22.5036733113
 20
-3.2978575103
 11
-22.362251955
 21
-3.2162025916
  0
LINE
  5
2AE
100
AcDbEntity
  8
ASSI
100
AcDbLine
 62
7
  6
CONTINUOUS
 10
-24.5986279677
 20
-4.2931212442
 11
-22.3286569524
 21
-3.1130041491
  0
LINE
  5
2AF
100
AcDbEntity
  8
0
100
AcDbLine
 62
7
  6
CONTINUOUS
 10
-24.5986279677
 20
-4.2931212442
 11
-22.3286569524
 21
-3.1130041491
  0
LINE
  5
2B0
100
AcDbEntity
  8
ASSI
100
AcDbLine
 62
7
  6
CONTINUOUS
 10
-22.2546097994
 20
-3.0785603531
 11
-20.9442555438
 21
-2.5410980264
  0
LINE
  5
2B1
100
AcDbEntity
  8
0
100
AcDbLine
 62
7
  6
CONTINUOUS
 10
-22.2546097994
 20
-3.0785603531
 11
-20.9442555438
 21
-2.5410980264
  0
LINE
  5
2B2
100
AcDbEntity
  8
ASSI
100
AcDbLine
 62
250
  6
CONTINUOUS
 10
-0.9893946137
 20
-14.1147194997
 11
-0.9893946137
 21
-14.5441173116
  0
LINE
  5
2B3
100
AcDbEntity
  8
0
100
AcDbLine
 62
250
  6
CONTINUOUS
 10
-0.9893946137
 20
-14.1147194997
 11
-0.9893946137
 21
-14.5441173116
  0
LINE
  5
2B4
100
AcDbEntity
  8
ASSI
100
AcDbLine
 62
7
  6
CONTINUOUS
 10
-0.9123380614
 20
-14.0002148293
 11
-0.9123380614
 21
-14.4982993694
  0
LINE
  5
2B5
100
AcDbEntity
  8
0
100
AcDbLine
 62
7
  6
CONTINUOUS
 10
-0.9123380614
 20
-14.0002148293
 11
-0.9123380614
 21
-14.4982993694
  0
LINE
  5
2B6
100
AcDbEntity
  8
ASSI
100
AcDbLine
 62
7
  6
CONTINUOUS
 10
-19.8016494796
 20
-7.062836503
 11
-16.8357990668
 21
-5.320638943
  0
LINE
  5
2B7
100
AcDbEntity
  8
0
100
AcDbLine
 62
7
  6
CONTINUOUS
 10
-19.8016494796
 20
-7.062836503
 11
-16.8357990668
 21
-5.320638943
  0
LINE
  5
2B8
100
AcDbEntity
  8
ASSI
100
AcDbLine
 62
7
  6
CONTINUOUS
 10
-18.8349679349
 20
-6.6702757862
 11
-19.6562248654
 21
-7.1468028526
  0
LINE
  5
2B9
100
AcDbEntity
  8
0
100
AcDbLine
 62
7
  6
CONTINUOUS
 10
-18.8349679349
 20
-6.6702757862
 11
-19.6562248654
 21
-7.1468028526
  0
LINE
  5
2BA
100
AcDbEntity
  8
ASSI
100
AcDbLine
 62
250
  6
CONTINUOUS
 10
-18.7802784798
 20
-6.5922765966
 11
-19.6964928052
 21
-7.1235526489
  0
LINE
  5
2BB
100
AcDbEntity
  8
0
100
AcDbLine
 62
250
  6
CONTINUOUS
 10
-18.7802784798
 20
-6.5922765966
 11
-19.6964928052
 21
-7.1235526489
  0
LINE
  5
2BC
100
AcDbEntity
  8
ASSI
100
AcDbLine
 62
7
  6
CONTINUOUS
 10
-20.3823529677
 20
-6.5640542569
 11
-20.2409316115
 21
-6.4823993382
  0
LINE
  5
2BD
100
AcDbEntity
  8
0
100
AcDbLine
 62
7
  6
CONTINUOUS
 10
-20.3823529677
 20
-6.5640542569
 11
-20.2409316115
 21
-6.4823993382
  0
LINE
  5
2BE
100
AcDbEntity
  8
ASSI
100
AcDbLine
 62
7
  6
CONTINUOUS
 10
-20.0287995771
 20
-6.3599169602
 11
-19.8873782209
 21
-6.2782620416
  0
LINE
  5
2BF
100
AcDbEntity
  8
0
100
AcDbLine
 62
7
  6
CONTINUOUS
 10
-20.0287995771
 20
-6.3599169602
 11
-19.8873782209
 21
-6.2782620416
  0
LINE
  5
2C0
100
AcDbEntity
  8
ASSI
100
AcDbLine
 62
7
  6
CONTINUOUS
 10
-19.6752461865
 20
-6.1557796636
 11
-19.5338248303
 21
-6.0741247449
  0
LINE
  5
2C1
100
AcDbEntity
  8
0
100
AcDbLine
 62
7
  6
CONTINUOUS
 10
-19.6752461865
 20
-6.1557796636
 11
-19.5338248303
 21
-6.0741247449
  0
LINE
  5
2C2
100
AcDbEntity
  8
ASSI
100
AcDbLine
 62
7
  6
CONTINUOUS
 10
-19.3216927959
 20
-5.9516423669
 11
-19.1802714397
 21
-5.8699874482
  0
LINE
  5
2C3
100
AcDbEntity
  8
0
100
AcDbLine
 62
7
  6
CONTINUOUS
 10
-19.3216927959
 20
-5.9516423669
 11
-19.1802714397
 21
-5.8699874482
  0
LINE
  5
2C4
100
AcDbEntity
  8
ASSI
100
AcDbLine
 62
7
  6
CONTINUOUS
 10
-18.9681394053
 20
-5.7475050702
 11
-18.8267180491
 21
-5.6658501516
  0
LINE
  5
2C5
100
AcDbEntity
  8
0
100
AcDbLine
 62
7
  6
CONTINUOUS
 10
-18.9681394053
 20
-5.7475050702
 11
-18.8267180491
 21
-5.6658501516
  0
LINE
  5
2C6
100
AcDbEntity
  8
ASSI
100
AcDbLine
 62
7
  6
CONTINUOUS
 10
-18.6145860147
 20
-5.5433677736
 11
-18.4731646585
 21
-5.4617128549
  0
LINE
  5
2C7
100
AcDbEntity
  8
0
100
AcDbLine
 62
7
  6
CONTINUOUS
 10
-18.6145860147
 20
-5.5433677736
 11
-18.4731646585
 21
-5.4617128549
  0
LINE
  5
2C8
100
AcDbEntity
  8
ASSI
100
AcDbLine
 62
7
  6
CONTINUOUS
 10
-18.3670986413
 20
-5.5229422074
 11
-20.4178757239
 21
-6.7070351927
  0
LINE
  5
2C9
100
AcDbEntity
  8
0
100
AcDbLine
 62
7
  6
CONTINUOUS
 10
-18.3670986413
 20
-5.5229422074
 11
-20.4178757239
 21
-6.7070351927
  0
LINE
  5
2CA
100
AcDbEntity
  8
ASSI
100
AcDbLine
 62
7
  6
CONTINUOUS
 10
-16.8357990668
 20
-4.9132693051
 11
-18.0156473381
 21
-5.5260841515
  0
LINE
  5
2CB
100
AcDbEntity
  8
0
100
AcDbLine
 62
7
  6
CONTINUOUS
 10
-16.8357990668
 20
-4.9132693051
 11
-18.0156473381
 21
-5.5260841515
  0
LINE
  5
2CC
100
AcDbEntity
  8
SMUSSO
100
AcDbLine
 62
250
  6
CONTINUOUS
 10
48.0302281121
 20
5.8216309246
 11
49.4444416745
 21
5.8216309246
  0
LINE
  5
2CD
100
AcDbEntity
  8
ASSI
100
AcDbLine
 62
250
  6
CONTINUOUS
 10
-2.8703759031
 20
-15.7784549464
 11
-2.5344309382
 21
-15.4517013566
  0
LINE
  5
2CE
100
AcDbEntity
  8
0
100
AcDbLine
 62
250
  6
CONTINUOUS
 10
-2.8703759031
 20
-15.7784549464
 11
-2.5344309382
 21
-15.4517013566
  0
LINE
  5
2CF
100
AcDbEntity
  8
ASSI
100
AcDbLine
 62
7
  6
CONTINUOUS
 10
-2.8664511568
 20
-15.8119902553
 11
-2.4374666649
 21
-15.3947426781
  0
LINE
  5
2D0
100
AcDbEntity
  8
0
100
AcDbLine
 62
7
  6
CONTINUOUS
 10
-2.8664511568
 20
-15.8119902553
 11
-2.4374666649
 21
-15.3947426781
  0
LINE
  5
2D1
100
AcDbEntity
  8
ASSI
100
AcDbLine
 62
7
  6
CONTINUOUS
 10
-0.9893946137
 20
-14.1147194997
 11
-4.1434129083
 21
-16.1037060555
  0
LINE
  5
2D2
100
AcDbEntity
  8
0
100
AcDbLine
 62
7
  6
CONTINUOUS
 10
-0.9893946137
 20
-14.1147194997
 11
-4.1434129083
 21
-16.1037060555
  0
LINE
  5
2D3
100
AcDbEntity
  8
ASSI
100
AcDbLine
 62
7
  6
CONTINUOUS
 10
-3.8917469029
 20
-16.2490148529
 11
-0.9893946137
 21
-14.5441173116
  0
LINE
  5
2D4
100
AcDbEntity
  8
0
100
AcDbLine
 62
7
  6
CONTINUOUS
 10
-3.8917469029
 20
-16.2490148529
 11
-0.9893946137
 21
-14.5441173116
  0
LINE
  5
2D5
100
AcDbEntity
  8
ASSI
100
AcDbLine
 62
7
  6
CONTINUOUS
 10
-8.6077669678
 20
-13.526043973
 11
-5.1048747778
 21
-11.738492832
  0
LINE
  5
2D6
100
AcDbEntity
  8
0
100
AcDbLine
 62
7
  6
CONTINUOUS
 10
-8.6077669678
 20
-13.526043973
 11
-5.1048747778
 21
-11.738492832
  0
LINE
  5
2D7
100
AcDbEntity
  8
ASSI
100
AcDbLine
 62
250
  6
CONTINUOUS
 10
14.920507963
 20
-23.3008978495
 11
14.920507963
 21
-23.7302956615
  0
LINE
  5
2D8
100
AcDbEntity
  8
0
100
AcDbLine
 62
250
  6
CONTINUOUS
 10
14.920507963
 20
-23.3008978495
 11
14.920507963
 21
-23.7302956615
  0
LINE
  5
2D9
100
AcDbEntity
  8
ASSI
100
AcDbLine
 62
7
  6
CONTINUOUS
 10
14.9975645153
 20
-23.1863931792
 11
14.9975645153
 21
-23.6844777193
  0
LINE
  5
2DA
100
AcDbEntity
  8
0
100
AcDbLine
 62
7
  6
CONTINUOUS
 10
14.9975645153
 20
-23.1863931792
 11
14.9975645153
 21
-23.6844777193
  0
LINE
  5
2DB
100
AcDbEntity
  8
ASSI
100
AcDbLine
 62
7
  6
CONTINUOUS
 10
-2.9250654902
 20
-15.8564542127
 11
-3.7463222887
 21
-16.3329812025
  0
LINE
  5
2DC
100
AcDbEntity
  8
0
100
AcDbLine
 62
7
  6
CONTINUOUS
 10
-2.9250654902
 20
-15.8564542127
 11
-3.7463222887
 21
-16.3329812025
  0
LINE
  5
2DD
100
AcDbEntity
  8
ASSI
100
AcDbLine
 62
250
  6
CONTINUOUS
 10
-2.8703759031
 20
-15.7784549464
 11
-3.7865902285
 21
-16.3097309987
  0
LINE
  5
2DE
100
AcDbEntity
  8
0
100
AcDbLine
 62
250
  6
CONTINUOUS
 10
-2.8703759031
 20
-15.7784549464
 11
-3.7865902285
 21
-16.3097309987
  0
LINE
  5
2DF
100
AcDbEntity
  8
RACCORDO
100
AcDbLine
 62
7
  6
CONTINUOUS
 10
28.7969236638
 20
-0.4232935187
 11
-33.4991837587
 21
35.5456981534
  0
LINE
  5
2E0
100
AcDbEntity
  8
SMUSSO
100
AcDbLine
 62
250
  6
CONTINUOUS
 10
48.7373348933
 20
7.0463757947
 11
49.7979950651
 21
7.6587876847
  0
LINE
  5
2E1
100
AcDbEntity
  8
ASSI
100
AcDbLine
 62
250
  6
CONTINUOUS
 10
49.7985409466
 20
7.659029748
 11
51.8133570872
 21
8.8223633304
  0
LINE
  5
2E2
100
AcDbEntity
  8
0
100
AcDbLine
 62
250
  6
CONTINUOUS
 10
49.7985409466
 20
7.659029748
 11
51.8133570872
 21
8.8223633304
  0
LINE
  5
2E3
100
AcDbEntity
  8
ASSI
100
AcDbLine
 62
250
  6
CONTINUOUS
 10
50.505540032
 20
6.4344714125
 11
52.5203561726
 21
7.5978049949
  0
LINE
  5
2E4
100
AcDbEntity
  8
0
100
AcDbLine
 62
250
  6
CONTINUOUS
 10
50.505540032
 20
6.4344714125
 11
52.5203561726
 21
7.5978049949
  0
LINE
  5
2E5
100
AcDbEntity
  8
SMUSSO
100
AcDbLine
 62
250
  6
CONTINUOUS
 10
49.4444416745
 20
5.8216309246
 11
50.5051018462
 21
6.4340428146
  0
LINE
  5
2E6
100
AcDbEntity
  8
ASSI
100
AcDbLine
 62
250
  6
CONTINUOUS
 10
51.8388915785
 20
8.8077503347
 11
52.6889327115
 21
8.5618763863
  0
LINE
  5
2E7
100
AcDbEntity
  8
0
100
AcDbLine
 62
250
  6
CONTINUOUS
 10
51.8388915785
 20
8.8077503347
 11
52.6889327115
 21
8.5618763863
  0
LINE
  5
2E8
100
AcDbEntity
  8
ASSI
100
AcDbLine
 62
250
  6
CONTINUOUS
 10
13.0395266736
 20
-24.9646332963
 11
13.3754716385
 21
-24.6378797065
  0
LINE
  5
2E9
100
AcDbEntity
  8
0
100
AcDbLine
 62
250
  6
CONTINUOUS
 10
13.0395266736
 20
-24.9646332963
 11
13.3754716385
 21
-24.6378797065
  0
LINE
  5
2EA
100
AcDbEntity
  8
ASSI
100
AcDbLine
 62
7
  6
CONTINUOUS
 10
13.0434514199
 20
-24.9981686052
 11
13.4724359118
 21
-24.5809210279
  0
LINE
  5
2EB
100
AcDbEntity
  8
0
100
AcDbLine
 62
7
  6
CONTINUOUS
 10
13.0434514199
 20
-24.9981686052
 11
13.4724359118
 21
-24.5809210279
  0
LINE
  5
2EC
100
AcDbEntity
  8
ASSI
100
AcDbLine
 62
7
  6
CONTINUOUS
 10
14.920507963
 20
-23.3008978495
 11
11.7664896684
 21
-25.2898844053
  0
LINE
  5
2ED
100
AcDbEntity
  8
0
100
AcDbLine
 62
7
  6
CONTINUOUS
 10
14.920507963
 20
-23.3008978495
 11
11.7664896684
 21
-25.2898844053
  0
LINE
  5
2EE
100
AcDbEntity
  8
ASSI
100
AcDbLine
 62
7
  6
CONTINUOUS
 10
12.0181556738
 20
-25.4351932028
 11
14.920507963
 21
-23.7302956615
  0
LINE
  5
2EF
100
AcDbEntity
  8
0
100
AcDbLine
 62
7
  6
CONTINUOUS
 10
12.0181556738
 20
-25.4351932028
 11
14.920507963
 21
-23.7302956615
  0
LINE
  5
2F0
100
AcDbEntity
  8
ASSI
100
AcDbLine
 62
7
  6
CONTINUOUS
 10
12.9848370865
 20
-25.0426325625
 11
12.163580288
 21
-25.5191595524
  0
LINE
  5
2F1
100
AcDbEntity
  8
0
100
AcDbLine
 62
7
  6
CONTINUOUS
 10
12.9848370865
 20
-25.0426325625
 11
12.163580288
 21
-25.5191595524
  0
LINE
  5
2F2
100
AcDbEntity
  8
ASSI
100
AcDbLine
 62
250
  6
CONTINUOUS
 10
13.0395266736
 20
-24.9646332963
 11
12.1233123482
 21
-25.4959093486
  0
LINE
  5
2F3
100
AcDbEntity
  8
0
100
AcDbLine
 62
250
  6
CONTINUOUS
 10
13.0395266736
 20
-24.9646332963
 11
12.1233123482
 21
-25.4959093486
  0
LINE
  5
2F4
100
AcDbEntity
  8
ASSI
100
AcDbLine
 62
7
  6
CONTINUOUS
 10
7.3021356089
 20
-22.7122223229
 11
10.8050277989
 21
-20.9246711819
  0
LINE
  5
2F5
100
AcDbEntity
  8
0
100
AcDbLine
 62
7
  6
CONTINUOUS
 10
7.3021356089
 20
-22.7122223229
 11
10.8050277989
 21
-20.9246711819
  0
LINE
  5
2F6
100
AcDbEntity
  8
RACCORDO
100
AcDbLine
 62
7
  6
CONTINUOUS
 10
29.6454518012
 20
-37.0828562927
 11
29.6454518012
 21
-1.8929873629
  0
LINE
  5
2F7
100
AcDbEntity
  8
SMUSSO
100
AcDbLine
 62
7
  6
CONTINUOUS
 10
48.0302281121
 20
5.8216309246
 11
-52.732488207
 21
64.0007604738
  0
LINE
  5
2F8
100
AcDbEntity
  8
SMUSSO
100
AcDbLine
 62
7
  6
CONTINUOUS
 10
48.7373348933
 20
7.0463757947
 11
-52.0253814258
 21
65.2255053439
  0
LINE
  5
2F9
100
AcDbEntity
  8
SMUSSO
100
AcDbLine
 62
7
  6
CONTINUOUS
 10
-50.964721254
 20
65.8379172339
 11
50.1515484557
 21
7.454689843
  0
LINE
  5
2FA
100
AcDbEntity
  8
ASSI
100
AcDbLine
 62
7
  6
CONTINUOUS
 10
-47.9596251298
 20
66.4300328133
 11
51.8133570872
 21
8.8223633304
  0
LINE
  5
2FB
100
AcDbEntity
  8
0
100
AcDbLine
 62
7
  6
CONTINUOUS
 10
-47.9596251298
 20
66.4300328133
 11
51.8133570872
 21
8.8223633304
  0
LINE
  5
2FC
100
AcDbEntity
  8
ASSI
100
AcDbLine
 62
7
  6
CONTINUOUS
 10
-46.7138804105
 20
65.9558148731
 11
52.6889327115
 21
8.5618763863
  0
LINE
  5
2FD
100
AcDbEntity
  8
0
100
AcDbLine
 62
7
  6
CONTINUOUS
 10
-46.7138804105
 20
65.9558148731
 11
52.6889327115
 21
8.5618763863
  0
LINE
  5
2FE
100
AcDbEntity
  8
ASSI
100
AcDbLine
 62
7
  6
CONTINUOUS
 10
23.3874747835
 20
-31.9996955657
 11
23.4582674659
 21
-31.8770790432
  0
LINE
  5
2FF
100
AcDbEntity
  8
0
100
AcDbLine
 62
7
  6
CONTINUOUS
 10
23.3874747835
 20
-31.9996955657
 11
23.4582674659
 21
-31.8770790432
  0
LINE
  5
300
100
AcDbEntity
  8
ASSI
100
AcDbLine
 62
7
  6
CONTINUOUS
 10
23.7057548393
 20
-31.8566534771
 11
23.8118208565
 21
-31.6729417465
  0
LINE
  5
301
100
AcDbEntity
  8
0
100
AcDbLine
 62
7
  6
CONTINUOUS
 10
23.7057548393
 20
-31.8566534771
 11
23.8118208565
 21
-31.6729417465
  0
LINE
  5
302
100
AcDbEntity
  8
ASSI
100
AcDbLine
 62
7
  6
CONTINUOUS
 10
24.0593082299
 20
-31.6525161804
 11
24.1653742471
 21
-31.4688044499
  0
LINE
  5
303
100
AcDbEntity
  8
0
100
AcDbLine
 62
7
  6
CONTINUOUS
 10
24.0593082299
 20
-31.6525161804
 11
24.1653742471
 21
-31.4688044499
  0
LINE
  5
304
100
AcDbEntity
  8
ASSI
100
AcDbLine
 62
7
  6
CONTINUOUS
 10
24.4128616205
 20
-31.4483788837
 11
24.5189276376
 21
-31.2646671532
  0
LINE
  5
305
100
AcDbEntity
  8
0
100
AcDbLine
 62
7
  6
CONTINUOUS
 10
24.4128616205
 20
-31.4483788837
 11
24.5189276376
 21
-31.2646671532
  0
LINE
  5
306
100
AcDbEntity
  8
ASSI
100
AcDbLine
 62
7
  6
CONTINUOUS
 10
24.7664150111
 20
-31.2442415871
 11
24.8724810282
 21
-31.0605298566
  0
LINE
  5
307
100
AcDbEntity
  8
0
100
AcDbLine
 62
7
  6
CONTINUOUS
 10
24.7664150111
 20
-31.2442415871
 11
24.8724810282
 21
-31.0605298566
  0
LINE
  5
308
100
AcDbEntity
  8
ASSI
100
AcDbLine
 62
7
  6
CONTINUOUS
 10
25.1199684017
 20
-31.0401042904
 11
25.2260344188
 21
-30.8563925599
  0
LINE
  5
309
100
AcDbEntity
  8
0
100
AcDbLine
 62
7
  6
CONTINUOUS
 10
25.1199684017
 20
-31.0401042904
 11
25.2260344188
 21
-30.8563925599
  0
LINE
  5
30A
100
AcDbEntity
  8
SMUSSO
100
AcDbLine
 62
250
  6
CONTINUOUS
 10
48.0302281121
 20
5.8216309246
 11
48.7373348933
 21
7.0463757947
  0
LINE
  5
30B
100
AcDbEntity
  8
ASSI
100
AcDbLine
 62
7
  6
CONTINUOUS
 10
23.4582674659
 20
-31.8770790432
 11
23.5996888221
 21
-31.7954241245
  0
LINE
  5
30C
100
AcDbEntity
  8
0
100
AcDbLine
 62
7
  6
CONTINUOUS
 10
23.4582674659
 20
-31.8770790432
 11
23.5996888221
 21
-31.7954241245
  0
LINE
  5
30D
100
AcDbEntity
  8
ASSI
100
AcDbLine
 62
7
  6
CONTINUOUS
 10
23.8118208565
 20
-31.6729417465
 11
23.9532422127
 21
-31.5912868279
  0
LINE
  5
30E
100
AcDbEntity
  8
0
100
AcDbLine
 62
7
  6
CONTINUOUS
 10
23.8118208565
 20
-31.6729417465
 11
23.9532422127
 21
-31.5912868279
  0
LINE
  5
30F
100
AcDbEntity
  8
ASSI
100
AcDbLine
 62
7
  6
CONTINUOUS
 10
24.1653742471
 20
-31.4688044499
 11
24.3067956033
 21
-31.3871495312
  0
LINE
  5
310
100
AcDbEntity
  8
0
100
AcDbLine
 62
7
  6
CONTINUOUS
 10
24.1653742471
 20
-31.4688044499
 11
24.3067956033
 21
-31.3871495312
  0
LINE
  5
311
100
AcDbEntity
  8
ASSI
100
AcDbLine
 62
7
  6
CONTINUOUS
 10
24.5189276376
 20
-31.2646671532
 11
24.6603489939
 21
-31.1830122346
  0
LINE
  5
312
100
AcDbEntity
  8
0
100
AcDbLine
 62
7
  6
CONTINUOUS
 10
24.5189276376
 20
-31.2646671532
 11
24.6603489939
 21
-31.1830122346
  0
LINE
  5
313
100
AcDbEntity
  8
ASSI
100
AcDbLine
 62
7
  6
CONTINUOUS
 10
24.8724810282
 20
-31.0605298566
 11
25.0139023845
 21
-30.9788749379
  0
LINE
  5
314
100
AcDbEntity
  8
0
100
AcDbLine
 62
7
  6
CONTINUOUS
 10
24.8724810282
 20
-31.0605298566
 11
25.0139023845
 21
-30.9788749379
  0
LINE
  5
315
100
AcDbEntity
  8
ASSI
100
AcDbLine
 62
7
  6
CONTINUOUS
 10
25.2260344188
 20
-30.8563925599
 11
25.3674557751
 21
-30.7747376412
  0
LINE
  5
316
100
AcDbEntity
  8
0
100
AcDbLine
 62
7
  6
CONTINUOUS
 10
25.2260344188
 20
-30.8563925599
 11
25.3674557751
 21
-30.7747376412
  0
LINE
  5
317
100
AcDbEntity
  8
ASSI
100
AcDbLine
 62
7
  6
CONTINUOUS
 10
23.1310797624
 20
-31.8516562939
 11
25.4010507777
 21
-30.6715391987
  0
LINE
  5
318
100
AcDbEntity
  8
0
100
AcDbLine
 62
7
  6
CONTINUOUS
 10
23.1310797624
 20
-31.8516562939
 11
25.4010507777
 21
-30.6715391987
  0
LINE
  5
319
100
AcDbEntity
  8
ASSI
100
AcDbLine
 62
7
  6
CONTINUOUS
 10
25.4750979306
 20
-30.6370954027
 11
26.7854521863
 21
-30.099633076
  0
LINE
  5
31A
100
AcDbEntity
  8
0
100
AcDbLine
 62
7
  6
CONTINUOUS
 10
25.4750979306
 20
-30.6370954027
 11
26.7854521863
 21
-30.099633076
  0
LINE
  5
31B
100
AcDbEntity
  8
ASSI
100
AcDbLine
 62
7
  6
CONTINUOUS
 10
27.2765620801
 20
-34.245205829
 11
27.3473547624
 21
-34.1225893065
  0
LINE
  5
31C
100
AcDbEntity
  8
0
100
AcDbLine
 62
7
  6
CONTINUOUS
 10
27.2765620801
 20
-34.245205829
 11
27.3473547624
 21
-34.1225893065
  0
LINE
  5
31D
100
AcDbEntity
  8
ASSI
100
AcDbLine
 62
7
  6
CONTINUOUS
 10
27.5948421358
 20
-34.1021637404
 11
27.700908153
 21
-33.9184520098
  0
LINE
  5
31E
100
AcDbEntity
  8
0
100
AcDbLine
 62
7
  6
CONTINUOUS
 10
27.5948421358
 20
-34.1021637404
 11
27.700908153
 21
-33.9184520098
  0
LINE
  5
31F
100
AcDbEntity
  8
ASSI
100
AcDbLine
 62
7
  6
CONTINUOUS
 10
27.9483955264
 20
-33.8980264437
 11
28.0544615436
 21
-33.7143147132
  0
LINE
  5
320
100
AcDbEntity
  8
0
100
AcDbLine
 62
7
  6
CONTINUOUS
 10
27.9483955264
 20
-33.8980264437
 11
28.0544615436
 21
-33.7143147132
  0
LINE
  5
321
100
AcDbEntity
  8
ASSI
100
AcDbLine
 62
7
  6
CONTINUOUS
 10
28.301948917
 20
-33.693889147
 11
28.4080149342
 21
-33.5101774165
  0
LINE
  5
322
100
AcDbEntity
  8
0
100
AcDbLine
 62
7
  6
CONTINUOUS
 10
28.301948917
 20
-33.693889147
 11
28.4080149342
 21
-33.5101774165
  0
LINE
  5
323
100
AcDbEntity
  8
ASSI
100
AcDbLine
 62
7
  6
CONTINUOUS
 10
28.6555023076
 20
-33.4897518504
 11
28.7615683248
 21
-33.3060401199
  0
LINE
  5
324
100
AcDbEntity
  8
0
100
AcDbLine
 62
7
  6
CONTINUOUS
 10
28.6555023076
 20
-33.4897518504
 11
28.7615683248
 21
-33.3060401199
  0
LINE
  5
325
100
AcDbEntity
  8
ASSI
100
AcDbLine
 62
7
  6
CONTINUOUS
 10
29.0090556982
 20
-33.2856145537
 11
29.1151217154
 21
-33.1019028232
  0
LINE
  5
326
100
AcDbEntity
  8
0
100
AcDbLine
 62
7
  6
CONTINUOUS
 10
29.0090556982
 20
-33.2856145537
 11
29.1151217154
 21
-33.1019028232
  0
LINE
  5
327
100
AcDbEntity
  8
ASSI
100
AcDbLine
 62
250
  6
CONTINUOUS
 10
28.9494292503
 20
-34.1508116462
 11
29.2853742152
 21
-33.8240580564
  0
LINE
  5
328
100
AcDbEntity
  8
0
100
AcDbLine
 62
250
  6
CONTINUOUS
 10
28.9494292503
 20
-34.1508116462
 11
29.2853742152
 21
-33.8240580564
  0
LINE
  5
329
100
AcDbEntity
  8
ASSI
100
AcDbLine
 62
7
  6
CONTINUOUS
 10
28.9533541449
 20
-34.1843468107
 11
29.3823384885
 21
-33.7670993778
  0
LINE
  5
32A
100
AcDbEntity
  8
0
100
AcDbLine
 62
7
  6
CONTINUOUS
 10
28.9533541449
 20
-34.1843468107
 11
29.3823384885
 21
-33.7670993778
  0
LINE
  5
32B
100
AcDbEntity
  8
ASSI
100
AcDbLine
 62
7
  6
CONTINUOUS
 10
29.647388036
 20
-33.1233211126
 11
27.6034969534
 21
-34.4339739274
  0
LINE
  5
32C
100
AcDbEntity
  8
0
100
AcDbLine
 62
7
  6
CONTINUOUS
 10
29.647388036
 20
-33.1233211126
 11
27.6034969534
 21
-34.4339739274
  0
LINE
  5
32D
100
AcDbEntity
  8
ASSI
100
AcDbLine
 62
7
  6
CONTINUOUS
 10
27.9280582505
 20
-34.6213715526
 11
29.6454518012
 21
-33.6125415588
  0
LINE
  5
32E
100
AcDbEntity
  8
0
100
AcDbLine
 62
7
  6
CONTINUOUS
 10
27.9280582505
 20
-34.6213715526
 11
29.6454518012
 21
-33.6125415588
  0
LINE
  5
32F
100
AcDbEntity
  8
ASSI
100
AcDbLine
 62
7
  6
CONTINUOUS
 10
28.8947397952
 20
-34.2288108358
 11
28.0734828647
 21
-34.7053379023
  0
LINE
  5
330
100
AcDbEntity
  8
0
100
AcDbLine
 62
7
  6
CONTINUOUS
 10
28.8947397952
 20
-34.2288108358
 11
28.0734828647
 21
-34.7053379023
  0
LINE
  5
331
100
AcDbEntity
  8
ASSI
100
AcDbLine
 62
250
  6
CONTINUOUS
 10
28.9494292503
 20
-34.1508116462
 11
28.0332149249
 21
-34.6820876985
  0
LINE
  5
332
100
AcDbEntity
  8
0
100
AcDbLine
 62
250
  6
CONTINUOUS
 10
28.9494292503
 20
-34.1508116462
 11
28.0332149249
 21
-34.6820876985
  0
LINE
  5
333
100
AcDbEntity
  8
ASSI
100
AcDbLine
 62
7
  6
CONTINUOUS
 10
27.3473547624
 20
-34.1225893065
 11
27.4887761186
 21
-34.0409343878
  0
LINE
  5
334
100
AcDbEntity
  8
0
100
AcDbLine
 62
7
  6
CONTINUOUS
 10
27.3473547624
 20
-34.1225893065
 11
27.4887761186
 21
-34.0409343878
  0
LINE
  5
335
100
AcDbEntity
  8
ASSI
100
AcDbLine
 62
7
  6
CONTINUOUS
 10
27.700908153
 20
-33.9184520098
 11
27.8423295092
 21
-33.8367970912
  0
LINE
  5
336
100
AcDbEntity
  8
0
100
AcDbLine
 62
7
  6
CONTINUOUS
 10
27.700908153
 20
-33.9184520098
 11
27.8423295092
 21
-33.8367970912
  0
LINE
  5
337
100
AcDbEntity
  8
ASSI
100
AcDbLine
 62
7
  6
CONTINUOUS
 10
28.0544615436
 20
-33.7143147132
 11
28.1958828998
 21
-33.6326597945
  0
LINE
  5
338
100
AcDbEntity
  8
0
100
AcDbLine
 62
7
  6
CONTINUOUS
 10
28.0544615436
 20
-33.7143147132
 11
28.1958828998
 21
-33.6326597945
  0
LINE
  5
339
100
AcDbEntity
  8
ASSI
100
AcDbLine
 62
7
  6
CONTINUOUS
 10
28.4080149342
 20
-33.5101774165
 11
28.5494362904
 21
-33.4285224979
  0
LINE
  5
33A
100
AcDbEntity
  8
0
100
AcDbLine
 62
7
  6
CONTINUOUS
 10
28.4080149342
 20
-33.5101774165
 11
28.5494362904
 21
-33.4285224979
  0
LINE
  5
33B
100
AcDbEntity
  8
ASSI
100
AcDbLine
 62
7
  6
CONTINUOUS
 10
28.7615683248
 20
-33.3060401199
 11
28.902989681
 21
-33.2243852012
  0
LINE
  5
33C
100
AcDbEntity
  8
0
100
AcDbLine
 62
7
  6
CONTINUOUS
 10
28.7615683248
 20
-33.3060401199
 11
28.902989681
 21
-33.2243852012
  0
LINE
  5
33D
100
AcDbEntity
  8
ASSI
100
AcDbLine
 62
7
  6
CONTINUOUS
 10
29.1151217154
 20
-33.1019028232
 11
29.2565430716
 21
-33.0202479045
  0
LINE
  5
33E
100
AcDbEntity
  8
0
100
AcDbLine
 62
7
  6
CONTINUOUS
 10
29.1151217154
 20
-33.1019028232
 11
29.2565430716
 21
-33.0202479045
  0
LINE
  5
33F
100
AcDbEntity
  8
ASSI
100
AcDbLine
 62
7
  6
CONTINUOUS
 10
29.3626090888
 20
-33.081477257
 11
27.3118320062
 21
-34.2655702423
  0
LINE
  5
340
100
AcDbEntity
  8
0
100
AcDbLine
 62
7
  6
CONTINUOUS
 10
29.3626090888
 20
-33.081477257
 11
27.3118320062
 21
-34.2655702423
  0
LINE
  5
341
100
AcDbEntity
  8
ASSI
100
AcDbLine
 62
250
  6
CONTINUOUS
 10
-47.9840317024
 20
66.4442551621
 11
-46.7138804105
 21
65.9558148731
  0
LINE
  5
342
100
AcDbEntity
  8
0
100
AcDbLine
 62
250
  6
CONTINUOUS
 10
-47.9840317024
 20
66.4442551621
 11
-46.7138804105
 21
65.9558148731
  0
LINE
  5
343
100
AcDbEntity
  8
ASSI
100
AcDbLine
 62
7
  6
CONTINUOUS
 10
-46.7209061838
 20
65.959225994
 11
-48.0880318278
 21
66.4953038268
  0
LINE
  5
344
100
AcDbEntity
  8
0
100
AcDbLine
 62
7
  6
CONTINUOUS
 10
-46.7209061838
 20
65.959225994
 11
-48.0880318278
 21
66.4953038268
  0
LINE
  5
345
100
AcDbEntity
  8
SMUSSO
100
AcDbLine
 62
7
  6
CONTINUOUS
 10
48.0302281121
 20
-66.0277534332
 11
48.0302281121
 21
5.8216309246
  0
LINE
  5
346
100
AcDbEntity
  8
SMUSSO
100
AcDbLine
 62
7
  6
CONTINUOUS
 10
49.4444416745
 20
-66.0277534332
 11
49.4444416745
 21
5.8216309246
  0
LINE
  5
347
100
AcDbEntity
  8
SMUSSO
100
AcDbLine
 62
7
  6
CONTINUOUS
 10
50.5051018462
 20
6.8423174079
 11
50.5051018462
 21
-65.4153415432
  0
LINE
  5
348
100
AcDbEntity
  8
0
100
AcDbLine
 62
250
  6
CONTINUOUS
 10
50.8657988847
 20
-58.2692426278
 11
50.8657988847
 21
-57.9454533772
  0
LINE
  5
349
100
AcDbEntity
  8
0
100
AcDbLine
 62
250
  6
CONTINUOUS
 10
50.8658780878
 20
-55.3473314667
 11
50.8658780878
 21
-55.6605588578
  0
LINE
  5
34A
100
AcDbEntity
  8
0
100
AcDbLine
 62
250
  6
CONTINUOUS
 10
50.8658780878
 20
-56.3429990069
 11
50.8658780878
 21
-56.6633574494
  0
LINE
  5
34B
100
AcDbEntity
  8
0
100
AcDbLine
 62
250
  6
CONTINUOUS
 10
50.8658780878
 20
-57.3075165731
 11
50.8658780878
 21
-57.6310380214
  0
LINE
  5
34C
100
AcDbEntity
  8
0
100
AcDbLine
 62
250
  6
CONTINUOUS
 10
50.8658780878
 20
-58.3893543863
 11
50.8658780878
 21
-58.7129223734
  0
LINE
  5
34D
100
AcDbEntity
  8
0
100
AcDbLine
 62
250
  6
CONTINUOUS
 10
50.8658780878
 20
-59.3133162409
 11
50.8658780878
 21
-59.6650516361
  0
LINE
  5
34E
100
AcDbEntity
  8
0
100
AcDbLine
 62
250
  6
CONTINUOUS
 10
51.4530943513
 20
-54.1134662986
 11
51.4530943513
 21
-53.9284237998
  0
LINE
  5
34F
100
AcDbEntity
  8
0
100
AcDbLine
 62
250
  6
CONTINUOUS
 10
51.6692694075
 20
-53.7998701751
 11
51.6692694075
 21
-53.9734783782
  0
LINE
  5
350
100
AcDbEntity
  8
ASSI
100
AcDbLine
 62
250
  6
CONTINUOUS
 10
52.5204689645
 20
7.6272236741
 11
52.732488207
 21
8.4864360552
  0
LINE
  5
351
100
AcDbEntity
  8
0
100
AcDbLine
 62
250
  6
CONTINUOUS
 10
52.5204689645
 20
7.6272236741
 11
52.732488207
 21
8.4864360552
  0
LINE
  5
352
100
AcDbEntity
  8
RACCORDO
100
AcDbLine
 62
250
  6
CONTINUOUS
 10
28.7969236638
 20
-37.5726911128
 11
29.6454107972
 21
-37.0827852761
  0
LINE
  5
353
100
AcDbEntity
  8
0
100
AcDbLine
 62
250
  6
CONTINUOUS
 10
51.7184134942
 20
-54.8515104873
 11
51.7184134942
 21
-55.1615160867
  0
LINE
  5
354
100
AcDbEntity
  8
0
100
AcDbLine
 62
250
  6
CONTINUOUS
 10
51.922314972
 20
-55.1058358249
 11
51.922314972
 21
-54.6648879884
  0
LINE
  5
355
100
AcDbEntity
  8
0
100
AcDbLine
 62
250
  6
CONTINUOUS
 10
52.1858230483
 20
-58.3841033574
 11
52.1858230483
 21
-58.098763325
  0
LINE
  5
356
100
AcDbEntity
  8
0
100
AcDbLine
 62
250
  6
CONTINUOUS
 10
52.1858230483
 20
-56.9819013864
 11
52.1858230483
 21
-56.6721407281
  0
LINE
  5
357
100
AcDbEntity
  8
0
100
AcDbLine
 62
250
  6
CONTINUOUS
 10
52.1858230483
 20
-56.2224223678
 11
52.1858230483
 21
-56.1770111075
  0
LINE
  5
358
100
AcDbEntity
  8
0
100
AcDbLine
 62
250
  6
CONTINUOUS
 10
52.1858230483
 20
-55.7255014115
 11
52.1858230483
 21
-55.4087493182
  0
LINE
  5
359
100
AcDbEntity
  8
0
100
AcDbLine
 62
250
  6
CONTINUOUS
 10
52.1858230483
 20
-55.3579060811
 11
52.1858230483
 21
-55.0376292857
  0
LINE
  5
35A
100
AcDbEntity
  8
0
100
AcDbLine
 62
250
  6
CONTINUOUS
 10
52.1858230483
 20
-54.4234574823
 11
52.1858230483
 21
-54.0821965842
  0
LINE
  5
35B
100
AcDbEntity
  8
0
100
AcDbLine
 62
250
  6
CONTINUOUS
 10
52.1858228718
 20
-52.857343044
 11
52.1858228718
 21
-53.168790926
  0
LINE
  5
35C
100
AcDbEntity
  8
0
100
AcDbLine
 62
250
  6
CONTINUOUS
 10
52.1858228718
 20
-53.6646299126
 11
52.1858228718
 21
-53.9871166009
  0
LINE
  5
35D
100
AcDbEntity
  8
0
100
AcDbLine
 62
250
  6
CONTINUOUS
 10
52.1858230483
 20
-57.1562079928
 11
52.1858230483
 21
-57.4799972434
  0
LINE
  5
35E
100
AcDbEntity
  8
ASSI
100
AcDbLine
 62
7
  6
CONTINUOUS
 10
52.5203561726
 20
7.5978049949
 11
52.5203561726
 21
-63.1087696802
  0
LINE
  5
35F
100
AcDbEntity
  8
0
100
AcDbLine
 62
7
  6
CONTINUOUS
 10
52.5203561726
 20
7.5978049949
 11
52.5203561726
 21
-63.1087696802
  0
LINE
  5
360
100
AcDbEntity
  8
ASSI
100
AcDbLine
 62
7
  6
CONTINUOUS
 10
52.732488207
 20
8.4864360552
 11
52.732488207
 21
-61.7927179366
  0
LINE
  5
361
100
AcDbEntity
  8
0
100
AcDbLine
 62
7
  6
CONTINUOUS
 10
52.732488207
 20
8.4864360552
 11
52.732488207
 21
-61.7927179366
  0
LINE
  5
362
100
AcDbEntity
  8
ASSI
100
AcDbLine
 62
7
  6
CONTINUOUS
 10
52.731929783
 20
-61.8005036681
 11
52.512683027
 21
-63.252542397
  0
LINE
  5
363
100
AcDbEntity
  8
0
100
AcDbLine
 62
7
  6
CONTINUOUS
 10
52.731929783
 20
-61.8005036681
 11
52.512683027
 21
-63.252542397
  0
LINE
  5
364
100
AcDbEntity
  8
ASSI
100
AcDbLine
 62
250
  6
CONTINUOUS
 10
52.5204689645
 20
-63.1370161165
 11
52.732488207
 21
-61.7927179366
  0
LINE
  5
365
100
AcDbEntity
  8
0
100
AcDbLine
 62
250
  6
CONTINUOUS
 10
52.5204689645
 20
-63.1370161165
 11
52.732488207
 21
-61.7927179366
  0
LINE
  5
366
100
AcDbEntity
  8
0
100
AcDbLine
 62
250
  6
CONTINUOUS
 10
51.5618846463
 20
-53.5277236822
 11
51.569684369
 21
-53.5230602107
  0
LINE
  5
367
100
AcDbEntity
  8
0
100
AcDbLine
 62
250
  6
CONTINUOUS
 10
51.6692694075
 20
-53.9734783782
 11
52.1858228718
 21
-53.6646299126
  0
LINE
  5
368
100
AcDbEntity
  8
0
100
AcDbLine
 62
250
  6
CONTINUOUS
 10
51.0907437808
 20
-54.3301165109
 11
51.4530943513
 21
-54.1134662986
  0
LINE
  5
369
100
AcDbEntity
  8
0
100
AcDbLine
 62
250
  6
CONTINUOUS
 10
52.1858228718
 20
-53.9871166009
 11
50.8812994497
 21
-54.7670940575
  0
LINE
  5
36A
100
AcDbEntity
  8
0
100
AcDbLine
 62
250
  6
CONTINUOUS
 10
52.1858230483
 20
-56.6721407281
 11
51.3239236101
 21
-57.117597977
  0
LINE
  5
36B
100
AcDbEntity
  8
0
100
AcDbLine
 62
250
  6
CONTINUOUS
 10
50.8658780878
 20
-57.6310380214
 11
52.1858230483
 21
-56.9819013864
  0
LINE
  5
36C
100
AcDbEntity
  8
0
100
AcDbLine
 62
250
  6
CONTINUOUS
 10
51.3239236101
 20
-57.117597977
 11
52.1858230483
 21
-56.2224223678
  0
LINE
  5
36D
100
AcDbEntity
  8
0
100
AcDbLine
 62
250
  6
CONTINUOUS
 10
51.5987153516
 20
-56.5489816694
 11
50.8658780878
 21
-57.3075165731
  0
LINE
  5
36E
100
AcDbEntity
  8
0
100
AcDbLine
 62
250
  6
CONTINUOUS
 10
50.8658780878
 20
-59.6650516361
 11
52.1858230483
 21
-58.3841033574
  0
LINE
  5
36F
100
AcDbEntity
  8
0
100
AcDbLine
 62
250
  6
CONTINUOUS
 10
52.1858230483
 20
-54.0821965842
 11
50.8658780878
 21
-55.3473314667
  0
LINE
  5
370
100
AcDbEntity
  8
0
100
AcDbLine
 62
250
  6
CONTINUOUS
 10
51.7744371939
 20
-58.4744061014
 11
50.8658780878
 21
-59.3133162409
  0
LINE
  5
371
100
AcDbEntity
  8
0
100
AcDbLine
 62
250
  6
CONTINUOUS
 10
51.922314972
 20
-54.6648879884
 11
52.1858230483
 21
-54.4234574823
  0
LINE
  5
372
100
AcDbEntity
  8
0
100
AcDbLine
 62
250
  6
CONTINUOUS
 10
51.2285651413
 20
-55.293177286
 11
51.7184134942
 21
-54.8515104873
  0
LINE
  5
373
100
AcDbEntity
  8
0
100
AcDbLine
 62
250
  6
CONTINUOUS
 10
52.1858230483
 20
-55.4087493182
 11
50.8658780878
 21
-56.3429990069
  0
LINE
  5
374
100
AcDbEntity
  8
0
100
AcDbLine
 62
250
  6
CONTINUOUS
 10
51.3275169305
 20
-56.3052080977
 11
52.1858230483
 21
-55.7255014115
  0
LINE
  5
375
100
AcDbEntity
  8
ASSI
100
AcDbLine
 62
250
  6
CONTINUOUS
 10
50.505540032
 20
-64.3547622044
 11
52.5203561726
 21
-63.1087696802
  0
LINE
  5
376
100
AcDbEntity
  8
0
100
AcDbLine
 62
250
  6
CONTINUOUS
 10
50.505540032
 20
-64.3547622044
 11
52.5203561726
 21
-63.1087696802
  0
LINE
  5
377
100
AcDbEntity
  8
ASSI
100
AcDbLine
 62
7
  6
CONTINUOUS
 10
50.5051018462
 20
-64.6848664841
 11
52.335410308
 21
-63.5529762761
  0
LINE
  5
378
100
AcDbEntity
  8
0
100
AcDbLine
 62
7
  6
CONTINUOUS
 10
50.5051018462
 20
-64.6848664841
 11
52.335410308
 21
-63.5529762761
  0
LINE
  5
379
100
AcDbEntity
  8
0
100
AcDbLine
 62
250
  6
CONTINUOUS
 10
50.8657988847
 20
-57.9454533772
 11
52.1858230483
 21
-57.1562079928
  0
LINE
  5
37A
100
AcDbEntity
  8
0
100
AcDbLine
 62
250
  6
CONTINUOUS
 10
52.1858230483
 20
-57.4799972434
 11
50.8657988847
 21
-58.2692426278
  0
LINE
  5
37B
100
AcDbEntity
  8
SMUSSO
100
AcDbLine
 62
250
  6
CONTINUOUS
 10
49.4444416745
 20
-66.0277534332
 11
50.5051018462
 21
-65.4153415432
  0
LINE
  5
37C
100
AcDbEntity
  8
RACCORDO
100
AcDbLine
 62
7
  6
CONTINUOUS
 10
49.2373590534
 20
-66.4854902943
 11
50.2980192252
 21
-65.8730784043
  0
ARC
  5
37D
100
AcDbEntity
  8
ASSI
100
AcDbCircle
 62
7
  6
CONTINUOUS
 10
-18.9856873372
 20
-6.4106278404
 40
0.3
100
AcDbArc
 50
300.108994761
 51
314.2001404186
  0
ARC
  5
37E
100
AcDbEntity
  8
ASSI
100
AcDbCircle
 62
7
  6
CONTINUOUS
 10
-3.075784893
 20
-15.5968063472
 40
0.3
100
AcDbArc
 50
300.1089804578
 51
314.2001409258
  0
ARC
  5
37F
100
AcDbEntity
  8
0
100
AcDbCircle
 62
7
  6
CONTINUOUS
 10
-18.9856873372
 20
-6.4106278404
 40
0.3
100
AcDbArc
 50
300.1089947038
 51
314.200140419
  0
ARC
  5
380
100
AcDbEntity
  8
0
100
AcDbCircle
 62
7
  6
CONTINUOUS
 10
-3.075784893
 20
-15.5968063472
 40
0.3
100
AcDbArc
 50
300.1089804062
 51
314.2001409262
  0
ARC
  5
381
100
AcDbEntity
  8
ASSI
100
AcDbCircle
 62
250
  6
CONTINUOUS
 10
-18.9448931403
 20
-6.5484478865
 40
0.170349471
100
AcDbArc
 50
339.0198146713
 51
345.0908549903
  0
ARC
  5
382
100
AcDbEntity
  8
0
100
AcDbCircle
 62
250
  6
CONTINUOUS
 10
-18.9448931402
 20
-6.5484478865
 40
0.1703494709
100
AcDbArc
 50
339.0198146641
 51
345.0908549882
  0
ARC
  5
383
100
AcDbEntity
  8
ASSI
100
AcDbCircle
 62
250
  6
CONTINUOUS
 10
-18.8850465003
 20
-6.5839409
 40
0.0998077296
100
AcDbArc
 50
300.115951143
 51
302.5102915556
  0
ARC
  5
384
100
AcDbEntity
  8
0
100
AcDbCircle
 62
250
  6
CONTINUOUS
 10
-18.8850465003
 20
-6.5839409001
 40
0.0998077296
100
AcDbArc
 50
300.1159511429
 51
302.5102915592
  0
ARC
  5
385
100
AcDbEntity
  8
ASSI
100
AcDbCircle
 62
7
  6
CONTINUOUS
 10
28.7440203929
 20
-33.96916289
 40
0.3
100
AcDbArc
 50
300.1089947609
 51
314.2001404186
  0
ARC
  5
386
100
AcDbEntity
  8
ASSI
100
AcDbCircle
 62
7
  6
CONTINUOUS
 10
12.8341176837
 20
-24.782984697
 40
0.3
100
AcDbArc
 50
300.1089804578
 51
314.2001409258
  0
ARC
  5
387
100
AcDbEntity
  8
0
100
AcDbCircle
 62
7
  6
CONTINUOUS
 10
28.7440203929
 20
-33.96916289
 40
0.3
100
AcDbArc
 50
300.1089947042
 51
314.200140419
  0
ARC
  5
388
100
AcDbEntity
  8
0
100
AcDbCircle
 62
7
  6
CONTINUOUS
 10
12.8341176837
 20
-24.782984697
 40
0.3
100
AcDbArc
 50
300.1089804062
 51
314.2001409262
  0
ARC
  5
389
100
AcDbEntity
  8
ASSI
100
AcDbCircle
 62
250
  6
CONTINUOUS
 10
28.7848145898
 20
-34.1069829361
 40
0.1703494709
100
AcDbArc
 50
339.01981467
 51
345.0908549898
  0
ARC
  5
38A
100
AcDbEntity
  8
0
100
AcDbCircle
 62
250
  6
CONTINUOUS
 10
28.7848145898
 20
-34.1069829361
 40
0.1703494709
100
AcDbArc
 50
339.0198146679
 51
345.0908549898
  0
ARC
  5
38B
100
AcDbEntity
  8
ASSI
100
AcDbCircle
 62
250
  6
CONTINUOUS
 10
28.8446612298
 20
-34.1424759497
 40
0.0998077296
100
AcDbArc
 50
300.115951143
 51
302.5102915769
  0
ARC
  5
38C
100
AcDbEntity
  8
0
100
AcDbCircle
 62
250
  6
CONTINUOUS
 10
28.8446612298
 20
-34.1424759497
 40
0.0998077296
100
AcDbArc
 50
300.1159511431
 51
302.5102915821
  0
SPLINE
  5
38D
100
AcDbEntity
  8
ASSI
100
AcDbSpline
 62
7
  6
CONTINUOUS
 70
0
 71
3
 72
10
 73
6
 74
0
 42
0.0000001
 43
0.0000001
 44
0.0000000001
 40
0.0
 40
0.0
 40
0.0
 40
0.0
 40
0.5286417693
 40
0.7679924232
 40
1.0
 40
1.0
 40
1.0
 40
1.0
 10
-48.0880315152
 20
66.4953006668
 30
0.0
 10
-48.1468817433
 20
66.5183861412
 30
0.0
 10
-48.2394200011
 20
66.5397461139
 30
0.0
 10
-48.3591309614
 20
66.5255773011
 30
0.0
 10
-48.4124281298
 20
66.5051196001
 30
0.0
 10
-48.4368638145
 20
66.4919808419
 30
0.0
  0
SPLINE
  5
38E
100
AcDbEntity
  8
ASSI
100
AcDbSpline
 62
7
  6
CONTINUOUS
 70
0
 71
3
 72
10
 73
6
 74
0
 42
0.0000001
 43
0.0000001
 44
0.0000000001
 40
0.0
 40
0.0
 40
0.0
 40
0.0
 40
0.2320078143
 40
0.4713585689
 40
1.0
 40
1.0
 40
1.0
 40
1.0
 10
52.3354100961
 20
-63.5529759929
 30
0.0
 10
52.359004776
 20
-63.5383826495
 30
0.0
 10
52.4033667137
 20
-63.502453744
 30
0.0
 10
52.4754852708
 20
-63.4058654042
 30
0.0
 10
52.5032509861
 20
-63.3150471389
 30
0.0
 10
52.5126804394
 20
-63.2525405413
 30
0.0
  0
SPLINE
  5
38F
100
AcDbEntity
  8
ASSI
100
AcDbSpline
 62
7
  6
CONTINUOUS
 70
0
 71
3
 72
9
 73
5
 74
0
 42
0.0000001
 43
0.0000001
 44
0.0000000001
 40
0.0
 40
0.0
 40
0.0
 40
0.0
 40
0.2419971751
 40
1.0
 40
1.0
 40
1.0
 40
1.0
 10
52.5126804394
 20
-63.2525405413
 30
0.0
 10
52.514074496
 20
-63.2432995247
 30
0.0
 10
52.5189997624
 20
-63.2049888679
 30
0.0
 10
52.5207078694
 20
-63.1662880975
 30
0.0
 10
52.5204689645
 20
-63.1370161165
 30
0.0
  0
SPLINE
  5
390
100
AcDbEntity
  8
ASSI
100
AcDbSpline
 62
250
  6
CONTINUOUS
 70
0
 71
3
 72
9
 73
5
 74
0
 42
0.0000001
 43
0.0000001
 44
0.0000000001
 40
0.0
 40
0.0
 40
0.0
 40
0.0
 40
0.4797910424
 40
1.0
 40
1.0
 40
1.0
 40
1.0
 10
-18.8314047272
 20
-6.6681082515
 30
0.0
 10
-18.8212550052
 20
-6.6616397784
 30
0.0
 10
-18.8024873933
 20
-6.6441237609
 30
0.0
 10
-18.79052504
 20
-6.6216191438
 30
0.0
 10
-18.7858371058
 20
-6.6094406742
 30
0.0
  0
SPLINE
  5
391
100
AcDbEntity
  8
ASSI
100
AcDbSpline
 62
250
  6
CONTINUOUS
 70
0
 71
3
 72
9
 73
5
 74
0
 42
0.0000001
 43
0.0000001
 44
0.0000000001
 40
0.0
 40
0.0
 40
0.0
 40
0.0
 40
0.4797910424
 40
1.0
 40
1.0
 40
1.0
 40
1.0
 10
28.898303003
 20
-34.2266433011
 30
0.0
 10
28.9084527249
 20
-34.220174828
 30
0.0
 10
28.9272203368
 20
-34.2026588105
 30
0.0
 10
28.9391826901
 20
-34.1801541935
 30
0.0
 10
28.9438706243
 20
-34.1679757238
 30
0.0
  0
SPLINE
  5
392
100
AcDbEntity
  8
ASSI
100
AcDbSpline
 62
250
  6
CONTINUOUS
 70
0
 71
3
 72
9
 73
5
 74
0
 42
0.0000001
 43
0.0000001
 44
0.0000000001
 40
0.0
 40
0.0
 40
0.0
 40
0.0
 40
0.2416065921
 40
1.0
 40
1.0
 40
1.0
 40
1.0
 10
-2.9250658742
 20
-15.8564536418
 30
0.0
 10
-2.9203911428
 20
-15.8537245188
 30
0.0
 10
-2.9019727763
 20
-15.8408230908
 30
0.0
 10
-2.8881833384
 20
-15.8219590334
 30
0.0
 10
-2.8807742118
 20
-15.8066681257
 30
0.0
  0
SPLINE
  5
393
100
AcDbEntity
  8
ASSI
100
AcDbSpline
 62
250
  6
CONTINUOUS
 70
0
 71
3
 72
9
 73
5
 74
0
 42
0.0000001
 43
0.0000001
 44
0.0000000001
 40
0.0
 40
0.0
 40
0.0
 40
0.0
 40
0.2431061738
 40
1.0
 40
1.0
 40
1.0
 40
1.0
 10
-2.8807742118
 20
-15.8066681257
 30
0.0
 10
-2.8797108158
 20
-15.8044734959
 30
0.0
 10
-2.8755669994
 20
-15.7953352951
 30
0.0
 10
-2.8723382524
 20
-15.7857896666
 30
0.0
 10
-2.8703759031
 20
-15.7784549464
 30
0.0
  0
SPLINE
  5
394
100
AcDbEntity
  8
ASSI
100
AcDbSpline
 62
250
  6
CONTINUOUS
 70
0
 71
3
 72
10
 73
6
 74
0
 42
0.0000001
 43
0.0000001
 44
0.0000000001
 40
0.0
 40
0.0
 40
0.0
 40
0.0
 40
0.360269124
 40
0.641576974
 40
1.0
 40
1.0
 40
1.0
 40
1.0
 10
13.0395266736
 20
-24.9646332963
 30
0.0
 10
13.0412392475
 20
-24.9684653388
 30
0.0
 10
13.0440109544
 20
-24.9755186873
 30
0.0
 10
13.0469692195
 20
-24.9864517582
 30
0.0
 10
13.0464422552
 20
-24.9952531409
 30
0.0
 10
13.0434467331
 20
-24.9981624737
 30
0.0
  0
SPLINE
  5
395
100
AcDbEntity
  8
ASSI
100
AcDbSpline
 62
250
  6
CONTINUOUS
 70
0
 71
3
 72
10
 73
6
 74
0
 42
0.0000001
 43
0.0000001
 44
0.0000000001
 40
0.0
 40
0.0
 40
0.0
 40
0.0
 40
0.360269124
 40
0.641576974
 40
1.0
 40
1.0
 40
1.0
 40
1.0
 10
-2.8703759031
 20
-15.7784549464
 30
0.0
 10
-2.8686633292
 20
-15.7822869889
 30
0.0
 10
-2.8658916223
 20
-15.7893403375
 30
0.0
 10
-2.8629333572
 20
-15.8002734083
 30
0.0
 10
-2.8634603215
 20
-15.809074791
 30
0.0
 10
-2.8664558436
 20
-15.8119841238
 30
0.0
  0
SPLINE
  5
396
100
AcDbEntity
  8
ASSI
100
AcDbSpline
 62
250
  6
CONTINUOUS
 70
0
 71
3
 72
9
 73
5
 74
0
 42
0.0000001
 43
0.0000001
 44
0.0000000001
 40
0.0
 40
0.0
 40
0.0
 40
0.0
 40
0.2416065921
 40
1.0
 40
1.0
 40
1.0
 40
1.0
 10
12.9848367025
 20
-25.0426319917
 30
0.0
 10
12.9895114339
 20
-25.0399028687
 30
0.0
 10
13.0079298004
 20
-25.0270014407
 30
0.0
 10
13.0217192383
 20
-25.0081373833
 30
0.0
 10
13.0291283649
 20
-24.9928464756
 30
0.0
  0
SPLINE
  5
397
100
AcDbEntity
  8
ASSI
100
AcDbSpline
 62
250
  6
CONTINUOUS
 70
0
 71
3
 72
9
 73
5
 74
0
 42
0.0000001
 43
0.0000001
 44
0.0000000001
 40
0.0
 40
0.0
 40
0.0
 40
0.0
 40
0.2431061738
 40
1.0
 40
1.0
 40
1.0
 40
1.0
 10
13.0291283649
 20
-24.9928464756
 30
0.0
 10
13.0301917609
 20
-24.9906518458
 30
0.0
 10
13.0343355773
 20
-24.981513645
 30
0.0
 10
13.0375643243
 20
-24.9719680164
 30
0.0
 10
13.0395266736
 20
-24.9646332963
 30
0.0
  0
SPLINE
  5
398
100
AcDbEntity
  8
ASSI
100
AcDbSpline
 62
7
  6
CONTINUOUS
 70
0
 71
3
 72
9
 73
5
 74
0
 42
0.0000001
 43
0.0000001
 44
0.0000000001
 40
0.0
 40
0.0
 40
0.0
 40
0.0
 40
0.2581555554
 40
1.0
 40
1.0
 40
1.0
 40
1.0
 10
-47.9840317024
 20
66.4442551621
 30
0.0
 10
-47.9926290952
 20
66.4493132282
 30
0.0
 10
-48.0262783286
 20
66.4683057581
 30
0.0
 10
-48.0613469032
 20
66.4848329601
 30
0.0
 10
-48.0880315152
 20
66.4953006668
 30
0.0
  0
SPLINE
  5
399
100
AcDbEntity
  8
ASSI
100
AcDbSpline
 62
7
  6
CONTINUOUS
 70
0
 71
3
 72
11
 73
7
 74
0
 42
0.0000001
 43
0.0000001
 44
0.0000000001
 40
0.0
 40
0.0
 40
0.0
 40
0.0
 40
0.2395913414
 40
0.4999945237
 40
0.7604006804
 40
1.0
 40
1.0
 40
1.0
 40
1.0
 10
52.5204689645
 20
7.6272236741
 30
0.0
 10
52.5213201704
 20
7.7403647982
 30
0.0
 10
52.4830480417
 20
7.9772066172
 30
0.0
 10
52.3390282052
 20
8.3094787488
 30
0.0
 10
52.1232793521
 20
8.6003423401
 30
0.0
 10
51.9373021532
 20
8.7519126245
 30
0.0
 10
51.8388915785
 20
8.8077503347
 30
0.0
  0
SPLINE
  5
39A
100
AcDbEntity
  8
ASSI
100
AcDbSpline
 62
250
  6
CONTINUOUS
 70
0
 71
3
 72
10
 73
6
 74
0
 42
0.0000001
 43
0.0000001
 44
0.0000000001
 40
0.0
 40
0.0
 40
0.0
 40
0.0
 40
0.3605942179
 40
0.6415344154
 40
1.0
 40
1.0
 40
1.0
 40
1.0
 10
28.9494292503
 20
-34.1508116462
 30
0.0
 10
28.9511441753
 20
-34.1546489304
 30
0.0
 10
28.953941246
 20
-34.1616946949
 30
0.0
 10
28.9568911138
 20
-34.1726411448
 30
0.0
 10
28.9563475485
 20
-34.1814333946
 30
0.0
 10
28.9533531626
 20
-34.1843473988
 30
0.0
  0
SPLINE
  5
39B
100
AcDbEntity
  8
ASSI
100
AcDbSpline
 62
250
  6
CONTINUOUS
 70
0
 71
3
 72
10
 73
6
 74
0
 42
0.0000001
 43
0.0000001
 44
0.0000000001
 40
0.0
 40
0.0
 40
0.0
 40
0.0
 40
0.3605942178
 40
0.6415344153
 40
1.0
 40
1.0
 40
1.0
 40
1.0
 10
-18.7802784798
 20
-6.5922765966
 30
0.0
 10
-18.7785635548
 20
-6.5961138808
 30
0.0
 10
-18.7757664841
 20
-6.6031596453
 30
0.0
 10
-18.7728166163
 20
-6.6141060952
 30
0.0
 10
-18.7733601816
 20
-6.622898345
 30
0.0
 10
-18.7763545675
 20
-6.6258123492
 30
0.0
  0
SPLINE
  5
39C
100
AcDbEntity
  8
0
100
AcDbSpline
 62
250
  6
CONTINUOUS
 70
0
 71
3
 72
12
 73
8
 74
0
 42
0.0000001
 43
0.0000001
 44
0.0000000001
 40
0.0
 40
0.0
 40
0.0
 40
0.0
 40
0.3333333333
 40
0.5
 40
0.6666666667
 40
0.8333333333
 40
1.0
 40
1.0
 40
1.0
 40
1.0
 10
51.0829726697
 20
-54.0811139333
 30
0.0
 10
51.0802263028
 20
-54.1105648297
 30
0.0
 10
51.0779285396
 20
-54.1538293755
 30
0.0
 10
51.0784500447
 20
-54.2094775719
 30
0.0
 10
51.0806345193
 20
-54.2503577135
 30
0.0
 10
51.0847859757
 20
-54.2906060894
 30
0.0
 10
51.0886477377
 20
-54.3169340857
 30
0.0
 10
51.0907437808
 20
-54.3301165109
 30
0.0
  0
SPLINE
  5
39D
100
AcDbEntity
  8
0
100
AcDbSpline
 62
250
  6
CONTINUOUS
 70
0
 71
3
 72
19
 73
15
 74
0
 42
0.0000001
 43
0.0000001
 44
0.0000000001
 40
0.0
 40
0.0
 40
0.0
 40
0.0
 40
0.1
 40
0.2
 40
0.25
 40
0.3
 40
0.4
 40
0.5
 40
0.6
 40
0.7
 40
0.75
 40
0.8
 40
0.9
 40
1.0
 40
1.0
 40
1.0
 40
1.0
 10
51.2480479641
 20
-53.799500569
 30
0.0
 10
51.2400681508
 20
-53.8044140165
 30
0.0
 10
51.2246039719
 20
-53.8153285181
 30
0.0
 10
51.2053325102
 20
-53.8321336576
 30
0.0
 10
51.190279687
 20
-53.8472372855
 30
0.0
 10
51.1754524869
 20
-53.8634925804
 30
0.0
 10
51.1577727503
 20
-53.8855497546
 30
0.0
 10
51.1379359813
 20
-53.9152337054
 30
0.0
 10
51.1207455457
 20
-53.9471802458
 30
0.0
 10
51.1089810872
 20
-53.9746243229
 30
0.0
 10
51.1009776138
 20
-53.9971112272
 30
0.0
 10
51.0940256642
 20
-54.0196105127
 30
0.0
 10
51.087253674
 20
-54.047855347
 30
0.0
 10
51.0840160532
 20
-54.069923162
 30
0.0
 10
51.0829723989
 20
-54.0811168366
 30
0.0
  0
SPLINE
  5
39E
100
AcDbEntity
  8
0
100
AcDbSpline
 62
250
  6
CONTINUOUS
 70
0
 71
3
 72
17
 73
13
 74
0
 42
0.0000001
 43
0.0000001
 44
0.0000000001
 40
0.0
 40
0.0
 40
0.0
 40
0.0
 40
0.1428571429
 40
0.2857142857
 40
0.3571428571
 40
0.4285714286
 40
0.5
 40
0.5714285714
 40
0.6428571429
 40
0.7142857143
 40
0.8571428571
 40
1.0
 40
1.0
 40
1.0
 40
1.0
 10
51.4530943513
 20
-53.9284237998
 30
0.0
 10
51.4526721236
 20
-53.9064610843
 30
0.0
 10
51.4494222394
 20
-53.8669393889
 30
0.0
 10
51.4401899508
 20
-53.8292687345
 30
0.0
 10
51.4290054972
 20
-53.8043571078
 30
0.0
 10
51.4185603198
 20
-53.7888295016
 30
0.0
 10
51.4053384696
 20
-53.7764513505
 30
0.0
 10
51.3893320456
 20
-53.7682161518
 30
0.0
 10
51.3708845422
 20
-53.7637944745
 30
0.0
 10
51.3432442574
 20
-53.7628785379
 30
0.0
 10
51.3039646255
 20
-53.7708039203
 30
0.0
 10
51.267500963
 20
-53.7875205673
 30
0.0
 10
51.248011733
 20
-53.7995228902
 30
0.0
  0
SPLINE
  5
39F
100
AcDbEntity
  8
0
100
AcDbSpline
 62
250
  6
CONTINUOUS
 70
0
 71
3
 72
17
 73
13
 74
0
 42
0.0000001
 43
0.0000001
 44
0.0000000001
 40
0.0
 40
0.0
 40
0.0
 40
0.0
 40
0.1
 40
0.2
 40
0.3
 40
0.4
 40
0.5
 40
0.6
 40
0.7
 40
0.8
 40
0.9
 40
1.0
 40
1.0
 40
1.0
 40
1.0
 10
51.7854339306
 20
-53.5498306864
 30
0.0
 10
51.7784405637
 20
-53.5571029447
 30
0.0
 10
51.7651393886
 20
-53.5719103592
 30
0.0
 10
51.746221248
 20
-53.5957582655
 30
0.0
 10
51.7287013651
 20
-53.6208594333
 30
0.0
 10
51.7129629823
 20
-53.6467469275
 30
0.0
 10
51.6993458406
 20
-53.6730133971
 30
0.0
 10
51.688058362
 20
-53.6994245861
 30
0.0
 10
51.6793091122
 20
-53.7262275844
 30
0.0
 10
51.6733512045
 20
-53.7524026218
 30
0.0
 10
51.6700004854
 20
-53.776939193
 30
0.0
 10
51.6692694075
 20
-53.7922636927
 30
0.0
 10
51.6692694075
 20
-53.7998701751
 30
0.0
  0
SPLINE
  5
3A0
100
AcDbEntity
  8
0
100
AcDbSpline
 62
250
  6
CONTINUOUS
 70
0
 71
3
 72
12
 73
8
 74
0
 42
0.0000001
 43
0.0000001
 44
0.0000000001
 40
0.0
 40
0.0
 40
0.0
 40
0.0
 40
0.1666666667
 40
0.3333333333
 40
0.5
 40
0.6666666667
 40
1.0
 40
1.0
 40
1.0
 40
1.0
 10
52.1858228718
 20
-53.168790926
 30
0.0
 10
52.1615600961
 20
-53.1914953055
 30
0.0
 10
52.1137381384
 20
-53.2365431817
 30
0.0
 10
52.043997571
 20
-53.3023985152
 30
0.0
 10
51.9759921931
 20
-53.3658354831
 30
0.0
 10
51.8878402049
 20
-53.4477632976
 30
0.0
 10
51.8251952337
 20
-53.5084974791
 30
0.0
 10
51.7854616244
 20
-53.549801908
 30
0.0
  0
SPLINE
  5
3A1
100
AcDbEntity
  8
0
100
AcDbSpline
 62
250
  6
CONTINUOUS
 70
0
 71
3
 72
10
 73
6
 74
0
 42
0.0000001
 43
0.0000001
 44
0.0000000001
 40
0.0
 40
0.0
 40
0.0
 40
0.0
 40
0.3333333333
 40
0.6666666667
 40
1.0
 40
1.0
 40
1.0
 40
1.0
 10
51.8285980779
 20
-53.1816099975
 30
0.0
 10
51.8696485624
 20
-53.1439228233
 30
0.0
 10
51.9509328715
 20
-53.0699914016
 30
0.0
 10
52.0700498149
 20
-52.9623912714
 30
0.0
 10
52.1476259611
 20
-52.8923725419
 30
0.0
 10
52.1858228718
 20
-52.857343044
 30
0.0
  0
SPLINE
  5
3A2
100
AcDbEntity
  8
0
100
AcDbSpline
 62
250
  6
CONTINUOUS
 70
0
 71
3
 72
16
 73
12
 74
0
 42
0.0000001
 43
0.0000001
 44
0.0000000001
 40
0.0
 40
0.0
 40
0.0
 40
0.0
 40
0.1111111111
 40
0.2222222222
 40
0.3333333333
 40
0.4444444444
 40
0.5555555556
 40
0.6666666667
 40
0.7777777778
 40
0.8888888889
 40
1.0
 40
1.0
 40
1.0
 40
1.0
 10
51.569684369
 20
-53.5230602107
 30
0.0
 10
51.5738478964
 20
-53.5083002882
 30
0.0
 10
51.5843674781
 20
-53.4790472354
 30
0.0
 10
51.6063090714
 20
-53.4351352348
 30
0.0
 10
51.6318275252
 20
-53.3941573518
 30
0.0
 10
51.6598296076
 20
-53.3556693071
 30
0.0
 10
51.6887662469
 20
-53.3203378365
 30
0.0
 10
51.7193411718
 20
-53.2863522482
 30
0.0
 10
51.7521223225
 20
-53.2527478721
 30
0.0
 10
51.7879762292
 20
-53.2186612118
 30
0.0
 10
51.8146905462
 20
-53.1943780704
 30
0.0
 10
51.8285980779
 20
-53.1816099977
 30
0.0
  0
SPLINE
  5
3A3
100
AcDbEntity
  8
0
100
AcDbSpline
 62
250
  6
CONTINUOUS
 70
0
 71
3
 72
30
 73
26
 74
0
 42
0.0000001
 43
0.0000001
 44
0.0000000001
 40
0.0
 40
0.0
 40
0.0
 40
0.0
 40
0.0526315789
 40
0.1052631579
 40
0.1578947368
 40
0.2105263158
 40
0.2631578947
 40
0.3157894737
 40
0.3684210526
 40
0.4210526316
 40
0.4736842105
 40
0.5263157895
 40
0.5789473684
 40
0.6315789474
 40
0.6842105263
 40
0.7368421053
 40
0.7894736842
 40
0.8157894737
 40
0.8421052632
 40
0.8684210526
 40
0.8947368421
 40
0.9210526316
 40
0.9473684211
 40
0.9736842105
 40
1.0
 40
1.0
 40
1.0
 40
1.0
 10
50.8951964176
 20
-53.9597220135
 30
0.0
 10
50.9012631544
 20
-53.9363319418
 30
0.0
 10
50.9183419221
 20
-53.8863729113
 30
0.0
 10
50.9606194516
 20
-53.7965664047
 30
0.0
 10
51.0160927548
 20
-53.7075325766
 30
0.0
 10
51.0815604189
 20
-53.6268318051
 30
0.0
 10
51.147123468
 20
-53.5646813223
 30
0.0
 10
51.2094630724
 20
-53.5183901754
 30
0.0
 10
51.2648805053
 20
-53.4855833101
 30
0.0
 10
51.3140307113
 20
-53.4635893754
 30
0.0
 10
51.3571852857
 20
-53.4504834807
 30
0.0
 10
51.3953106784
 20
-53.4444127167
 30
0.0
 10
51.4281645644
 20
-53.4439369267
 30
0.0
 10
51.4564475417
 20
-53.4478189666
 30
0.0
 10
51.4803482516
 20
-53.4551866539
 30
0.0
 10
51.5004900513
 20
-53.4651709407
 30
0.0
 10
51.5148234028
 20
-53.4744467229
 30
0.0
 10
51.5251562966
 20
-53.4819821002
 30
0.0
 10
51.5324347255
 20
-53.4876316202
 30
0.0
 10
51.5392480674
 20
-53.4931821863
 30
0.0
 10
51.5457271765
 20
-53.4986159702
 30
0.0
 10
51.5517352079
 20
-53.5045736741
 30
0.0
 10
51.5566656205
 20
-53.5112416949
 30
0.0
 10
51.5602056653
 20
-53.5188011163
 30
0.0
 10
51.5615200451
 20
-53.5246210312
 30
0.0
 10
51.5618846463
 20
-53.5277236822
 30
0.0
  0
SPLINE
  5
3A4
100
AcDbEntity
  8
0
100
AcDbSpline
 62
250
  6
CONTINUOUS
 70
0
 71
3
 72
15
 73
11
 74
0
 42
0.0000001
 43
0.0000001
 44
0.0000000001
 40
0.0
 40
0.0
 40
0.0
 40
0.0
 40
0.125
 40
0.25
 40
0.375
 40
0.5
 40
0.625
 40
0.75
 40
0.875
 40
1.0
 40
1.0
 40
1.0
 40
1.0
 10
50.8812994497
 20
-54.7670940575
 30
0.0
 10
50.8762522636
 20
-54.729794677
 30
0.0
 10
50.8669250374
 20
-54.6576335362
 30
0.0
 10
50.8564592657
 20
-54.5569891538
 30
0.0
 10
50.8497303272
 20
-54.4600884448
 30
0.0
 10
50.847118944
 20
-54.3646990004
 30
0.0
 10
50.8492174194
 20
-54.2677495115
 30
0.0
 10
50.8569543262
 20
-54.1681483855
 30
0.0
 10
50.8713746464
 20
-54.0656403019
 30
0.0
 10
50.8859203928
 20
-53.995441579
 30
0.0
 10
50.8951964176
 20
-53.9597220135
 30
0.0
  0
SPLINE
  5
3A5
100
AcDbEntity
  8
0
100
AcDbSpline
 62
7
  6
CONTINUOUS
 70
0
 71
3
 72
10
 73
6
 74
0
 42
0.0000001
 43
0.0000001
 44
0.0000000001
 40
0.0
 40
0.0
 40
0.0
 40
0.0
 40
0.5286417693
 40
0.7679924232
 40
1.0
 40
1.0
 40
1.0
 40
1.0
 10
-48.0880315152
 20
66.4953006668
 30
0.0
 10
-48.1468817433
 20
66.5183861412
 30
0.0
 10
-48.2394200011
 20
66.5397461139
 30
0.0
 10
-48.3591309614
 20
66.5255773011
 30
0.0
 10
-48.4124281298
 20
66.5051196001
 30
0.0
 10
-48.4368638145
 20
66.4919808419
 30
0.0
  0
SPLINE
  5
3A6
100
AcDbEntity
  8
0
100
AcDbSpline
 62
7
  6
CONTINUOUS
 70
0
 71
3
 72
10
 73
6
 74
0
 42
0.0000001
 43
0.0000001
 44
0.0000000001
 40
0.0
 40
0.0
 40
0.0
 40
0.0
 40
0.2320078143
 40
0.4713585689
 40
1.0
 40
1.0
 40
1.0
 40
1.0
 10
52.3354100961
 20
-63.5529759929
 30
0.0
 10
52.359004776
 20
-63.5383826495
 30
0.0
 10
52.4033667137
 20
-63.502453744
 30
0.0
 10
52.4754852708
 20
-63.4058654042
 30
0.0
 10
52.5032509861
 20
-63.3150471389
 30
0.0
 10
52.5126804394
 20
-63.2525405413
 30
0.0
  0
SPLINE
  5
3A7
100
AcDbEntity
  8
0
100
AcDbSpline
 62
250
  6
CONTINUOUS
 70
0
 71
3
 72
9
 73
5
 74
0
 42
0.0000001
 43
0.0000001
 44
0.0000000001
 40
0.0
 40
0.0
 40
0.0
 40
0.0
 40
0.2416065921
 40
1.0
 40
1.0
 40
1.0
 40
1.0
 10
-2.9250658742
 20
-15.8564536418
 30
0.0
 10
-2.9203911428
 20
-15.8537245188
 30
0.0
 10
-2.9019727763
 20
-15.8408230908
 30
0.0
 10
-2.8881833384
 20
-15.8219590334
 30
0.0
 10
-2.8807742118
 20
-15.8066681257
 30
0.0
  0
SPLINE
  5
3A8
100
AcDbEntity
  8
0
100
AcDbSpline
 62
250
  6
CONTINUOUS
 70
0
 71
3
 72
9
 73
5
 74
0
 42
0.0000001
 43
0.0000001
 44
0.0000000001
 40
0.0
 40
0.0
 40
0.0
 40
0.0
 40
0.2431061738
 40
1.0
 40
1.0
 40
1.0
 40
1.0
 10
-2.8807742118
 20
-15.8066681257
 30
0.0
 10
-2.8797108158
 20
-15.8044734959
 30
0.0
 10
-2.8755669994
 20
-15.7953352951
 30
0.0
 10
-2.8723382524
 20
-15.7857896666
 30
0.0
 10
-2.8703759031
 20
-15.7784549464
 30
0.0
  0
SPLINE
  5
3A9
100
AcDbEntity
  8
0
100
AcDbSpline
 62
7
  6
CONTINUOUS
 70
0
 71
3
 72
9
 73
5
 74
0
 42
0.0000001
 43
0.0000001
 44
0.0000000001
 40
0.0
 40
0.0
 40
0.0
 40
0.0
 40
0.2419971751
 40
1.0
 40
1.0
 40
1.0
 40
1.0
 10
52.5126804394
 20
-63.2525405413
 30
0.0
 10
52.514074496
 20
-63.2432995247
 30
0.0
 10
52.5189997624
 20
-63.2049888679
 30
0.0
 10
52.5207078694
 20
-63.1662880975
 30
0.0
 10
52.5204689645
 20
-63.1370161165
 30
0.0
  0
SPLINE
  5
3AA
100
AcDbEntity
  8
0
100
AcDbSpline
 62
250
  6
CONTINUOUS
 70
0
 71
3
 72
9
 73
5
 74
0
 42
0.0000001
 43
0.0000001
 44
0.0000000001
 40
0.0
 40
0.0
 40
0.0
 40
0.0
 40
0.2416065921
 40
1.0
 40
1.0
 40
1.0
 40
1.0
 10
12.9848367025
 20
-25.0426319917
 30
0.0
 10
12.9895114339
 20
-25.0399028687
 30
0.0
 10
13.0079298004
 20
-25.0270014407
 30
0.0
 10
13.0217192383
 20
-25.0081373833
 30
0.0
 10
13.0291283649
 20
-24.9928464756
 30
0.0
  0
SPLINE
  5
3AB
100
AcDbEntity
  8
0
100
AcDbSpline
 62
250
  6
CONTINUOUS
 70
0
 71
3
 72
9
 73
5
 74
0
 42
0.0000001
 43
0.0000001
 44
0.0000000001
 40
0.0
 40
0.0
 40
0.0
 40
0.0
 40
0.2431061738
 40
1.0
 40
1.0
 40
1.0
 40
1.0
 10
13.0291283649
 20
-24.9928464756
 30
0.0
 10
13.0301917609
 20
-24.9906518458
 30
0.0
 10
13.0343355773
 20
-24.981513645
 30
0.0
 10
13.0375643243
 20
-24.9719680164
 30
0.0
 10
13.0395266736
 20
-24.9646332963
 30
0.0
  0
SPLINE
  5
3AC
100
AcDbEntity
  8
0
100
AcDbSpline
 62
250
  6
CONTINUOUS
 70
0
 71
3
 72
9
 73
5
 74
0
 42
0.0000001
 43
0.0000001
 44
0.0000000001
 40
0.0
 40
0.0
 40
0.0
 40
0.0
 40
0.4797910424
 40
1.0
 40
1.0
 40
1.0
 40
1.0
 10
-18.8314047272
 20
-6.6681082515
 30
0.0
 10
-18.8212550053
 20
-6.6616397784
 30
0.0
 10
-18.8024873933
 20
-6.6441237609
 30
0.0
 10
-18.79052504
 20
-6.6216191439
 30
0.0
 10
-18.7858371058
 20
-6.6094406742
 30
0.0
  0
SPLINE
  5
3AD
100
AcDbEntity
  8
0
100
AcDbSpline
 62
250
  6
CONTINUOUS
 70
0
 71
3
 72
9
 73
5
 74
0
 42
0.0000001
 43
0.0000001
 44
0.0000000001
 40
0.0
 40
0.0
 40
0.0
 40
0.0
 40
0.4797910424
 40
1.0
 40
1.0
 40
1.0
 40
1.0
 10
28.898303003
 20
-34.2266433011
 30
0.0
 10
28.9084527249
 20
-34.220174828
 30
0.0
 10
28.9272203368
 20
-34.2026588105
 30
0.0
 10
28.9391826901
 20
-34.1801541935
 30
0.0
 10
28.9438706243
 20
-34.1679757238
 30
0.0
  0
SPLINE
  5
3AE
100
AcDbEntity
  8
0
100
AcDbSpline
 62
250
  6
CONTINUOUS
 70
0
 71
3
 72
10
 73
6
 74
0
 42
0.0000001
 43
0.0000001
 44
0.0000000001
 40
0.0
 40
0.0
 40
0.0
 40
0.0
 40
0.360269124
 40
0.641576974
 40
1.0
 40
1.0
 40
1.0
 40
1.0
 10
13.0395266736
 20
-24.9646332963
 30
0.0
 10
13.0412392475
 20
-24.9684653388
 30
0.0
 10
13.0440109544
 20
-24.9755186873
 30
0.0
 10
13.0469692195
 20
-24.9864517582
 30
0.0
 10
13.0464422552
 20
-24.9952531409
 30
0.0
 10
13.0434467331
 20
-24.9981624737
 30
0.0
  0
SPLINE
  5
3AF
100
AcDbEntity
  8
0
100
AcDbSpline
 62
250
  6
CONTINUOUS
 70
0
 71
3
 72
10
 73
6
 74
0
 42
0.0000001
 43
0.0000001
 44
0.0000000001
 40
0.0
 40
0.0
 40
0.0
 40
0.0
 40
0.360269124
 40
0.641576974
 40
1.0
 40
1.0
 40
1.0
 40
1.0
 10
-2.8703759031
 20
-15.7784549464
 30
0.0
 10
-2.8686633292
 20
-15.7822869889
 30
0.0
 10
-2.8658916223
 20
-15.7893403375
 30
0.0
 10
-2.8629333572
 20
-15.8002734083
 30
0.0
 10
-2.8634603215
 20
-15.809074791
 30
0.0
 10
-2.8664558436
 20
-15.8119841238
 30
0.0
  0
SPLINE
  5
3B0
100
AcDbEntity
  8
0
100
AcDbSpline
 62
7
  6
CONTINUOUS
 70
0
 71
3
 72
9
 73
5
 74
0
 42
0.0000001
 43
0.0000001
 44
0.0000000001
 40
0.0
 40
0.0
 40
0.0
 40
0.0
 40
0.2581555554
 40
1.0
 40
1.0
 40
1.0
 40
1.0
 10
-47.9840317024
 20
66.4442551621
 30
0.0
 10
-47.9926290952
 20
66.4493132282
 30
0.0
 10
-48.0262783286
 20
66.4683057581
 30
0.0
 10
-48.0613469032
 20
66.4848329601
 30
0.0
 10
-48.0880315152
 20
66.4953006668
 30
0.0
  0
SPLINE
  5
3B1
100
AcDbEntity
  8
0
100
AcDbSpline
 62
7
  6
CONTINUOUS
 70
0
 71
3
 72
11
 73
7
 74
0
 42
0.0000001
 43
0.0000001
 44
0.0000000001
 40
0.0
 40
0.0
 40
0.0
 40
0.0
 40
0.2395913414
 40
0.4999945237
 40
0.7604006804
 40
1.0
 40
1.0
 40
1.0
 40
1.0
 10
52.5204689645
 20
7.6272236741
 30
0.0
 10
52.5213201704
 20
7.7403647982
 30
0.0
 10
52.4830480417
 20
7.9772066172
 30
0.0
 10
52.3390282052
 20
8.3094787488
 30
0.0
 10
52.1232793521
 20
8.6003423401
 30
0.0
 10
51.9373021532
 20
8.7519126245
 30
0.0
 10
51.8388915785
 20
8.8077503347
 30
0.0
  0
SPLINE
  5
3B2
100
AcDbEntity
  8
0
100
AcDbSpline
 62
250
  6
CONTINUOUS
 70
0
 71
3
 72
10
 73
6
 74
0
 42
0.0000001
 43
0.0000001
 44
0.0000000001
 40
0.0
 40
0.0
 40
0.0
 40
0.0
 40
0.3605942181
 40
0.6415344154
 40
1.0
 40
1.0
 40
1.0
 40
1.0
 10
28.9494292503
 20
-34.1508116462
 30
0.0
 10
28.9511441753
 20
-34.1546489304
 30
0.0
 10
28.953941246
 20
-34.1616946949
 30
0.0
 10
28.9568911138
 20
-34.1726411448
 30
0.0
 10
28.9563475485
 20
-34.1814333946
 30
0.0
 10
28.9533531625
 20
-34.1843473988
 30
0.0
  0
SPLINE
  5
3B3
100
AcDbEntity
  8
0
100
AcDbSpline
 62
250
  6
CONTINUOUS
 70
0
 71
3
 72
10
 73
6
 74
0
 42
0.0000001
 43
0.0000001
 44
0.0000000001
 40
0.0
 40
0.0
 40
0.0
 40
0.0
 40
0.3605942181
 40
0.6415344154
 40
1.0
 40
1.0
 40
1.0
 40
1.0
 10
-18.7802784798
 20
-6.5922765966
 30
0.0
 10
-18.7785635548
 20
-6.5961138808
 30
0.0
 10
-18.7757664841
 20
-6.6031596453
 30
0.0
 10
-18.7728166163
 20
-6.6141060952
 30
0.0
 10
-18.7733601816
 20
-6.622898345
 30
0.0
 10
-18.7763545676
 20
-6.6258123492
 30
0.0
  0
SPLINE
  5
3B4
100
AcDbEntity
  8
SMUSSO
100
AcDbSpline
 62
7
  6
CONTINUOUS
 70
0
 71
3
 72
11
 73
7
 74
0
 42
0.0000001
 43
0.0000001
 44
0.0000000001
 40
0.0
 40
0.0
 40
0.0
 40
0.0
 40
0.2177671711
 40
0.4509440243
 40
0.7101952095
 40
1.0
 40
1.0
 40
1.0
 40
1.0
 10
-51.4647454142
 20
65.8874584116
 30
0.0
 10
-51.4317601332
 20
65.9065037107
 30
0.0
 10
-51.3559634834
 20
65.9340324183
 30
0.0
 10
-51.230083329
 20
65.9371822356
 30
0.0
 10
-51.0958986831
 20
65.9048184155
 30
0.0
 10
-51.0086181086
 20
65.8632627276
 30
0.0
 10
-50.964721254
 20
65.8379172339
 30
0.0
  0
SPLINE
  5
3B5
100
AcDbEntity
  8
SMUSSO
100
AcDbSpline
 62
7
  6
CONTINUOUS
 70
0
 71
3
 72
11
 73
7
 74
0
 42
0.0000001
 43
0.0000001
 44
0.0000000001
 40
0.0
 40
0.0
 40
0.0
 40
0.0
 40
0.2177702367
 40
0.4509592576
 40
0.7101782618
 40
1.0
 40
1.0
 40
1.0
 40
1.0
 10
-52.5254044397
 20
65.2750440775
 30
0.0
 10
-52.5583850627
 20
65.2560014841
 30
0.0
 10
-52.6201139778
 20
65.2041290331
 30
0.0
 10
-52.6857749522
 20
65.0967094531
 30
0.0
 10
-52.7248203627
 20
64.9643386031
 30
0.0
 10
-52.7324882069
 20
64.8679932802
 30
0.0
 10
-52.732488207
 20
64.8173096604
 30
0.0
  0
SPLINE
  5
3B6
100
AcDbEntity
  8
RACCORDO
100
AcDbSpline
 62
7
  6
CONTINUOUS
 70
0
 71
3
 72
11
 73
7
 74
0
 42
0.0000001
 43
0.0000001
 44
0.0000000001
 40
0.0
 40
0.0
 40
0.0
 40
0.0
 40
0.217767124
 40
0.4509439365
 40
0.7101951399
 40
1.0
 40
1.0
 40
1.0
 40
1.0
 10
-34.0992127509
 20
35.6051475666
 30
0.0
 10
-34.0596304223
 20
35.6280019206
 30
0.0
 10
-33.9686744623
 20
35.6610363657
 30
0.0
 10
-33.8176182923
 20
35.6648161628
 30
0.0
 10
-33.6565967054
 20
35.6259795819
 30
0.0
 10
-33.5518599969
 20
35.5761127532
 30
0.0
 10
-33.4991837587
 20
35.5456981534
 30
0.0
  0
SPLINE
  5
3B7
100
AcDbEntity
  8
SMUSSO
100
AcDbSpline
 62
7
  6
CONTINUOUS
 70
0
 71
3
 72
11
 73
7
 74
0
 42
0.0000001
 43
0.0000001
 44
0.0000000001
 40
0.0
 40
0.0
 40
0.0
 40
0.0
 40
0.2372289802
 40
0.5000061088
 40
0.7627799118
 40
1.0
 40
1.0
 40
1.0
 40
1.0
 10
50.1515484557
 20
7.454689843
 30
0.0
 10
50.2017398085
 20
7.4257099848
 30
0.0
 10
50.2967280634
 20
7.3457663799
 30
0.0
 10
50.4075907646
 20
7.1942631465
 30
0.0
 10
50.4833644508
 20
7.0225037304
 30
0.0
 10
50.5051018462
 20
6.9002721512
 30
0.0
 10
50.5051018462
 20
6.8423174079
 30
0.0
  0
SPLINE
  5
3B8
100
AcDbEntity
  8
RACCORDO
100
AcDbSpline
 62
7
  6
CONTINUOUS
 70
0
 71
3
 72
11
 73
7
 74
0
 42
0.0000001
 43
0.0000001
 44
0.0000000001
 40
0.0
 40
0.0
 40
0.0
 40
0.0
 40
0.2372223812
 40
0.5000061068
 40
0.7627865084
 40
1.0
 40
1.0
 40
1.0
 40
1.0
 10
28.7969236638
 20
-0.4232935187
 30
0.0
 10
28.9173796032
 20
-0.4928432685
 30
0.0
 10
29.1453505739
 20
-0.684708029
 30
0.0
 10
29.4114310575
 20
-1.0483142086
 30
0.0
 10
29.5932815374
 20
-1.4605446785
 30
0.0
 10
29.6454518012
 20
-1.7538997968
 30
0.0
 10
29.6454518012
 20
-1.8929873629
 30
0.0
  0
SPLINE
  5
3B9
100
AcDbEntity
  8
SMUSSO
100
AcDbSpline
 62
7
  6
CONTINUOUS
 70
0
 71
3
 72
11
 73
7
 74
0
 42
0.0000001
 43
0.0000001
 44
0.0000000001
 40
0.0
 40
0.0
 40
0.0
 40
0.0
 40
0.2898288658
 40
0.5490499742
 40
0.7822376363
 40
1.0
 40
1.0
 40
1.0
 40
1.0
 10
48.7373348933
 20
-66.4359491166
 30
0.0
 10
48.7812350894
 20
-66.4612965394
 30
0.0
 10
48.8685204631
 20
-66.5028365189
 30
0.0
 10
49.0027002279
 20
-66.5352160861
 30
0.0
 10
49.1285765436
 20
-66.5320610761
 30
0.0
 10
49.2043731794
 20
-66.5045328137
 30
0.0
 10
49.2373575098
 20
-66.4854880797
 30
0.0
  0
SPLINE
  5
3BA
100
AcDbEntity
  8
RACCORDO
100
AcDbSpline
 62
7
  6
CONTINUOUS
 70
0
 71
3
 72
11
 73
7
 74
0
 42
0.0000001
 43
0.0000001
 44
0.0000000001
 40
0.0
 40
0.0
 40
0.0
 40
0.0
 40
0.2897993086
 40
0.5490484826
 40
0.7822275283
 40
1.0
 40
1.0
 40
1.0
 40
1.0
 10
29.6454518012
 20
-37.0828562927
 30
0.0
 10
29.6454518012
 20
-37.1436722946
 30
0.0
 10
29.6362678461
 20
-37.2592911924
 30
0.0
 10
29.5893948622
 20
-37.4181324106
 30
0.0
 10
29.510604436
 20
-37.547042252
 30
0.0
 10
29.436530039
 20
-37.6092890276
 30
0.0
 10
29.396952656
 20
-37.632140526
 30
0.0
  0
SPLINE
  5
3BB
100
AcDbEntity
  8
RACCORDO
100
AcDbSpline
 62
7
  6
CONTINUOUS
 70
0
 71
3
 72
11
 73
7
 74
0
 42
0.0000001
 43
0.0000001
 44
0.0000000001
 40
0.0
 40
0.0
 40
0.0
 40
0.0
 40
0.2372134916
 40
0.4999938932
 40
0.7627776188
 40
1.0
 40
1.0
 40
1.0
 40
1.0
 10
-32.2263915526
 20
1.0908181835
 30
0.0
 10
-32.2263915526
 20
0.9517306174
 30
0.0
 10
-32.1742212888
 20
0.6583754991
 30
0.0
 10
-31.9923708088
 20
0.2461450292
 30
0.0
 10
-31.7262903253
 20
-0.1174611504
 30
0.0
 10
-31.4983193545
 20
-0.3093259109
 30
0.0
 10
-31.3778634152
 20
-0.3788756607
 30
0.0
  0
SPLINE
  5
3BC
100
AcDbEntity
  8
SMUSSO
100
AcDbSpline
 62
7
  6
CONTINUOUS
 70
0
 71
3
 72
11
 73
7
 74
0
 42
0.0000001
 43
0.0000001
 44
0.0000000001
 40
0.0
 40
0.0
 40
0.0
 40
0.0
 40
0.289799239
 40
0.5490483965
 40
0.7822274816
 40
1.0
 40
1.0
 40
1.0
 40
1.0
 10
50.5051018462
 20
-65.4153415432
 30
0.0
 10
50.5051018462
 20
-65.4660215326
 30
0.0
 10
50.4974485559
 20
-65.5623705993
 30
0.0
 10
50.4583877431
 20
-65.6947382739
 30
0.0
 10
50.3927290599
 20
-65.8021631596
 30
0.0
 10
50.3310003848
 20
-65.8540354848
 30
0.0
 10
50.2980192252
 20
-65.8730784043
 30
0.0
  0
SPLINE
  5
3BD
100
AcDbEntity
  8
RACCORDO
100
AcDbSpline
 62
7
  6
CONTINUOUS
 70
0
 71
3
 72
11
 73
7
 74
0
 42
0.0000001
 43
0.0000001
 44
0.0000000001
 40
0.0
 40
0.0
 40
0.0
 40
0.0
 40
0.2897993086
 40
0.5490484826
 40
0.7822275283
 40
1.0
 40
1.0
 40
1.0
 40
1.0
 10
-34.3477118961
 20
35.0558633333
 30
0.0
 10
-34.3477118961
 20
35.1166793352
 30
0.0
 10
-34.338527941
 20
35.232298233
 30
0.0
 10
-34.2916549571
 20
35.3911394512
 30
0.0
 10
-34.2128645308
 20
35.5200492926
 30
0.0
 10
-34.1387901339
 20
35.5822960682
 30
0.0
 10
-34.0992127509
 20
35.6051475666
 30
0.0
  0
SPLINE
  5
3BE
100
AcDbEntity
  8
SMUSSO
100
AcDbSpline
 62
7
  6
CONTINUOUS
 70
0
 71
3
 72
11
 73
7
 74
0
 42
0.0000001
 43
0.0000001
 44
0.0000000001
 40
0.0
 40
0.0
 40
0.0
 40
0.0
 40
0.2897994248
 40
0.5490555345
 40
0.782229434
 40
1.0
 40
1.0
 40
1.0
 40
1.0
 10
-52.0253814258
 20
65.2255053439
 30
0.0
 10
-52.0692775409
 20
65.2508504109
 30
0.0
 10
-52.1565510662
 20
65.2924245618
 30
0.0
 10
-52.2907420404
 20
65.3247616131
 30
0.0
 10
-52.4166222293
 20
65.3216227005
 30
0.0
 10
-52.4924185824
 20
65.2940896932
 30
0.0
 10
-52.5254044397
 20
65.2750440775
 30
0.0
  0
SPLINE
  5
3BF
100
AcDbEntity
  8
RACCORDO
100
AcDbSpline
 62
7
  6
CONTINUOUS
 70
0
 71
3
 72
11
 73
7
 74
0
 42
0.0000001
 43
0.0000001
 44
0.0000000001
 40
0.0
 40
0.0
 40
0.0
 40
0.0
 40
0.217767124
 40
0.4509439365
 40
0.7101951399
 40
1.0
 40
1.0
 40
1.0
 40
1.0
 10
29.396952656
 20
-37.632140526
 30
0.0
 10
29.3573703274
 20
-37.6549948799
 30
0.0
 10
29.2664143675
 20
-37.688029325
 30
0.0
 10
29.1153581974
 20
-37.6918091222
 30
0.0
 10
28.9543366105
 20
-37.6529725412
 30
0.0
 10
28.849599902
 20
-37.6031057125
 30
0.0
 10
28.7969236638
 20
-37.5726911128
 30
0.0
  0
SPLINE
  5
3C0
100
AcDbEntity
  8
SMUSSO
100
AcDbSpline
 62
7
  6
CONTINUOUS
 70
0
 71
3
 72
11
 73
7
 74
0
 42
0.0000001
 43
0.0000001
 44
0.0000000001
 40
0.0
 40
0.0
 40
0.0
 40
0.0
 40
0.2177733798
 40
0.4509504049
 40
0.7102045303
 40
1.0
 40
1.0
 40
1.0
 40
1.0
 10
49.2373575098
 20
-66.4854880797
 30
0.0
 10
49.2703388308
 20
-66.4664450833
 30
0.0
 10
49.3320704158
 20
-66.4145750134
 30
0.0
 10
49.3977199653
 20
-66.3071452865
 30
0.0
 10
49.4368064524
 20
-66.1747850369
 30
0.0
 10
49.4444416745
 20
-66.0784328003
 30
0.0
 10
49.4444416745
 20
-66.0277534332
 30
0.0
  0
SPLINE
  5
3C1
100
AcDbEntity
  8
RACCORDO
100
AcDbSpline
 62
7
  6
CONTINUOUS
 70
0
 71
3
 72
11
 73
7
 74
0
 42
0.0000001
 43
0.0000001
 44
0.0000000001
 40
0.0
 40
0.0
 40
0.0
 40
0.0
 40
0.2372223812
 40
0.5000061068
 40
0.7627865084
 40
1.0
 40
1.0
 40
1.0
 40
1.0
 10
-33.4991837587
 20
-1.6036994406
 30
0.0
 10
-33.6196396981
 20
-1.5341496909
 30
0.0
 10
-33.8476106688
 20
-1.3422849304
 30
0.0
 10
-34.1136911524
 20
-0.9786787508
 30
0.0
 10
-34.2955416323
 20
-0.5664482808
 30
0.0
 10
-34.3477118961
 20
-0.2730931626
 30
0.0
 10
-34.3477118961
 20
-0.1340055965
 30
0.0
  0
SPLINE
  5
3C2
100
AcDbEntity
  8
SMUSSO
100
AcDbSpline
 62
7
  6
CONTINUOUS
 70
0
 71
3
 72
11
 73
7
 74
0
 42
0.0000001
 43
0.0000001
 44
0.0000000001
 40
0.0
 40
0.0
 40
0.0
 40
0.0
 40
0.2372223372
 40
0.5000061073
 40
0.7627865538
 40
1.0
 40
1.0
 40
1.0
 40
1.0
 10
49.7979950651
 20
7.6587876847
 30
0.0
 10
49.8983749958
 20
7.6008295706
 30
0.0
 10
50.088350808
 20
7.440942276
 30
0.0
 10
50.3100845647
 20
7.1379371116
 30
0.0
 10
50.4616266332
 20
6.7944116955
 30
0.0
 10
50.5051018462
 20
6.5499490975
 30
0.0
 10
50.5051018462
 20
6.4340428146
 30
0.0
  0
SPLINE
  5
3C3
100
AcDbEntity
  8
SMUSSO
100
AcDbSpline
 62
7
  6
CONTINUOUS
 70
0
 71
3
 72
11
 73
7
 74
0
 42
0.0000001
 43
0.0000001
 44
0.0000000001
 40
0.0
 40
0.0
 40
0.0
 40
0.0
 40
0.2372122791
 40
0.4999939823
 40
0.7627790924
 40
1.0
 40
1.0
 40
1.0
 40
1.0
 10
49.4444416745
 20
5.8216309246
 30
0.0
 10
49.444441675
 20
5.9375364888
 30
0.0
 10
49.4009627544
 20
6.1819979779
 30
0.0
 10
49.2494243029
 20
6.5255253299
 30
0.0
 10
49.0276858968
 20
6.8285268563
 30
0.0
 10
48.8377140907
 20
6.9884181043
 30
0.0
 10
48.7373348933
 20
7.0463757947
 30
0.0
  0
ELLIPSE
  5
3C4
100
AcDbEntity
  8
ASSI
100
AcDbEllipse
 62
7
  6
CONTINUOUS
 10
52.6878643983
 20
-61.7657191666
 30
0.0
 11
-0.0319307066
 21
0.0553022874
 31
0.0
 40
0.5636716562
 41
-2.5265818713
 42
-2.3682119497
  0
ELLIPSE
  5
3C5
100
AcDbEntity
  8
ASSI
100
AcDbEllipse
 62
7
  6
CONTINUOUS
 10
52.6878643983
 20
8.510967741
 30
0.0
 11
-0.0311754239
 21
0.0539936769
 31
0.0
 40
0.5913227191
 41
-2.3442738678
 42
-0.7974202594
  0
ELLIPSE
  5
3C6
100
AcDbEntity
  8
ASSI
100
AcDbEllipse
 62
7
  6
CONTINUOUS
 10
-46.7128120972
 20
65.9036725665
 30
0.0
 11
-0.0319307066
 21
0.0553022874
 31
0.0
 40
0.5636716562
 41
-0.7734729046
 42
-0.6150192183
  0
ELLIPSE
  5
3C7
100
AcDbEntity
  8
ASSI
100
AcDbEllipse
 62
7
  6
CONTINUOUS
 10
-1.2123380614
 20
-14.6729238958
 30
0.0
 11
0.2999993451
 21
0.1746271577
 31
0.0
 40
0.0035896273
 41
-0.7351277754
 42
-0.0020894543
  0
ELLIPSE
  5
3C8
100
AcDbEntity
  8
ASSI
100
AcDbEllipse
 62
7
  6
CONTINUOUS
 10
14.6975645153
 20
-23.8591022456
 30
0.0
 11
0.2999993451
 21
0.1746271577
 31
0.0
 40
0.0035896273
 41
-0.7351277754
 42
-0.0020894543
  0
ELLIPSE
  5
3C9
100
AcDbEntity
  8
ASSI
100
AcDbEllipse
 62
7
  6
CONTINUOUS
 10
-16.9844280319
 20
-5.4065099991
 30
0.0
 11
0.1999995634
 21
0.1164181051
 31
0.0
 40
0.0035896273
 41
-0.7351277754
 42
-0.6748017824
  0
ELLIPSE
  5
3CA
100
AcDbEntity
  8
ASSI
100
AcDbEllipse
 62
7
  6
CONTINUOUS
 10
26.9192783076
 20
-30.1845949626
 30
0.0
 11
0.1998333781
 21
-0.0157785196
 31
0.0
 40
0.5172961965
 41
0.8262203412
 42
2.3446567905
  0
ELLIPSE
  5
3CB
100
AcDbEntity
  8
ASSI
100
AcDbEllipse
 62
7
  6
CONTINUOUS
 10
-20.8104294225
 20
-2.626059913
 30
0.0
 11
0.1998333781
 21
-0.0157785196
 31
0.0
 40
0.5172961965
 41
0.8262203412
 42
2.3446567905
  0
ELLIPSE
  5
3CC
100
AcDbEntity
  8
ASSI
100
AcDbEllipse
 62
7
  6
CONTINUOUS
 10
11.0057669808
 20
-21.0532840627
 30
0.0
 11
0.2999972416
 21
-0.0022477848
 31
0.0
 40
0.5723275643
 41
0.7896864073
 42
2.3081228565
  0
ELLIPSE
  5
3CD
100
AcDbEntity
  8
ASSI
100
AcDbEllipse
 62
7
  6
CONTINUOUS
 10
-4.9041355959
 20
-11.8671057129
 30
0.0
 11
0.2999972416
 21
-0.0022477848
 31
0.0
 40
0.5723275643
 41
0.7896864073
 42
2.3081228565
  0
ELLIPSE
  5
3CE
100
AcDbEntity
  8
ASSI
100
AcDbEllipse
 62
7
  6
CONTINUOUS
 10
25.4010507777
 20
-31.4880094755
 30
0.0
 11
0.5413005334
 21
0.8416911418
 31
0.0
 40
0.6067084637
 41
0.7148472392
 42
0.8145158917
  0
ELLIPSE
  5
3CF
100
AcDbEntity
  8
ASSI
100
AcDbEllipse
 62
7
  6
CONTINUOUS
 10
-22.3286569524
 20
-3.9294744259
 30
0.0
 11
0.5413005334
 21
0.8416911418
 31
0.0
 40
0.6067084637
 41
0.7148472392
 42
0.8145158917
  0
ELLIPSE
  5
3D0
100
AcDbEntity
  8
ASSI
100
AcDbEllipse
 62
7
  6
CONTINUOUS
 10
-16.9844280319
 20
-4.8351451649
 30
0.0
 11
0.1998333781
 21
-0.0157785196
 31
0.0
 40
0.5172961965
 41
-0.692216108
 42
0.8262203412
  0
ELLIPSE
  5
3D1
100
AcDbEntity
  8
ASSI
100
AcDbEllipse
 62
7
  6
CONTINUOUS
 10
14.6975645153
 20
-23.1848816901
 30
0.0
 11
0.2999972416
 21
-0.0022477848
 31
0.0
 40
0.5723275643
 41
-0.728750042
 42
0.7896864073
  0
ELLIPSE
  5
3D2
100
AcDbEntity
  8
ASSI
100
AcDbEllipse
 62
7
  6
CONTINUOUS
 10
-1.2123380614
 20
-13.9987033402
 30
0.0
 11
0.2999972416
 21
-0.0022477848
 31
0.0
 40
0.5723275643
 41
-0.728750042
 42
0.7896864073
  0
ELLIPSE
  5
3D3
100
AcDbEntity
  8
ASSI
100
AcDbEllipse
 62
7
  6
CONTINUOUS
 10
-18.0823196941
 20
-6.3812563397
 30
0.0
 11
0.4625183445
 21
0.8873459255
 31
0.0
 40
0.5463614449
 41
0.662201126
 42
0.7618697785
  0
ELLIPSE
  5
3D4
100
AcDbEntity
  8
ASSI
100
AcDbEllipse
 62
7
  6
CONTINUOUS
 10
-47.039898348
 20
66.1077972516
 30
0.0
 11
1.1592455945
 21
-0.5090882972
 31
0.0
 40
0.0921189357
 41
-2.4809772198
 42
-2.4456474731
  0
ELLIPSE
  5
3D5
100
AcDbEntity
  8
ASSI
100
AcDbEllipse
 62
7
  6
CONTINUOUS
 10
52.7011034912
 20
8.518592838
 30
0.0
 11
1.1339988709
 21
-0.4970753424
 31
0.0
 40
0.0963242103
 41
-2.4267061945
 42
-2.3913764477
  0
ELLIPSE
  5
3D6
100
AcDbEntity
  8
ASSI
100
AcDbEllipse
 62
7
  6
CONTINUOUS
 10
52.7011034912
 20
8.518592838
 30
0.0
 11
0.1365023326
 21
1.2306519884
 31
0.0
 40
0.0962714138
 41
-3.8917430252
 42
-3.8564132784
  0
ELLIPSE
  5
3D7
100
AcDbEntity
  8
ASSI
100
AcDbEllipse
 62
7
  6
CONTINUOUS
 10
52.7011034912
 20
-62.1510552673
 30
0.0
 11
0.1387214801
 21
1.2585231556
 31
0.0
 40
0.0920685296
 41
-3.8374748546
 42
-3.8021451078
  0
ELLIPSE
  5
3D8
100
AcDbEntity
  8
0
100
AcDbEllipse
 62
7
  6
CONTINUOUS
 10
52.6878643983
 20
-61.7657191666
 30
0.0
 11
-0.0319307066
 21
0.0553022874
 31
0.0
 40
0.5636716562
 41
-2.5265818713
 42
-2.3682119497
  0
ELLIPSE
  5
3D9
100
AcDbEntity
  8
0
100
AcDbEllipse
 62
7
  6
CONTINUOUS
 10
52.6878643983
 20
8.510967741
 30
0.0
 11
-0.0311754239
 21
0.0539936769
 31
0.0
 40
0.5913227191
 41
-2.3442738678
 42
-0.7974202594
  0
ELLIPSE
  5
3DA
100
AcDbEntity
  8
0
100
AcDbEllipse
 62
7
  6
CONTINUOUS
 10
-46.7128120972
 20
65.9036725665
 30
0.0
 11
-0.0319307066
 21
0.0553022874
 31
0.0
 40
0.5636716562
 41
-0.7734729046
 42
-0.6150192183
  0
ELLIPSE
  5
3DB
100
AcDbEntity
  8
0
100
AcDbEllipse
 62
7
  6
CONTINUOUS
 10
-1.2123380614
 20
-14.6729238958
 30
0.0
 11
0.2999993451
 21
0.1746271577
 31
0.0
 40
0.0035896273
 41
-0.7351277754
 42
-0.0020894543
  0
ELLIPSE
  5
3DC
100
AcDbEntity
  8
0
100
AcDbEllipse
 62
7
  6
CONTINUOUS
 10
14.6975645153
 20
-23.8591022456
 30
0.0
 11
0.2999993451
 21
0.1746271577
 31
0.0
 40
0.0035896273
 41
-0.7351277754
 42
-0.0020894543
  0
ELLIPSE
  5
3DD
100
AcDbEntity
  8
0
100
AcDbEllipse
 62
7
  6
CONTINUOUS
 10
-16.9844280319
 20
-5.4065099991
 30
0.0
 11
0.1999995634
 21
0.1164181051
 31
0.0
 40
0.0035896273
 41
-0.7351277754
 42
-0.6748017824
  0
ELLIPSE
  5
3DE
100
AcDbEntity
  8
0
100
AcDbEllipse
 62
7
  6
CONTINUOUS
 10
26.9192783076
 20
-30.1845949626
 30
0.0
 11
0.1998333781
 21
-0.0157785196
 31
0.0
 40
0.5172961965
 41
0.8262203412
 42
2.3446567905
  0
ELLIPSE
  5
3DF
100
AcDbEntity
  8
0
100
AcDbEllipse
 62
7
  6
CONTINUOUS
 10
-20.8104294225
 20
-2.626059913
 30
0.0
 11
0.1998333781
 21
-0.0157785196
 31
0.0
 40
0.5172961965
 41
0.8262203412
 42
2.3446567905
  0
ELLIPSE
  5
3E0
100
AcDbEntity
  8
0
100
AcDbEllipse
 62
7
  6
CONTINUOUS
 10
11.0057669808
 20
-21.0532840627
 30
0.0
 11
0.2999972416
 21
-0.0022477848
 31
0.0
 40
0.5723275643
 41
0.7896864073
 42
2.3081228565
  0
ELLIPSE
  5
3E1
100
AcDbEntity
  8
0
100
AcDbEllipse
 62
7
  6
CONTINUOUS
 10
-4.9041355959
 20
-11.8671057129
 30
0.0
 11
0.2999972416
 21
-0.0022477848
 31
0.0
 40
0.5723275643
 41
0.7896864073
 42
2.3081228565
  0
ELLIPSE
  5
3E2
100
AcDbEntity
  8
0
100
AcDbEllipse
 62
7
  6
CONTINUOUS
 10
25.4010507777
 20
-31.4880094755
 30
0.0
 11
0.5413005334
 21
0.8416911418
 31
0.0
 40
0.6067084637
 41
0.7148472392
 42
0.8145158917
  0
ELLIPSE
  5
3E3
100
AcDbEntity
  8
0
100
AcDbEllipse
 62
7
  6
CONTINUOUS
 10
-22.3286569524
 20
-3.9294744259
 30
0.0
 11
0.5413005334
 21
0.8416911418
 31
0.0
 40
0.6067084637
 41
0.7148472392
 42
0.8145158917
  0
ELLIPSE
  5
3E4
100
AcDbEntity
  8
0
100
AcDbEllipse
 62
7
  6
CONTINUOUS
 10
-16.9844280319
 20
-4.8351451649
 30
0.0
 11
0.1998333781
 21
-0.0157785196
 31
0.0
 40
0.5172961965
 41
-0.692216108
 42
0.8262203412
  0
ELLIPSE
  5
3E5
100
AcDbEntity
  8
0
100
AcDbEllipse
 62
7
  6
CONTINUOUS
 10
14.6975645153
 20
-23.1848816901
 30
0.0
 11
0.2999972416
 21
-0.0022477848
 31
0.0
 40
0.5723275643
 41
-0.728750042
 42
0.7896864073
  0
ELLIPSE
  5
3E6
100
AcDbEntity
  8
0
100
AcDbEllipse
 62
7
  6
CONTINUOUS
 10
-1.2123380614
 20
-13.9987033402
 30
0.0
 11
0.2999972416
 21
-0.0022477848
 31
0.0
 40
0.5723275643
 41
-0.728750042
 42
0.7896864073
  0
ELLIPSE
  5
3E7
100
AcDbEntity
  8
0
100
AcDbEllipse
 62
7
  6
CONTINUOUS
 10
-18.0823196941
 20
-6.3812563397
 30
0.0
 11
0.4625183445
 21
0.8873459255
 31
0.0
 40
0.5463614449
 41
0.662201126
 42
0.7618697785
  0
ELLIPSE
  5
3E8
100
AcDbEntity
  8
0
100
AcDbEllipse
 62
7
  6
CONTINUOUS
 10
-47.039898348
 20
66.1077972516
 30
0.0
 11
1.1592455945
 21
-0.5090882972
 31
0.0
 40
0.0921189357
 41
-2.4809772198
 42
-2.4456474731
  0
ELLIPSE
  5
3E9
100
AcDbEntity
  8
0
100
AcDbEllipse
 62
7
  6
CONTINUOUS
 10
52.7011034912
 20
8.518592838
 30
0.0
 11
1.1339988709
 21
-0.4970753424
 31
0.0
 40
0.0963242103
 41
-2.4267061945
 42
-2.3913764477
  0
ELLIPSE
  5
3EA
100
AcDbEntity
  8
0
100
AcDbEllipse
 62
7
  6
CONTINUOUS
 10
52.7011034912
 20
8.518592838
 30
0.0
 11
0.1365023326
 21
1.2306519884
 31
0.0
 40
0.0962714138
 41
-3.8917430252
 42
-3.8564132784
  0
ELLIPSE
  5
3EB
100
AcDbEntity
  8
0
100
AcDbEllipse
 62
7
  6
CONTINUOUS
 10
52.7011034912
 20
-62.1510552673
 30
0.0
 11
0.1387214801
 21
1.2585231556
 31
0.0
 40
0.0920685296
 41
-3.8374748546
 42
-3.8021451078
  0
ENDSEC
  0
SECTION
  2
OBJECTS
  0
DICTIONARY
  5
C
100
AcDbDictionary
280
0
281
1
  3
ACAD_GROUP
350
D
  3
ACAD_MLINESTYLE
350
17
  3
ACAD_LAYOUT
350
1A
  3
ACAD_PLOTSETTINGS
350
19
  3
ACAD_PLOTSTYLENAME
350
E
  0
DICTIONARY
  5
D
102
{ACAD_REACTORS
330
C
102
}
100
AcDbDictionary
280
0
281
1
  0
ACDBDICTIONARYWDFLT
  5
E
102
{ACAD_REACTORS
330
C
102
}
100
AcDbDictionary
281
1
  3
Normal
350
F
100
AcDbDictionaryWithDefault
340
F
  0
DICTIONARY
  5
17
102
{ACAD_REACTORS
330
C
102
}
100
AcDbDictionary
280
0
281
1
  3
Standard
350
18
  0
DICTIONARY
  5
19
102
{ACAD_REACTORS
330
C
102
}
100
AcDbDictionary
281
1
  0
DICTIONARY
  5
1A
102
{ACAD_REACTORS
330
C
102
}
100
AcDbDictionary
281
1
  3
Model
350
3EC
  3
Layout1
350
3ED
  0
ACDBPLACEHOLDER
  5
F
102
{ACAD_REACTORS
330
E
102
}
  0
MLINESTYLE
  5
18
102
{ACAD_REACTORS
330
17
102
}
100
AcDbMlineStyle
  2
STANDARD
 70
0
  3

 62
256
 51
90.0
 52
90.0
 71
2
 49
0.5
 62
256
  6
BYLAYER
 49
-0.5
 62
256
  6
BYLAYER
  0
LAYOUT
  5
3EC
102
{ACAD_REACTORS
330
1A
102
}
100
AcDbPlotSettings
  1

  2
none_device
  4
ISO_A4_(297.00_x_210.00_MM)
  6

 40
0.0
 41
0.0
 42
0.0
 43
0.0
 44
297.0
 45
210.0
 46
0.0
 47
0.0
 48
0.0
 49
0.0
140
0.0
141
0.0
142
1.0
143
1.0
 70
1024
 72
1
 73
0
 74
0
  7

 75
0
147
1.0
148
0.0
149
0.0
100
AcDbLayout
  1
Model
 70
0
 71
0
 10
0.0
 20
0.0
 11
297.0
 21
210.0
 12
0.0
 22
0.0
 32
0.0
 14
0.0
 24
0.0
 34
0.0
 15
0.0
 25
0.0
 35
0.0
146
0.0
 13
0.0
 23
0.0
 33
0.0
 16
1.0
 26
0.0
 36
0.0
 17
0.0
 27
1.0
 37
0.0
 76
0
330
21C
345
0
346
0
  0
LAYOUT
  5
3ED
102
{ACAD_REACTORS
330
1A
102
}
100
AcDbPlotSettings
  1

  2
none_device
  4
ISO_A4_(297.00_x_210.00_MM)
  6

 40
0.0
 41
0.0
 42
0.0
 43
0.0
 44
297.0
 45
210.0
 46
0.0
 47
0.0
 48
0.0
 49
0.0
140
0.0
141
0.0
142
1.0
143
1.0
 70
0
 72
1
 73
0
 74
0
  7

 75
0
147
1.0
148
0.0
149
0.0
100
AcDbLayout
  1
Layout1
 70
0
 71
1
 10
0.0
 20
0.0
 11
297.0
 21
210.0
 12
0.0
 22
0.0
 32
0.0
 14
0.0
 24
0.0
 34
0.0
 15
0.0
 25
0.0
 35
0.0
146
0.0
 13
0.0
 23
0.0
 33
0.0
 16
1.0
 26
0.0
 36
0.0
 17
0.0
 27
1.0
 37
0.0
 76
0
330
21D
345
0
346
0
  0
ENDSEC
  0
EOF
