  0
SECTION
  2
HEADER
  9
$ACADVER
  1
AC1021
  9
$DWGCODEPAGE
  3
ANSI_1252
  9
$EXTMAX
 10
297.0
 20
210.0
 30
0.0
  9
$EXTMIN
 10
0.0
 20
0.0
 30
0.0
  9
$LIMMIN
 10
0.0
 20
0.0
  9
$LIMMAX
 10
297.0
 20
210.0
  9
$VIEWCTR
 10
148.5
 20
105.0
  9
$VIEWSIZE
 40
210.0
  9
$CLAYER
  8
0
  9
$LTSCALE
 40
16.335
  9
$CELTYPE
  6
BYLAYER
  9
$DIMSCALE
 40
1.0
  9
$DIMASZ
 40
3.0
  9
$DIMEXO
 40
0.5
  9
$DIMDLI
 40
11.286
  9
$DIMEXE
 40
1.5
  9
$DIMCEN
 40
2.673
  9
$DIMLFAC
 40
1.0
  9
$DIMBLK
  1
_FILLED
  9
$DIMALT
 70
0
  9
$DIMALTF
 40
25.4
  9
$DIMTXT
 40
3.0
  9
$DIMTOL
 70
1
  9
$DIMLIM
 70
0
  9
$DIMTFAC
 40
1.0
  9
$DIMTP
 40
0.01
  9
$DIMTM
 40
0.01
  9
$DIMGAP
 40
0.625
  9
$DIMDSEP
 70
44
  9
$AUNITS
 70
0
  9
$PDMODE
 70
3
  9
$PDSIZE
 40
3.0
  9
$HANDSEED
  5
3FD
  9
$TILEMODE
 70
1
  9
$MEASUREMENT
 70
1
  9
$INSUNITS
 70
4
  0
ENDSEC
  0
SECTION
  2
CLASSES
  0
CLASS
  1
ACDBDICTIONARYWDFLT
  2
AcDbDictionaryWithDefault
  3
AutoCAD 2000
 90
0
 91
1
280
0
281
0
  0
CLASS
  1
ACDBPLACEHOLDER
  2
AcDbPlaceHolder
  3
AutoCAD 2000
 90
0
 91
1
280
0
281
0
  0
CLASS
  1
LAYOUT
  2
AcDbLayout
  3
AutoCAD 2000
 90
0
 91
0
280
0
281
0
  0
ENDSEC
  0
SECTION
  2
TABLES
  0
TABLE
  2
VPORT
  5
8
100
AcDbSymbolTable
 70
2
  0
VPORT
  5
1F4
100
AcDbSymbolTableRecord
100
AcDbViewportTableRecord
  2
*ACTIVE
 70
0
 10
0.0
 20
0.0
 11
1.0
 21
1.0
 12
148.5
 22
105.0
 13
0.0
 23
0.0
 14
1.0
 24
1.0
 15
0.0
 25
0.0
 16
0.0
 26
0.0
 36
1.0
 17
0.0
 27
0.0
 37
0.0
 40
210.0
 41
1.4142857143
 42
50.0
 43
0.0
 44
0.0
 50
0.0
 51
0.0
 71
0
 72
100
 73
1
 74
1
 75
0
 76
0
 77
0
 78
0
  0
ENDTAB
  0
TABLE
  2
LTYPE
  5
5
100
AcDbSymbolTable
 70
6
  0
LTYPE
  5
14
100
AcDbSymbolTableRecord
100
AcDbLinetypeTableRecord
  2
BYBLOCK
 70
0
  3

 72
65
 73
0
 40
0.0
  0
LTYPE
  5
15
100
AcDbSymbolTableRecord
100
AcDbLinetypeTableRecord
  2
BYLAYER
 70
0
  3

 72
65
 73
0
 40
0.0
  0
LTYPE
  5
16
100
AcDbSymbolTableRecord
100
AcDbLinetypeTableRecord
  2
CONTINUOUS
 70
64
  3
Solid line
 72
65
 73
0
 40
0.0
  0
LTYPE
  5
1F5
100
AcDbSymbolTableRecord
100
AcDbLinetypeTableRecord
  2
CENTER
 70
64
  3
____ _ ____ _ ____ _ ____ _ ____ _ ____ _ ____
 72
65
 73
4
 40
0.6
 49
0.375
 74
0
 49
-0.075
 74
0
 49
0.075
 74
0
 49
-0.075
 74
0
  0
LTYPE
  5
1F6
100
AcDbSymbolTableRecord
100
AcDbLinetypeTableRecord
  2
HIDDEN
 70
64
  3
- - - - - - - - - - - - - - - - - - - -
 72
65
 73
2
 40
0.2
 49
0.1
 74
0
 49
-0.1
 74
0
  0
LTYPE
  5
1F7
100
AcDbSymbolTableRecord
100
AcDbLinetypeTableRecord
  2
PHANTOM
 70
64
  3
_____ _ _ _____ _ _ _____ _ _ _____
 72
65
 73
6
 40
0.8
 49
0.45
 74
0
 49
-0.05
 74
0
 49
0.1
 74
0
 49
-0.05
 74
0
 49
0.1
 74
0
 49
-0.05
 74
0
  0
LTYPE
  5
1F8
100
AcDbSymbolTableRecord
100
AcDbLinetypeTableRecord
  2
DOT
 70
64
  3
. . . . . . . . . . . . . . . . . . . .
 72
65
 73
2
 40
0.2
 49
0.1
 74
0
 49
-0.1
 74
0
  0
LTYPE
  5
1F9
100
AcDbSymbolTableRecord
100
AcDbLinetypeTableRecord
  2
DASHED
 70
64
  3
- - - - - - - - - - - - - - - - - - - -
 72
65
 73
2
 40
0.2
 49
0.1
 74
0
 49
-0.1
 74
0
  0
ENDTAB
  0
TABLE
  2
LAYER
  5
2
100
AcDbSymbolTable
 70
36
  0
LAYER
  5
10
100
AcDbSymbolTableRecord
100
AcDbLayerTableRecord
  2
0
 70
0
 62
7
  6
CONTINUOUS
370
-3
390
F
  0
LAYER
  5
1FA
100
AcDbSymbolTableRecord
100
AcDbLayerTableRecord
  2
DEFAULT_1
 70
0
 62
7
  6
CENTER
370
-3
390
F
  0
LAYER
  5
1FB
100
AcDbSymbolTableRecord
100
AcDbLayerTableRecord
  2
DEFAULT_2
 70
0
 62
7
  6
HIDDEN
370
-3
390
F
  0
LAYER
  5
1FC
100
AcDbSymbolTableRecord
100
AcDbLayerTableRecord
  2
DEFAULT_3
 70
0
 62
7
  6
PHANTOM
370
-3
390
F
  0
LAYER
  5
1FD
100
AcDbSymbolTableRecord
100
AcDbLayerTableRecord
  2
ASSI
 70
0
 62
7
  6
CONTINUOUS
370
-3
390
F
  0
LAYER
  5
1FE
100
AcDbSymbolTableRecord
100
AcDbLayerTableRecord
  2
COORDINATE
 70
0
 62
7
  6
CONTINUOUS
370
-3
390
F
  0
LAYER
  5
1FF
100
AcDbSymbolTableRecord
100
AcDbLayerTableRecord
  2
COORD_ORIGINE
 70
0
 62
7
  6
CONTINUOUS
370
-3
390
F
  0
LAYER
  5
200
100
AcDbSymbolTableRecord
100
AcDbLayerTableRecord
  2
COPY_PUBLISH
 70
0
 62
7
  6
CONTINUOUS
370
-3
390
F
  0
LAYER
  5
201
100
AcDbSymbolTableRecord
100
AcDbLayerTableRecord
  2
COSMETIC
 70
0
 62
7
  6
CONTINUOUS
370
-3
390
F
  0
LAYER
  5
202
100
AcDbSymbolTableRecord
100
AcDbLayerTableRecord
  2
COSMETICI
 70
0
 62
7
  6
CONTINUOUS
370
-3
390
F
  0
LAYER
  5
203
100
AcDbSymbolTableRecord
100
AcDbLayerTableRecord
  2
CURVA_TASSELLO
 70
0
 62
7
  6
CONTINUOUS
370
-3
390
F
  0
LAYER
  5
204
100
AcDbSymbolTableRecord
100
AcDbLayerTableRecord
  2
CURVE
 70
0
 62
7
  6
CONTINUOUS
370
-3
390
F
  0
LAYER
  5
205
100
AcDbSymbolTableRecord
100
AcDbLayerTableRecord
  2
DRAFT
 70
0
 62
7
  6
CONTINUOUS
370
-3
390
F
  0
LAYER
  5
206
100
AcDbSymbolTableRecord
100
AcDbLayerTableRecord
  2
IMPORT_IGES
 70
0
 62
7
  6
CONTINUOUS
370
-3
390
F
  0
LAYER
  5
207
100
AcDbSymbolTableRecord
100
AcDbLayerTableRecord
  2
INTFCLR_2
 70
0
 62
7
  6
CONTINUOUS
370
-3
390
F
  0
LAYER
  5
208
100
AcDbSymbolTableRecord
100
AcDbLayerTableRecord
  2
INTF_1
 70
0
 62
7
  6
CONTINUOUS
370
-3
390
F
  0
LAYER
  5
209
100
AcDbSymbolTableRecord
100
AcDbLayerTableRecord
  2
INTF_7
 70
0
 62
7
  6
CONTINUOUS
370
-3
390
F
  0
LAYER
  5
20A
100
AcDbSymbolTableRecord
100
AcDbLayerTableRecord
  2
LINEA_CHIUSURA
 70
0
 62
7
  6
CONTINUOUS
370
-3
390
F
  0
LAYER
  5
20B
100
AcDbSymbolTableRecord
100
AcDbLayerTableRecord
  2
NOTE
 70
0
 62
7
  6
CONTINUOUS
370
-3
390
F
  0
LAYER
  5
20C
100
AcDbSymbolTableRecord
100
AcDbLayerTableRecord
  2
PIANI
 70
0
 62
7
  6
CONTINUOUS
370
-3
390
F
  0
LAYER
  5
20D
100
AcDbSymbolTableRecord
100
AcDbLayerTableRecord
  2
PIANI_ORIGINE
 70
0
 62
7
  6
CONTINUOUS
370
-3
390
F
  0
LAYER
  5
20E
100
AcDbSymbolTableRecord
100
AcDbLayerTableRecord
  2
PIANI_RIFERIMENTO
 70
0
 62
7
  6
CONTINUOUS
370
-3
390
F
  0
LAYER
  5
20F
100
AcDbSymbolTableRecord
100
AcDbLayerTableRecord
  2
PUNTI
 70
0
 62
7
  6
CONTINUOUS
370
-3
390
F
  0
LAYER
  5
210
100
AcDbSymbolTableRecord
100
AcDbLayerTableRecord
  2
RACCORDO
 70
0
 62
7
  6
CONTINUOUS
370
-3
390
F
  0
LAYER
  5
211
100
AcDbSymbolTableRecord
100
AcDbLayerTableRecord
  2
RGB__255__255__255__
 70
0
 62
7
  6
CONTINUOUS
370
-3
390
F
  0
LAYER
  5
212
100
AcDbSymbolTableRecord
100
AcDbLayerTableRecord
  2
RGB____0____0____0__
 70
0
 62
7
  6
CONTINUOUS
370
-3
390
F
  0
LAYER
  5
213
100
AcDbSymbolTableRecord
100
AcDbLayerTableRecord
  2
SIMBOLI
 70
0
 62
7
  6
CONTINUOUS
370
-3
390
F
  0
LAYER
  5
214
100
AcDbSymbolTableRecord
100
AcDbLayerTableRecord
  2
SMUSSO
 70
0
 62
7
  6
CONTINUOUS
370
-3
390
F
  0
LAYER
  5
215
100
AcDbSymbolTableRecord
100
AcDbLayerTableRecord
  2
SNAPLINE
 70
0
 62
7
  6
CONTINUOUS
370
-3
390
F
  0
LAYER
  5
216
100
AcDbSymbolTableRecord
100
AcDbLayerTableRecord
  2
SUPERFICI
 70
0
 62
7
  6
CONTINUOUS
370
-3
390
F
  0
LAYER
  5
217
100
AcDbSymbolTableRecord
100
AcDbLayerTableRecord
  2
TRASH
 70
0
 62
7
  6
CONTINUOUS
370
-3
390
F
  0
LAYER
  5
218
100
AcDbSymbolTableRecord
100
AcDbLayerTableRecord
  2
XSEC_DATUMS
 70
0
 62
7
  6
CONTINUOUS
370
-3
390
F
  0
ENDTAB
  0
TABLE
  2
STYLE
  5
3
100
AcDbSymbolTable
 70
1
  0
STYLE
  5
11
100
AcDbSymbolTableRecord
100
AcDbTextStyleTableRecord
  2
STANDARD
 70
0
 40
0.0
 41
0.8
 50
0.0
 71
0
 42
0.2
  3
txt
  4

  0
STYLE
  5
219
100
AcDbSymbolTableRecord
100
AcDbTextStyleTableRecord
  2
TEXTSTYLE_1
 70
0
 40
0.0
 41
0.8
 50
0.0
 71
0
 42
0.2
  3
gdt
  4

  0
ENDTAB
  0
TABLE
  2
VIEW
  5
6
100
AcDbSymbolTable
 70
0
  0
ENDTAB
  0
TABLE
  2
UCS
  5
7
100
AcDbSymbolTable
 70
0
  0
ENDTAB
  0
TABLE
  2
APPID
  5
9
100
AcDbSymbolTable
 70
1
  0
APPID
  5
21A
100
AcDbSymbolTableRecord
100
AcDbRegAppTableRecord
  2
ACAD
 70
0
  0
ENDTAB
  0
TABLE
  2
BLOCK_RECORD
  5
1
100
AcDbSymbolTable
 70
0
  0
BLOCK_RECORD
  5
21B
100
AcDbSymbolTableRecord
100
AcDbBlockTableRecord
  2
*Model_Space
  0
BLOCK_RECORD
  5
21C
100
AcDbSymbolTableRecord
100
AcDbBlockTableRecord
  2
*Paper_Space
  0
BLOCK_RECORD
  5
21D
100
AcDbSymbolTableRecord
100
AcDbBlockTableRecord
  2
_FILLED
  0
ENDTAB
  0
TABLE
  2
DIMSTYLE
  5
A
100
AcDbSymbolTable
 70
1
100
AcDbDimStyleTable
 71
0
  0
DIMSTYLE
105
21E
100
AcDbSymbolTableRecord
100
AcDbDimStyleTableRecord
  2
STANDARD
 70
0
  3

  4

 40
1.0
 41
3.0
 42
0.5
 43
0.38
 44
1.5
 45
0.0
 46
0.0
 47
0.01
 48
0.01
140
3.0
141
0.09
142
0.0
143
25.4
144
1.0
145
0.0
146
1.0
147
0.625
 71
1.0
 72
0.0
 73
0
 74
0
 75
0
 76
0
 77
1
 78
8
 79
2
170
0
171
1
172
0
173
0
174
0
175
0
176
0
177
0
178
0
270
2
179
2
271
2
272
2
273
2
274
2
275
0
280
0
281
0
282
0
283
1
284
8
285
0
286
0
287
3
288
0
340
11
278
44
341
21D
342
21D
343
21D
344
21D
  0
ENDTAB
  0
ENDSEC
  0
SECTION
  2
BLOCKS
  0
BLOCK
  5
20
100
AcDbEntity
  8
0
100
AcDbBlockBegin
  2
*Model_Space
 70
0
 10
0.0
 20
0.0
 30
0.0
  3
*Model_Space
  1

  0
ENDBLK
  5
21
100
AcDbEntity
  8
0
100
AcDbBlockEnd
  0
BLOCK
  5
1C
100
AcDbEntity
  8
0
100
AcDbBlockBegin
  2
*Paper_Space
 70
0
 10
0.0
 20
0.0
 30
0.0
  3
*Paper_Space
  1

  0
ENDBLK
  5
1D
100
AcDbEntity
  8
0
100
AcDbBlockEnd
  0
BLOCK
  5
21F
100
AcDbEntity
  8
0
100
AcDbBlockBegin
  2
_FILLED
 70
64
 10
0.0
 20
0.0
  3
_FILLED
  1

  0
SOLID
  5
220
100
AcDbEntity
  8
0
  6
BYBLOCK
 62
0
100
AcDbTrace
 10
0.0
 20
0.0
 11
-1.0
 21
0.3166666667
 12
-1.0
 22
-0.3166666667
 13
-1.0
 23
-0.3166666667
  0
ENDBLK
  5
221
100
AcDbEntity
  8
0
  6
BYBLOCK
 62
0
100
AcDbBlockEnd
  0
ENDSEC
  0
SECTION
  2
ENTITIES
  0
LINE
  5
222
100
AcDbEntity
  8
0
100
AcDbLine
 62
7
  6
CONTINUOUS
 10
95.0430187907
 20
173.9953568438
 11
98.8308325778
 21
176.4989237351
  0
LINE
  5
223
100
AcDbEntity
  8
ASSI
100
AcDbLine
 62
7
  6
CONTINUOUS
 10
95.0430187907
 20
173.9953568438
 11
98.8308325778
 21
176.4989237351
  0
LINE
  5
224
100
AcDbEntity
  8
0
100
AcDbLine
 62
7
  6
CONTINUOUS
 10
95.75055606
 20
174.4038010376
 11
99.5383698471
 21
176.907367929
  0
LINE
  5
225
100
AcDbEntity
  8
ASSI
100
AcDbLine
 62
7
  6
CONTINUOUS
 10
95.75055606
 20
174.4038010376
 11
99.5383698471
 21
176.907367929
  0
LINE
  5
226
100
AcDbEntity
  8
0
100
AcDbLine
 62
7
  6
CONTINUOUS
 10
95.7297924458
 20
174.3909616867
 11
95.75055606
 21
174.4038010376
  0
LINE
  5
227
100
AcDbEntity
  8
ASSI
100
AcDbLine
 62
7
  6
CONTINUOUS
 10
95.7297924458
 20
174.3909616867
 11
95.75055606
 21
174.4038010376
  0
LINE
  5
228
100
AcDbEntity
  8
0
100
AcDbLine
 62
7
  6
CONTINUOUS
 10
98.8308325778
 20
176.4989237351
 11
99.5383698471
 21
176.907367929
  0
LINE
  5
229
100
AcDbEntity
  8
ASSI
100
AcDbLine
 62
7
  6
CONTINUOUS
 10
98.8308325778
 20
176.4989237351
 11
99.5383698471
 21
176.907367929
  0
LINE
  5
22A
100
AcDbEntity
  8
0
100
AcDbLine
 62
7
  6
CONTINUOUS
 10
95.7297924458
 20
174.3909616867
 11
95.0433940982
 21
173.9947204822
  0
LINE
  5
22B
100
AcDbEntity
  8
ASSI
100
AcDbLine
 62
7
  6
CONTINUOUS
 10
95.7297924458
 20
174.3909616867
 11
95.0433940982
 21
173.9947204822
  0
LINE
  5
22C
100
AcDbEntity
  8
0
100
AcDbLine
 62
7
  6
CONTINUOUS
 10
95.347103146
 20
172.9757332483
 11
95.0681272118
 21
172.8146871727
  0
LINE
  5
22D
100
AcDbEntity
  8
ASSI
100
AcDbLine
 62
7
  6
CONTINUOUS
 10
95.347103146
 20
172.9757332483
 11
95.0681272118
 21
172.8146871727
  0
LINE
  5
22E
100
AcDbEntity
  8
0
100
AcDbLine
 62
7
  6
CONTINUOUS
 10
95.347103146
 20
172.9757332483
 11
95.7297924458
 21
174.3909616867
  0
LINE
  5
22F
100
AcDbEntity
  8
ASSI
100
AcDbLine
 62
7
  6
CONTINUOUS
 10
95.347103146
 20
172.9757332483
 11
95.7297924458
 21
174.3909616867
  0
LINE
  5
230
100
AcDbEntity
  8
0
100
AcDbLine
 62
7
  6
CONTINUOUS
 10
95.0681272118
 20
101.9830535734
 11
95.0433940982
 21
102.4392891509
  0
LINE
  5
231
100
AcDbEntity
  8
ASSI
100
AcDbLine
 62
7
  6
CONTINUOUS
 10
95.0681272118
 20
101.9830535734
 11
95.0433940982
 21
102.4392891509
  0
LINE
  5
232
100
AcDbEntity
  8
0
100
AcDbLine
 62
7
  6
CONTINUOUS
 10
95.0681272118
 20
172.8146871727
 11
95.0433940982
 21
173.9947204822
  0
LINE
  5
233
100
AcDbEntity
  8
ASSI
100
AcDbLine
 62
7
  6
CONTINUOUS
 10
95.0681272118
 20
172.8146871727
 11
95.0433940982
 21
173.9947204822
  0
LINE
  5
234
100
AcDbEntity
  8
0
100
AcDbLine
 62
7
  6
CONTINUOUS
 10
95.0433940982
 20
102.4392891509
 11
95.0430187907
 21
102.4634820116
  0
LINE
  5
235
100
AcDbEntity
  8
ASSI
100
AcDbLine
 62
7
  6
CONTINUOUS
 10
95.0433940982
 20
102.4392891509
 11
95.0430187907
 21
102.4634820116
  0
LINE
  5
236
100
AcDbEntity
  8
0
100
AcDbLine
 62
7
  6
CONTINUOUS
 10
95.0430187907
 20
173.9953568438
 11
95.0430187907
 21
102.4634820116
  0
LINE
  5
237
100
AcDbEntity
  8
ASSI
100
AcDbLine
 62
7
  6
CONTINUOUS
 10
95.0430187907
 20
173.9953568438
 11
95.0430187907
 21
102.4634820116
  0
LINE
  5
238
100
AcDbEntity
  8
0
100
AcDbLine
 62
7
  6
CONTINUOUS
 10
95.0681272118
 20
172.8146871727
 11
95.0681272118
 21
101.9830535734
  0
LINE
  5
239
100
AcDbEntity
  8
ASSI
100
AcDbLine
 62
7
  6
CONTINUOUS
 10
95.0681272118
 20
172.8146871727
 11
95.0681272118
 21
101.9830535734
  0
LINE
  5
23A
100
AcDbEntity
  8
0
100
AcDbLine
 62
7
  6
CONTINUOUS
 10
195.5073689918
 20
43.990694169
 11
196.9243281227
 21
43.6145147131
  0
LINE
  5
23B
100
AcDbEntity
  8
ASSI
100
AcDbLine
 62
7
  6
CONTINUOUS
 10
195.5073689918
 20
43.990694169
 11
196.9243281227
 21
43.6145147131
  0
LWPOLYLINE
  5
23C
100
AcDbEntity
  8
0
100
AcDbPolyline
 62
7
  6
CONTINUOUS
 90
13
 70
0
 10
113.5752875369
 20
145.2933561864
 10
113.5759369508
 20
145.293635662
 10
113.5810382996
 20
145.2953715889
 10
113.5880005503
 20
145.2967870291
 10
113.5970445239
 20
145.2975465054
 10
113.6082667861
 20
145.2973102801
 10
113.6216406607
 20
145.295752966
 10
113.6371367017
 20
145.2925795396
 10
113.6544190638
 20
145.2876022812
 10
113.6729104806
 20
145.2808227553
 10
113.6922543235
 20
145.2722960243
 10
113.7122935525
 20
145.262039296
 10
113.721333964
 20
145.2569601712
  0
LWPOLYLINE
  5
23D
100
AcDbEntity
  8
ASSI
100
AcDbPolyline
 62
7
  6
CONTINUOUS
 90
13
 70
0
 10
113.5752875369
 20
145.2933561864
 10
113.5759369508
 20
145.293635662
 10
113.5810382996
 20
145.2953715889
 10
113.5880005503
 20
145.2967870291
 10
113.5970445239
 20
145.2975465054
 10
113.6082667861
 20
145.2973102801
 10
113.6216406607
 20
145.295752966
 10
113.6371367017
 20
145.2925795396
 10
113.6544190638
 20
145.2876022812
 10
113.6729104806
 20
145.2808227553
 10
113.6922543235
 20
145.2722960243
 10
113.7122935525
 20
145.262039296
 10
113.721333964
 20
145.2569601712
  0
LINE
  5
23E
100
AcDbEntity
  8
0
100
AcDbLine
 62
250
  6
CONTINUOUS
 10
113.4588747275
 20
145.0579156765
 11
113.8081194542
 21
145.2068512166
  0
LINE
  5
23F
100
AcDbEntity
  8
ASSI
100
AcDbLine
 62
250
  6
CONTINUOUS
 10
113.4588747275
 20
145.0579156765
 11
113.8081194542
 21
145.2068512166
  0
LINE
  5
240
100
AcDbEntity
  8
0
100
AcDbLine
 62
7
  6
CONTINUOUS
 10
95.0681272118
 20
101.9830535734
 11
95.347103146
 21
101.4998530819
  0
LINE
  5
241
100
AcDbEntity
  8
ASSI
100
AcDbLine
 62
7
  6
CONTINUOUS
 10
95.0681272118
 20
101.9830535734
 11
95.347103146
 21
101.4998530819
  0
LINE
  5
242
100
AcDbEntity
  8
0
100
AcDbLine
 62
250
  6
CONTINUOUS
 10
113.1862415654
 20
108.8119837087
 11
113.1862415654
 21
145.0634127284
  0
LINE
  5
243
100
AcDbEntity
  8
ASSI
100
AcDbLine
 62
250
  6
CONTINUOUS
 10
113.1862415654
 20
108.8119837087
 11
113.1862415654
 21
145.0634127284
  0
LINE
  5
244
100
AcDbEntity
  8
0
100
AcDbLine
 62
250
  6
CONTINUOUS
 10
113.4589920507
 20
108.777928012
 11
113.4588747275
 21
145.0579156765
  0
LINE
  5
245
100
AcDbEntity
  8
ASSI
100
AcDbLine
 62
250
  6
CONTINUOUS
 10
113.4589920507
 20
108.777928012
 11
113.4588747275
 21
145.0579156765
  0
LINE
  5
246
100
AcDbEntity
  8
0
100
AcDbLine
 62
7
  6
CONTINUOUS
 10
114.5286031202
 20
144.7908529776
 11
114.5286031202
 21
109.4241266219
  0
LINE
  5
247
100
AcDbEntity
  8
ASSI
100
AcDbLine
 62
7
  6
CONTINUOUS
 10
114.5286031202
 20
144.7908529776
 11
114.5286031202
 21
109.4241266219
  0
LWPOLYLINE
  5
248
100
AcDbEntity
  8
0
100
AcDbPolyline
 62
250
  6
CONTINUOUS
 90
15
 70
0
 10
113.4588747275
 20
145.0579156765
 10
113.4589454257
 20
145.0836916947
 10
113.4605685773
 20
145.1085491613
 10
113.463733419
 20
145.1323756394
 10
113.4684189252
 20
145.1550699984
 10
113.4746082914
 20
145.1765197083
 10
113.4822829413
 20
145.1966078214
 10
113.4914074847
 20
145.2152489698
 10
113.5019339015
 20
145.2323610523
 10
113.5138064484
 20
145.2478546636
 10
113.5269595242
 20
145.261662903
 10
113.5413357694
 20
145.2737457267
 10
113.5568830857
 20
145.2840685796
 10
113.5735433163
 20
145.2925967182
 10
113.5752976029
 20
145.2933622463
  0
LWPOLYLINE
  5
249
100
AcDbEntity
  8
ASSI
100
AcDbPolyline
 62
250
  6
CONTINUOUS
 90
15
 70
0
 10
113.4588747275
 20
145.0579156765
 10
113.4589454257
 20
145.0836916947
 10
113.4605685773
 20
145.1085491613
 10
113.463733419
 20
145.1323756394
 10
113.4684189252
 20
145.1550699984
 10
113.4746082914
 20
145.1765197083
 10
113.4822829413
 20
145.1966078214
 10
113.4914074847
 20
145.2152489698
 10
113.5019339015
 20
145.2323610523
 10
113.5138064484
 20
145.2478546636
 10
113.5269595242
 20
145.261662903
 10
113.5413357694
 20
145.2737457267
 10
113.5568830857
 20
145.2840685796
 10
113.5735433163
 20
145.2925967182
 10
113.5752976029
 20
145.2933622463
  0
LWPOLYLINE
  5
24A
100
AcDbEntity
  8
0
100
AcDbPolyline
 62
250
  6
CONTINUOUS
 90
25
 70
0
 10
113.1862415654
 20
145.0634127284
 10
113.187306544
 20
145.1001471481
 10
113.1904290119
 20
145.1352597866
 10
113.1956089691
 20
145.1687506439
 10
113.202886644
 20
145.2007640061
 10
113.2122218083
 20
145.2311555871
 10
113.2234937766
 20
145.2594925288
 10
113.2367376482
 20
145.2857374226
 10
113.2519183239
 20
145.309927677
 10
113.2688098207
 20
145.3317426594
 10
113.2874220772
 20
145.3511335597
 10
113.3077451548
 20
145.368149188
 10
113.3295232547
 20
145.3826153412
 10
113.3527812564
 20
145.3945061409
 10
113.3774942803
 20
145.4038474654
 10
113.4033318889
 20
145.4105427467
 10
113.4302095985
 20
145.4145871082
 10
113.4582118928
 20
145.4159854264
 10
113.4872617843
 20
145.4146557622
 10
113.5174593931
 20
145.4105994175
 10
113.5487045991
 20
145.4038150903
 10
113.5806200554
 20
145.394216936
 10
113.6130799796
 20
145.3817763398
 10
113.646210154
 20
145.3665219164
 10
113.6800105787
 20
145.3484536659
  0
LWPOLYLINE
  5
24B
100
AcDbEntity
  8
ASSI
100
AcDbPolyline
 62
250
  6
CONTINUOUS
 90
25
 70
0
 10
113.1862415654
 20
145.0634127284
 10
113.187306544
 20
145.1001471481
 10
113.1904290119
 20
145.1352597866
 10
113.1956089691
 20
145.1687506439
 10
113.202886644
 20
145.2007640061
 10
113.2122218083
 20
145.2311555871
 10
113.2234937766
 20
145.2594925288
 10
113.2367376482
 20
145.2857374226
 10
113.2519183239
 20
145.309927677
 10
113.2688098207
 20
145.3317426594
 10
113.2874220772
 20
145.3511335597
 10
113.3077451548
 20
145.368149188
 10
113.3295232547
 20
145.3826153412
 10
113.3527812564
 20
145.3945061409
 10
113.3774942803
 20
145.4038474654
 10
113.4033318889
 20
145.4105427467
 10
113.4302095985
 20
145.4145871082
 10
113.4582118928
 20
145.4159854264
 10
113.4872617843
 20
145.4146557622
 10
113.5174593931
 20
145.4105994175
 10
113.5487045991
 20
145.4038150903
 10
113.5806200554
 20
145.394216936
 10
113.6130799796
 20
145.3817763398
 10
113.646210154
 20
145.3665219164
 10
113.6800105787
 20
145.3484536659
  0
LWPOLYLINE
  5
24C
100
AcDbEntity
  8
0
100
AcDbPolyline
 62
250
  6
CONTINUOUS
 90
16
 70
0
 10
113.6800105787
 20
107.9567506915
 10
113.6807180465
 20
107.9734723087
 10
113.6828333638
 20
107.9908435405
 10
113.6863353548
 20
108.0086905821
 10
113.69118897
 20
108.0268348688
 10
113.6973456384
 20
108.0450948683
 10
113.7047437548
 20
108.063287897
 10
113.7133092927
 20
108.0812319367
 10
113.7229565477
 20
108.0987474652
 10
113.7335890001
 20
108.1156592572
 10
113.745100269
 20
108.1317981188
 10
113.7573751842
 20
108.1470025924
 10
113.7702909453
 20
108.161120579
 10
113.7837183366
 20
108.1740108413
 10
113.7975230183
 20
108.1855444193
 10
113.8115668798
 20
108.1956059302
  0
LWPOLYLINE
  5
24D
100
AcDbEntity
  8
ASSI
100
AcDbPolyline
 62
250
  6
CONTINUOUS
 90
16
 70
0
 10
113.6800105787
 20
107.9567506915
 10
113.6807180465
 20
107.9734723087
 10
113.6828333638
 20
107.9908435405
 10
113.6863353548
 20
108.0086905821
 10
113.69118897
 20
108.0268348688
 10
113.6973456384
 20
108.0450948683
 10
113.7047437548
 20
108.063287897
 10
113.7133092927
 20
108.0812319367
 10
113.7229565477
 20
108.0987474652
 10
113.7335890001
 20
108.1156592572
 10
113.745100269
 20
108.1317981188
 10
113.7573751842
 20
108.1470025924
 10
113.7702909453
 20
108.161120579
 10
113.7837183366
 20
108.1740108413
 10
113.7975230183
 20
108.1855444193
 10
113.8115668798
 20
108.1956059302
  0
LWPOLYLINE
  5
24E
100
AcDbEntity
  8
0
100
AcDbPolyline
 62
7
  6
CONTINUOUS
 90
15
 70
0
 10
115.6513018301
 20
130.8933409239
 10
115.6629787294
 20
130.9005180924
 10
115.6738359085
 20
130.9080144521
 10
115.6838733677
 20
130.9158300031
 10
115.69311891
 20
130.9239913549
 10
115.7015447323
 20
130.9324718979
 10
115.7090674244
 20
130.9411918041
 10
115.7156779267
 20
130.9501548617
 10
115.7213852989
 20
130.9593572824
 10
115.7261333101
 20
130.9687078731
 10
115.7299123581
 20
130.9782078457
 10
115.732732045
 20
130.9878559882
 10
115.734564947
 20
130.9975574717
 10
115.735401454
 20
131.0073128144
 10
115.7354610331
 20
131.010736839
  0
LINE
  5
24F
100
AcDbEntity
  8
0
100
AcDbLine
 62
7
  6
CONTINUOUS
 10
115.6512689674
 20
130.8933592588
 11
114.9528671889
 21
130.4901094289
  0
LINE
  5
250
100
AcDbEntity
  8
0
100
AcDbLine
 62
250
  6
CONTINUOUS
 10
118.0829759286
 20
132.2973638932
 11
115.6513018301
 21
130.8933409239
  0
LINE
  5
251
100
AcDbEntity
  8
0
100
AcDbLine
 62
250
  6
CONTINUOUS
 10
118.2950756542
 20
131.9299963925
 11
115.1649992232
 21
130.122723285
  0
LINE
  5
252
100
AcDbEntity
  8
0
100
AcDbLine
 62
7
  6
CONTINUOUS
 10
117.5180038133
 20
132.5565708217
 11
115.7354670273
 21
131.5979802233
  0
LINE
  5
253
100
AcDbEntity
  8
0
100
AcDbLine
 62
250
  6
CONTINUOUS
 10
117.663793823
 20
132.5393943874
 11
115.7354670273
 21
131.5024026397
  0
LINE
  5
254
100
AcDbEntity
  8
0
100
AcDbLine
 62
7
  6
CONTINUOUS
 10
95.75055606
 20
101.2379915142
 11
196.2382922053
 21
43.217632071
  0
LINE
  5
255
100
AcDbEntity
  8
ASSI
100
AcDbLine
 62
7
  6
CONTINUOUS
 10
95.75055606
 20
101.2379915142
 11
196.2382922053
 21
43.217632071
  0
LINE
  5
256
100
AcDbEntity
  8
0
100
AcDbLine
 62
7
  6
CONTINUOUS
 10
95.347103146
 20
101.4998530819
 11
195.2283930576
 21
43.8296480934
  0
LINE
  5
257
100
AcDbEntity
  8
ASSI
100
AcDbLine
 62
7
  6
CONTINUOUS
 10
95.347103146
 20
101.4998530819
 11
195.2283930576
 21
43.8296480934
  0
LINE
  5
258
100
AcDbEntity
  8
0
100
AcDbLine
 62
7
  6
CONTINUOUS
 10
95.75055606
 20
101.2379915142
 11
95.7297924458
 21
101.2504123398
  0
LINE
  5
259
100
AcDbEntity
  8
ASSI
100
AcDbLine
 62
7
  6
CONTINUOUS
 10
95.75055606
 20
101.2379915142
 11
95.7297924458
 21
101.2504123398
  0
LINE
  5
25A
100
AcDbEntity
  8
0
100
AcDbLine
 62
7
  6
CONTINUOUS
 10
95.347103146
 20
101.4998530819
 11
95.7297924458
 21
101.2504123398
  0
LINE
  5
25B
100
AcDbEntity
  8
ASSI
100
AcDbLine
 62
7
  6
CONTINUOUS
 10
95.347103146
 20
101.4998530819
 11
95.7297924458
 21
101.2504123398
  0
LWPOLYLINE
  5
25C
100
AcDbEntity
  8
0
100
AcDbPolyline
 62
250
  6
CONTINUOUS
 90
25
 70
0
 10
114.7389503513
 20
109.5455972102
 10
114.7411065434
 20
109.519859168
 10
114.744595575
 20
109.4932632912
 10
114.7494254495
 20
109.4659205459
 10
114.7556141529
 20
109.4379170335
 10
114.7631438371
 20
109.4093995529
 10
114.7719424471
 20
109.3805781809
 10
114.781961299
 20
109.3515991725
 10
114.7931717928
 20
109.3225651555
 10
114.8055021317
 20
109.2936223238
 10
114.8188771786
 20
109.264922848
 10
114.8332525875
 20
109.2365510722
 10
114.8486003299
 20
109.2085504537
 10
114.8648184637
 20
109.1811096868
 10
114.8818767678
 20
109.1542640393
 10
114.8998901422
 20
109.1278520929
 10
114.9188944734
 20
109.1019079545
 10
114.9387616974
 20
109.0766864952
 10
114.9593748234
 20
109.0523792531
 10
114.9807048708
 20
109.0290551184
 10
115.0026193557
 20
109.0069260454
 10
115.0248087017
 20
108.9863397238
 10
115.0470843168
 20
108.9674379617
 10
115.0694006242
 20
108.9502109083
 10
115.0916425036
 20
108.9347164836
  0
LWPOLYLINE
  5
25D
100
AcDbEntity
  8
ASSI
100
AcDbPolyline
 62
250
  6
CONTINUOUS
 90
25
 70
0
 10
114.7389503513
 20
109.5455972102
 10
114.7411065434
 20
109.519859168
 10
114.744595575
 20
109.4932632912
 10
114.7494254495
 20
109.4659205459
 10
114.7556141529
 20
109.4379170335
 10
114.7631438371
 20
109.4093995529
 10
114.7719424471
 20
109.3805781809
 10
114.781961299
 20
109.3515991725
 10
114.7931717928
 20
109.3225651555
 10
114.8055021317
 20
109.2936223238
 10
114.8188771786
 20
109.264922848
 10
114.8332525875
 20
109.2365510722
 10
114.8486003299
 20
109.2085504537
 10
114.8648184637
 20
109.1811096868
 10
114.8818767678
 20
109.1542640393
 10
114.8998901422
 20
109.1278520929
 10
114.9188944734
 20
109.1019079545
 10
114.9387616974
 20
109.0766864952
 10
114.9593748234
 20
109.0523792531
 10
114.9807048708
 20
109.0290551184
 10
115.0026193557
 20
109.0069260454
 10
115.0248087017
 20
108.9863397238
 10
115.0470843168
 20
108.9674379617
 10
115.0694006242
 20
108.9502109083
 10
115.0916425036
 20
108.9347164836
  0
LWPOLYLINE
  5
25E
100
AcDbEntity
  8
0
100
AcDbPolyline
 62
250
  6
CONTINUOUS
 90
9
 70
0
 10
113.6800105787
 20
145.3484536659
 10
113.6807180221
 20
145.332549282
 10
113.6828332745
 20
145.3176209556
 10
113.6863351733
 20
145.3038180409
 10
113.6911886829
 20
145.291278633
 10
113.6973452451
 20
145.2801281854
 10
113.7047432649
 20
145.2704782559
 10
113.7133087269
 20
145.2624253896
 10
113.721333964
 20
145.2569601712
  0
LWPOLYLINE
  5
25F
100
AcDbEntity
  8
ASSI
100
AcDbPolyline
 62
250
  6
CONTINUOUS
 90
9
 70
0
 10
113.6800105787
 20
145.3484536659
 10
113.6807180221
 20
145.332549282
 10
113.6828332745
 20
145.3176209556
 10
113.6863351733
 20
145.3038180409
 10
113.6911886829
 20
145.291278633
 10
113.6973452451
 20
145.2801281854
 10
113.7047432649
 20
145.2704782559
 10
113.7133087269
 20
145.2624253896
 10
113.721333964
 20
145.2569601712
  0
LWPOLYLINE
  5
260
100
AcDbEntity
  8
0
100
AcDbPolyline
 62
7
  6
CONTINUOUS
 90
19
 70
0
 10
115.1649992232
 20
130.122723285
 10
115.1641412028
 20
130.1448312659
 10
115.1617320254
 20
130.1673538964
 10
115.1577716908
 20
130.1902911766
 10
115.1522066745
 20
130.2138229212
 10
115.1450905011
 20
130.2377693154
 10
115.1365837446
 20
130.2615909146
 10
115.1266549293
 20
130.2852848211
 10
115.1153355308
 20
130.3088539325
 10
115.1028805502
 20
130.3317674973
 10
115.0892642724
 20
130.3540106696
 10
115.0745124125
 20
130.3755982952
 10
115.0589571168
 20
130.3960441592
 10
115.0425813342
 20
130.4153215815
 10
115.0254021159
 20
130.4334572421
 10
115.0078027622
 20
130.4500449669
 10
114.9899110398
 20
130.4649493642
 10
114.9715991821
 20
130.4783058257
 10
114.9528671889
 20
130.4901143513
  0
LINE
  5
261
100
AcDbEntity
  8
0
100
AcDbLine
 62
250
  6
CONTINUOUS
 10
114.7389503513
 20
144.6694011227
 11
114.7389503513
 21
109.5455972102
  0
LINE
  5
262
100
AcDbEntity
  8
ASSI
100
AcDbLine
 62
250
  6
CONTINUOUS
 10
114.7389503513
 20
144.6694011227
 11
114.7389503513
 21
109.5455972102
  0
LINE
  5
263
100
AcDbEntity
  8
0
100
AcDbLine
 62
7
  6
CONTINUOUS
 10
114.8615955611
 20
144.5985873156
 11
114.8615955611
 21
109.73499734
  0
LINE
  5
264
100
AcDbEntity
  8
ASSI
100
AcDbLine
 62
7
  6
CONTINUOUS
 10
114.8615955611
 20
144.5985873156
 11
114.8615955611
 21
109.73499734
  0
LINE
  5
265
100
AcDbEntity
  8
0
100
AcDbLine
 62
7
  6
CONTINUOUS
 10
114.9528671889
 20
109.3819885458
 11
114.9528671889
 21
125.5912828686
  0
LINE
  5
266
100
AcDbEntity
  8
0
100
AcDbLine
 62
7
  6
CONTINUOUS
 10
114.9528671889
 20
130.4901143513
 11
114.9528671889
 21
144.5458882216
  0
LINE
  5
267
100
AcDbEntity
  8
0
100
AcDbLine
 62
7
  6
CONTINUOUS
 10
115.1649992232
 20
130.122723285
 11
115.1649992232
 21
125.7137091789
  0
LINE
  5
268
100
AcDbEntity
  8
0
100
AcDbLine
 62
250
  6
CONTINUOUS
 10
115.6512689674
 20
108.753234252
 11
115.6512689674
 21
125.9154756931
  0
LINE
  5
269
100
AcDbEntity
  8
0
100
AcDbLine
 62
250
  6
CONTINUOUS
 10
115.6512689674
 20
130.8933592588
 11
115.6512689674
 21
144.1426397877
  0
LINE
  5
26A
100
AcDbEntity
  8
0
100
AcDbLine
 62
7
  6
CONTINUOUS
 10
115.7354670273
 20
108.7046193474
 11
115.7354670273
 21
125.9675450364
  0
LINE
  5
26B
100
AcDbEntity
  8
0
100
AcDbLine
 62
7
  6
CONTINUOUS
 10
115.7354670273
 20
131.0107367784
 11
115.7354670273
 21
144.0940248832
  0
LINE
  5
26C
100
AcDbEntity
  8
0
100
AcDbLine
 62
250
  6
CONTINUOUS
 10
118.2950756542
 20
131.9299963925
 11
118.2950756542
 21
127.6493953959
  0
LINE
  5
26D
100
AcDbEntity
  8
0
100
AcDbLine
 62
7
  6
CONTINUOUS
 10
118.3792737141
 20
132.0503225036
 11
118.3792737141
 21
127.769721507
  0
LWPOLYLINE
  5
26E
100
AcDbEntity
  8
0
100
AcDbPolyline
 62
250
  6
CONTINUOUS
 90
10
 70
0
 10
118.2950756542
 20
127.6493953959
 10
118.29457166
 20
127.6287019141
 10
118.2924297531
 20
127.6090812594
 10
118.2886662279
 20
127.5906826992
 10
118.2833097165
 20
127.573646206
 10
118.2764009688
 20
127.5581013851
 10
118.26799254
 20
127.5441664915
 10
118.2581483918
 20
127.5319475343
 10
118.2469434168
 20
127.5215374807
 10
118.2370633877
 20
127.5145697504
  0
LWPOLYLINE
  5
26F
100
AcDbEntity
  8
0
100
AcDbPolyline
 62
250
  6
CONTINUOUS
 90
10
 70
0
 10
114.8615955608
 20
109.734987279
 10
114.8610080213
 20
109.7210060293
 10
114.8572543653
 20
109.6970372431
 10
114.8500561305
 20
109.6733322717
 10
114.839463346
 20
109.6500558523
 10
114.8255496307
 20
109.6273697433
 10
114.8084116796
 20
109.6054315974
 10
114.7881685942
 20
109.5843938714
 10
114.7649610572
 20
109.5644027668
 10
114.7389503513
 20
109.5455972102
  0
LWPOLYLINE
  5
270
100
AcDbEntity
  8
ASSI
100
AcDbPolyline
 62
250
  6
CONTINUOUS
 90
10
 70
0
 10
114.8615955608
 20
109.734987279
 10
114.8610080213
 20
109.7210060293
 10
114.8572543653
 20
109.6970372431
 10
114.8500561305
 20
109.6733322717
 10
114.839463346
 20
109.6500558523
 10
114.8255496307
 20
109.6273697433
 10
114.8084116796
 20
109.6054315974
 10
114.7881685942
 20
109.5843938714
 10
114.7649610572
 20
109.5644027668
 10
114.7389503513
 20
109.5455972102
  0
LWPOLYLINE
  5
271
100
AcDbEntity
  8
0
100
AcDbPolyline
 62
250
  6
CONTINUOUS
 90
10
 70
0
 10
118.3792737141
 20
132.0503225036
 10
118.3783398292
 20
132.0366656266
 10
118.3751845416
 20
132.0218204792
 10
118.3698229891
 20
132.007187684
 10
118.3622869282
 20
131.9928629619
 10
118.352636631
 20
131.978967327
 10
118.3409771766
 20
131.9656386412
 10
118.3274233797
 20
131.9529821969
 10
118.3120807083
 20
131.9410742896
 10
118.2950756542
 20
131.9299963925
  0
LWPOLYLINE
  5
272
100
AcDbEntity
  8
0
100
AcDbPolyline
 62
250
  6
CONTINUOUS
 90
10
 70
0
 10
118.3792737134
 20
127.7697102274
 10
118.3783398292
 20
127.7560646299
 10
118.3751845416
 20
127.7412194826
 10
118.3698229891
 20
127.7265866873
 10
118.3622869282
 20
127.7122619653
 10
118.352636631
 20
127.6983663304
 10
118.3409771766
 20
127.6850376445
 10
118.3274233797
 20
127.6723812003
 10
118.3120807083
 20
127.660473293
 10
118.2950756542
 20
127.6493953959
  0
LWPOLYLINE
  5
273
100
AcDbEntity
  8
0
100
AcDbPolyline
 62
7
  6
CONTINUOUS
 90
10
 70
0
 10
115.1054807358
 20
125.5779544917
 10
115.1153355662
 20
125.5849289459
 10
115.1266549578
 20
125.5954267029
 10
115.1365837664
 20
125.6076550628
 10
115.1450905165
 20
125.6216532694
 10
115.1522066836
 20
125.637382079
 10
115.157771695
 20
125.6544874763
 10
115.1617320267
 20
125.6728514562
 10
115.1641412028
 20
125.6925920237
 10
115.1649992232
 20
125.7137091789
  0
LINE
  5
274
100
AcDbEntity
  8
0
100
AcDbLine
 62
250
  6
CONTINUOUS
 10
118.2950756542
 20
127.6493953959
 11
115.1649992232
 21
125.7137091789
  0
LINE
  5
275
100
AcDbEntity
  8
0
100
AcDbLine
 62
7
  6
CONTINUOUS
 10
118.2370633877
 20
127.5145697504
 11
115.1054817872
 21
125.5779527139
  0
LWPOLYLINE
  5
276
100
AcDbEntity
  8
0
100
AcDbPolyline
 62
250
  6
CONTINUOUS
 90
10
 70
0
 10
117.5180038133
 20
132.5565708217
 10
117.5289936456
 20
132.5616501368
 10
117.5436123316
 20
132.5661474202
 10
117.5591171421
 20
132.5685617667
 10
117.5753901148
 20
132.5688748133
 10
117.5923074543
 20
132.5670841838
 10
117.6097404714
 20
132.5632035012
 10
117.6275565465
 20
132.5572622865
 10
117.6456201374
 20
132.5493057385
 10
117.663793823
 20
132.5393943874
  0
LINE
  5
277
100
AcDbEntity
  8
0
100
AcDbLine
 62
7
  6
CONTINUOUS
 10
195.2283930576
 20
43.8296480934
 11
196.237929775
 21
43.2182735087
  0
LINE
  5
278
100
AcDbEntity
  8
ASSI
100
AcDbLine
 62
7
  6
CONTINUOUS
 10
195.2283930576
 20
43.8296480934
 11
196.237929775
 21
43.2182735087
  0
LWPOLYLINE
  5
279
100
AcDbEntity
  8
CURVE
100
AcDbPolyline
 62
250
  6
CONTINUOUS
 90
73
 70
0
 10
147.9785405212
 20
85.6015136077
 10
147.9822127203
 20
85.6002473768
 10
147.985774272
 20
85.5995579951
 10
147.9892444008
 20
85.5993105963
 10
147.9926423312
 20
85.599370314
 10
147.9959872877
 20
85.5996022817
 10
148.0063111599
 20
85.6006642216
 10
148.0163300483
 20
85.6021852195
 10
148.0260746949
 20
85.6042524548
 10
148.0359179437
 20
85.6070394231
 10
148.0455016314
 20
85.6104431048
 10
148.0548280574
 20
85.6143990341
 10
148.0638995214
 20
85.6188427448
 10
148.0746560072
 20
85.6248705457
 10
148.0850244217
 20
85.631532367
 10
148.0949951532
 20
85.6388281503
 10
148.1045585903
 20
85.646757837
 10
148.1130226716
 20
85.6546444281
 10
148.1211223486
 20
85.6630605013
 10
148.1288489904
 20
85.6719946372
 10
148.1361939658
 20
85.6814354163
 10
148.143148644
 20
85.6913714194
 10
148.1505123649
 20
85.703153996
 10
148.1573624602
 20
85.7155331363
 10
148.1636924787
 20
85.7284903227
 10
148.1694959693
 20
85.742007038
 10
148.1747664807
 20
85.7560647645
 10
148.179226354
 20
85.7697408413
 10
148.1832139126
 20
85.7838543891
 10
148.1867325506
 20
85.798382106
 10
148.1897856624
 20
85.8133006896
 10
148.1923766422
 20
85.8285868379
 10
148.1945088844
 20
85.8442172486
 10
148.1963356612
 20
85.8618385929
 10
148.1976251376
 20
85.8798240163
 10
148.198394544
 20
85.8981467229
 10
148.1986588532
 20
85.9181771075
 10
148.1983493711
 20
85.9385396691
 10
148.1974726394
 20
85.959208248
 10
148.1963531848
 20
85.9760886262
 10
148.1948527706
 20
85.9931459183
 10
148.192955345
 20
86.0103749071
 10
148.1907861192
 20
86.0267957906
 10
148.1882431043
 20
86.0433564593
 10
148.1853208111
 20
86.06004826
 10
148.1816288936
 20
86.0787092168
 10
148.1774613506
 20
86.0974984268
 10
148.1728162134
 20
86.1163933694
 10
148.1676915134
 20
86.1353715239
 10
148.1620852818
 20
86.1544103698
 10
148.1565556475
 20
86.1717966562
 10
148.1506301595
 20
86.1891959683
 10
148.1443146171
 20
86.2065896222
 10
148.1376148198
 20
86.2239589346
 10
148.1305365668
 20
86.2412852217
 10
148.1219665352
 20
86.2610669401
 10
148.1129195624
 20
86.2807413696
 10
148.1034082454
 20
86.3002822848
 10
148.0934451812
 20
86.3196634604
 10
148.0832108289
 20
86.338558057
 10
148.0725661611
 20
86.3572501874
 10
148.0615262741
 20
86.3757175322
 10
148.0501062641
 20
86.3939377726
 10
148.0383212273
 20
86.4118885893
 10
148.0261862601
 20
86.4295476634
 10
148.0137164586
 20
86.4468926756
 10
148.0044237531
 20
86.459320016
 10
147.9949605121
 20
86.4715309979
 10
147.9853260773
 20
86.4834879824
 10
147.9755197904
 20
86.4951533308
 10
147.9655409933
 20
86.5064894044
 10
147.9553890276
 20
86.5174585641
 10
147.9450632352
 20
86.5280231714
  0
LWPOLYLINE
  5
27A
100
AcDbEntity
  8
CURVE
100
AcDbPolyline
 62
250
  6
CONTINUOUS
 90
23
 70
0
 10
147.4563881774
 20
86.5440915878
 10
147.4681978734
 20
86.5395441791
 10
147.4800284972
 20
86.5348703237
 10
147.4918788437
 20
86.5300590924
 10
147.503747708
 20
86.5250995557
 10
147.5156338851
 20
86.5199807846
 10
147.52753617
 20
86.5146918497
 10
147.5394533578
 20
86.5092218219
 10
147.5513842436
 20
86.5035597717
 10
147.5633276223
 20
86.49769477
 10
147.575282289
 20
86.4916158876
 10
147.5872470387
 20
86.4853121951
 10
147.5984893491
 20
86.4791813865
 10
147.6097368245
 20
86.4728488866
 10
147.6209868024
 20
86.4663208452
 10
147.6322366204
 20
86.4596034116
 10
147.6434836162
 20
86.4527027357
 10
147.6547251273
 20
86.445624967
 10
147.6659584912
 20
86.4383762551
 10
147.6771810457
 20
86.4309627496
 10
147.6883901281
 20
86.4233906002
 10
147.6995830762
 20
86.4156659565
 10
147.7107572275
 20
86.407794968
  0
LINE
  5
27B
100
AcDbEntity
  8
0
100
AcDbLine
 62
250
  6
CONTINUOUS
 10
130.5202363699
 20
104.3396080081
 11
130.5202363699
 21
103.9322383702
  0
LINE
  5
27C
100
AcDbEntity
  8
0
100
AcDbLine
 62
7
  6
CONTINUOUS
 10
130.5716074048
 20
104.406185515
 11
130.5716074048
 21
103.962783665
  0
LINE
  5
27D
100
AcDbEntity
  8
0
100
AcDbLine
 62
7
  6
CONTINUOUS
 10
122.7030116482
 20
104.6816464072
 11
122.7310417819
 21
104.730196023
  0
LINE
  5
27E
100
AcDbEntity
  8
0
100
AcDbLine
 62
7
  6
CONTINUOUS
 10
122.9785291554
 20
104.7506215891
 11
123.0845951725
 21
104.9343333196
  0
LINE
  5
27F
100
AcDbEntity
  8
0
100
AcDbLine
 62
7
  6
CONTINUOUS
 10
123.332082546
 20
104.9547588858
 11
123.4381485631
 21
105.1384706163
  0
LINE
  5
280
100
AcDbEntity
  8
0
100
AcDbLine
 62
7
  6
CONTINUOUS
 10
123.6856359365
 20
105.1588961824
 11
123.7917019537
 21
105.3426079129
  0
LINE
  5
281
100
AcDbEntity
  8
0
100
AcDbLine
 62
7
  6
CONTINUOUS
 10
124.0391893271
 20
105.3630334791
 11
124.1452553443
 21
105.5467452096
  0
LINE
  5
282
100
AcDbEntity
  8
0
100
AcDbLine
 62
7
  6
CONTINUOUS
 10
124.3927427177
 20
105.5671707758
 11
124.4988087349
 21
105.7508825063
  0
LINE
  5
283
100
AcDbEntity
  8
0
100
AcDbLine
 62
7
  6
CONTINUOUS
 10
124.7462961083
 20
105.7713080724
 11
124.8523621255
 21
105.9550198029
  0
LWPOLYLINE
  5
284
100
AcDbEntity
  8
0
100
AcDbPolyline
 62
250
  6
CONTINUOUS
 90
16
 70
0
 10
113.1862415654
 20
108.8119837087
 10
113.201076809
 20
108.8042349629
 10
113.2171785163
 20
108.7973806794
 10
113.2343855936
 20
108.7914894336
 10
113.2525258883
 20
108.7866201661
 10
113.271417911
 20
108.7828215926
 10
113.2908726515
 20
108.7801317171
 10
113.31069547
 20
108.778577451
 10
113.3306880437
 20
108.7781743444
 10
113.3506503518
 20
108.7789264304
 10
113.3703826761
 20
108.7808261844
 10
113.3896875996
 20
108.7838545999
 10
113.4083719809
 20
108.7879813784
 10
113.4262488875
 20
108.7931652323
 10
113.4431394651
 20
108.7993542985
 10
113.4588747275
 20
108.8064866568
  0
LWPOLYLINE
  5
285
100
AcDbEntity
  8
ASSI
100
AcDbPolyline
 62
250
  6
CONTINUOUS
 90
16
 70
0
 10
113.1862415654
 20
108.8119837087
 10
113.201076809
 20
108.8042349629
 10
113.2171785163
 20
108.7973806794
 10
113.2343855936
 20
108.7914894336
 10
113.2525258883
 20
108.7866201661
 10
113.271417911
 20
108.7828215926
 10
113.2908726515
 20
108.7801317171
 10
113.31069547
 20
108.778577451
 10
113.3306880437
 20
108.7781743444
 10
113.3506503518
 20
108.7789264304
 10
113.3703826761
 20
108.7808261844
 10
113.3896875996
 20
108.7838545999
 10
113.4083719809
 20
108.7879813784
 10
113.4262488875
 20
108.7931652323
 10
113.4431394651
 20
108.7993542985
 10
113.4588747275
 20
108.8064866568
  0
LINE
  5
286
100
AcDbEntity
  8
CURVE
100
AcDbLine
 62
250
  6
CONTINUOUS
 10
147.0484200673
 20
85.2895446954
 11
146.7062055873
 21
85.4871350472
  0
LINE
  5
287
100
AcDbEntity
  8
CURVE
100
AcDbLine
 62
250
  6
CONTINUOUS
 10
146.090316417
 20
85.8427417352
 11
145.7691444909
 21
86.0281823801
  0
LINE
  5
288
100
AcDbEntity
  8
CURVE
100
AcDbLine
 62
250
  6
CONTINUOUS
 10
145.7181589292
 20
86.0576208044
 11
145.4005212574
 21
86.2410208152
  0
LINE
  5
289
100
AcDbEntity
  8
CURVE
100
AcDbLine
 62
250
  6
CONTINUOUS
 10
144.9477492902
 20
86.5024456745
 11
144.9022114135
 21
86.5287386737
  0
LINE
  5
28A
100
AcDbEntity
  8
CURVE
100
AcDbLine
 62
250
  6
CONTINUOUS
 10
144.4512358343
 20
86.7891263212
 11
144.1406088902
 21
86.9684784256
  0
LINE
  5
28B
100
AcDbEntity
  8
CURVE
100
AcDbLine
 62
250
  6
CONTINUOUS
 10
143.020624396
 20
87.6151434359
 11
142.7344868483
 21
87.7803556698
  0
LINE
  5
28C
100
AcDbEntity
  8
CURVE
100
AcDbLine
 62
250
  6
CONTINUOUS
 10
143.6411204678
 20
87.2568767807
 11
143.9658155363
 21
87.0694019174
  0
LINE
  5
28D
100
AcDbEntity
  8
CURVE
100
AcDbLine
 62
250
  6
CONTINUOUS
 10
147.1437663169
 20
85.2344926256
 11
147.4671545659
 21
85.0477723037
  0
LINE
  5
28E
100
AcDbEntity
  8
CURVE
100
AcDbLine
 62
250
  6
CONTINUOUS
 10
147.9643797459
 20
84.7606807164
 11
148.2766983278
 21
84.5803518815
  0
LINE
  5
28F
100
AcDbEntity
  8
CURVE
100
AcDbLine
 62
250
  6
CONTINUOUS
 10
146.622092411
 20
85.8942627112
 11
146.1799120949
 21
86.149572084
  0
LINE
  5
290
100
AcDbEntity
  8
CURVE
100
AcDbLine
 62
250
  6
CONTINUOUS
 10
146.2463302951
 20
86.3886771308
 11
146.5572024368
 21
86.2091834523
  0
LINE
  5
291
100
AcDbEntity
  8
CURVE
100
AcDbLine
 62
250
  6
CONTINUOUS
 10
147.4671545659
 20
85.7506601816
 11
147.6412481172
 21
85.650140747
  0
LINE
  5
292
100
AcDbEntity
  8
CURVE
100
AcDbLine
 62
250
  6
CONTINUOUS
 10
147.6419479907
 20
85.9438917305
 11
147.4563881774
 21
86.0510316411
  0
LINE
  5
293
100
AcDbEntity
  8
CURVE
100
AcDbLine
 62
250
  6
CONTINUOUS
 10
142.2413617132
 20
89.8611630728
 11
142.5940804324
 21
89.657507705
  0
LINE
  5
294
100
AcDbEntity
  8
CURVE
100
AcDbLine
 62
250
  6
CONTINUOUS
 10
143.1961526021
 20
89.3098787799
 11
143.5206261779
 21
89.1225318039
  0
LINE
  5
295
100
AcDbEntity
  8
CURVE
100
AcDbLine
 62
250
  6
CONTINUOUS
 10
144.2810619751
 20
88.683465705
 11
144.6054881411
 21
88.4961461028
  0
LINE
  5
296
100
AcDbEntity
  8
CURVE
100
AcDbLine
 62
250
  6
CONTINUOUS
 10
145.2514484738
 20
88.1231767025
 11
145.5727018854
 21
87.9376890089
  0
LINE
  5
297
100
AcDbEntity
  8
CURVE
100
AcDbLine
 62
250
  6
CONTINUOUS
 10
146.2570501007
 20
87.5425549263
 11
146.5711527775
 21
87.3611959773
  0
LINE
  5
298
100
AcDbEntity
  8
CURVE
100
AcDbLine
 62
250
  6
CONTINUOUS
 10
143.9658155363
 20
88.8655928219
 11
143.6411204678
 21
89.0530676851
  0
LINE
  5
299
100
AcDbEntity
  8
0
100
AcDbLine
 62
250
  6
CONTINUOUS
 10
176.8954856249
 20
71.4569276758
 11
113.6800105787
 21
107.9567506915
  0
LINE
  5
29A
100
AcDbEntity
  8
ASSI
100
AcDbLine
 62
250
  6
CONTINUOUS
 10
176.8954856249
 20
71.4569276758
 11
113.6800105787
 21
107.9567506915
  0
LINE
  5
29B
100
AcDbEntity
  8
0
100
AcDbLine
 62
250
  6
CONTINUOUS
 10
177.050417149
 20
71.6824217501
 11
113.8115668798
 21
108.1956059302
  0
LINE
  5
29C
100
AcDbEntity
  8
ASSI
100
AcDbLine
 62
250
  6
CONTINUOUS
 10
177.050417149
 20
71.6824217501
 11
113.8115668798
 21
108.1956059302
  0
LINE
  5
29D
100
AcDbEntity
  8
0
100
AcDbLine
 62
7
  6
CONTINUOUS
 10
114.8812952725
 20
108.8132458953
 11
177.3306759944
 21
72.755756141
  0
LINE
  5
29E
100
AcDbEntity
  8
ASSI
100
AcDbLine
 62
7
  6
CONTINUOUS
 10
114.8812952725
 20
108.8132458953
 11
177.3306759944
 21
72.755756141
  0
LINE
  5
29F
100
AcDbEntity
  8
0
100
AcDbLine
 62
250
  6
CONTINUOUS
 10
115.0916425036
 20
108.9347164836
 11
177.3306759944
 21
72.9986785843
  0
LINE
  5
2A0
100
AcDbEntity
  8
ASSI
100
AcDbLine
 62
250
  6
CONTINUOUS
 10
115.0916425036
 20
108.9347164836
 11
177.3306759944
 21
72.9986785843
  0
LINE
  5
2A1
100
AcDbEntity
  8
0
100
AcDbLine
 62
7
  6
CONTINUOUS
 10
115.3169919458
 20
108.9462416147
 11
177.3306759944
 21
73.1403176591
  0
LINE
  5
2A2
100
AcDbEntity
  8
ASSI
100
AcDbLine
 62
7
  6
CONTINUOUS
 10
115.3169919458
 20
108.9462416147
 11
177.3306759944
 21
73.1403176591
  0
LINE
  5
2A3
100
AcDbEntity
  8
0
100
AcDbLine
 62
7
  6
CONTINUOUS
 10
174.3498368086
 20
74.92615071
 11
170.460749512
 21
77.1716609733
  0
LINE
  5
2A4
100
AcDbEntity
  8
0
100
AcDbLine
 62
7
  6
CONTINUOUS
 10
126.6201290785
 20
102.4846857597
 11
122.7310417819
 21
104.730196023
  0
LINE
  5
2A5
100
AcDbEntity
  8
0
100
AcDbLine
 62
7
  6
CONTINUOUS
 10
174.597324182
 20
74.9465762762
 11
170.6021708683
 21
77.253315892
  0
LINE
  5
2A6
100
AcDbEntity
  8
0
100
AcDbLine
 62
7
  6
CONTINUOUS
 10
122.8724631382
 20
104.8118509416
 11
126.8676164519
 21
102.5051113258
  0
LINE
  5
2A7
100
AcDbEntity
  8
0
100
AcDbLine
 62
7
  6
CONTINUOUS
 10
174.7033901992
 20
75.1302880067
 11
170.8143029026
 21
77.37579827
  0
LINE
  5
2A8
100
AcDbEntity
  8
0
100
AcDbLine
 62
7
  6
CONTINUOUS
 10
126.9736824691
 20
102.6888230563
 11
123.0845951725
 21
104.9343333196
  0
LINE
  5
2A9
100
AcDbEntity
  8
0
100
AcDbLine
 62
7
  6
CONTINUOUS
 10
174.9508775726
 20
75.1507135728
 11
170.9557242589
 21
77.4574531887
  0
LINE
  5
2AA
100
AcDbEntity
  8
0
100
AcDbLine
 62
7
  6
CONTINUOUS
 10
123.2260165288
 20
105.0159882383
 11
127.2211698425
 21
102.7092486225
  0
LINE
  5
2AB
100
AcDbEntity
  8
0
100
AcDbLine
 62
7
  6
CONTINUOUS
 10
175.0569435898
 20
75.3344253034
 11
171.1678562932
 21
77.5799355667
  0
LINE
  5
2AC
100
AcDbEntity
  8
0
100
AcDbLine
 62
7
  6
CONTINUOUS
 10
127.3272358597
 20
102.892960353
 11
123.4381485631
 21
105.1384706163
  0
LINE
  5
2AD
100
AcDbEntity
  8
0
100
AcDbLine
 62
7
  6
CONTINUOUS
 10
175.3044309632
 20
75.3548508695
 11
171.3092776495
 21
77.6615904853
  0
LINE
  5
2AE
100
AcDbEntity
  8
0
100
AcDbLine
 62
7
  6
CONTINUOUS
 10
123.5795699194
 20
105.220125535
 11
127.5747232331
 21
102.9133859191
  0
LWPOLYLINE
  5
2AF
100
AcDbEntity
  8
0
100
AcDbPolyline
 62
250
  6
CONTINUOUS
 90
24
 70
0
 10
113.8115668798
 20
108.1956059302
 10
113.7879500486
 20
108.209323555
 10
113.7644730338
 20
108.2247530193
 10
113.7412257272
 20
108.241829992
 10
113.7182808487
 20
108.2604882066
 10
113.6957464022
 20
108.2806458997
 10
113.6737638914
 20
108.3021999212
 10
113.6524239663
 20
108.3250570668
 10
113.6318082706
 20
108.3491147491
 10
113.6120383182
 20
108.3742384433
 10
113.5932079873
 20
108.4002981984
 10
113.5753731495
 20
108.4271955233
 10
113.5585924271
 20
108.4548364146
 10
113.5429297062
 20
108.4831168338
 10
113.5284532471
 20
108.511904722
 10
113.5152226323
 20
108.5410627569
 10
113.5033265768
 20
108.570376904
 10
113.4927709881
 20
108.5998194661
 10
113.483513377
 20
108.6295320314
 10
113.4756015053
 20
108.6594825759
 10
113.469135166
 20
108.6894465665
 10
113.4641739984
 20
108.7192697977
 10
113.4607745612
 20
108.7488082433
 10
113.4589920507
 20
108.777928012
  0
LWPOLYLINE
  5
2B0
100
AcDbEntity
  8
ASSI
100
AcDbPolyline
 62
250
  6
CONTINUOUS
 90
24
 70
0
 10
113.8115668798
 20
108.1956059302
 10
113.7879500486
 20
108.209323555
 10
113.7644730338
 20
108.2247530193
 10
113.7412257272
 20
108.241829992
 10
113.7182808487
 20
108.2604882066
 10
113.6957464022
 20
108.2806458997
 10
113.6737638914
 20
108.3021999212
 10
113.6524239663
 20
108.3250570668
 10
113.6318082706
 20
108.3491147491
 10
113.6120383182
 20
108.3742384433
 10
113.5932079873
 20
108.4002981984
 10
113.5753731495
 20
108.4271955233
 10
113.5585924271
 20
108.4548364146
 10
113.5429297062
 20
108.4831168338
 10
113.5284532471
 20
108.511904722
 10
113.5152226323
 20
108.5410627569
 10
113.5033265768
 20
108.570376904
 10
113.4927709881
 20
108.5998194661
 10
113.483513377
 20
108.6295320314
 10
113.4756015053
 20
108.6594825759
 10
113.469135166
 20
108.6894465665
 10
113.4641739984
 20
108.7192697977
 10
113.4607745612
 20
108.7488082433
 10
113.4589920507
 20
108.777928012
  0
LWPOLYLINE
  5
2B1
100
AcDbEntity
  8
CURVE
100
AcDbPolyline
 62
250
  6
CONTINUOUS
 90
46
 70
0
 10
147.6412481172
 20
85.650140747
 10
147.6465595626
 20
85.6469875936
 10
147.6518794244
 20
85.6436568094
 10
147.6572018174
 20
85.640151809
 10
147.6625208563
 20
85.6364760075
 10
147.6678306558
 20
85.6326328198
 10
147.6731253308
 20
85.6286256607
 10
147.6783989959
 20
85.6244579452
 10
147.6836457659
 20
85.6201330882
 10
147.6888597555
 20
85.6156545047
 10
147.6940350794
 20
85.6110256094
 10
147.6991658525
 20
85.6062498174
 10
147.7042461894
 20
85.6013305435
 10
147.7092702049
 20
85.5962712027
 10
147.7142320137
 20
85.5910752098
 10
147.7191257305
 20
85.5857459798
 10
147.7239454702
 20
85.5802869276
 10
147.7285656523
 20
85.5748463126
 10
147.7331076607
 20
85.5692912949
 10
147.73756915
 20
85.5636274941
 10
147.7419477753
 20
85.5578605301
 10
147.7462411913
 20
85.5519960225
 10
147.7504470529
 20
85.5460395911
 10
147.7545630149
 20
85.5399968557
 10
147.7585867321
 20
85.533873436
 10
147.7625158595
 20
85.5276749518
 10
147.7663480518
 20
85.5214070228
 10
147.7700809639
 20
85.5150752688
 10
147.7737122507
 20
85.5086853095
 10
147.777239567
 20
85.5022427646
 10
147.780926779
 20
85.4952388328
 10
147.7844917202
 20
85.4881856259
 10
147.7879358837
 20
85.4810885426
 10
147.7912607631
 20
85.4739529817
 10
147.7944678515
 20
85.466784342
 10
147.7975586425
 20
85.4595880222
 10
147.8005346293
 20
85.4523694211
 10
147.8033973053
 20
85.4451339373
 10
147.8061481638
 20
85.4378869697
 10
147.8087886983
 20
85.430633917
 10
147.811320402
 20
85.423380178
 10
147.8137447683
 20
85.4161311513
 10
147.8160632906
 20
85.4088922358
 10
147.8182774623
 20
85.4016688302
 10
147.8203887766
 20
85.3944663333
 10
147.822398727
 20
85.3872901437
  0
LWPOLYLINE
  5
2B2
100
AcDbEntity
  8
0
100
AcDbPolyline
 62
7
  6
CONTINUOUS
 90
30
 70
0
 10
115.3169795676
 20
108.9462487611
 10
115.3039142087
 20
108.9540828057
 10
115.284967539
 20
108.9664292221
 10
115.2644757796
 20
108.981032629
 10
115.2427944778
 20
108.997847977
 10
115.2201151894
 20
109.01690989
 10
115.19661761
 20
109.0382463134
 10
115.1726403385
 20
109.061709608
 10
115.1483804859
 20
109.0872429294
 10
115.124024538
 20
109.1147797474
 10
115.0998753704
 20
109.1440913145
 10
115.0761198636
 20
109.175039948
 10
115.0529307942
 20
109.2074773876
 10
115.030557655
 20
109.2411143344
 10
115.0091567047
 20
109.2757515056
 10
114.9888595059
 20
109.3111945235
 10
114.9698417685
 20
109.3471329632
 10
114.9522024451
 20
109.38335353
 10
114.936031495
 20
109.4196208427
 10
114.9214478343
 20
109.4555742379
 10
114.9084879836
 20
109.4909911198
 10
114.8971726843
 20
109.5256428659
 10
114.8875420303
 20
109.5591555849
 10
114.8795549831
 20
109.5913368143
 10
114.8731569365
 20
109.6219910648
 10
114.8682998245
 20
109.6507557351
 10
114.8648647897
 20
109.6774950652
 10
114.8627213975
 20
109.7020643776
 10
114.8617246025
 20
109.7241371185
 10
114.8615955608
 20
109.734987279
  0
LWPOLYLINE
  5
2B3
100
AcDbEntity
  8
ASSI
100
AcDbPolyline
 62
7
  6
CONTINUOUS
 90
30
 70
0
 10
115.3169795676
 20
108.9462487611
 10
115.3039142087
 20
108.9540828057
 10
115.284967539
 20
108.9664292221
 10
115.2644757796
 20
108.981032629
 10
115.2427944778
 20
108.997847977
 10
115.2201151894
 20
109.01690989
 10
115.19661761
 20
109.0382463134
 10
115.1726403385
 20
109.061709608
 10
115.1483804859
 20
109.0872429294
 10
115.124024538
 20
109.1147797474
 10
115.0998753704
 20
109.1440913145
 10
115.0761198636
 20
109.175039948
 10
115.0529307942
 20
109.2074773876
 10
115.030557655
 20
109.2411143344
 10
115.0091567047
 20
109.2757515056
 10
114.9888595059
 20
109.3111945235
 10
114.9698417685
 20
109.3471329632
 10
114.9522024451
 20
109.38335353
 10
114.936031495
 20
109.4196208427
 10
114.9214478343
 20
109.4555742379
 10
114.9084879836
 20
109.4909911198
 10
114.8971726843
 20
109.5256428659
 10
114.8875420303
 20
109.5591555849
 10
114.8795549831
 20
109.5913368143
 10
114.8731569365
 20
109.6219910648
 10
114.8682998245
 20
109.6507557351
 10
114.8648647897
 20
109.6774950652
 10
114.8627213975
 20
109.7020643776
 10
114.8617246025
 20
109.7241371185
 10
114.8615955608
 20
109.734987279
  0
LWPOLYLINE
  5
2B4
100
AcDbEntity
  8
0
100
AcDbPolyline
 62
250
  6
CONTINUOUS
 90
25
 70
0
 10
113.6800105787
 20
107.9567506915
 10
113.6476640724
 20
107.9766568506
 10
113.6156932709
 20
107.9987217898
 10
113.5840981744
 20
108.0229455093
 10
113.5527337071
 20
108.049458224
 10
113.5217449447
 20
108.0781297189
 10
113.4915671139
 20
108.1085693488
 10
113.4622150611
 20
108.1408090692
 10
113.4336739399
 20
108.1748169246
 10
113.4063344376
 20
108.2101064026
 10
113.3802338566
 20
108.2466674413
 10
113.3553348946
 20
108.2845101025
 10
113.3319163326
 20
108.3231780602
 10
113.3099881414
 20
108.3626942849
 10
113.2895403502
 20
108.403035806
 10
113.2708218269
 20
108.4436773861
 10
113.2538790406
 20
108.4844946445
 10
113.2386655222
 20
108.5256119619
 10
113.2252907327
 20
108.5668772425
 10
113.2137034798
 20
108.6084356488
 10
113.2039549559
 20
108.6501420184
 10
113.1963081987
 20
108.6914087675
 10
113.1908508875
 20
108.7320400349
 10
113.1874953431
 20
108.772231682
 10
113.1862415654
 20
108.8119837087
  0
LWPOLYLINE
  5
2B5
100
AcDbEntity
  8
ASSI
100
AcDbPolyline
 62
250
  6
CONTINUOUS
 90
25
 70
0
 10
113.6800105787
 20
107.9567506915
 10
113.6476640724
 20
107.9766568506
 10
113.6156932709
 20
107.9987217898
 10
113.5840981744
 20
108.0229455093
 10
113.5527337071
 20
108.049458224
 10
113.5217449447
 20
108.0781297189
 10
113.4915671139
 20
108.1085693488
 10
113.4622150611
 20
108.1408090692
 10
113.4336739399
 20
108.1748169246
 10
113.4063344376
 20
108.2101064026
 10
113.3802338566
 20
108.2466674413
 10
113.3553348946
 20
108.2845101025
 10
113.3319163326
 20
108.3231780602
 10
113.3099881414
 20
108.3626942849
 10
113.2895403502
 20
108.403035806
 10
113.2708218269
 20
108.4436773861
 10
113.2538790406
 20
108.4844946445
 10
113.2386655222
 20
108.5256119619
 10
113.2252907327
 20
108.5668772425
 10
113.2137034798
 20
108.6084356488
 10
113.2039549559
 20
108.6501420184
 10
113.1963081987
 20
108.6914087675
 10
113.1908508875
 20
108.7320400349
 10
113.1874953431
 20
108.772231682
 10
113.1862415654
 20
108.8119837087
  0
LWPOLYLINE
  5
2B6
100
AcDbEntity
  8
0
100
AcDbPolyline
 62
250
  6
CONTINUOUS
 90
9
 70
0
 10
177.3892546382
 20
71.7419686133
 10
177.3758340624
 20
71.7505344516
 10
177.3639627279
 20
71.7598315268
 10
177.3537593944
 20
71.7697668151
 10
177.3453261323
 20
71.7802409082
 10
177.3387472994
 20
71.7911490101
 10
177.3340886989
 20
71.802381987
 10
177.3313969248
 20
71.8138274521
 10
177.3306760928
 20
71.8235089992
  0
LWPOLYLINE
  5
2B7
100
AcDbEntity
  8
ASSI
100
AcDbPolyline
 62
250
  6
CONTINUOUS
 90
9
 70
0
 10
177.3892546382
 20
71.7419686133
 10
177.3758340624
 20
71.7505344516
 10
177.3639627279
 20
71.7598315268
 10
177.3537593944
 20
71.7697668151
 10
177.3453261323
 20
71.7802409082
 10
177.3387472994
 20
71.7911490101
 10
177.3340886989
 20
71.802381987
 10
177.3313969248
 20
71.8138274521
 10
177.3306760928
 20
71.8235089992
  0
LWPOLYLINE
  5
2B8
100
AcDbEntity
  8
CURVE
100
AcDbPolyline
 62
250
  6
CONTINUOUS
 90
49
 70
0
 10
147.7107572275
 20
86.407794968
 10
147.7167080818
 20
86.4034685491
 10
147.7226593418
 20
86.3989561607
 10
147.728604453
 20
86.3942621093
 10
147.7345368609
 20
86.3893907017
 10
147.740450011
 20
86.3843462445
 10
147.7463373488
 20
86.3791330443
 10
147.7521923197
 20
86.3737554077
 10
147.7580083694
 20
86.3682176413
 10
147.7637789432
 20
86.3625240519
 10
147.7694974867
 20
86.3566789461
 10
147.7751574454
 20
86.3506866304
 10
147.7807522647
 20
86.3445514115
 10
147.7862753902
 20
86.3382775961
 10
147.7917202673
 20
86.3318694908
 10
147.7970803415
 20
86.3253314022
 10
147.8023490584
 20
86.318667637
 10
147.8075198635
 20
86.3118825018
 10
147.8125862021
 20
86.3049803032
 10
147.8175415198
 20
86.2979653478
 10
147.8223792622
 20
86.2908419424
 10
147.8270928747
 20
86.2836143935
 10
147.8316758027
 20
86.2762870078
 10
147.8361214919
 20
86.2688640919
 10
147.8404233876
 20
86.2613499524
 10
147.844553736
 20
86.2537909158
 10
147.8485334696
 20
86.246155101
 10
147.8523607054
 20
86.2384517125
 10
147.8560335604
 20
86.2306899548
 10
147.8595501515
 20
86.2228790322
 10
147.8629085956
 20
86.2150281492
 10
147.8661070096
 20
86.2071465103
 10
147.8691435105
 20
86.1992433198
 10
147.8720162153
 20
86.1913277822
 10
147.8747232408
 20
86.1834091019
 10
147.877262704
 20
86.1754964833
 10
147.8796327218
 20
86.1675991309
 10
147.8818314112
 20
86.1597262491
 10
147.8838568892
 20
86.1518870423
 10
147.8857072725
 20
86.144090715
 10
147.8873806782
 20
86.1363464715
 10
147.8888752233
 20
86.1286635164
 10
147.8901890246
 20
86.121051054
 10
147.8913201991
 20
86.1135182888
 10
147.8922668637
 20
86.1060744252
 10
147.8930271353
 20
86.0987286676
 10
147.8935991309
 20
86.0914902205
 10
147.8939809675
 20
86.0843682882
 10
147.8941707619
 20
86.0773720753
  0
LWPOLYLINE
  5
2B9
100
AcDbEntity
  8
CURVE
100
AcDbPolyline
 62
250
  6
CONTINUOUS
 90
30
 70
0
 10
147.9450632352
 20
86.5280231714
 10
147.9262666492
 20
86.5463506179
 10
147.9072875409
 20
86.5641499858
 10
147.8881425385
 20
86.5814399138
 10
147.8688482701
 20
86.5982390411
 10
147.8494213637
 20
86.6145660063
 10
147.8298784474
 20
86.6304394486
 10
147.8102361492
 20
86.6458780067
 10
147.7905110972
 20
86.6609003195
 10
147.7707199195
 20
86.675525026
 10
147.7508792441
 20
86.6897707651
 10
147.7310056992
 20
86.7036561757
 10
147.7111159127
 20
86.7171998966
 10
147.6818813581
 20
86.7365204181
 10
147.6526488682
 20
86.7551826626
 10
147.6234196728
 20
86.7732261182
 10
147.5941950019
 20
86.7906902732
 10
147.5649760852
 20
86.8076146158
 10
147.5357641525
 20
86.8240386342
 10
147.5065604338
 20
86.8400018166
 10
147.4773661587
 20
86.8555436512
 10
147.4401642932
 20
86.8747991348
 10
147.4029847117
 20
86.8934597726
 10
147.3658323513
 20
86.911551319
 10
147.3287121492
 20
86.9290995289
 10
147.2916290427
 20
86.9461301567
 10
147.2545879691
 20
86.962668957
 10
147.2175938654
 20
86.9787416844
 10
147.1806516689
 20
86.9943740936
 10
147.1437663169
 20
87.009591939
  0
LWPOLYLINE
  5
2BA
100
AcDbEntity
  8
0
100
AcDbPolyline
 62
250
  6
CONTINUOUS
 90
10
 70
0
 10
128.5757569569
 20
102.6606007167
 10
128.5780147577
 20
102.6552920533
 10
128.5798707388
 20
102.6502659422
 10
128.5812910444
 20
102.6455604822
 10
128.5822372421
 20
102.6412345345
 10
128.5826852121
 20
102.6373034626
 10
128.5825995256
 20
102.6337636931
 10
128.5819223166
 20
102.6306764273
 10
128.5805948568
 20
102.6281152353
 10
128.5796814606
 20
102.6270651718
  0
LINE
  5
2BB
100
AcDbEntity
  8
0
100
AcDbLine
 62
250
  6
CONTINUOUS
 10
128.5702094028
 20
102.6434373063
 11
128.5757569569
 21
102.6606007167
  0
LINE
  5
2BC
100
AcDbEntity
  8
0
100
AcDbLine
 62
7
  6
CONTINUOUS
 10
126.5920989447
 20
102.4361361439
 11
126.6201290785
 21
102.4846857597
  0
LINE
  5
2BD
100
AcDbEntity
  8
0
100
AcDbLine
 62
7
  6
CONTINUOUS
 10
126.8676164519
 20
102.5051113258
 11
126.9736824691
 21
102.6888230563
  0
LINE
  5
2BE
100
AcDbEntity
  8
0
100
AcDbLine
 62
7
  6
CONTINUOUS
 10
127.2211698425
 20
102.7092486225
 11
127.3272358597
 21
102.892960353
  0
LINE
  5
2BF
100
AcDbEntity
  8
0
100
AcDbLine
 62
7
  6
CONTINUOUS
 10
127.5747232331
 20
102.9133859191
 11
127.6807892503
 21
103.0970976496
  0
LINE
  5
2C0
100
AcDbEntity
  8
0
100
AcDbLine
 62
7
  6
CONTINUOUS
 10
127.9282766237
 20
103.1175232158
 11
128.0343426408
 21
103.3012349463
  0
LINE
  5
2C1
100
AcDbEntity
  8
0
100
AcDbLine
 62
7
  6
CONTINUOUS
 10
128.2818300143
 20
103.3216605125
 11
128.3878960314
 21
103.505372243
  0
LINE
  5
2C2
100
AcDbEntity
  8
0
100
AcDbLine
 62
7
  6
CONTINUOUS
 10
128.6353834049
 20
103.5257978091
 11
128.741449422
 21
103.7095095396
  0
LINE
  5
2C3
100
AcDbEntity
  8
0
100
AcDbLine
 62
250
  6
CONTINUOUS
 10
113.4588747275
 20
108.8064866568
 11
114.7389503513
 21
109.5455972102
  0
LINE
  5
2C4
100
AcDbEntity
  8
ASSI
100
AcDbLine
 62
250
  6
CONTINUOUS
 10
113.4588747275
 20
108.8064866568
 11
114.7389503513
 21
109.5455972102
  0
LINE
  5
2C5
100
AcDbEntity
  8
0
100
AcDbLine
 62
250
  6
CONTINUOUS
 10
113.8115668798
 20
108.1956059302
 11
115.0916425036
 21
108.9347164836
  0
LINE
  5
2C6
100
AcDbEntity
  8
ASSI
100
AcDbLine
 62
250
  6
CONTINUOUS
 10
113.8115668798
 20
108.1956059302
 11
115.0916425036
 21
108.9347164836
  0
LWPOLYLINE
  5
2C7
100
AcDbEntity
  8
0
100
AcDbPolyline
 62
7
  6
CONTINUOUS
 90
10
 70
0
 10
158.57392099
 20
88.3181491159
 10
158.5330790305
 20
88.3374999392
 10
158.4899328577
 20
88.3522637316
 10
158.4444824717
 20
88.3624404929
 10
158.3953331281
 20
88.3680582316
 10
158.3438795712
 20
88.3690889392
 10
158.294306034
 20
88.3654485911
 10
158.2480072608
 20
88.3571091789
 10
158.2035885074
 20
88.3440987109
 10
158.1610497737
 20
88.3264171872
  0
LWPOLYLINE
  5
2C8
100
AcDbEntity
  8
0
100
AcDbPolyline
 62
7
  6
CONTINUOUS
 90
10
 70
0
 10
142.6640184133
 20
97.5043274657
 10
142.6231764538
 20
97.5236782891
 10
142.580030281
 20
97.5384420814
 10
142.534579895
 20
97.5486188428
 10
142.4854305514
 20
97.5542365814
 10
142.4339769945
 20
97.5552672891
 10
142.3844034573
 20
97.551626941
 10
142.3381046841
 20
97.5432875288
 10
142.2936859307
 20
97.5302770608
 10
142.251147197
 20
97.512595537
  0
LWPOLYLINE
  5
2C9
100
AcDbEntity
  8
0
100
AcDbPolyline
 62
250
  6
CONTINUOUS
 90
10
 70
0
 10
115.3169795676
 20
108.9462487611
 10
115.3045705234
 20
108.9527338432
 10
115.2819374584
 20
108.9614652355
 10
115.2578105409
 20
108.967081648
 10
115.2323574414
 20
108.9695440492
 10
115.2057550467
 20
108.9688353267
 10
115.1781882308
 20
108.9649604057
 10
115.1498485698
 20
108.957946215
 10
115.120933011
 20
108.9478415
 10
115.0916425036
 20
108.9347164836
  0
LWPOLYLINE
  5
2CA
100
AcDbEntity
  8
ASSI
100
AcDbPolyline
 62
250
  6
CONTINUOUS
 90
10
 70
0
 10
115.3169795676
 20
108.9462487611
 10
115.3045705234
 20
108.9527338432
 10
115.2819374584
 20
108.9614652355
 10
115.2578105409
 20
108.967081648
 10
115.2323574414
 20
108.9695440492
 10
115.2057550467
 20
108.9688353267
 10
115.1781882308
 20
108.9649604057
 10
115.1498485698
 20
108.957946215
 10
115.120933011
 20
108.9478415
 10
115.0916425036
 20
108.9347164836
  0
LINE
  5
2CB
100
AcDbEntity
  8
0
100
AcDbLine
 62
7
  6
CONTINUOUS
 10
175.4104969803
 20
75.5385626
 11
171.5214096838
 21
77.7840728633
  0
LINE
  5
2CC
100
AcDbEntity
  8
0
100
AcDbLine
 62
7
  6
CONTINUOUS
 10
127.6807892503
 20
103.0970976496
 11
123.7917019537
 21
105.3426079129
  0
LINE
  5
2CD
100
AcDbEntity
  8
0
100
AcDbLine
 62
7
  6
CONTINUOUS
 10
175.6579843538
 20
75.5589881662
 11
171.6628310401
 21
77.865727782
  0
LINE
  5
2CE
100
AcDbEntity
  8
0
100
AcDbLine
 62
7
  6
CONTINUOUS
 10
123.93312331
 20
105.4242628316
 11
127.9282766237
 21
103.1175232158
  0
LINE
  5
2CF
100
AcDbEntity
  8
0
100
AcDbLine
 62
7
  6
CONTINUOUS
 10
175.7640503709
 20
75.7426998967
 11
171.8749630744
 21
77.98821016
  0
LINE
  5
2D0
100
AcDbEntity
  8
0
100
AcDbLine
 62
7
  6
CONTINUOUS
 10
128.0343426408
 20
103.3012349463
 11
124.1452553443
 21
105.5467452096
  0
LINE
  5
2D1
100
AcDbEntity
  8
0
100
AcDbLine
 62
7
  6
CONTINUOUS
 10
176.0115377444
 20
75.7631254628
 11
172.0163844306
 21
78.0698650787
  0
LINE
  5
2D2
100
AcDbEntity
  8
0
100
AcDbLine
 62
7
  6
CONTINUOUS
 10
124.2866767006
 20
105.6284001283
 11
128.2818300143
 21
103.3216605125
  0
LINE
  5
2D3
100
AcDbEntity
  8
0
100
AcDbLine
 62
7
  6
CONTINUOUS
 10
176.1176037615
 20
75.9468371934
 11
172.228516465
 21
78.1923474567
  0
LINE
  5
2D4
100
AcDbEntity
  8
0
100
AcDbLine
 62
7
  6
CONTINUOUS
 10
128.3878960314
 20
103.505372243
 11
124.4988087349
 21
105.7508825063
  0
LINE
  5
2D5
100
AcDbEntity
  8
0
100
AcDbLine
 62
7
  6
CONTINUOUS
 10
176.3650911349
 20
75.9672627595
 11
172.3699378212
 21
78.2740023753
  0
LINE
  5
2D6
100
AcDbEntity
  8
0
100
AcDbLine
 62
7
  6
CONTINUOUS
 10
124.6402300911
 20
105.8325374249
 11
128.6353834049
 21
103.5257978091
  0
LINE
  5
2D7
100
AcDbEntity
  8
0
100
AcDbLine
 62
7
  6
CONTINUOUS
 10
176.4711571521
 20
76.15097449
 11
172.5820698556
 21
78.3964847533
  0
LINE
  5
2D8
100
AcDbEntity
  8
0
100
AcDbLine
 62
7
  6
CONTINUOUS
 10
128.741449422
 20
103.7095095396
 11
124.8523621255
 21
105.9550198029
  0
LINE
  5
2D9
100
AcDbEntity
  8
0
100
AcDbLine
 62
7
  6
CONTINUOUS
 10
176.7186445255
 20
76.1714000562
 11
172.7234912118
 21
78.478139672
  0
LINE
  5
2DA
100
AcDbEntity
  8
0
100
AcDbLine
 62
7
  6
CONTINUOUS
 10
124.9937834817
 20
106.0366747216
 11
128.9889367954
 21
103.7299351058
  0
LINE
  5
2DB
100
AcDbEntity
  8
0
100
AcDbLine
 62
250
  6
CONTINUOUS
 10
177.0034234727
 20
76.1295562006
 11
172.7570862145
 21
78.5813381145
  0
LINE
  5
2DC
100
AcDbEntity
  8
0
100
AcDbLine
 62
250
  6
CONTINUOUS
 10
129.2737157427
 20
103.6880912503
 11
125.0273784844
 21
106.1398731641
  0
LINE
  5
2DD
100
AcDbEntity
  8
0
100
AcDbLine
 62
250
  6
CONTINUOUS
 10
177.0700958287
 20
76.168258112
 11
172.8311333674
 21
78.6157819105
  0
LINE
  5
2DE
100
AcDbEntity
  8
0
100
AcDbLine
 62
250
  6
CONTINUOUS
 10
129.3403880986
 20
103.7267931617
 11
125.1014256373
 21
106.1743169602
  0
LINE
  5
2DF
100
AcDbEntity
  8
0
100
AcDbLine
 62
7
  6
CONTINUOUS
 10
126.6870273705
 20
106.6921429133
 11
130.5130287611
 21
104.4830576615
  0
LINE
  5
2E0
100
AcDbEntity
  8
0
100
AcDbLine
 62
7
  6
CONTINUOUS
 10
174.4167351006
 20
79.1336078637
 11
177.3306759944
 21
77.4511349119
  0
LINE
  5
2E1
100
AcDbEntity
  8
0
100
AcDbLine
 62
7
  6
CONTINUOUS
 10
142.6640318752
 20
97.5061164099
 11
146.3558294097
 21
95.3745187826
  0
LINE
  5
2E2
100
AcDbEntity
  8
0
100
AcDbLine
 62
7
  6
CONTINUOUS
 10
158.5739344519
 20
88.31993806
 11
162.2657319864
 21
86.1883404327
  0
LINE
  5
2E3
100
AcDbEntity
  8
0
100
AcDbLine
 62
7
  6
CONTINUOUS
 10
95.0430187907
 20
173.9953568438
 11
95.0433940982
 21
173.9947204822
  0
LINE
  5
2E4
100
AcDbEntity
  8
ASSI
100
AcDbLine
 62
7
  6
CONTINUOUS
 10
95.0430187907
 20
173.9953568438
 11
95.0433940982
 21
173.9947204822
  0
LINE
  5
2E5
100
AcDbEntity
  8
0
100
AcDbLine
 62
250
  6
CONTINUOUS
 10
128.5757569569
 20
102.6606007167
 11
128.9117019219
 21
102.9873543064
  0
LINE
  5
2E6
100
AcDbEntity
  8
0
100
AcDbLine
 62
7
  6
CONTINUOUS
 10
128.5796818144
 20
102.627065516
 11
129.0086661952
 21
103.044312985
  0
LINE
  5
2E7
100
AcDbEntity
  8
0
100
AcDbLine
 62
7
  6
CONTINUOUS
 10
122.7310417819
 20
104.730196023
 11
122.8724631382
 21
104.8118509416
  0
LINE
  5
2E8
100
AcDbEntity
  8
0
100
AcDbLine
 62
7
  6
CONTINUOUS
 10
123.0845951725
 20
104.9343333196
 11
123.2260165288
 21
105.0159882383
  0
LINE
  5
2E9
100
AcDbEntity
  8
0
100
AcDbLine
 62
7
  6
CONTINUOUS
 10
123.4381485631
 20
105.1384706163
 11
123.5795699194
 21
105.220125535
  0
LINE
  5
2EA
100
AcDbEntity
  8
0
100
AcDbLine
 62
7
  6
CONTINUOUS
 10
123.7917019537
 20
105.3426079129
 11
123.93312331
 21
105.4242628316
  0
LINE
  5
2EB
100
AcDbEntity
  8
0
100
AcDbLine
 62
7
  6
CONTINUOUS
 10
124.1452553443
 20
105.5467452096
 11
124.2866767006
 21
105.6284001283
  0
LINE
  5
2EC
100
AcDbEntity
  8
0
100
AcDbLine
 62
7
  6
CONTINUOUS
 10
124.4988087349
 20
105.7508825063
 11
124.6402300911
 21
105.8325374249
  0
LINE
  5
2ED
100
AcDbEntity
  8
0
100
AcDbLine
 62
7
  6
CONTINUOUS
 10
124.8523621255
 20
105.9550198029
 11
124.9937834817
 21
106.0366747216
  0
LINE
  5
2EE
100
AcDbEntity
  8
0
100
AcDbLine
 62
7
  6
CONTINUOUS
 10
122.4753280589
 20
104.8131080581
 11
125.0273784844
 21
106.1398731641
  0
LINE
  5
2EF
100
AcDbEntity
  8
0
100
AcDbLine
 62
7
  6
CONTINUOUS
 10
125.1014256373
 20
106.1743169602
 11
126.411779893
 21
106.7117792868
  0
LINE
  5
2F0
100
AcDbEntity
  8
0
100
AcDbLine
 62
7
  6
CONTINUOUS
 10
195.5073689918
 20
114.8223277683
 11
196.9243281227
 21
115.1699460445
  0
LINE
  5
2F1
100
AcDbEntity
  8
ASSI
100
AcDbLine
 62
7
  6
CONTINUOUS
 10
195.5073689918
 20
114.8223277683
 11
196.9243281227
 21
115.1699460445
  0
LINE
  5
2F2
100
AcDbEntity
  8
CURVE
100
AcDbLine
 62
250
  6
CONTINUOUS
 10
144.9022114135
 20
86.5287386737
 11
144.5213053317
 21
87.9214776386
  0
LINE
  5
2F3
100
AcDbEntity
  8
CURVE
100
AcDbLine
 62
250
  6
CONTINUOUS
 10
144.6054881411
 20
88.4961461028
 11
144.9267534052
 21
87.3134608483
  0
LWPOLYLINE
  5
2F4
100
AcDbEntity
  8
CURVE
100
AcDbPolyline
 62
250
  6
CONTINUOUS
 90
5
 70
0
 10
147.822398727
 20
85.3872901437
 10
147.8277546667
 20
85.3672343624
 10
147.8328521091
 20
85.3472229009
 10
147.8377359838
 20
85.3272484872
 10
147.8424512202
 20
85.3073038487
  0
LINE
  5
2F5
100
AcDbEntity
  8
CURVE
100
AcDbLine
 62
250
  6
CONTINUOUS
 10
142.7344868483
 20
87.7803556698
 11
142.2413617132
 21
89.8611630728
  0
LINE
  5
2F6
100
AcDbEntity
  8
CURVE
100
AcDbLine
 62
250
  6
CONTINUOUS
 10
146.5711527775
 20
87.3611959773
 11
147.0484200673
 21
85.2895446954
  0
LINE
  5
2F7
100
AcDbEntity
  8
CURVE
100
AcDbLine
 62
250
  6
CONTINUOUS
 10
147.8424512202
 20
85.3073038487
 11
147.8515554967
 21
85.2674748084
  0
LINE
  5
2F8
100
AcDbEntity
  8
CURVE
100
AcDbLine
 62
250
  6
CONTINUOUS
 10
147.8515554967
 20
85.2674748084
 11
147.9178215416
 21
84.9727458229
  0
LWPOLYLINE
  5
2F9
100
AcDbEntity
  8
CURVE
100
AcDbPolyline
 62
250
  6
CONTINUOUS
 90
37
 70
0
 10
148.1503934518
 20
85.2031154918
 10
148.1471661486
 20
85.217678871
 10
148.1438451832
 20
85.2322611905
 10
148.140414174
 20
85.2468629429
 10
148.1368567398
 20
85.2614846207
 10
148.1331564992
 20
85.2761267167
 10
148.129297071
 20
85.2907897233
 10
148.1252620737
 20
85.3054741332
 10
148.121035126
 20
85.3201804391
 10
148.1165998466
 20
85.3349091334
 10
148.1119398541
 20
85.3496607089
 10
148.1070387672
 20
85.3644356582
 10
148.1035295896
 20
85.3745806803
 10
148.099892541
 20
85.3847300595
 10
148.0961208413
 20
85.3948769284
 10
148.0922077102
 20
85.4050144198
 10
148.0881463677
 20
85.4151356664
 10
148.0839300337
 20
85.4252338008
 10
148.0795519278
 20
85.4353019558
 10
148.0750052701
 20
85.4453332641
 10
148.0702832803
 20
85.4553208584
 10
148.0653791783
 20
85.4652578714
 10
148.0602861839
 20
85.4751374358
 10
148.0549975171
 20
85.4849526843
 10
148.0499778625
 20
85.4938787624
 10
148.0447939896
 20
85.5027301971
 10
148.0394515191
 20
85.5114920611
 10
148.0339560718
 20
85.5201494273
 10
148.0283132686
 20
85.5286873682
 10
148.0225287301
 20
85.5370909568
 10
148.0166080772
 20
85.5453452657
 10
148.0105569306
 20
85.5534353677
 10
148.0043809113
 20
85.5613463355
 10
147.9980856398
 20
85.5690632419
 10
147.9916767372
 20
85.5765711596
 10
147.985159824
 20
85.5838551613
 10
147.9785405212
 20
85.5909003199
  0
LINE
  5
2FA
100
AcDbEntity
  8
CURVE
100
AcDbLine
 62
250
  6
CONTINUOUS
 10
147.9178215416
 20
84.9727458229
 11
147.9643797459
 21
84.7606807164
  0
LINE
  5
2FB
100
AcDbEntity
  8
CURVE
100
AcDbLine
 62
250
  6
CONTINUOUS
 10
148.1566325964
 20
85.1740435836
 11
148.1503934518
 21
85.2031154918
  0
LINE
  5
2FC
100
AcDbEntity
  8
CURVE
100
AcDbLine
 62
250
  6
CONTINUOUS
 10
142.5940804324
 20
89.657507705
 11
142.8905881383
 21
88.2500084015
  0
LINE
  5
2FD
100
AcDbEntity
  8
CURVE
100
AcDbLine
 62
250
  6
CONTINUOUS
 10
148.1656983792
 20
85.1305654581
 11
148.1566325964
 21
85.1740435836
  0
LINE
  5
2FE
100
AcDbEntity
  8
CURVE
100
AcDbLine
 62
250
  6
CONTINUOUS
 10
146.7062055873
 20
85.4871350472
 11
146.622092411
 21
85.8942627112
  0
LINE
  5
2FF
100
AcDbEntity
  8
CURVE
100
AcDbLine
 62
250
  6
CONTINUOUS
 10
146.5572024368
 20
86.2091834523
 11
146.4080007578
 21
86.9618799063
  0
LWPOLYLINE
  5
300
100
AcDbEntity
  8
0
100
AcDbPolyline
 62
7
  6
CONTINUOUS
 90
6
 70
0
 10
146.4432415171
 20
95.2508828563
 10
146.4414443361
 20
95.2700838026
 10
146.43206176
 20
95.2982616609
 10
146.4146811655
 20
95.3243627202
 10
146.3892658948
 20
95.349185446
 10
146.3558159478
 20
95.3727298384
  0
LINE
  5
301
100
AcDbEntity
  8
CURVE
100
AcDbLine
 62
250
  6
CONTINUOUS
 10
145.5727018854
 20
87.9376890089
 11
145.7181589292
 21
86.0576208044
  0
LINE
  5
302
100
AcDbEntity
  8
CURVE
100
AcDbLine
 62
250
  6
CONTINUOUS
 10
145.4005212574
 20
86.2410208152
 11
145.3338119312
 21
87.4474573319
  0
LWPOLYLINE
  5
303
100
AcDbEntity
  8
CURVE
100
AcDbPolyline
 62
250
  6
CONTINUOUS
 90
58
 70
0
 10
147.8941707619
 20
86.0773720753
 10
147.8942196774
 20
86.0690167353
 10
147.8941389023
 20
86.06071224
 10
147.8939203902
 20
86.0524721386
 10
147.8935560945
 20
86.0443099805
 10
147.8930379688
 20
86.0362393147
 10
147.8923579665
 20
86.0282736906
 10
147.8915080412
 20
86.0204266574
 10
147.8904801464
 20
86.0127117643
 10
147.8892662356
 20
86.0051425606
 10
147.8878582623
 20
85.9977325954
 10
147.8862481799
 20
85.9904954181
 10
147.8844279421
 20
85.9834445779
 10
147.8823895024
 20
85.976593624
 10
147.8801248141
 20
85.9699561056
 10
147.8776258309
 20
85.963545572
 10
147.8748845063
 20
85.9573755724
 10
147.8721569528
 20
85.9519482495
 10
147.8692239649
 20
85.9467408537
 10
147.8660900126
 20
85.94176031
 10
147.8627595659
 20
85.9370135434
 10
147.8592370948
 20
85.9325074787
 10
147.8555270694
 20
85.9282490409
 10
147.8516339597
 20
85.924245155
 10
147.8475622355
 20
85.9205027457
 10
147.8433163671
 20
85.9170287382
 10
147.8389008243
 20
85.9138300572
 10
147.8343200772
 20
85.9109136277
 10
147.8295785959
 20
85.9082863747
 10
147.8246808502
 20
85.9059552231
 10
147.8196313102
 20
85.9039270978
 10
147.8142039615
 20
85.9021380091
 10
147.8086237911
 20
85.9006773804
 10
147.8028984899
 20
85.8995359743
 10
147.7970357485
 20
85.8987045533
 10
147.7910432578
 20
85.89817388
 10
147.7849287085
 20
85.897934717
 10
147.7786997914
 20
85.897977827
 10
147.7723641973
 20
85.8982939725
 10
147.7659296169
 20
85.8988739161
 10
147.759403741
 20
85.8997084203
 10
147.7527942603
 20
85.9007882479
 10
147.7461088657
 20
85.9021041613
 10
147.7393552479
 20
85.9036469232
 10
147.7325410976
 20
85.9054072962
 10
147.7256741056
 20
85.9073760428
 10
147.7187619628
 20
85.9095439257
 10
147.7118123598
 20
85.9119017074
 10
147.7048329874
 20
85.9144401505
 10
147.6978315364
 20
85.9171500177
 10
147.6908156976
 20
85.9200220714
 10
147.6837931617
 20
85.9230470744
 10
147.6767716195
 20
85.9262157891
 10
147.6697587618
 20
85.9295189783
 10
147.6627622792
 20
85.9329474044
 10
147.6557898627
 20
85.9364918301
 10
147.648849203
 20
85.9401430179
 10
147.6419479907
 20
85.9438917305
  0
LINE
  5
304
100
AcDbEntity
  8
CURVE
100
AcDbLine
 62
250
  6
CONTINUOUS
 10
143.6411204678
 20
89.0530676851
 11
143.6411204678
 21
87.2568767807
  0
LINE
  5
305
100
AcDbEntity
  8
CURVE
100
AcDbLine
 62
250
  6
CONTINUOUS
 10
143.9658155363
 20
87.0694019174
 11
143.9658155363
 21
88.8655928219
  0
LINE
  5
306
100
AcDbEntity
  8
0
100
AcDbLine
 62
250
  6
CONTINUOUS
 10
146.366640823
 20
95.1381578136
 11
146.366640823
 21
94.7091351195
  0
LINE
  5
307
100
AcDbEntity
  8
0
100
AcDbLine
 62
7
  6
CONTINUOUS
 10
146.4436973754
 20
95.2508811768
 11
146.4436973754
 21
94.8546166991
  0
LINE
  5
308
100
AcDbEntity
  8
CURVE
100
AcDbLine
 62
250
  6
CONTINUOUS
 10
147.1437663169
 20
87.009591939
 11
147.1437663169
 21
85.2344926256
  0
LINE
  5
309
100
AcDbEntity
  8
CURVE
100
AcDbLine
 62
250
  6
CONTINUOUS
 10
147.4563881774
 20
86.0510316411
 11
147.4563881774
 21
86.5440915878
  0
LINE
  5
30A
100
AcDbEntity
  8
CURVE
100
AcDbLine
 62
250
  6
CONTINUOUS
 10
147.4671545659
 20
85.0477723037
 11
147.4671545659
 21
85.7506601816
  0
LINE
  5
30B
100
AcDbEntity
  8
CURVE
100
AcDbLine
 62
250
  6
CONTINUOUS
 10
147.9785405212
 20
85.5909003199
 11
147.9785405212
 21
85.6015136077
  0
LINE
  5
30C
100
AcDbEntity
  8
CURVE
100
AcDbLine
 62
250
  6
CONTINUOUS
 10
144.5213053317
 20
87.9214776386
 11
144.4512358343
 21
86.7891263212
  0
LINE
  5
30D
100
AcDbEntity
  8
CURVE
100
AcDbLine
 62
250
  6
CONTINUOUS
 10
144.1406088902
 20
86.9684784256
 11
144.2810619751
 21
88.683465705
  0
LWPOLYLINE
  5
30E
100
AcDbEntity
  8
0
100
AcDbPolyline
 62
250
  6
CONTINUOUS
 90
6
 70
0
 10
128.5210675281
 20
102.5826015422
 10
128.5333784261
 20
102.5910253401
 10
128.5446528263
 20
102.6014791491
 10
128.5545987307
 20
102.6137640231
 10
128.5631386905
 20
102.6277853286
 10
128.5702094028
 20
102.6434373063
  0
LINE
  5
30F
100
AcDbEntity
  8
0
100
AcDbLine
 62
7
  6
CONTINUOUS
 10
129.2737157427
 20
103.6880912503
 11
126.9758392183
 21
102.2145693193
  0
LINE
  5
310
100
AcDbEntity
  8
0
100
AcDbLine
 62
7
  6
CONTINUOUS
 10
127.288661929
 20
102.0339494067
 11
130.5202363699
 21
103.9322383702
  0
LINE
  5
311
100
AcDbEntity
  8
0
100
AcDbLine
 62
7
  6
CONTINUOUS
 10
128.5210674688
 20
102.5826015078
 11
127.4324388752
 21
101.9509343999
  0
LINE
  5
312
100
AcDbEntity
  8
0
100
AcDbLine
 62
250
  6
CONTINUOUS
 10
128.5757569569
 20
102.6606007167
 11
127.3920828774
 21
101.9742354473
  0
LINE
  5
313
100
AcDbEntity
  8
0
100
AcDbLine
 62
7
  6
CONTINUOUS
 10
126.6201290785
 20
102.4846857597
 11
126.7615504347
 21
102.5663406783
  0
LINE
  5
314
100
AcDbEntity
  8
0
100
AcDbLine
 62
7
  6
CONTINUOUS
 10
126.9736824691
 20
102.6888230563
 11
127.1151038253
 21
102.770477975
  0
LINE
  5
315
100
AcDbEntity
  8
0
100
AcDbLine
 62
7
  6
CONTINUOUS
 10
127.3272358597
 20
102.892960353
 11
127.4686572159
 21
102.9746152716
  0
LINE
  5
316
100
AcDbEntity
  8
0
100
AcDbLine
 62
7
  6
CONTINUOUS
 10
127.6807892503
 20
103.0970976496
 11
127.8222106065
 21
103.1787525683
  0
LINE
  5
317
100
AcDbEntity
  8
0
100
AcDbLine
 62
7
  6
CONTINUOUS
 10
128.0343426408
 20
103.3012349463
 11
128.1757639971
 21
103.382889865
  0
LINE
  5
318
100
AcDbEntity
  8
0
100
AcDbLine
 62
7
  6
CONTINUOUS
 10
128.3878960314
 20
103.505372243
 11
128.5293173877
 21
103.5870271616
  0
LINE
  5
319
100
AcDbEntity
  8
0
100
AcDbLine
 62
7
  6
CONTINUOUS
 10
128.741449422
 20
103.7095095396
 11
128.8828707783
 21
103.7911644583
  0
LINE
  5
31A
100
AcDbEntity
  8
0
100
AcDbLine
 62
7
  6
CONTINUOUS
 10
128.9889367954
 20
103.7299351058
 11
126.6701272869
 21
102.391083557
  0
LINE
  5
31B
100
AcDbEntity
  8
0
100
AcDbLine
 62
7
  6
CONTINUOUS
 10
130.5202363699
 20
104.3396080081
 11
129.3403880986
 21
103.7267931617
  0
LWPOLYLINE
  5
31C
100
AcDbEntity
  8
0
100
AcDbPolyline
 62
7
  6
CONTINUOUS
 90
11
 70
0
 10
114.9528671889
 20
125.5912828686
 10
114.9715991866
 20
125.5814601552
 10
114.9899110496
 20
125.5736705409
 10
115.0078027779
 20
125.5679140257
 10
115.0254021393
 20
125.5641784591
 10
115.0425813659
 20
125.5624759916
 10
115.0589571546
 20
125.5628430744
 10
115.0745124532
 20
125.565326079
 10
115.0892643138
 20
125.569878634
 10
115.1028805901
 20
125.5763980762
 10
115.1054807358
 20
125.5779544917
  0
LINE
  5
31D
100
AcDbEntity
  8
CURVE
100
AcDbLine
 62
250
  6
CONTINUOUS
 10
148.1958048195
 20
84.9833618973
 11
148.1656983792
 21
85.1305654581
  0
LINE
  5
31E
100
AcDbEntity
  8
CURVE
100
AcDbLine
 62
250
  6
CONTINUOUS
 10
148.2766983278
 20
84.5803518815
 11
148.2618843322
 21
84.6530287354
  0
LINE
  5
31F
100
AcDbEntity
  8
CURVE
100
AcDbLine
 62
250
  6
CONTINUOUS
 10
148.2618843322
 20
84.6530287354
 11
148.1958048195
 21
84.9833618973
  0
LINE
  5
320
100
AcDbEntity
  8
CURVE
100
AcDbLine
 62
250
  6
CONTINUOUS
 10
146.4080007578
 20
86.9618799063
 11
146.2463302951
 21
86.3886771308
  0
LINE
  5
321
100
AcDbEntity
  8
CURVE
100
AcDbLine
 62
250
  6
CONTINUOUS
 10
142.8905881383
 20
88.2500084015
 11
143.1961526021
 21
89.3098787799
  0
LINE
  5
322
100
AcDbEntity
  8
CURVE
100
AcDbLine
 62
250
  6
CONTINUOUS
 10
146.1799120949
 20
86.149572084
 11
146.090316417
 21
85.8427417352
  0
LINE
  5
323
100
AcDbEntity
  8
CURVE
100
AcDbLine
 62
250
  6
CONTINUOUS
 10
145.7691444909
 20
86.0281823801
 11
146.2570501007
 21
87.5425549263
  0
LINE
  5
324
100
AcDbEntity
  8
CURVE
100
AcDbLine
 62
250
  6
CONTINUOUS
 10
143.5206261779
 20
89.1225318039
 11
143.020624396
 21
87.6151434359
  0
LINE
  5
325
100
AcDbEntity
  8
CURVE
100
AcDbLine
 62
250
  6
CONTINUOUS
 10
144.9267534052
 20
87.3134608483
 11
145.2514484738
 21
88.1231767025
  0
LINE
  5
326
100
AcDbEntity
  8
CURVE
100
AcDbLine
 62
250
  6
CONTINUOUS
 10
145.3338119312
 20
87.4474573319
 11
144.9477492902
 21
86.5024456745
  0
LINE
  5
327
100
AcDbEntity
  8
0
100
AcDbLine
 62
250
  6
CONTINUOUS
 10
117.663793823
 20
132.5393943874
 11
118.0829759286
 21
132.2973638932
  0
LINE
  5
328
100
AcDbEntity
  8
0
100
AcDbLine
 62
7
  6
CONTINUOUS
 10
117.8100988565
 20
132.5521564341
 11
118.2292809621
 21
132.31012594
  0
LWPOLYLINE
  5
329
100
AcDbEntity
  8
0
100
AcDbPolyline
 62
250
  6
CONTINUOUS
 90
19
 70
0
 10
118.0829759286
 20
132.2973638932
 10
118.1017664901
 20
132.2859325493
 10
118.1203859358
 20
132.2727087643
 10
118.1386926151
 20
132.2577931399
 10
118.1565472547
 20
132.2412991511
 10
118.1738140249
 20
132.2233522761
 10
118.1903615727
 20
132.2040890402
 10
118.2060640153
 20
132.1836559807
 10
118.2208018848
 20
132.1622085523
 10
118.2344630469
 20
132.1399099395
 10
118.2469435706
 20
132.116929789
 10
118.2581485129
 20
132.0934429222
 10
118.2679926297
 20
132.0696280258
 10
118.2764010307
 20
132.0456662836
 10
118.2833097543
 20
132.0217399802
 10
118.2886662477
 20
131.9980311208
 10
118.2924297612
 20
131.9747200681
 10
118.2945716618
 20
131.9519841698
 10
118.2950756542
 20
131.9299963925
  0
LWPOLYLINE
  5
32A
100
AcDbEntity
  8
0
100
AcDbPolyline
 62
7
  6
CONTINUOUS
 90
6
 70
0
 10
162.3531440938
 20
86.0647045064
 10
162.3513469128
 20
86.0839054528
 10
162.3419643367
 20
86.112083311
 10
162.3245837422
 20
86.1381843703
 10
162.2991684715
 20
86.1630070962
 10
162.2657185245
 20
86.1865514885
  0
LWPOLYLINE
  5
32B
100
AcDbEntity
  8
0
100
AcDbPolyline
 62
7
  6
CONTINUOUS
 90
5
 70
0
 10
146.3957809175
 20
94.7333250209
 10
146.4187611226
 20
94.7629215029
 10
146.4347193754
 20
94.7972849561
 10
146.4427376259
 20
94.8354275759
 10
146.4436193919
 20
94.8545368
  0
LINE
  5
32C
100
AcDbEntity
  8
CURVE
100
AcDbLine
 62
7
  6
CONTINUOUS
 10
142.3218312361
 20
89.5216111678
 11
142.5076383489
 21
89.7074182806
  0
LINE
  5
32D
100
AcDbEntity
  8
CURVE
100
AcDbLine
 62
7
  6
CONTINUOUS
 10
142.4023007591
 20
89.1820592627
 11
142.6434405438
 21
89.4231990474
  0
LINE
  5
32E
100
AcDbEntity
  8
CURVE
100
AcDbLine
 62
7
  6
CONTINUOUS
 10
142.482770282
 20
88.8425073576
 11
142.7165268571
 21
89.0762639327
  0
LINE
  5
32F
100
AcDbEntity
  8
CURVE
100
AcDbLine
 62
7
  6
CONTINUOUS
 10
142.5632398049
 20
88.5029554525
 11
142.7896131703
 21
88.7293288179
  0
LINE
  5
330
100
AcDbEntity
  8
CURVE
100
AcDbLine
 62
7
  6
CONTINUOUS
 10
143.1256620579
 20
89.0653777055
 11
143.3064682562
 21
89.2461839038
  0
LINE
  5
331
100
AcDbEntity
  8
CURVE
100
AcDbLine
 62
7
  6
CONTINUOUS
 10
142.6437093279
 20
88.1634035474
 11
142.8626994836
 21
88.3823937031
  0
LINE
  5
332
100
AcDbEntity
  8
CURVE
100
AcDbLine
 62
7
  6
CONTINUOUS
 10
142.9555140848
 20
88.4752083044
 11
143.4798217337
 21
88.9995159533
  0
LINE
  5
333
100
AcDbEntity
  8
CURVE
100
AcDbLine
 62
7
  6
CONTINUOUS
 10
142.7241788508
 20
87.8238516424
 11
143.2713501645
 21
88.371022956
  0
LINE
  5
334
100
AcDbEntity
  8
CURVE
100
AcDbLine
 62
7
  6
CONTINUOUS
 10
143.6411204678
 20
88.7407932593
 11
143.8390898522
 21
88.9387626437
  0
LINE
  5
335
100
AcDbEntity
  8
0
100
AcDbLine
 62
7
  6
CONTINUOUS
 10
145.1767908982
 20
94.0098192772
 11
144.8340102282
 21
93.6764170057
  0
LINE
  5
336
100
AcDbEntity
  8
0
100
AcDbLine
 62
7
  6
CONTINUOUS
 10
146.366640823
 20
94.7091351195
 11
146.3957809175
 21
94.7333250209
  0
LWPOLYLINE
  5
337
100
AcDbEntity
  8
0
100
AcDbPolyline
 62
7
  6
CONTINUOUS
 90
6
 70
0
 10
146.3666273611
 20
95.1363688694
 10
146.3978947193
 20
95.1605583441
 10
146.4210174275
 20
95.1858648816
 10
146.4359954857
 20
95.2122884821
 10
146.4427922359
 20
95.2406276109
 10
146.4432415171
 20
95.2508828563
  0
LINE
  5
338
100
AcDbEntity
  8
0
100
AcDbLine
 62
7
  6
CONTINUOUS
 10
146.3666273611
 20
95.1363688694
 11
142.9578751714
 21
92.9867420619
  0
LINE
  5
339
100
AcDbEntity
  8
0
100
AcDbLine
 62
7
  6
CONTINUOUS
 10
138.4653443552
 20
95.5806730505
 11
142.251147197
 21
97.512595537
  0
LWPOLYLINE
  5
33A
100
AcDbEntity
  8
0
100
AcDbPolyline
 62
250
  6
CONTINUOUS
 90
10
 70
0
 10
118.2292773382
 20
132.3101280322
 10
118.2167895984
 20
132.3162260732
 10
118.2022959029
 20
132.3208988451
 10
118.1869018053
 20
132.3235391909
 10
118.1707257599
 20
132.3241360635
 10
118.15389201
 20
132.3226936755
 10
118.1365633682
 20
132.3192403469
 10
118.1188847534
 20
132.3138263846
 10
118.1009780624
 20
132.3065099597
 10
118.0829759286
 20
132.2973638932
  0
LWPOLYLINE
  5
33B
100
AcDbEntity
  8
0
100
AcDbPolyline
 62
250
  6
CONTINUOUS
 90
10
 70
0
 10
117.8100891191
 20
132.5521620557
 10
117.7977982256
 20
132.5581789694
 10
117.7833651353
 20
132.5628675492
 10
117.768012803
 20
132.5655392921
 10
117.7518399986
 20
132.5661738487
 10
117.7349816525
 20
132.5647629208
 10
117.7176096884
 20
132.5613285919
 10
117.6998726938
 20
132.5559176585
 10
117.6818894723
 20
132.5485833182
 10
117.663793823
 20
132.5393943874
  0
LINE
  5
33C
100
AcDbEntity
  8
0
100
AcDbLine
 62
7
  6
CONTINUOUS
 10
196.237929775
 20
43.2182735087
 11
196.2382922053
 21
43.217632071
  0
LINE
  5
33D
100
AcDbEntity
  8
ASSI
100
AcDbLine
 62
7
  6
CONTINUOUS
 10
196.237929775
 20
43.2182735087
 11
196.2382922053
 21
43.217632071
  0
LINE
  5
33E
100
AcDbEntity
  8
0
100
AcDbLine
 62
250
  6
CONTINUOUS
 10
162.2765433997
 20
85.9519794637
 11
162.2765433997
 21
85.5229567696
  0
LINE
  5
33F
100
AcDbEntity
  8
0
100
AcDbLine
 62
7
  6
CONTINUOUS
 10
162.3535999521
 20
86.064702827
 11
162.3535999521
 21
85.6684383492
  0
LINE
  5
340
100
AcDbEntity
  8
CURVE
100
AcDbLine
 62
7
  6
CONTINUOUS
 10
142.9666539382
 20
87.6463053017
 11
143.0628785952
 21
87.7425299587
  0
LINE
  5
341
100
AcDbEntity
  8
CURVE
100
AcDbLine
 62
7
  6
CONTINUOUS
 10
143.6411204678
 20
88.3207718312
 11
143.9658155363
 21
88.6454668998
  0
LINE
  5
342
100
AcDbEntity
  8
CURVE
100
AcDbLine
 62
7
  6
CONTINUOUS
 10
143.6411204678
 20
87.9007504032
 11
143.9658155363
 21
88.2254454718
  0
LINE
  5
343
100
AcDbEntity
  8
CURVE
100
AcDbLine
 62
7
  6
CONTINUOUS
 10
144.2683261324
 20
88.5279560679
 11
144.3715747993
 21
88.6312047348
  0
LINE
  5
344
100
AcDbEntity
  8
CURVE
100
AcDbLine
 62
7
  6
CONTINUOUS
 10
143.6411204678
 20
87.4807289752
 11
143.9658155363
 21
87.8054240438
  0
LINE
  5
345
100
AcDbEntity
  8
CURVE
100
AcDbLine
 62
7
  6
CONTINUOUS
 10
144.2308589846
 20
88.0704674921
 11
144.6163930321
 21
88.4560015395
  0
LINE
  5
346
100
AcDbEntity
  8
CURVE
100
AcDbLine
 62
7
  6
CONTINUOUS
 10
143.7654838455
 20
87.185070925
 11
143.9658155363
 21
87.3854026157
  0
LINE
  5
347
100
AcDbEntity
  8
CURVE
100
AcDbLine
 62
7
  6
CONTINUOUS
 10
144.1933918369
 20
87.6129789163
 11
144.706115595
 21
88.1257026744
  0
LINE
  5
348
100
AcDbEntity
  8
CURVE
100
AcDbLine
 62
7
  6
CONTINUOUS
 10
144.1559246891
 20
87.1554903405
 11
144.494880793
 21
87.4944464444
  0
LINE
  5
349
100
AcDbEntity
  8
CURVE
100
AcDbLine
 62
7
  6
CONTINUOUS
 10
144.6073391815
 20
87.6069048329
 11
144.7958381579
 21
87.7954038093
  0
LINE
  5
34A
100
AcDbEntity
  8
CURVE
100
AcDbLine
 62
7
  6
CONTINUOUS
 10
144.2980371171
 20
86.8775813404
 11
144.4671756306
 21
87.046719854
  0
LINE
  5
34B
100
AcDbEntity
  8
CURVE
100
AcDbLine
 62
7
  6
CONTINUOUS
 10
144.6975425267
 20
87.2770867501
 11
144.8855607208
 21
87.4651049441
  0
LINE
  5
34C
100
AcDbEntity
  8
CURVE
100
AcDbLine
 62
7
  6
CONTINUOUS
 10
145.0558471543
 20
87.6353913777
 11
145.4366813423
 21
88.0162255657
  0
LINE
  5
34D
100
AcDbEntity
  8
CURVE
100
AcDbLine
 62
7
  6
CONTINUOUS
 10
144.7877458719
 20
86.9472686673
 11
145.5874566923
 21
87.7469794876
  0
LINE
  5
34E
100
AcDbEntity
  8
CURVE
100
AcDbLine
 62
7
  6
CONTINUOUS
 10
144.8779492171
 20
86.6174505845
 11
145.0753929531
 21
86.8148943204
  0
LINE
  5
34F
100
AcDbEntity
  8
CURVE
100
AcDbLine
 62
7
  6
CONTINUOUS
 10
145.3534160453
 20
87.0929174126
 11
145.6176192762
 21
87.3571206435
  0
LINE
  5
350
100
AcDbEntity
  8
CURVE
100
AcDbLine
 62
7
  6
CONTINUOUS
 10
145.3754240082
 20
86.6949039475
 11
145.6477818601
 21
86.9672617994
  0
LINE
  5
351
100
AcDbEntity
  8
CURVE
100
AcDbLine
 62
7
  6
CONTINUOUS
 10
145.397431971
 20
86.2968904823
 11
145.6779444439
 21
86.5774029552
  0
LINE
  5
352
100
AcDbEntity
  8
CURVE
100
AcDbLine
 62
7
  6
CONTINUOUS
 10
146.0735525562
 20
86.9730110675
 11
146.5017878854
 21
87.4012463967
  0
LINE
  5
353
100
AcDbEntity
  8
CURVE
100
AcDbLine
 62
7
  6
CONTINUOUS
 10
145.6294202959
 20
86.1088573791
 11
145.7081070278
 21
86.1875441111
  0
LINE
  5
354
100
AcDbEntity
  8
CURVE
100
AcDbLine
 62
7
  6
CONTINUOUS
 10
145.8739057837
 20
86.3533428669
 11
146.3787561936
 21
86.8581932769
  0
LINE
  5
355
100
AcDbEntity
  8
CURVE
100
AcDbLine
 62
7
  6
CONTINUOUS
 10
146.420315764
 20
86.8997528473
 11
146.6293116144
 21
87.1087486977
  0
LINE
  5
356
100
AcDbEntity
  8
CURVE
100
AcDbLine
 62
7
  6
CONTINUOUS
 10
145.8956969317
 20
85.9551125869
 11
146.2989053169
 21
86.3583209721
  0
LINE
  5
357
100
AcDbEntity
  8
CURVE
100
AcDbLine
 62
7
  6
CONTINUOUS
 10
146.4898002213
 20
86.5492158765
 11
146.707957708
 21
86.7673733633
  0
LINE
  5
358
100
AcDbEntity
  8
CURVE
100
AcDbLine
 62
7
  6
CONTINUOUS
 10
146.3892872603
 20
86.0286814875
 11
146.7866038016
 21
86.4259980288
  0
LINE
  5
359
100
AcDbEntity
  8
CURVE
100
AcDbLine
 62
7
  6
CONTINUOUS
 10
147.1437663169
 20
86.7831605441
 11
147.3016495679
 21
86.9410437951
  0
LINE
  5
35A
100
AcDbEntity
  8
CURVE
100
AcDbLine
 62
7
  6
CONTINUOUS
 10
146.6311327129
 20
85.8505055121
 11
146.8652498953
 21
86.0846226944
  0
LINE
  5
35B
100
AcDbEntity
  8
CURVE
100
AcDbLine
 62
7
  6
CONTINUOUS
 10
147.1437663169
 20
86.363139116
 11
147.5794936326
 21
86.7988664318
  0
LINE
  5
35C
100
AcDbEntity
  8
CURVE
100
AcDbLine
 62
7
  6
CONTINUOUS
 10
146.7030512781
 20
85.5024026493
 11
146.9438959889
 21
85.74324736
  0
LINE
  5
35D
100
AcDbEntity
  8
CURVE
100
AcDbLine
 62
7
  6
CONTINUOUS
 10
147.1437663169
 20
85.943117688
 11
147.4563881774
 21
86.2557395486
  0
LINE
  5
35E
100
AcDbEntity
  8
CURVE
100
AcDbLine
 62
7
  6
CONTINUOUS
 10
147.6495467906
 20
86.4488981617
 11
147.8305355014
 21
86.6298868725
  0
LINE
  5
35F
100
AcDbEntity
  8
CURVE
100
AcDbLine
 62
7
  6
CONTINUOUS
 10
146.9608034747
 20
85.3401334178
 11
147.0225420825
 21
85.4018720256
  0
LINE
  5
360
100
AcDbEntity
  8
CURVE
100
AcDbLine
 62
7
  6
CONTINUOUS
 10
147.1437663169
 20
85.52309626
 11
147.5928882607
 21
85.9722182038
  0
LINE
  5
361
100
AcDbEntity
  8
CURVE
100
AcDbLine
 62
7
  6
CONTINUOUS
 10
147.8544599668
 20
86.2337899099
 11
148.0358443908
 21
86.4151743339
  0
LINE
  5
362
100
AcDbEntity
  8
CURVE
100
AcDbLine
 62
7
  6
CONTINUOUS
 10
147.2270798948
 20
85.1863884099
 11
147.4671545659
 21
85.426463081
  0
LINE
  5
363
100
AcDbEntity
  8
CURVE
100
AcDbLine
 62
7
  6
CONTINUOUS
 10
147.670872198
 20
85.6301807131
 11
148.1692310122
 21
86.1285395273
  0
LINE
  5
364
100
AcDbEntity
  8
CURVE
100
AcDbLine
 62
7
  6
CONTINUOUS
 10
147.8276660212
 20
85.3669531083
 11
148.0120976413
 21
85.5513847283
  0
LINE
  5
365
100
AcDbEntity
  8
CURVE
100
AcDbLine
 62
7
  6
CONTINUOUS
 10
147.9060990174
 20
85.0253646765
 11
148.1378126212
 21
85.2570782802
  0
LWPOLYLINE
  5
366
100
AcDbEntity
  8
0
100
AcDbPolyline
 62
7
  6
CONTINUOUS
 90
9
 70
0
 10
144.600909768
 20
93.4949731235
 10
144.6269316112
 20
93.5107360746
 10
144.6564315676
 20
93.5300055629
 10
144.6859811329
 20
93.5507460969
 10
144.7155987741
 20
93.57302213
 10
144.7452172303
 20
93.5967369125
 10
144.7748140813
 20
93.6218581942
 10
144.8044117472
 20
93.6484182253
 10
144.8340102282
 20
93.6764170057
  0
LINE
  5
367
100
AcDbEntity
  8
0
100
AcDbLine
 62
7
  6
CONTINUOUS
 10
143.1985645057
 20
92.8477710568
 11
146.3572899776
 21
94.7032671352
  0
LINE
  5
368
100
AcDbEntity
  8
0
100
AcDbLine
 62
7
  6
CONTINUOUS
 10
144.6008862745
 20
93.4950155462
 11
143.3423414519
 21
92.7647560501
  0
LINE
  5
369
100
AcDbEntity
  8
0
100
AcDbLine
 62
250
  6
CONTINUOUS
 10
144.8340102282
 20
93.6764170057
 11
143.3019854541
 21
92.7880570974
  0
LWPOLYLINE
  5
36A
100
AcDbEntity
  8
0
100
AcDbPolyline
 62
250
  6
CONTINUOUS
 90
16
 70
0
 10
113.1862415654
 20
145.0634127284
 10
113.201077077
 20
145.0556638562
 10
113.2171790461
 20
145.0488094965
 10
113.2343863617
 20
145.0429182196
 10
113.2525268543
 20
145.0380489598
 10
113.2714190238
 20
145.0342504242
 10
113.2908738572
 20
145.0315606067
 10
113.3106967071
 20
145.0300064101
 10
113.3306892497
 20
145.0296033749
 10
113.3506514754
 20
145.0303555254
 10
113.3703836681
 20
145.0322553296
 10
113.3896884172
 20
145.0352837739
 10
113.4083726025
 20
145.0394105567
 10
113.4262493035
 20
145.0445943883
 10
113.4431396706
 20
145.0507834022
 10
113.4588747275
 20
145.0579156765
  0
LWPOLYLINE
  5
36B
100
AcDbEntity
  8
ASSI
100
AcDbPolyline
 62
250
  6
CONTINUOUS
 90
16
 70
0
 10
113.1862415654
 20
145.0634127284
 10
113.201077077
 20
145.0556638562
 10
113.2171790461
 20
145.0488094965
 10
113.2343863617
 20
145.0429182196
 10
113.2525268543
 20
145.0380489598
 10
113.2714190238
 20
145.0342504242
 10
113.2908738572
 20
145.0315606067
 10
113.3106967071
 20
145.0300064101
 10
113.3306892497
 20
145.0296033749
 10
113.3506514754
 20
145.0303555254
 10
113.3703836681
 20
145.0322553296
 10
113.3896884172
 20
145.0352837739
 10
113.4083726025
 20
145.0394105567
 10
113.4262493035
 20
145.0445943883
 10
113.4431396706
 20
145.0507834022
 10
113.4588747275
 20
145.0579156765
  0
LINE
  5
36C
100
AcDbEntity
  8
0
100
AcDbLine
 62
7
  6
CONTINUOUS
 10
113.7214271029
 20
145.2569062937
 11
176.9369021493
 21
108.7570832779
  0
LINE
  5
36D
100
AcDbEntity
  8
ASSI
100
AcDbLine
 62
7
  6
CONTINUOUS
 10
113.7214271029
 20
145.2569062937
 11
176.9369021493
 21
108.7570832779
  0
LINE
  5
36E
100
AcDbEntity
  8
0
100
AcDbLine
 62
250
  6
CONTINUOUS
 10
113.6800105787
 20
145.3484536659
 11
176.8954856249
 21
108.8486306502
  0
LINE
  5
36F
100
AcDbEntity
  8
ASSI
100
AcDbLine
 62
250
  6
CONTINUOUS
 10
113.6800105787
 20
145.3484536659
 11
176.8954856249
 21
108.8486306502
  0
LWPOLYLINE
  5
370
100
AcDbEntity
  8
0
100
AcDbPolyline
 62
7
  6
CONTINUOUS
 90
24
 70
0
 10
176.936947376
 20
108.7570571882
 10
176.9553560317
 20
108.7458644053
 10
176.9793925917
 20
108.7295947136
 10
177.0042976994
 20
108.7107849828
 10
177.029679293
 20
108.6895568023
 10
177.0553100349
 20
108.6659599656
 10
177.0809787752
 20
108.6400547697
 10
177.1063565821
 20
108.6120577308
 10
177.1312264013
 20
108.5821188585
 10
177.1553844797
 20
108.5503994783
 10
177.1785571406
 20
108.5171953285
 10
177.2005659089
 20
108.4827248624
 10
177.2212461232
 20
108.4472163207
 10
177.2403922646
 20
108.4110198317
 10
177.2578848592
 20
108.3743899719
 10
177.2736184834
 20
108.337590985
 10
177.287466664
 20
108.3010098435
 10
177.2993868262
 20
108.2649040148
 10
177.3093523818
 20
108.2295375529
 10
177.3173329991
 20
108.1953074276
 10
177.3233766016
 20
108.1624312644
 10
177.3275484531
 20
108.1311320578
 10
177.3299321582
 20
108.1018099287
 10
177.330676022
 20
108.0751132055
  0
LWPOLYLINE
  5
371
100
AcDbEntity
  8
ASSI
100
AcDbPolyline
 62
7
  6
CONTINUOUS
 90
24
 70
0
 10
176.936947376
 20
108.7570571882
 10
176.9553560317
 20
108.7458644053
 10
176.9793925917
 20
108.7295947136
 10
177.0042976994
 20
108.7107849828
 10
177.029679293
 20
108.6895568023
 10
177.0553100349
 20
108.6659599656
 10
177.0809787752
 20
108.6400547697
 10
177.1063565821
 20
108.6120577308
 10
177.1312264013
 20
108.5821188585
 10
177.1553844797
 20
108.5503994783
 10
177.1785571406
 20
108.5171953285
 10
177.2005659089
 20
108.4827248624
 10
177.2212461232
 20
108.4472163207
 10
177.2403922646
 20
108.4110198317
 10
177.2578848592
 20
108.3743899719
 10
177.2736184834
 20
108.337590985
 10
177.287466664
 20
108.3010098435
 10
177.2993868262
 20
108.2649040148
 10
177.3093523818
 20
108.2295375529
 10
177.3173329991
 20
108.1953074276
 10
177.3233766016
 20
108.1624312644
 10
177.3275484531
 20
108.1311320578
 10
177.3299321582
 20
108.1018099287
 10
177.330676022
 20
108.0751132055
  0
LWPOLYLINE
  5
372
100
AcDbEntity
  8
0
100
AcDbPolyline
 62
250
  6
CONTINUOUS
 90
5
 70
0
 10
176.8954856249
 20
108.8486306502
 10
176.9278321312
 20
108.8287244911
 10
176.9598029327
 20
108.8066595519
 10
176.9913980292
 20
108.7824358324
 10
177.0227624965
 20
108.7559231177
  0
LWPOLYLINE
  5
373
100
AcDbEntity
  8
ASSI
100
AcDbPolyline
 62
250
  6
CONTINUOUS
 90
5
 70
0
 10
176.8954856249
 20
108.8486306502
 10
176.9278321312
 20
108.8287244911
 10
176.9598029327
 20
108.8066595519
 10
176.9913980292
 20
108.7824358324
 10
177.0227624965
 20
108.7559231177
  0
LWPOLYLINE
  5
374
100
AcDbEntity
  8
0
100
AcDbPolyline
 62
250
  6
CONTINUOUS
 90
9
 70
0
 10
177.3892546382
 20
107.993397633
 10
177.3758342814
 20
108.0019633167
 10
177.363963079
 20
108.0112602407
 10
177.3537597994
 20
108.0211953915
 10
177.3453265239
 20
108.0316693702
 10
177.3387476255
 20
108.0425773874
 10
177.3340889246
 20
108.0538103108
 10
177.3313970302
 20
108.0652557577
 10
177.3306759944
 20
108.0750525516
  0
LWPOLYLINE
  5
375
100
AcDbEntity
  8
ASSI
100
AcDbPolyline
 62
250
  6
CONTINUOUS
 90
9
 70
0
 10
177.3892546382
 20
107.993397633
 10
177.3758342814
 20
108.0019633167
 10
177.363963079
 20
108.0112602407
 10
177.3537597994
 20
108.0211953915
 10
177.3453265239
 20
108.0316693702
 10
177.3387476255
 20
108.0425773874
 10
177.3340889246
 20
108.0538103108
 10
177.3313970302
 20
108.0652557577
 10
177.3306759944
 20
108.0750525516
  0
LWPOLYLINE
  5
376
100
AcDbEntity
  8
0
100
AcDbPolyline
 62
250
  6
CONTINUOUS
 90
10
 70
0
 10
176.305464687
 20
75.102065667
 10
176.3077224878
 20
75.0967570037
 10
176.3095784689
 20
75.0917308926
 10
176.3109987744
 20
75.0870254325
 10
176.3119449722
 20
75.0826994849
 10
176.3123929422
 20
75.0787684129
 10
176.3123072557
 20
75.0752286434
 10
176.3116300467
 20
75.0721413777
 10
176.3103025868
 20
75.0695801857
 10
176.3093891907
 20
75.0685301221
  0
LINE
  5
377
100
AcDbEntity
  8
CURVE
100
AcDbLine
 62
7
  6
CONTINUOUS
 10
148.0259098021
 20
84.7251540331
 11
148.21058641
 21
84.9098306411
  0
LINE
  5
378
100
AcDbEntity
  8
0
100
AcDbLine
 62
7
  6
CONTINUOUS
 10
196.2382922053
 20
116.3834415945
 11
200.30022519
 21
118.7287354967
  0
LINE
  5
379
100
AcDbEntity
  8
ASSI
100
AcDbLine
 62
7
  6
CONTINUOUS
 10
196.2382922053
 20
116.3834415945
 11
200.30022519
 21
118.7287354967
  0
LINE
  5
37A
100
AcDbEntity
  8
0
100
AcDbLine
 62
7
  6
CONTINUOUS
 10
196.9458294746
 20
115.1579510971
 11
201.0077624593
 21
117.5032449993
  0
LINE
  5
37B
100
AcDbEntity
  8
ASSI
100
AcDbLine
 62
7
  6
CONTINUOUS
 10
196.9458294746
 20
115.1579510971
 11
201.0077624593
 21
117.5032449993
  0
LWPOLYLINE
  5
37C
100
AcDbEntity
  8
0
100
AcDbPolyline
 62
250
  6
CONTINUOUS
 90
17
 70
0
 10
177.0227624965
 20
108.7559231177
 10
177.0537512589
 20
108.7272516228
 10
177.0839290897
 20
108.6968119929
 10
177.1132811425
 20
108.6645722725
 10
177.1418222637
 20
108.6305644171
 10
177.1691617659
 20
108.5952749391
 10
177.195262347
 20
108.5587139004
 10
177.220161309
 20
108.5208712392
 10
177.243579871
 20
108.4822032815
 10
177.2655080622
 20
108.4426870568
 10
177.2859558534
 20
108.4023455357
 10
177.3046743767
 20
108.3617039556
 10
177.321617163
 20
108.3208866972
 10
177.3368306814
 20
108.2797693798
 10
177.3502054709
 20
108.2385040992
 10
177.3617927238
 20
108.1969456929
 10
177.3715412477
 20
108.1552393233
  0
LWPOLYLINE
  5
37D
100
AcDbEntity
  8
ASSI
100
AcDbPolyline
 62
250
  6
CONTINUOUS
 90
17
 70
0
 10
177.0227624965
 20
108.7559231177
 10
177.0537512589
 20
108.7272516228
 10
177.0839290897
 20
108.6968119929
 10
177.1132811425
 20
108.6645722725
 10
177.1418222637
 20
108.6305644171
 10
177.1691617659
 20
108.5952749391
 10
177.195262347
 20
108.5587139004
 10
177.220161309
 20
108.5208712392
 10
177.243579871
 20
108.4822032815
 10
177.2655080622
 20
108.4426870568
 10
177.2859558534
 20
108.4023455357
 10
177.3046743767
 20
108.3617039556
 10
177.321617163
 20
108.3208866972
 10
177.3368306814
 20
108.2797693798
 10
177.3502054709
 20
108.2385040992
 10
177.3617927238
 20
108.1969456929
 10
177.3715412477
 20
108.1552393233
  0
LWPOLYLINE
  5
37E
100
AcDbEntity
  8
0
100
AcDbPolyline
 62
250
  6
CONTINUOUS
 90
9
 70
0
 10
176.8954856249
 20
108.8486306502
 10
176.8961930928
 20
108.8327259992
 10
176.8983084102
 20
108.8177974828
 10
176.9018104013
 20
108.8039944527
 10
176.9066640166
 20
108.7914549992
 10
176.9128206849
 20
108.780304566
 10
176.9202188013
 20
108.7706546967
 10
176.9287843392
 20
108.7626019255
 10
176.9369021493
 20
108.7570832779
  0
LWPOLYLINE
  5
37F
100
AcDbEntity
  8
ASSI
100
AcDbPolyline
 62
250
  6
CONTINUOUS
 90
9
 70
0
 10
176.8954856249
 20
108.8486306502
 10
176.8961930928
 20
108.8327259992
 10
176.8983084102
 20
108.8177974828
 10
176.9018104013
 20
108.8039944527
 10
176.9066640166
 20
108.7914549992
 10
176.9128206849
 20
108.780304566
 10
176.9202188013
 20
108.7706546967
 10
176.9287843392
 20
108.7626019255
 10
176.9369021493
 20
108.7570832779
  0
LWPOLYLINE
  5
380
100
AcDbEntity
  8
0
100
AcDbPolyline
 62
7
  6
CONTINUOUS
 90
5
 70
0
 10
162.3056834942
 20
85.547146671
 10
162.3286636993
 20
85.576743153
 10
162.3446219521
 20
85.6111066062
 10
162.3526402026
 20
85.649249226
 10
162.3535219686
 20
85.6683584502
  0
LINE
  5
381
100
AcDbEntity
  8
0
100
AcDbLine
 62
7
  6
CONTINUOUS
 10
161.0866934749
 20
84.8236409274
 11
160.7439128049
 21
84.4902386558
  0
LINE
  5
382
100
AcDbEntity
  8
0
100
AcDbLine
 62
7
  6
CONTINUOUS
 10
162.2765433997
 20
85.5229567696
 11
162.3056834942
 21
85.547146671
  0
LWPOLYLINE
  5
383
100
AcDbEntity
  8
0
100
AcDbPolyline
 62
7
  6
CONTINUOUS
 90
6
 70
0
 10
162.2765299378
 20
85.9501905195
 10
162.307797296
 20
85.9743799942
 10
162.3309200042
 20
85.9996865318
 10
162.3458980624
 20
86.0261101322
 10
162.3526948126
 20
86.0544492611
 10
162.3531440938
 20
86.0647045064
  0
LINE
  5
384
100
AcDbEntity
  8
0
100
AcDbLine
 62
7
  6
CONTINUOUS
 10
162.2765299378
 20
85.9501905195
 11
158.8677777481
 21
83.800563712
  0
LWPOLYLINE
  5
385
100
AcDbEntity
  8
0
100
AcDbPolyline
 62
7
  6
CONTINUOUS
 90
9
 70
0
 10
160.5108123447
 20
84.3087947736
 10
160.5368341879
 20
84.3245577248
 10
160.5663341443
 20
84.3438272131
 10
160.5958837096
 20
84.364567747
 10
160.6255013508
 20
84.3868437801
 10
160.655119807
 20
84.4105585626
 10
160.684716658
 20
84.4356798444
 10
160.7143143239
 20
84.4622398754
 10
160.7439128049
 20
84.4902386558
  0
LINE
  5
386
100
AcDbEntity
  8
0
100
AcDbLine
 62
7
  6
CONTINUOUS
 10
159.1084670824
 20
83.661592707
 11
162.2671925543
 21
85.5170887853
  0
LINE
  5
387
100
AcDbEntity
  8
0
100
AcDbLine
 62
7
  6
CONTINUOUS
 10
160.5107888512
 20
84.3088371963
 11
159.2522440286
 21
83.5785777002
  0
LINE
  5
388
100
AcDbEntity
  8
0
100
AcDbLine
 62
250
  6
CONTINUOUS
 10
160.7439128049
 20
84.4902386558
 11
159.2118880308
 21
83.6018787476
  0
LINE
  5
389
100
AcDbEntity
  8
0
100
AcDbLine
 62
7
  6
CONTINUOUS
 10
154.3752469319
 20
86.3944947007
 11
158.1610497737
 21
88.3264171872
  0
LINE
  5
38A
100
AcDbEntity
  8
0
100
AcDbLine
 62
7
  6
CONTINUOUS
 10
196.9243281227
 20
115.1699460445
 11
196.9458294746
 21
115.1579510971
  0
LINE
  5
38B
100
AcDbEntity
  8
ASSI
100
AcDbLine
 62
7
  6
CONTINUOUS
 10
196.9243281227
 20
115.1699460445
 11
196.9458294746
 21
115.1579510971
  0
LINE
  5
38C
100
AcDbEntity
  8
0
100
AcDbLine
 62
7
  6
CONTINUOUS
 10
195.2283930576
 20
115.3055282598
 11
95.347103146
 21
172.9757332483
  0
LINE
  5
38D
100
AcDbEntity
  8
ASSI
100
AcDbLine
 62
7
  6
CONTINUOUS
 10
195.2283930576
 20
115.3055282598
 11
95.347103146
 21
172.9757332483
  0
LWPOLYLINE
  5
38E
100
AcDbEntity
  8
0
100
AcDbPolyline
 62
250
  6
CONTINUOUS
 90
5
 70
0
 10
177.3715412477
 20
108.1552393233
 10
177.3791880049
 20
108.1139725742
 10
177.3846453161
 20
108.0733413067
 10
177.3880008605
 20
108.0331496597
 10
177.3892546382
 20
107.993397633
  0
LWPOLYLINE
  5
38F
100
AcDbEntity
  8
ASSI
100
AcDbPolyline
 62
250
  6
CONTINUOUS
 90
5
 70
0
 10
177.3715412477
 20
108.1552393233
 10
177.3791880049
 20
108.1139725742
 10
177.3846453161
 20
108.0733413067
 10
177.3880008605
 20
108.0331496597
 10
177.3892546382
 20
107.993397633
  0
LINE
  5
390
100
AcDbEntity
  8
0
100
AcDbLine
 62
7
  6
CONTINUOUS
 10
177.3306759944
 20
108.0750525516
 11
177.3306759944
 21
71.8236235318
  0
LINE
  5
391
100
AcDbEntity
  8
ASSI
100
AcDbLine
 62
7
  6
CONTINUOUS
 10
177.3306759944
 20
108.0750525516
 11
177.3306759944
 21
71.8236235318
  0
LINE
  5
392
100
AcDbEntity
  8
0
100
AcDbLine
 62
250
  6
CONTINUOUS
 10
177.3892546382
 20
107.993397633
 11
177.3892546382
 21
71.7419686133
  0
LINE
  5
393
100
AcDbEntity
  8
ASSI
100
AcDbLine
 62
250
  6
CONTINUOUS
 10
177.3892546382
 20
107.993397633
 11
177.3892546382
 21
71.7419686133
  0
LWPOLYLINE
  5
394
100
AcDbEntity
  8
0
100
AcDbPolyline
 62
7
  6
CONTINUOUS
 90
12
 70
0
 10
177.3306760928
 20
71.8235089992
 10
177.3305778344
 20
71.8142056908
 10
177.3294872524
 20
71.7915704407
 10
177.3272335188
 20
71.7704056733
 10
177.3238794505
 20
71.7508570949
 10
177.3195555508
 20
71.7332635111
 10
177.3145501714
 20
71.7181336612
 10
177.3091956454
 20
71.70566941
 10
177.3037658789
 20
71.6957492361
 10
177.298561184
 20
71.6882365017
 10
177.2938318403
 20
71.682877373
 10
177.2897615448
 20
71.6793072572
  0
LWPOLYLINE
  5
395
100
AcDbEntity
  8
ASSI
100
AcDbPolyline
 62
7
  6
CONTINUOUS
 90
12
 70
0
 10
177.3306760928
 20
71.8235089992
 10
177.3305778344
 20
71.8142056908
 10
177.3294872524
 20
71.7915704407
 10
177.3272335188
 20
71.7704056733
 10
177.3238794505
 20
71.7508570949
 10
177.3195555508
 20
71.7332635111
 10
177.3145501714
 20
71.7181336612
 10
177.3091956454
 20
71.70566941
 10
177.3037658789
 20
71.6957492361
 10
177.298561184
 20
71.6882365017
 10
177.2938318403
 20
71.682877373
 10
177.2897615448
 20
71.6793072572
  0
LWPOLYLINE
  5
396
100
AcDbEntity
  8
0
100
AcDbPolyline
 62
250
  6
CONTINUOUS
 90
4
 70
0
 10
177.3892546382
 20
71.7419686133
 10
177.3881896596
 20
71.7052341936
 10
177.3850671917
 20
71.6701215551
 10
177.3798872345
 20
71.6366306978
  0
LWPOLYLINE
  5
397
100
AcDbEntity
  8
ASSI
100
AcDbPolyline
 62
250
  6
CONTINUOUS
 90
4
 70
0
 10
177.3892546382
 20
71.7419686133
 10
177.3881896596
 20
71.7052341936
 10
177.3850671917
 20
71.6701215551
 10
177.3798872345
 20
71.6366306978
  0
LWPOLYLINE
  5
398
100
AcDbEntity
  8
0
100
AcDbPolyline
 62
250
  6
CONTINUOUS
 90
16
 70
0
 10
176.8954856249
 20
71.4569276758
 10
176.8961930683
 20
71.4736489976
 10
176.8983083208
 20
71.4910199645
 10
176.9018102196
 20
71.5088667842
 10
176.9066637292
 20
71.5270109034
 10
176.9128202914
 20
71.5452707946
 10
176.9202183112
 20
71.563463772
 10
176.9287837732
 20
71.5814078191
 10
176.938430982
 20
71.5989234101
 10
176.9490634197
 20
71.6158353057
 10
176.9605747111
 20
71.6319743065
 10
176.9728496886
 20
71.6471789455
 10
176.985765544
 20
71.661297104
 10
176.9991930573
 20
71.6741875332
 10
177.0129978893
 20
71.6857212674
 10
177.0270419261
 20
71.6957829145
  0
LWPOLYLINE
  5
399
100
AcDbEntity
  8
ASSI
100
AcDbPolyline
 62
250
  6
CONTINUOUS
 90
16
 70
0
 10
176.8954856249
 20
71.4569276758
 10
176.8961930683
 20
71.4736489976
 10
176.8983083208
 20
71.4910199645
 10
176.9018102196
 20
71.5088667842
 10
176.9066637292
 20
71.5270109034
 10
176.9128202914
 20
71.5452707946
 10
176.9202183112
 20
71.563463772
 10
176.9287837732
 20
71.5814078191
 10
176.938430982
 20
71.5989234101
 10
176.9490634197
 20
71.6158353057
 10
176.9605747111
 20
71.6319743065
 10
176.9728496886
 20
71.6471789455
 10
176.985765544
 20
71.661297104
 10
176.9991930573
 20
71.6741875332
 10
177.0129978893
 20
71.6857212674
 10
177.0270419261
 20
71.6957829145
  0
LINE
  5
39A
100
AcDbEntity
  8
0
100
AcDbLine
 62
7
  6
CONTINUOUS
 10
195.2283930576
 20
115.3055282598
 11
196.237929775
 21
116.3588228556
  0
LINE
  5
39B
100
AcDbEntity
  8
ASSI
100
AcDbLine
 62
7
  6
CONTINUOUS
 10
195.2283930576
 20
115.3055282598
 11
196.237929775
 21
116.3588228556
  0
LINE
  5
39C
100
AcDbEntity
  8
0
100
AcDbLine
 62
7
  6
CONTINUOUS
 10
196.2382922053
 20
116.3834415945
 11
95.75055606
 21
174.4038010376
  0
LINE
  5
39D
100
AcDbEntity
  8
ASSI
100
AcDbLine
 62
7
  6
CONTINUOUS
 10
196.2382922053
 20
116.3834415945
 11
95.75055606
 21
174.4038010376
  0
LINE
  5
39E
100
AcDbEntity
  8
0
100
AcDbLine
 62
7
  6
CONTINUOUS
 10
200.30022519
 20
118.7287354967
 11
99.5383698471
 21
176.907367929
  0
LINE
  5
39F
100
AcDbEntity
  8
ASSI
100
AcDbLine
 62
7
  6
CONTINUOUS
 10
200.30022519
 20
118.7287354967
 11
99.5383698471
 21
176.907367929
  0
LWPOLYLINE
  5
3A0
100
AcDbEntity
  8
0
100
AcDbPolyline
 62
250
  6
CONTINUOUS
 90
22
 70
0
 10
177.3798872345
 20
71.6366306978
 10
177.3726095596
 20
71.6046173356
 10
177.3632743953
 20
71.5742257546
 10
177.352002427
 20
71.5458888129
 10
177.3387585554
 20
71.5196439191
 10
177.3235778797
 20
71.4954536647
 10
177.3066863829
 20
71.4736386823
 10
177.2880741264
 20
71.454247782
 10
177.2677510488
 20
71.4372321537
 10
177.2459729489
 20
71.4227660005
 10
177.2227149472
 20
71.4108752008
 10
177.1980019233
 20
71.4015338762
 10
177.1721643147
 20
71.394838595
 10
177.1452866051
 20
71.3907942335
 10
177.1172843108
 20
71.3893959153
 10
177.0882344193
 20
71.3907255795
 10
177.0580368105
 20
71.3947819242
 10
177.0267916045
 20
71.4015662514
 10
176.9948761482
 20
71.4111644057
 10
176.962416224
 20
71.4236050019
 10
176.9292860496
 20
71.4388594253
 10
176.8954856249
 20
71.4569276758
  0
LWPOLYLINE
  5
3A1
100
AcDbEntity
  8
ASSI
100
AcDbPolyline
 62
250
  6
CONTINUOUS
 90
22
 70
0
 10
177.3798872345
 20
71.6366306978
 10
177.3726095596
 20
71.6046173356
 10
177.3632743953
 20
71.5742257546
 10
177.352002427
 20
71.5458888129
 10
177.3387585554
 20
71.5196439191
 10
177.3235778797
 20
71.4954536647
 10
177.3066863829
 20
71.4736386823
 10
177.2880741264
 20
71.454247782
 10
177.2677510488
 20
71.4372321537
 10
177.2459729489
 20
71.4227660005
 10
177.2227149472
 20
71.4108752008
 10
177.1980019233
 20
71.4015338762
 10
177.1721643147
 20
71.394838595
 10
177.1452866051
 20
71.3907942335
 10
177.1172843108
 20
71.3893959153
 10
177.0882344193
 20
71.3907255795
 10
177.0580368105
 20
71.3947819242
 10
177.0267916045
 20
71.4015662514
 10
176.9948761482
 20
71.4111644057
 10
176.962416224
 20
71.4236050019
 10
176.9292860496
 20
71.4388594253
 10
176.8954856249
 20
71.4569276758
  0
LINE
  5
3A2
100
AcDbEntity
  8
0
100
AcDbLine
 62
250
  6
CONTINUOUS
 10
176.2999171329
 20
75.0849022567
 11
176.305464687
 21
75.102065667
  0
LINE
  5
3A3
100
AcDbEntity
  8
0
100
AcDbLine
 62
7
  6
CONTINUOUS
 10
170.4327193783
 20
77.1231113576
 11
170.460749512
 21
77.1716609733
  0
LINE
  5
3A4
100
AcDbEntity
  8
0
100
AcDbLine
 62
7
  6
CONTINUOUS
 10
170.7082368855
 20
77.1920865395
 11
170.8143029026
 21
77.37579827
  0
LINE
  5
3A5
100
AcDbEntity
  8
0
100
AcDbLine
 62
7
  6
CONTINUOUS
 10
171.061790276
 20
77.3962238361
 11
171.1678562932
 21
77.5799355667
  0
LINE
  5
3A6
100
AcDbEntity
  8
0
100
AcDbLine
 62
7
  6
CONTINUOUS
 10
171.4153436666
 20
77.6003611328
 11
171.5214096838
 21
77.7840728633
  0
LINE
  5
3A7
100
AcDbEntity
  8
0
100
AcDbLine
 62
7
  6
CONTINUOUS
 10
171.7688970572
 20
77.8044984295
 11
171.8749630744
 21
77.98821016
  0
LINE
  5
3A8
100
AcDbEntity
  8
0
100
AcDbLine
 62
7
  6
CONTINUOUS
 10
172.1224504478
 20
78.0086357261
 11
172.228516465
 21
78.1923474567
  0
LINE
  5
3A9
100
AcDbEntity
  8
0
100
AcDbLine
 62
7
  6
CONTINUOUS
 10
172.4760038384
 20
78.2127730228
 11
172.5820698556
 21
78.3964847533
  0
LINE
  5
3AA
100
AcDbEntity
  8
0
100
AcDbLine
 62
7
  6
CONTINUOUS
 10
174.3218066748
 20
74.8776010942
 11
174.3498368086
 21
74.92615071
  0
LINE
  5
3AB
100
AcDbEntity
  8
0
100
AcDbLine
 62
7
  6
CONTINUOUS
 10
170.460749512
 20
77.1716609733
 11
170.6021708683
 21
77.253315892
  0
LINE
  5
3AC
100
AcDbEntity
  8
0
100
AcDbLine
 62
7
  6
CONTINUOUS
 10
170.8143029026
 20
77.37579827
 11
170.9557242589
 21
77.4574531887
  0
LINE
  5
3AD
100
AcDbEntity
  8
0
100
AcDbLine
 62
7
  6
CONTINUOUS
 10
171.1678562932
 20
77.5799355667
 11
171.3092776495
 21
77.6615904853
  0
LINE
  5
3AE
100
AcDbEntity
  8
0
100
AcDbLine
 62
7
  6
CONTINUOUS
 10
171.5214096838
 20
77.7840728633
 11
171.6628310401
 21
77.865727782
  0
LINE
  5
3AF
100
AcDbEntity
  8
0
100
AcDbLine
 62
7
  6
CONTINUOUS
 10
171.8749630744
 20
77.98821016
 11
172.0163844306
 21
78.0698650787
  0
LINE
  5
3B0
100
AcDbEntity
  8
0
100
AcDbLine
 62
7
  6
CONTINUOUS
 10
172.228516465
 20
78.1923474567
 11
172.3699378212
 21
78.2740023753
  0
LINE
  5
3B1
100
AcDbEntity
  8
0
100
AcDbLine
 62
7
  6
CONTINUOUS
 10
172.5820698556
 20
78.3964847533
 11
172.7234912118
 21
78.478139672
  0
LINE
  5
3B2
100
AcDbEntity
  8
0
100
AcDbLine
 62
7
  6
CONTINUOUS
 10
170.205035789
 20
77.2545730085
 11
172.7570862145
 21
78.5813381145
  0
LINE
  5
3B3
100
AcDbEntity
  8
0
100
AcDbLine
 62
7
  6
CONTINUOUS
 10
172.8311333674
 20
78.6157819105
 11
174.1414876231
 21
79.1532442372
  0
LINE
  5
3B4
100
AcDbEntity
  8
0
100
AcDbLine
 62
7
  6
CONTINUOUS
 10
174.597324182
 20
74.9465762762
 11
174.7033901992
 21
75.1302880067
  0
LINE
  5
3B5
100
AcDbEntity
  8
0
100
AcDbLine
 62
7
  6
CONTINUOUS
 10
174.9508775726
 20
75.1507135728
 11
175.0569435898
 21
75.3344253034
  0
LINE
  5
3B6
100
AcDbEntity
  8
0
100
AcDbLine
 62
7
  6
CONTINUOUS
 10
175.3044309632
 20
75.3548508695
 11
175.4104969803
 21
75.5385626
  0
LINE
  5
3B7
100
AcDbEntity
  8
0
100
AcDbLine
 62
7
  6
CONTINUOUS
 10
175.6579843538
 20
75.5589881662
 11
175.7640503709
 21
75.7426998967
  0
LINE
  5
3B8
100
AcDbEntity
  8
0
100
AcDbLine
 62
7
  6
CONTINUOUS
 10
176.0115377444
 20
75.7631254628
 11
176.1176037615
 21
75.9468371934
  0
LINE
  5
3B9
100
AcDbEntity
  8
0
100
AcDbLine
 62
7
  6
CONTINUOUS
 10
176.3650911349
 20
75.9672627595
 11
176.4711571521
 21
76.15097449
  0
LINE
  5
3BA
100
AcDbEntity
  8
0
100
AcDbLine
 62
250
  6
CONTINUOUS
 10
176.305464687
 20
75.102065667
 11
176.641409652
 21
75.4288192568
  0
LINE
  5
3BB
100
AcDbEntity
  8
0
100
AcDbLine
 62
7
  6
CONTINUOUS
 10
176.3093895445
 20
75.0685304663
 11
176.7383739253
 21
75.4857779354
  0
LWPOLYLINE
  5
3BC
100
AcDbEntity
  8
0
100
AcDbPolyline
 62
250
  6
CONTINUOUS
 90
6
 70
0
 10
176.2507752582
 20
75.0240664926
 10
176.2630861562
 20
75.0324902904
 10
176.2743605564
 20
75.0429440995
 10
176.2843064608
 20
75.0552289735
 10
176.2928464206
 20
75.069250279
 10
176.2999171329
 20
75.0849022567
  0
LINE
  5
3BD
100
AcDbEntity
  8
0
100
AcDbLine
 62
7
  6
CONTINUOUS
 10
177.0034234727
 20
76.1295562006
 11
174.7055469484
 21
74.6560342697
  0
LINE
  5
3BE
100
AcDbEntity
  8
0
100
AcDbLine
 62
7
  6
CONTINUOUS
 10
175.0183696591
 20
74.4754143571
 11
177.3306759944
 21
75.8337075596
  0
LINE
  5
3BF
100
AcDbEntity
  8
0
100
AcDbLine
 62
7
  6
CONTINUOUS
 10
176.2507751989
 20
75.0240664582
 11
175.1621466053
 21
74.3923993503
  0
LINE
  5
3C0
100
AcDbEntity
  8
0
100
AcDbLine
 62
250
  6
CONTINUOUS
 10
176.305464687
 20
75.102065667
 11
175.1217906075
 21
74.4157003977
  0
LINE
  5
3C1
100
AcDbEntity
  8
0
100
AcDbLine
 62
7
  6
CONTINUOUS
 10
174.3498368086
 20
74.92615071
 11
174.4912581648
 21
75.0078056287
  0
LINE
  5
3C2
100
AcDbEntity
  8
0
100
AcDbLine
 62
7
  6
CONTINUOUS
 10
174.7033901992
 20
75.1302880067
 11
174.8448115554
 21
75.2119429254
  0
LINE
  5
3C3
100
AcDbEntity
  8
0
100
AcDbLine
 62
7
  6
CONTINUOUS
 10
175.0569435898
 20
75.3344253034
 11
175.198364946
 21
75.416080222
  0
LINE
  5
3C4
100
AcDbEntity
  8
0
100
AcDbLine
 62
7
  6
CONTINUOUS
 10
175.4104969803
 20
75.5385626
 11
175.5519183366
 21
75.6202175187
  0
LINE
  5
3C5
100
AcDbEntity
  8
0
100
AcDbLine
 62
7
  6
CONTINUOUS
 10
175.7640503709
 20
75.7426998967
 11
175.9054717272
 21
75.8243548154
  0
LINE
  5
3C6
100
AcDbEntity
  8
0
100
AcDbLine
 62
7
  6
CONTINUOUS
 10
176.1176037615
 20
75.9468371934
 11
176.2590251178
 21
76.028492112
  0
LINE
  5
3C7
100
AcDbEntity
  8
0
100
AcDbLine
 62
7
  6
CONTINUOUS
 10
176.4711571521
 20
76.15097449
 11
176.6125785084
 21
76.2326294087
  0
LINE
  5
3C8
100
AcDbEntity
  8
0
100
AcDbLine
 62
7
  6
CONTINUOUS
 10
176.7186445255
 20
76.1714000562
 11
174.399835017
 21
74.8325485074
  0
LINE
  5
3C9
100
AcDbEntity
  8
0
100
AcDbLine
 62
7
  6
CONTINUOUS
 10
177.3306759944
 20
76.3036038155
 11
177.0700958287
 21
76.168258112
  0
LINE
  5
3CA
100
AcDbEntity
  8
0
100
AcDbLine
 62
7
  6
CONTINUOUS
 10
195.5073689918
 20
114.8223277683
 11
195.2283930576
 21
115.3055282598
  0
LINE
  5
3CB
100
AcDbEntity
  8
ASSI
100
AcDbLine
 62
7
  6
CONTINUOUS
 10
195.5073689918
 20
114.8223277683
 11
195.2283930576
 21
115.3055282598
  0
LINE
  5
3CC
100
AcDbEntity
  8
0
100
AcDbLine
 62
7
  6
CONTINUOUS
 10
196.9243281227
 20
115.1699460445
 11
196.237929775
 21
116.3588228556
  0
LINE
  5
3CD
100
AcDbEntity
  8
ASSI
100
AcDbLine
 62
7
  6
CONTINUOUS
 10
196.9243281227
 20
115.1699460445
 11
196.237929775
 21
116.3588228556
  0
LINE
  5
3CE
100
AcDbEntity
  8
0
100
AcDbLine
 62
7
  6
CONTINUOUS
 10
195.5073689918
 20
43.990694169
 11
195.5073689918
 21
114.8223277683
  0
LINE
  5
3CF
100
AcDbEntity
  8
ASSI
100
AcDbLine
 62
7
  6
CONTINUOUS
 10
195.5073689918
 20
43.990694169
 11
195.5073689918
 21
114.8223277683
  0
LINE
  5
3D0
100
AcDbEntity
  8
0
100
AcDbLine
 62
7
  6
CONTINUOUS
 10
196.9458294746
 20
43.6260762649
 11
196.9458294746
 21
115.1579510971
  0
LINE
  5
3D1
100
AcDbEntity
  8
ASSI
100
AcDbLine
 62
7
  6
CONTINUOUS
 10
196.9458294746
 20
43.6260762649
 11
196.9458294746
 21
115.1579510971
  0
LINE
  5
3D2
100
AcDbEntity
  8
0
100
AcDbLine
 62
7
  6
CONTINUOUS
 10
196.2382922053
 20
116.3834415945
 11
196.237929775
 21
116.3588228556
  0
LINE
  5
3D3
100
AcDbEntity
  8
ASSI
100
AcDbLine
 62
7
  6
CONTINUOUS
 10
196.2382922053
 20
116.3834415945
 11
196.237929775
 21
116.3588228556
  0
LINE
  5
3D4
100
AcDbEntity
  8
0
100
AcDbLine
 62
250
  6
CONTINUOUS
 10
177.0270419261
 20
71.6957829145
 11
177.3306759944
 21
71.9238183985
  0
LINE
  5
3D5
100
AcDbEntity
  8
ASSI
100
AcDbLine
 62
250
  6
CONTINUOUS
 10
177.0270419261
 20
71.6957829145
 11
177.3306759944
 21
71.9238183985
  0
LINE
  5
3D6
100
AcDbEntity
  8
0
100
AcDbLine
 62
7
  6
CONTINUOUS
 10
177.2895590095
 20
71.6791552861
 11
177.2891934875
 21
71.6788815405
  0
LINE
  5
3D7
100
AcDbEntity
  8
ASSI
100
AcDbLine
 62
7
  6
CONTINUOUS
 10
177.2895590095
 20
71.6791552861
 11
177.2891934875
 21
71.6788815405
  0
LWPOLYLINE
  5
3D8
100
AcDbEntity
  8
0
100
AcDbPolyline
 62
250
  6
CONTINUOUS
 90
13
 70
0
 10
177.2891934875
 20
71.6788815405
 10
177.2736210433
 20
71.6685511423
 10
177.2570148322
 20
71.6600541939
 10
177.2394924324
 20
71.6534559808
 10
177.2211345481
 20
71.6487787029
 10
177.2020845545
 20
71.6460420129
 10
177.1823720747
 20
71.6452356287
 10
177.1618913136
 20
71.6463715742
 10
177.1406468143
 20
71.6495023747
 10
177.1187825798
 20
71.6546601124
 10
177.0963911677
 20
71.6618602081
 10
177.0735694037
 20
71.6711120623
 10
177.050417149
 20
71.6824217501
  0
LWPOLYLINE
  5
3D9
100
AcDbEntity
  8
ASSI
100
AcDbPolyline
 62
250
  6
CONTINUOUS
 90
13
 70
0
 10
177.2891934875
 20
71.6788815405
 10
177.2736210433
 20
71.6685511423
 10
177.2570148322
 20
71.6600541939
 10
177.2394924324
 20
71.6534559808
 10
177.2211345481
 20
71.6487787029
 10
177.2020845545
 20
71.6460420129
 10
177.1823720747
 20
71.6452356287
 10
177.1618913136
 20
71.6463715742
 10
177.1406468143
 20
71.6495023747
 10
177.1187825798
 20
71.6546601124
 10
177.0963911677
 20
71.6618602081
 10
177.0735694037
 20
71.6711120623
 10
177.050417149
 20
71.6824217501
  0
LINE
  5
3DA
100
AcDbEntity
  8
0
100
AcDbLine
 62
7
  6
CONTINUOUS
 10
200.30022519
 20
118.7287354967
 11
201.0077624593
 21
117.5032449993
  0
LINE
  5
3DB
100
AcDbEntity
  8
ASSI
100
AcDbLine
 62
7
  6
CONTINUOUS
 10
200.30022519
 20
118.7287354967
 11
201.0077624593
 21
117.5032449993
  0
LINE
  5
3DC
100
AcDbEntity
  8
0
100
AcDbLine
 62
7
  6
CONTINUOUS
 10
201.0077624593
 20
45.6548547792
 11
201.0077624593
 21
117.5032449993
  0
LINE
  5
3DD
100
AcDbEntity
  8
ASSI
100
AcDbLine
 62
7
  6
CONTINUOUS
 10
201.0077624593
 20
45.6548547792
 11
201.0077624593
 21
117.5032449993
  0
LINE
  5
3DE
100
AcDbEntity
  8
0
100
AcDbLine
 62
7
  6
CONTINUOUS
 10
195.2283930576
 20
43.8296480934
 11
195.5073689918
 21
43.990694169
  0
LINE
  5
3DF
100
AcDbEntity
  8
ASSI
100
AcDbLine
 62
7
  6
CONTINUOUS
 10
195.2283930576
 20
43.8296480934
 11
195.5073689918
 21
43.990694169
  0
LINE
  5
3E0
100
AcDbEntity
  8
0
100
AcDbLine
 62
7
  6
CONTINUOUS
 10
196.237929775
 20
43.2182735087
 11
196.9243281227
 21
43.6145147131
  0
LINE
  5
3E1
100
AcDbEntity
  8
ASSI
100
AcDbLine
 62
7
  6
CONTINUOUS
 10
196.237929775
 20
43.2182735087
 11
196.9243281227
 21
43.6145147131
  0
LINE
  5
3E2
100
AcDbEntity
  8
0
100
AcDbLine
 62
7
  6
CONTINUOUS
 10
201.0077624593
 20
45.6548547792
 11
200.30022519
 21
45.2464105853
  0
LINE
  5
3E3
100
AcDbEntity
  8
ASSI
100
AcDbLine
 62
7
  6
CONTINUOUS
 10
201.0077624593
 20
45.6548547792
 11
200.30022519
 21
45.2464105853
  0
LINE
  5
3E4
100
AcDbEntity
  8
0
100
AcDbLine
 62
7
  6
CONTINUOUS
 10
196.9458294746
 20
43.6260762649
 11
196.9243281227
 21
43.6145147131
  0
LINE
  5
3E5
100
AcDbEntity
  8
ASSI
100
AcDbLine
 62
7
  6
CONTINUOUS
 10
196.9458294746
 20
43.6260762649
 11
196.9243281227
 21
43.6145147131
  0
LINE
  5
3E6
100
AcDbEntity
  8
0
100
AcDbLine
 62
7
  6
CONTINUOUS
 10
196.9458294746
 20
43.6260762649
 11
201.0077624593
 21
45.6548547792
  0
LINE
  5
3E7
100
AcDbEntity
  8
ASSI
100
AcDbLine
 62
7
  6
CONTINUOUS
 10
196.9458294746
 20
43.6260762649
 11
201.0077624593
 21
45.6548547792
  0
LINE
  5
3E8
100
AcDbEntity
  8
0
100
AcDbLine
 62
7
  6
CONTINUOUS
 10
196.2382922053
 20
43.217632071
 11
200.30022519
 21
45.2464105853
  0
LINE
  5
3E9
100
AcDbEntity
  8
ASSI
100
AcDbLine
 62
7
  6
CONTINUOUS
 10
196.2382922053
 20
43.217632071
 11
200.30022519
 21
45.2464105853
  0
ARC
  5
3EA
100
AcDbEntity
  8
0
100
AcDbCircle
 62
7
  6
CONTINUOUS
 10
118.0792737141
 20
132.0503225036
 40
0.3
100
AcDbArc
 50
0.0007993011
 51
59.999200789
  0
ARC
  5
3EB
100
AcDbEntity
  8
0
100
AcDbCircle
 62
7
  6
CONTINUOUS
 10
117.6600916085
 20
132.2923529978
 40
0.3
100
AcDbArc
 50
60.0005489507
 51
118.2699256376
  0
ARC
  5
3EC
100
AcDbEntity
  8
0
100
AcDbCircle
 62
7
  6
CONTINUOUS
 10
118.0792737141
 20
127.769721507
 40
0.3
100
AcDbArc
 50
301.7332683128
 51
359.9978457589
  0
ARC
  5
3ED
100
AcDbEntity
  8
0
100
AcDbCircle
 62
7
  6
CONTINUOUS
 10
176.1000557965
 20
75.2837143839
 40
0.3
100
AcDbArc
 50
300.1089913819
 51
314.200140549
  0
ARC
  5
3EE
100
AcDbEntity
  8
0
100
AcDbCircle
 62
7
  6
CONTINUOUS
 10
128.3703480664
 20
102.8422494335
 40
0.3
100
AcDbArc
 50
300.1089913819
 51
314.200140549
  0
ELLIPSE
  5
3EF
100
AcDbEntity
  8
0
100
AcDbEllipse
 62
7
  6
CONTINUOUS
 10
130.3716074048
 20
103.8463673141
 30
0.0
 11
0.1999995634
 21
0.1164181051
 31
0.0
 40
0.0035896273
 41
-0.7351277754
 42
-0.6748017824
  0
ELLIPSE
  5
3F0
100
AcDbEntity
  8
0
100
AcDbEllipse
 62
7
  6
CONTINUOUS
 10
174.2753137444
 20
79.0682823506
 30
0.0
 11
0.1998333781
 21
-0.0157785196
 31
0.0
 40
0.5172961965
 41
0.8262203412
 42
2.3446567905
  0
ELLIPSE
  5
3F1
100
AcDbEntity
  8
0
100
AcDbEllipse
 62
7
  6
CONTINUOUS
 10
126.5456060143
 20
106.6268174002
 30
0.0
 11
0.1998333781
 21
-0.0157785196
 31
0.0
 40
0.5172961965
 41
0.8262203412
 42
2.3446567905
  0
ELLIPSE
  5
3F2
100
AcDbEntity
  8
0
100
AcDbEllipse
 62
7
  6
CONTINUOUS
 10
172.7570862145
 20
77.7648678377
 30
0.0
 11
0.5413005334
 21
0.8416911418
 31
0.0
 40
0.6067084637
 41
0.7148472392
 42
0.8145158917
  0
ELLIPSE
  5
3F3
100
AcDbEntity
  8
0
100
AcDbEllipse
 62
7
  6
CONTINUOUS
 10
125.0273784844
 20
105.3234028873
 30
0.0
 11
0.5413005334
 21
0.8416911418
 31
0.0
 40
0.6067084637
 41
0.7148472392
 42
0.8145158917
  0
ELLIPSE
  5
3F4
100
AcDbEntity
  8
0
100
AcDbEllipse
 62
7
  6
CONTINUOUS
 10
162.266023105
 20
85.8628066922
 30
0.0
 11
0.0858610644
 21
0.3627848639
 31
0.0
 40
0.5009985936
 41
-2.6944494219
 42
-2.6479073085
  0
ELLIPSE
  5
3F5
100
AcDbEntity
  8
0
100
AcDbEllipse
 62
7
  6
CONTINUOUS
 10
146.3561205283
 20
95.0489850421
 30
0.0
 11
0.0858610644
 21
0.3627848639
 31
0.0
 40
0.5009985936
 41
-2.6944494219
 42
-2.6479073085
  0
ELLIPSE
  5
3F6
100
AcDbEntity
  8
0
100
AcDbEllipse
 62
7
  6
CONTINUOUS
 10
130.3716074048
 20
104.4177321483
 30
0.0
 11
0.1998333781
 21
-0.0157785196
 31
0.0
 40
0.5172961965
 41
-0.692216108
 42
0.8262203412
  0
ELLIPSE
  5
3F7
100
AcDbEntity
  8
0
100
AcDbEllipse
 62
7
  6
CONTINUOUS
 10
177.0034234727
 20
75.3130859238
 30
0.0
 11
0.4625183445
 21
0.8873459255
 31
0.0
 40
0.5463614449
 41
0.662201126
 42
0.7618697785
  0
ELLIPSE
  5
3F8
100
AcDbEntity
  8
0
100
AcDbEllipse
 62
7
  6
CONTINUOUS
 10
129.2737157427
 20
102.8716209735
 30
0.0
 11
0.4625183445
 21
0.8873459255
 31
0.0
 40
0.5463614449
 41
0.662201126
 42
0.7618697785
  0
ELLIPSE
  5
3F9
100
AcDbEntity
  8
0
100
AcDbEllipse
 62
7
  6
CONTINUOUS
 10
114.8830198521
 20
109.2214821516
 30
0.0
 11
-0.2500122581
 21
0.4330056244
 31
0.0
 40
0.5801478137
 41
0.7877823601
 42
2.353712702
  0
ELLIPSE
  5
3FA
100
AcDbEntity
  8
ASSI
100
AcDbEllipse
 62
7
  6
CONTINUOUS
 10
114.8830198521
 20
109.2214821516
 30
0.0
 11
-0.2500122581
 21
0.4330056244
 31
0.0
 40
0.5801478137
 41
0.7877823601
 42
2.353712702
  0
ENDSEC
  0
SECTION
  2
OBJECTS
  0
DICTIONARY
  5
C
100
AcDbDictionary
280
0
281
1
  3
ACAD_GROUP
350
D
  3
ACAD_MLINESTYLE
350
17
  3
ACAD_LAYOUT
350
1A
  3
ACAD_PLOTSETTINGS
350
19
  3
ACAD_PLOTSTYLENAME
350
E
  0
DICTIONARY
  5
D
102
{ACAD_REACTORS
330
C
102
}
100
AcDbDictionary
280
0
281
1
  0
ACDBDICTIONARYWDFLT
  5
E
102
{ACAD_REACTORS
330
C
102
}
100
AcDbDictionary
281
1
  3
Normal
350
F
100
AcDbDictionaryWithDefault
340
F
  0
DICTIONARY
  5
17
102
{ACAD_REACTORS
330
C
102
}
100
AcDbDictionary
280
0
281
1
  3
Standard
350
18
  0
DICTIONARY
  5
19
102
{ACAD_REACTORS
330
C
102
}
100
AcDbDictionary
281
1
  0
DICTIONARY
  5
1A
102
{ACAD_REACTORS
330
C
102
}
100
AcDbDictionary
281
1
  3
Model
350
3FB
  3
Layout1
350
3FC
  0
ACDBPLACEHOLDER
  5
F
102
{ACAD_REACTORS
330
E
102
}
  0
MLINESTYLE
  5
18
102
{ACAD_REACTORS
330
17
102
}
100
AcDbMlineStyle
  2
STANDARD
 70
0
  3

 62
256
 51
90.0
 52
90.0
 71
2
 49
0.5
 62
256
  6
BYLAYER
 49
-0.5
 62
256
  6
BYLAYER
  0
LAYOUT
  5
3FB
102
{ACAD_REACTORS
330
1A
102
}
100
AcDbPlotSettings
  1

  2
none_device
  4
ISO_A4_(297.00_x_210.00_MM)
  6

 40
0.0
 41
0.0
 42
0.0
 43
0.0
 44
297.0
 45
210.0
 46
0.0
 47
0.0
 48
0.0
 49
0.0
140
0.0
141
0.0
142
1.0
143
1.0
 70
1024
 72
1
 73
0
 74
0
  7

 75
0
147
1.0
148
0.0
149
0.0
100
AcDbLayout
  1
Model
 70
0
 71
0
 10
0.0
 20
0.0
 11
297.0
 21
210.0
 12
0.0
 22
0.0
 32
0.0
 14
0.0
 24
0.0
 34
0.0
 15
0.0
 25
0.0
 35
0.0
146
0.0
 13
0.0
 23
0.0
 33
0.0
 16
1.0
 26
0.0
 36
0.0
 17
0.0
 27
1.0
 37
0.0
 76
0
330
21B
345
0
346
0
  0
LAYOUT
  5
3FC
102
{ACAD_REACTORS
330
1A
102
}
100
AcDbPlotSettings
  1

  2
none_device
  4
ISO_A4_(297.00_x_210.00_MM)
  6

 40
0.0
 41
0.0
 42
0.0
 43
0.0
 44
297.0
 45
210.0
 46
0.0
 47
0.0
 48
0.0
 49
0.0
140
0.0
141
0.0
142
1.0
143
1.0
 70
0
 72
1
 73
0
 74
0
  7

 75
0
147
1.0
148
0.0
149
0.0
100
AcDbLayout
  1
Layout1
 70
0
 71
1
 10
0.0
 20
0.0
 11
297.0
 21
210.0
 12
0.0
 22
0.0
 32
0.0
 14
0.0
 24
0.0
 34
0.0
 15
0.0
 25
0.0
 35
0.0
146
0.0
 13
0.0
 23
0.0
 33
0.0
 16
1.0
 26
0.0
 36
0.0
 17
0.0
 27
1.0
 37
0.0
 76
0
330
21C
345
0
346
0
  0
ENDSEC
  0
EOF
